  0
SECTION
  2
HEADER
  9
$ACADVER
  1
AC1009
  9
$DWGCODEPAGE
  3
ansi_932
  9
$INSBASE
 10
0.0
 20
0.0
 30
0.0
  9
$EXTMIN
 10
-267.3184299621792
 20
-1055.246864411909
 30
0.0
  9
$EXTMAX
 10
511.9878908371647
 20
-853.1654493984967
 30
0.0
  9
$LIMMIN
 10
0.0
 20
0.0
  9
$LIMMAX
 10
420.0
 20
297.0
  9
$ORTHOMODE
 70
     0
  9
$REGENMODE
 70
     1
  9
$FILLMODE
 70
     1
  9
$QTEXTMODE
 70
     0
  9
$MIRRTEXT
 70
     0
  9
$DRAGMODE
 70
     2
  9
$LTSCALE
 40
0.5
  9
$OSMODE
 70
 14591
  9
$ATTMODE
 70
     1
  9
$TEXTSIZE
 40
4.0
  9
$TRACEWID
 40
1.0
  9
$TEXTSTYLE
  7
STANDARD
  9
$CLAYER
  8
1TEXT
  9
$CELTYPE
  6
BYLAYER
  9
$CECOLOR
 62
   256
  9
$DIMSCALE
 40
1.0
  9
$DIMASZ
 40
2.0
  9
$DIMEXO
 40
0.0
  9
$DIMDLI
 40
7.0
  9
$DIMRND
 40
0.0
  9
$DIMDLE
 40
0.0
  9
$DIMEXE
 40
1.0
  9
$DIMTP
 40
0.0
  9
$DIMTM
 40
0.0
  9
$DIMTXT
 40
3.5
  9
$DIMCEN
 40
0.0
  9
$DIMTSZ
 40
0.0
  9
$DIMTOL
 70
     0
  9
$DIMLIM
 70
     0
  9
$DIMTIH
 70
     0
  9
$DIMTOH
 70
     0
  9
$DIMSE1
 70
     0
  9
$DIMSE2
 70
     0
  9
$DIMTAD
 70
     1
  9
$DIMZIN
 70
     8
  9
$DIMBLK
  1

  9
$DIMASO
 70
     1
  9
$DIMSHO
 70
     1
  9
$DIMPOST
  1
 
  9
$DIMAPOST
  1

  9
$DIMALT
 70
     0
  9
$DIMALTD
 70
     2
  9
$DIMALTF
 40
25.4
  9
$DIMLFAC
 40
1.0
  9
$DIMTOFL
 70
     1
  9
$DIMTVP
 40
0.0
  9
$DIMTIX
 70
     0
  9
$DIMSOXD
 70
     0
  9
$DIMSAH
 70
     1
  9
$DIMBLK1
  1
OPEN30
  9
$DIMBLK2
  1
OPEN30
  9
$DIMSTYLE
  2
NEWX10
  9
$DIMCLRD
 70
   256
  9
$DIMCLRE
 70
   256
  9
$DIMCLRT
 70
   201
  9
$DIMTFAC
 40
0.7
  9
$DIMGAP
 40
0.7
  9
$LUNITS
 70
     2
  9
$LUPREC
 70
     4
  9
$SKETCHINC
 40
1.0
  9
$FILLETRAD
 40
0.0
  9
$AUNITS
 70
     0
  9
$AUPREC
 70
     2
  9
$MENU
  1
acad
  9
$ELEVATION
 40
0.0
  9
$PELEVATION
 40
0.0
  9
$THICKNESS
 40
0.0
  9
$LIMCHECK
 70
     0
  9
$CHAMFERA
 40
1.0
  9
$CHAMFERB
 40
1.0
  9
$SKPOLY
 70
     0
  9
$TDCREATE
 40
2453033.732663484
  9
$TDUPDATE
 40
2459825.429338229
  9
$TDINDWG
 40
2.3811501389
  9
$TDUSRTIMER
 40
2.3811501389
  9
$USRTIMER
 70
     1
  9
$ANGBASE
 50
0.0
  9
$ANGDIR
 70
     0
  9
$PDMODE
 70
     0
  9
$PDSIZE
 40
0.0
  9
$PLINEWID
 40
0.0
  9
$COORDS
 70
     2
  9
$SPLFRAME
 70
     0
  9
$SPLINETYPE
 70
     6
  9
$SPLINESEGS
 70
     8
  9
$ATTDIA
 70
     0
  9
$ATTREQ
 70
     1
  9
$HANDLING
 70
     1
  9
$HANDSEED
  5
22B68
  9
$SURFTAB1
 70
     6
  9
$SURFTAB2
 70
     6
  9
$SURFTYPE
 70
     6
  9
$SURFU
 70
     6
  9
$SURFV
 70
     6
  9
$UCSNAME
  2

  9
$UCSORG
 10
0.0
 20
0.0
 30
0.0
  9
$UCSXDIR
 10
1.0
 20
0.0
 30
0.0
  9
$UCSYDIR
 10
0.0
 20
1.0
 30
0.0
  9
$PUCSNAME
  2

  9
$PUCSORG
 10
0.0
 20
0.0
 30
0.0
  9
$PUCSXDIR
 10
1.0
 20
0.0
 30
0.0
  9
$PUCSYDIR
 10
0.0
 20
1.0
 30
0.0
  9
$USERI1
 70
     0
  9
$USERI2
 70
     0
  9
$USERI3
 70
     0
  9
$USERI4
 70
     0
  9
$USERI5
 70
     0
  9
$USERR1
 40
0.0
  9
$USERR2
 40
0.0
  9
$USERR3
 40
0.0
  9
$USERR4
 40
0.0
  9
$USERR5
 40
0.0
  9
$WORLDVIEW
 70
     1
  9
$SHADEDGE
 70
     3
  9
$SHADEDIF
 70
    70
  9
$TILEMODE
 70
     1
  9
$MAXACTVP
 70
    48
  9
$PLIMCHECK
 70
     0
  9
$PEXTMIN
 10
1.000000000000000E+20
 20
1.000000000000000E+20
 30
1.000000000000000E+20
  9
$PEXTMAX
 10
-1.000000000000000E+20
 20
-1.000000000000000E+20
 30
-1.000000000000000E+20
  9
$PLIMMIN
 10
0.0
 20
0.0
  9
$PLIMMAX
 10
420.0
 20
297.0
  9
$UNITMODE
 70
     0
  9
$VISRETAIN
 70
     1
  9
$PLINEGEN
 70
     0
  9
$PSLTSCALE
 70
     1
  0
ENDSEC
  0
SECTION
  2
TABLES
  0
TABLE
  2
VPORT
 70
     1
  0
VPORT
  2
*ACTIVE
 70
     0
 10
0.0
 20
0.0
 11
1.0
 21
1.0
 12
122.3347304374928
 22
-954.2061569052025
 13
0.0
 23
0.0
 14
10.0
 24
10.0
 15
10.0
 25
10.0
 16
0.0
 26
0.0
 36
1.0
 17
0.0
 27
0.0
 37
0.0
 40
448.2672161345472
 41
1.866585067319461
 42
50.0
 43
0.0
 44
0.0
 50
0.0
 51
0.0
 71
    16
 72
   100
 73
     1
 74
     1
 75
     0
 76
     0
 77
     0
 78
     0
  0
ENDTAB
  0
TABLE
  2
LTYPE
 70
    18
  0
LTYPE
  2
CONTINUOUS
 70
     0
  3
Solid line
 72
    65
 73
     0
 40
0.0
  0
LTYPE
  2
CENTER2
 70
     0
  3
Center (.5x) ___ _ ___ _ ___ _ ___ _ ___ _ ___
 72
    65
 73
     4
 40
28.575
 49
19.05
 49
-3.175
 49
3.175
 49
-3.175
  0
LTYPE
  2
PHANTOM2
 70
     0
  3
Phantom (0.5x) ___ _ _ ___ _ _ ___ _ _ ___ _ _
 72
    65
 73
     6
 40
31.75
 49
15.875
 49
-3.175
 49
3.175
 49
-3.175
 49
3.175
 49
-3.175
  0
ENDTAB
  0
TABLE
  2
LAYER
 70
    44
  0
LAYER
  2
0
 70
     0
 62
     7
  6
CONTINUOUS
  0
LAYER
  2
1CENTER
 70
     0
 62
     7
  6
CENTER2
  0
LAYER
  2
1TEXT
 70
     0
 62
     7
  6
CONTINUOUS
  0
LAYER
  2
1DIM
 70
     0
 62
     7
  6
CONTINUOUS
  0
LAYER
  2
1PHANTOM
 70
     0
 62
     7
  6
PHANTOM2
  0
LAYER
  2
01
 70
     0
 62
     1
  6
CONTINUOUS
  0
LAYER
  2
1DIM1
 70
     0
 62
     7
  6
CONTINUOUS
  0
LAYER
  2
1HATCH
 70
     0
 62
     7
  6
CONTINUOUS
  0
ENDTAB
  0
TABLE
  2
STYLE
 70
    24
  0
STYLE
  2
STANDARD
 70
     0
 40
0.0
 41
1.0
 50
0.0
 71
     0
 42
4.0
  3
txt.shx
  4
extfont.shx
  0
ENDTAB
  0
TABLE
  2
VIEW
 70
     0
  0
ENDTAB
  0
TABLE
  2
UCS
 70
     0
  0
ENDTAB
  0
TABLE
  2
APPID
 70
    16
  0
APPID
  2
ACAD
 70
     0
  0
APPID
  2
DRAWINGVARIABLESXDATA
 70
     0
  0
APPID
  2
CONTENTTABDATA
 70
     0
  0
APPID
  2
CONTENTCURRENTTAB
 70
     0
  0
APPID
  2
CONTENTBLOCKDESCRIPTION
 70
     0
  0
APPID
  2
CONTENTBLOCKICON
 70
     0
  0
APPID
  2
CONTENTLONGBLOCKNAME
 70
     0
  0
APPID
  2
ACAD_PSEXT
 70
     0
  0
APPID
  2
ACAD_DSTYLE_DIMTEXT_FILL
 70
     0
  0
APPID
  2
ACAD_MLEADERVER
 70
     0
  0
APPID
  2
ACAD_DSTYLE_DIMRADIAL_EXTE
 70
     0
  0
APPID
  2
ACADANNOTATIVE
 70
     0
  0
APPID
  2
ACAD_EXEMPT_FROM_CAD_STAND
 70
     0
  0
APPID
  2
ACDBBLOCKREPETAG
 70
     0
  0
APPID
  2
ACAD_OBJECT_CHANGE_GUID
 70
     0
  0
APPID
  2
ACAD_NAV_VCDISPLAY
 70
     0
  0
ENDTAB
  0
TABLE
  2
DIMSTYLE
 70
    10
  0
DIMSTYLE
  2
NEWX10
 70
     0
  3
 
  4

  5

  6
OPEN30
  7
OPEN30
 40
1.0
 41
2.0
 42
0.0
 43
7.0
 44
1.0
 45
0.0
 46
0.0
 47
0.0
 48
0.0
140
3.5
141
0.0
142
0.0
143
25.4
144
1.0
145
0.0
146
0.7
147
0.7
 71
     0
 72
     0
 73
     0
 74
     0
 75
     0
 76
     0
 77
     1
 78
     8
170
     0
171
     2
172
     1
173
     1
174
     0
175
     0
176
   256
177
   256
178
   201
  0
ENDTAB
  0
ENDSEC
  0
SECTION
  2
BLOCKS
  0
BLOCK
  8
0
  2
$MODEL_SPACE
 70
     0
 10
0.0
 20
0.0
 30
0.0
  3
$MODEL_SPACE
  1

  0
ENDBLK
  5
1A
  8
0
  0
BLOCK
 67
     1
  8
0
  2
$PAPER_SPACE
 70
     0
 10
0.0
 20
0.0
 30
0.0
  3
$PAPER_SPACE
  1

  0
ENDBLK
  5
17
 67
     1
  8
0
  0
BLOCK
  8
0
  2
_OPEN30
 70
     0
 10
0.0
 20
0.0
 30
0.0
  3
_OPEN30
  1

  0
LINE
  5
44
  8
0
  6
BYBLOCK
 62
     0
 10
-1.0
 20
0.26794919
 30
0.0
 11
0.0
 21
0.0
 31
0.0
  0
LINE
  5
45
  8
0
  6
BYBLOCK
 62
     0
 10
0.0
 20
0.0
 30
0.0
 11
-1.0
 21
-0.26794919
 31
0.0
  0
LINE
  5
46
  8
0
  6
BYBLOCK
 62
     0
 10
0.0
 20
0.0
 30
0.0
 11
-1.0
 21
0.0
 31
0.0
  0
ENDBLK
  5
47
  8
0
  0
BLOCK
  8
0
  2
A3WAKUKAWAJUN2017_HYOUDAI_
 70
     0
 10
0.0
 20
0.0
 30
0.0
  3
A3WAKUKAWAJUN2017_HYOUDAI_
  1

  0
LINE
  5
20318
  8
0
 10
13.26299999998673
 20
-0.0001000000000317
 30
0.0
 11
9.236999999990758
 21
8.999899999990987
 31
0.0
1001
ACAD
1000
ASC_BOUNDS
1002
{
1070
    19
1005
20359
1002
}
  0
LINE
  5
20319
  8
0
 10
5.657999999994331
 20
0.9999999999989768
 30
0.0
 11
9.236999999990758
 21
8.999999999991019
 31
0.0
1001
ACAD
1000
ASC_BOUNDS
1002
{
1070
    19
1005
20359
1002
}
  0
LINE
  5
2031A
  8
0
 10
18.59199999998134
 20
-0.2368999999997641
 30
0.0
 11
16.46099999998353
 21
5.432899999994561
 31
0.0
1001
ACAD
1000
ASC_BOUNDS
1002
{
1070
    19
1005
2035A
1002
}
  0
LINE
  5
2031B
  8
0
 10
18.59199999998134
 20
-0.2368999999997641
 30
0.0
 11
22.38199999997767
 21
8.763099999991255
 31
0.0
1001
ACAD
1000
ASC_BOUNDS
1002
{
1070
    19
1005
2035A
1002
}
  0
LINE
  5
2031C
  8
0
 10
14.32899999998563
 20
-0.2368999999997641
 30
0.0
 11
16.46099999998353
 21
5.432899999994561
 31
0.0
1001
ACAD
1000
ASC_BOUNDS
1002
{
1070
    19
1005
2035A
1002
}
  0
LINE
  5
2031D
  8
0
 10
14.32899999998563
 20
-0.2368999999997641
 30
0.0
 11
10.53899999998941
 21
8.763099999991255
 31
0.0
1001
ACAD
1000
ASC_BOUNDS
1002
{
1070
    19
1005
2035A
1002
}
  0
LINE
  5
2031E
  8
0
 10
19.53899999998043
 20
-0.0001000000000317
 30
0.0
 11
23.56599999997638
 21
8.999899999990987
 31
0.0
1001
ACAD
1000
ASC_BOUNDS
1002
{
1070
    19
1005
2035B
1002
}
  0
LINE
  5
2031F
  8
0
 10
26.97358892824991
 20
1.383099999991202
 30
0.0
 11
23.56599999997638
 21
8.999899999990987
 31
0.0
1001
ACAD
1000
ASC_BOUNDS
1002
{
1070
    19
1005
2035B
1002
}
  0
LINE
  5
20320
  8
0
 10
5.657999999994331
 20
0.9999999999989768
 30
0.0
 11
3.181999999996833
 21
4.668599999995308
 31
0.0
1001
ACAD
1000
ASC_BOUNDS
1002
{
1070
    19
1005
20359
1002
}
  0
LINE
  5
20321
  8
0
 10
4.617999999995391
 20
-0.0001000000000317
 30
0.0
 11
1.420999999998571
 21
4.736799999995242
 31
0.0
1001
ACAD
1000
ASC_BOUNDS
1002
{
1070
    19
1005
20359
1002
}
  0
LINE
  5
20322
  8
0
 10
1.420999999998571
 20
8.763099999991255
 30
0.0
 11
1.420999999998571
 21
0.0
 31
0.0
1001
ACAD
1000
ASC_BOUNDS
1002
{
1070
    19
1005
2035E
1002
}
  0
LINE
  5
20323
  8
0
 10
0.0
 20
8.763099999991255
 30
0.0
 11
0.0
 21
0.0
 31
0.0
1001
ACAD
1000
ASC_BOUNDS
1002
{
1070
    19
1005
2035E
1002
}
  0
LINE
  5
20324
  8
0
 10
6.766999999993232
 20
-0.0001000000000317
 30
0.0
 11
7.826999999992154
 21
2.368399999997621
 31
0.0
1001
ACAD
1000
ASC_BOUNDS
1002
{
1070
    19
1005
20359
1002
}
  0
LINE
  5
20325
  8
0
 10
0.0
 20
0.0
 30
0.0
 11
1.420999999998571
 21
0.0
 31
0.0
1001
ACAD
1000
ASC_BOUNDS
1002
{
1070
    19
1005
2035E
1002
}
  0
LINE
  5
20326
  8
0
 10
4.617999999995391
 20
0.0
 30
0.0
 11
6.766999999993232
 21
0.0
 31
0.0
1001
ACAD
1000
ASC_BOUNDS
1002
{
1070
    19
1005
20359
1002
}
  0
LINE
  5
20327
  8
0
 10
11.70599999998831
 20
-0.0001000000000317
 30
0.0
 11
10.64699999998936
 21
2.368399999997621
 31
0.0
1001
ACAD
1000
ASC_BOUNDS
1002
{
1070
    19
1005
20359
1002
}
  0
LINE
  5
20328
  8
0
 10
7.826999999992154
 20
2.368399999997621
 30
0.0
 11
10.64699999998936
 21
2.368399999997621
 31
0.0
1001
ACAD
1000
ASC_BOUNDS
1002
{
1070
    19
1005
20359
1002
}
  0
LINE
  5
20329
  8
0
 10
11.70599999998831
 20
0.0
 30
0.0
 11
13.26299999998673
 21
0.0
 31
0.0
1001
ACAD
1000
ASC_BOUNDS
1002
{
1070
    19
1005
20359
1002
}
  0
LINE
  5
2032A
  8
0
 10
22.15599999997789
 20
2.368399999997621
 30
0.0
 11
24.97599999997499
 21
2.368399999997621
 31
0.0
1001
ACAD
1000
ASC_BOUNDS
1002
{
1070
    19
1005
2035B
1002
}
  0
LINE
  5
2032B
  8
0
 10
19.53899999998043
 20
0.0
 30
0.0
 11
21.09599999997886
 21
0.0
 31
0.0
1001
ACAD
1000
ASC_BOUNDS
1002
{
1070
    19
1005
2035B
1002
}
  0
LINE
  5
2032C
  8
0
 10
21.09599999997886
 20
-0.0001000000000317
 30
0.0
 11
22.15599999997789
 21
2.368399999997621
 31
0.0
1001
ACAD
1000
ASC_BOUNDS
1002
{
1070
    19
1005
2035B
1002
}
  0
LINE
  5
2032D
  8
0
 10
26.02015566812236
 20
0.0330999999912365
 30
0.0
 11
24.97599999997499
 21
2.368399999997621
 31
0.0
1001
ACAD
1000
ASC_BOUNDS
1002
{
1070
    19
1005
2035B
1002
}
  0
LINE
  5
2032E
  8
0
 10
14.32399999998563
 20
3.315799999996671
 30
0.0
 11
16.46099999998353
 21
8.999899999990987
 31
0.0
1001
ACAD
1000
ASC_BOUNDS
1002
{
1070
    19
1005
2035A
1002
}
  0
LINE
  5
2032F
  8
0
 10
6.432999999993513
 20
8.763099999991255
 30
0.0
 11
3.181999999996833
 21
4.668599999995308
 31
0.0
1001
ACAD
1000
ASC_BOUNDS
1002
{
1070
    19
1005
20359
1002
}
  0
LINE
  5
20330
  8
0
 10
4.617999999995391
 20
8.763099999991255
 30
0.0
 11
1.420999999998571
 21
4.736799999995242
 31
0.0
1001
ACAD
1000
ASC_BOUNDS
1002
{
1070
    19
1005
20359
1002
}
  0
LINE
  5
20331
  8
0
 10
0.0
 20
8.763099999991255
 30
0.0
 11
1.420999999998571
 21
8.763099999991255
 31
0.0
1001
ACAD
1000
ASC_BOUNDS
1002
{
1070
    19
1005
2035E
1002
}
  0
LINE
  5
20332
  8
0
 10
4.617999999995391
 20
8.763099999991255
 30
0.0
 11
6.432999999993513
 21
8.763099999991255
 31
0.0
1001
ACAD
1000
ASC_BOUNDS
1002
{
1070
    19
1005
20359
1002
}
  0
LINE
  5
20333
  8
0
 10
14.32399999998563
 20
3.315799999996671
 30
0.0
 11
12.02999999998792
 21
8.763099999991255
 31
0.0
1001
ACAD
1000
ASC_BOUNDS
1002
{
1070
    19
1005
2035A
1002
}
  0
LINE
  5
20334
  8
0
 10
10.06399999998996
 20
3.670999999996297
 30
0.0
 11
9.236999999990758
 21
5.5200999999945
 31
0.0
1001
ACAD
1000
ASC_BOUNDS
1002
{
1070
    19
1005
20359
1002
}
  0
LINE
  5
20335
  8
0
 10
8.409999999991555
 20
3.670999999996297
 30
0.0
 11
9.236999999990758
 21
5.5200999999945
 31
0.0
1001
ACAD
1000
ASC_BOUNDS
1002
{
1070
    19
1005
20359
1002
}
  0
LINE
  5
20336
  8
0
 10
8.409999999991555
 20
3.670999999996297
 30
0.0
 11
10.06399999998996
 21
3.670999999996297
 31
0.0
1001
ACAD
1000
ASC_BOUNDS
1002
{
1070
    19
1005
20359
1002
}
  0
LINE
  5
20337
  8
0
 10
10.53899999998941
 20
8.763099999991255
 30
0.0
 11
12.02999999998792
 21
8.763099999991255
 31
0.0
1001
ACAD
1000
ASC_BOUNDS
1002
{
1070
    19
1005
2035A
1002
}
  0
LINE
  5
20338
  8
0
 10
22.7389999999773
 20
3.670999999996297
 30
0.0
 11
23.56599999997638
 21
5.5200999999945
 31
0.0
1001
ACAD
1000
ASC_BOUNDS
1002
{
1070
    19
1005
2035B
1002
}
  0
LINE
  5
20339
  8
0
 10
22.7389999999773
 20
3.670999999996297
 30
0.0
 11
24.39299999997559
 21
3.670999999996297
 31
0.0
1001
ACAD
1000
ASC_BOUNDS
1002
{
1070
    19
1005
2035B
1002
}
  0
LINE
  5
2033A
  8
0
 10
18.59799999998143
 20
3.315799999996671
 30
0.0
 11
20.89099999997916
 21
8.763099999991255
 31
0.0
1001
ACAD
1000
ASC_BOUNDS
1002
{
1070
    19
1005
2035A
1002
}
  0
LINE
  5
2033B
  8
0
 10
18.59799999998143
 20
3.315799999996671
 30
0.0
 11
16.46099999998353
 21
8.999899999990987
 31
0.0
1001
ACAD
1000
ASC_BOUNDS
1002
{
1070
    19
1005
2035A
1002
}
  0
LINE
  5
2033C
  8
0
 10
20.89099999997916
 20
8.763099999991255
 30
0.0
 11
22.38199999997767
 21
8.763099999991255
 31
0.0
1001
ACAD
1000
ASC_BOUNDS
1002
{
1070
    19
1005
2035A
1002
}
  0
LINE
  5
2033D
  8
0
 10
24.39299999997559
 20
3.670999999996297
 30
0.0
 11
23.56599999997638
 21
5.5200999999945
 31
0.0
1001
ACAD
1000
ASC_BOUNDS
1002
{
1070
    19
1005
2035B
1002
}
  0
LINE
  5
2033E
  8
0
 10
44.99999999995498
 20
-0.2368999999997641
 30
0.0
 11
40.02599999995994
 21
5.341799999994635
 31
0.0
1001
ACAD
1000
ASC_BOUNDS
1002
{
1070
    19
1005
2035D
1002
}
  0
LINE
  5
2033F
  8
0
 10
40.02599999995994
 20
5.341799999994635
 30
0.0
 11
40.02599999995994
 21
0.0
 31
0.0
1001
ACAD
1000
ASC_BOUNDS
1002
{
1070
    19
1005
2035D
1002
}
  0
LINE
  5
20340
  8
0
 10
38.60499999996136
 20
8.999999999991019
 30
0.0
 11
38.60499999996136
 21
0.0
 31
0.0
1001
ACAD
1000
ASC_BOUNDS
1002
{
1070
    19
1005
2035D
1002
}
  0
LINE
  5
20341
  8
0
 10
44.99999999995498
 20
8.763099999991255
 30
0.0
 11
44.99999999995498
 21
-0.2368999999997641
 31
0.0
1001
ACAD
1000
ASC_BOUNDS
1002
{
1070
    19
1005
2035D
1002
}
  0
LINE
  5
20342
  8
0
 10
38.60499999996136
 20
0.0
 30
0.0
 11
40.02599999995994
 21
0.0
 31
0.0
1001
ACAD
1000
ASC_BOUNDS
1002
{
1070
    19
1005
2035D
1002
}
  0
LINE
  5
20343
  8
0
 10
43.57899999995641
 20
3.421199999996588
 30
0.0
 11
38.60499999996136
 21
8.999899999990987
 31
0.0
1001
ACAD
1000
ASC_BOUNDS
1002
{
1070
    19
1005
2035D
1002
}
  0
LINE
  5
20344
  8
0
 10
43.57899999995641
 20
8.763099999991255
 30
0.0
 11
43.57899999995641
 21
3.421199999996588
 31
0.0
1001
ACAD
1000
ASC_BOUNDS
1002
{
1070
    19
1005
2035D
1002
}
  0
LINE
  5
20345
  8
0
 10
43.57899999995641
 20
8.763099999991255
 30
0.0
 11
44.99999999995498
 21
8.763099999991255
 31
0.0
1001
ACAD
1000
ASC_BOUNDS
1002
{
1070
    19
1005
2035D
1002
}
  0
LINE
  5
20346
  8
0
 10
37.67199999996831
 20
8.763099999991255
 30
0.0
 11
36.23199999996837
 21
8.763099999991255
 31
0.0
  0
LINE
  5
20347
  8
0
 10
31.64199999996833
 20
8.763099999991255
 30
0.0
 11
31.64199999996833
 21
2.481619422925121
 31
0.0
  0
LINE
  5
20348
  8
0
 10
37.67199999996831
 20
8.763099999991255
 30
0.0
 11
37.67199999996831
 21
2.481619422925121
 31
0.0
  0
LINE
  5
20349
  8
0
 10
36.23199999996837
 20
8.763099999991255
 30
0.0
 11
36.23199999996837
 21
2.481619422925064
 31
0.0
  0
LINE
  5
2034A
  8
0
 10
33.08199999996839
 20
8.763099999991255
 30
0.0
 11
33.08199999996839
 21
2.481619422925121
 31
0.0
  0
ARC
  5
2034B
  8
0
 10
34.65699999996832
 20
3.183099999991214
 30
0.0
 40
3.420000000000007
 50
240.0000000000255
 51
299.9999999999766
  0
ARC
  5
2034C
  8
0
 10
34.65699999996832
 20
3.183099999991214
 30
0.0
 40
1.97999999999999
 50
240.000000000026
 51
299.9999999999703
  0
LINE
  5
2034D
  8
0
 10
33.08199999996828
 20
8.763099999991255
 30
0.0
 11
31.64199999996833
 21
8.763099999991255
 31
0.0
  0
ARC
  5
2034E
  8
0
 10
35.06199999996829
 20
2.481619422925064
 30
0.0
 40
1.17
 50
299.9999999999699
 51
0.0
  0
ARC
  5
2034F
  8
0
 10
34.25199999996835
 20
2.481619422925121
 30
0.0
 40
1.17
 50
180.0
 51
240.0000000000238
  0
ARC
  5
20350
  8
0
 10
35.06199999996841
 20
2.481619422925121
 30
0.0
 40
2.61
 50
299.9999999999756
 51
0.0
  0
ARC
  5
20351
  8
0
 10
34.25199999996835
 20
2.481619422925121
 30
0.0
 40
2.61
 50
180.0
 51
240.0000000000244
  0
LINE
  5
20352
  8
0
 10
29.30199999996933
 20
8.763099999991255
 30
0.0
 11
30.74199999996927
 21
8.763099999991255
 31
0.0
1001
ACAD
1000
ASC_BOUNDS
1002
{
1070
    19
1005
2035B
1002
}
  0
LINE
  5
20353
  8
0
 10
30.74199999996927
 20
8.763099999991255
 30
0.0
 11
30.74199999996927
 21
2.373099999991211
 31
0.0
1001
ACAD
1000
ASC_BOUNDS
1002
{
1070
    19
1005
2035B
1002
}
  0
LINE
  5
20354
  8
0
 10
26.02015566812236
 20
0.0330999999912365
 30
0.0
 11
28.40199999996923
 21
0.0330999999912365
 31
0.0
1001
ACAD
1000
ASC_BOUNDS
1002
{
1070
    19
1005
2035B
1002
}
  0
LINE
  5
20355
  8
0
 10
29.30199999996933
 20
8.763099999991255
 30
0.0
 11
29.30199999996933
 21
2.283099999991236
 31
0.0
1001
ACAD
1000
ASC_BOUNDS
1002
{
1070
    19
1005
2035B
1002
}
  0
LINE
  5
20356
  8
0
 10
26.97358892824991
 20
1.383099999991202
 30
0.0
 11
28.40199999996923
 21
1.383099999991202
 31
0.0
1001
ACAD
1000
ASC_BOUNDS
1002
{
1070
    19
1005
2035B
1002
}
  0
ARC
  5
20357
  8
0
 10
28.40199999996923
 20
2.283099999991236
 30
0.0
 40
0.9
 50
270.0
 51
0.0
1001
ACAD
1000
ASC_BOUNDS
1002
{
1070
    19
1005
2035B
1002
}
  0
ARC
  5
20358
  8
0
 10
28.40199999996923
 20
2.373099999991211
 30
0.0
 40
2.34
 50
270.0
 51
0.0
1001
ACAD
1000
ASC_BOUNDS
1002
{
1070
    19
1005
2035B
1002
}
  0
INSERT
  5
20359
  8
0
  2
*X164
 10
0.0
 20
0.0
 30
0.0
1001
ACAD
1000
HATCH
1002
{
1070
    19
1000
ANSI37
1040
0.15
1040
0.0
1000
ASC_BOUNDS
1070
     2
1070
     2
1070
    12
1005
20318
1005
20319
1005
20320
1005
2032F
1005
20332
1005
20330
1005
20321
1005
20326
1005
20324
1005
20328
1005
20327
1005
20329
1070
     2
1070
     3
1005
20334
1005
20336
1005
20335
1000
ASC_SEEDPOINT
1011
3.614004224891801
1021
2.996669441146025
1031
0.0
1021
2.996669441146025
1031
0.0
1000
R14_HATCH_DATA
1000
20359
1011
1.0
1021
0.0
1031
0.0
1021
0.0
1031
0.0
1011
0.0
1021
1.0
1031
0.0
1021
1.0
1031
0.0
1011
0.0
1021
0.0
1031
1.0
1021
0.0
1031
1.0
1040
0.0
1010
0.0
1020
0.0
1030
1.0
1000
ANSI37
1070
     0
1070
     1
1071
        2
1071
        7
1070
     0
1070
     1
1071
       17
1040
13.26299999998673
1040
-0.0001000000000317
1040
9.236999999990758
1040
8.999899999990987
1040
9.236999999990758
1040
8.999999999991019
1040
5.657999999994331
1040
0.9999999999989768
1040
3.181999999996833
1040
4.668599999995308
1040
6.432999999993513
1040
8.763099999991255
1040
4.617999999995391
1040
8.763099999991255
1040
1.420999999998571
1040
4.736799999995242
1040
4.617999999995391
1040
-0.0001000000000317
1040
4.617999999995391
1040
0.0
1040
6.766999999993232
1040
0.0
1040
6.766999999993232
1040
-0.0001000000000317
1040
7.826999999992154
1040
2.368399999997621
1040
10.64699999998936
1040
2.368399999997621
1040
11.70599999998831
1040
-0.0001000000000317
1040
11.70599999998831
1040
0.0
1040
13.26299999998673
1040
0.0
1071
       12
1005
20318
1005
20319
1005
20320
1005
2032F
1005
20332
1005
20330
1005
20321
1005
20326
1005
20324
1005
20328
1005
20327
1005
20329
1071
       22
1070
     0
1070
     1
1071
        3
1040
9.236999999990758
1040
5.5200999999945
1040
10.06399999998996
1040
3.670999999996297
1040
8.409999999991555
1040
3.670999999996297
1071
        3
1005
20334
1005
20336
1005
20335
1070
     0
1070
     1
1040
0.0
1040
0.15
1070
     0
1070
     2
1040
0.7853981633974483
1040
49.29960901727088
1040
-10.17736998311392
1040
-0.3367596045400932
1040
0.3367596045400932
1070
     0
1040
2.356194490192345
1040
49.29960901727088
1040
-10.17736998311392
1040
-0.3367596045400932
1040
-0.3367596045400932
1070
     0
1040
0.0110235143455945
1071
        2
1040
3.614004224891801
1040
2.996669441146025
1040
0.0
1040
3.614004224891801
1040
2.996669441146025
1040
0.0
1002
}
  0
INSERT
  5
2035A
  8
0
  2
*X165
 10
0.0
 20
0.0
 30
0.0
1001
ACAD
1000
HATCH
1002
{
1070
    19
1000
ANSI37
1040
0.15
1040
0.0
1000
ASC_BOUNDS
1070
     1
1070
     2
1070
    10
1005
2031A
1005
2031B
1005
2033C
1005
2033A
1005
2033B
1005
2032E
1005
20333
1005
20337
1005
2031D
1005
2031C
1000
ASC_SEEDPOINT
1011
14.73245321214324
1021
2.798246178283421
1031
0.0
1021
2.798246178283421
1031
0.0
1000
R14_HATCH_DATA
1000
2035A
1011
1.0
1021
0.0
1031
0.0
1021
0.0
1031
0.0
1011
0.0
1021
1.0
1031
0.0
1021
1.0
1031
0.0
1011
0.0
1021
0.0
1031
1.0
1021
0.0
1031
1.0
1040
0.0
1010
0.0
1020
0.0
1030
1.0
1000
ANSI37
1070
     0
1070
     1
1071
        1
1071
        7
1070
     0
1070
     1
1071
       10
1040
16.46099999998353
1040
5.432899999994561
1040
18.59199999998134
1040
-0.2368999999997641
1040
22.38199999997767
1040
8.763099999991255
1040
20.89099999997916
1040
8.763099999991255
1040
18.59799999998143
1040
3.315799999996671
1040
16.46099999998353
1040
8.999899999990987
1040
14.32399999998563
1040
3.315799999996671
1040
12.02999999998792
1040
8.763099999991255
1040
10.53899999998941
1040
8.763099999991255
1040
14.32899999998563
1040
-0.2368999999997641
1071
       10
1005
2031A
1005
2031B
1005
2033C
1005
2033A
1005
2033B
1005
2032E
1005
20333
1005
20337
1005
2031D
1005
2031C
1070
     0
1070
     1
1040
0.0
1040
0.15
1070
     0
1070
     2
1040
0.7853981633974483
1040
49.29960901727088
1040
-10.17736998311392
1040
-0.3367596045400932
1040
0.3367596045400932
1070
     0
1040
2.356194490192345
1040
49.29960901727088
1040
-10.17736998311392
1040
-0.3367596045400932
1040
-0.3367596045400932
1070
     0
1040
0.0110235143455945
1071
        1
1040
14.73245321214324
1040
2.798246178283421
1040
0.0
1002
}
  0
INSERT
  5
2035B
  8
0
  2
*X166
 10
0.0
 20
0.0
 30
0.0
1001
ACAD
1000
HATCH
1002
{
1070
    19
1000
ANSI37
1040
0.15
1040
0.0
1000
ASC_BOUNDS
1070
     2
1070
     2
1070
    13
1005
2031E
1005
2032B
1005
2032C
1005
2032A
1005
2032D
1005
20354
1005
20358
1005
20353
1005
20352
1005
20355
1005
20357
1005
20356
1005
2031F
1070
     2
1070
     3
1005
20338
1005
2033D
1005
20339
1000
ASC_SEEDPOINT
1011
21.97929957367762
1021
3.294304244259308
1031
0.0
1021
3.294304244259308
1031
0.0
1000
R14_HATCH_DATA
1000
2035B
1011
1.0
1021
0.0
1031
0.0
1021
0.0
1031
0.0
1011
0.0
1021
1.0
1031
0.0
1021
1.0
1031
0.0
1011
0.0
1021
0.0
1031
1.0
1021
0.0
1031
1.0
1040
0.0
1010
0.0
1020
0.0
1030
1.0
1000
ANSI37
1070
     0
1070
     1
1071
        2
1071
        7
1070
     1
1070
     1
1071
       15
1040
23.56599999997638
1040
8.999899999990987
1040
0.0
1040
19.53899999998043
1040
-0.0001000000000317
1040
0.0
1040
19.53899999998043
1040
0.0
1040
0.0
1040
21.09599999997886
1040
0.0
1040
0.0
1040
21.09599999997886
1040
-0.0001000000000317
1040
0.0
1040
22.15599999997789
1040
2.368399999997621
1040
0.0
1040
24.97599999997499
1040
2.368399999997621
1040
0.0
1040
26.02015566812236
1040
0.0330999999912365
1040
0.0
1040
28.40199999996923
1040
0.0330999999912365
1040
0.414213562373095
1040
30.74199999996923
1040
2.373099999991211
1040
0.0
1040
30.74199999996927
1040
8.763099999991255
1040
0.0
1040
29.30199999996933
1040
8.763099999991255
1040
0.0
1040
29.30199999996933
1040
2.283099999991236
1040
-0.414213562373095
1040
28.40199999996923
1040
1.383099999991237
1040
0.0
1040
26.97358892824991
1040
1.383099999991202
1040
0.0
1071
       13
1005
2031E
1005
2032B
1005
2032C
1005
2032A
1005
2032D
1005
20354
1005
20358
1005
20353
1005
20352
1005
20355
1005
20357
1005
20356
1005
2031F
1071
       22
1070
     0
1070
     1
1071
        3
1040
22.7389999999773
1040
3.670999999996297
1040
23.56599999997638
1040
5.5200999999945
1040
24.39299999997559
1040
3.670999999996297
1071
        3
1005
20338
1005
2033D
1005
20339
1070
     0
1070
     1
1040
0.0
1040
0.15
1070
     0
1070
     2
1040
0.7853981633974483
1040
49.29960901727088
1040
-10.17736998311392
1040
-0.3367596045400932
1040
0.3367596045400932
1070
     0
1040
2.356194490192345
1040
49.29960901727088
1040
-10.17736998311392
1040
-0.3367596045400932
1040
-0.3367596045400932
1070
     0
1040
0.0110235143455945
1071
        2
1040
21.97929957367762
1040
3.294304244259308
1040
0.0
1040
21.97929957367762
1040
3.294304244259308
1040
0.0
1002
}
  0
INSERT
  5
2035C
  8
0
  2
*X167
 10
0.0
 20
0.0
 30
0.0
1001
ACAD
1000
HATCH
1002
{
1070
    19
1000
ANSI37
1040
0.15
1040
0.0
1000
R14_HATCH_DATA
1000
2035C
1011
1.0
1021
0.0
1031
0.0
1021
0.0
1031
0.0
1011
0.0
1021
1.0
1031
0.0
1021
1.0
1031
0.0
1011
0.0
1021
0.0
1031
1.0
1021
0.0
1031
1.0
1040
0.0
1010
0.0
1020
0.0
1030
1.0
1000
ANSI37
1070
     0
1070
     1
1071
        1
1071
        7
1070
     1
1070
     1
1071
       12
1040
31.64199999996833
1040
2.481619422925121
1040
0.2679491924310942
1040
32.94699999997067
1040
0.2212931190493919
1040
0.2679491924301353
1040
36.36699999995983
1040
0.2212931190459813
1040
0.2679491924321411
1040
37.67199999996831
1040
2.481619422928361
1040
0.0
1040
37.67199999996831
1040
8.763099999991255
1040
0.0
1040
36.23199999996837
1040
8.763099999991255
1040
0.0
1040
36.23199999996837
1040
2.481619422925064
1040
-0.2679491924310291
1040
35.64699999996708
1040
1.468369700498386
1040
-0.267949192430519
1040
33.66699999997093
1040
1.468369700497703
1040
-0.267949192431809
1040
33.08199999996839
1040
2.481619422926997
1040
0.0
1040
33.08199999996839
1040
8.763099999991255
1040
0.0
1040
31.64199999996833
1040
8.763099999991255
1040
0.0
1071
        0
1070
     0
1070
     1
1040
0.0
1040
0.15
1070
     0
1070
     2
1040
0.7853981633974483
1040
49.29960901727088
1040
-10.17736998311392
1040
-0.3367596045400932
1040
0.3367596045400932
1070
     0
1040
2.356194490192345
1040
49.29960901727088
1040
-10.17736998311392
1040
-0.3367596045400932
1040
-0.3367596045400932
1070
     0
1040
0.0110235143455945
1071
        1
1040
32.30357378967278
1040
3.988785755459219
1040
0.0
1002
}
  0
INSERT
  5
2035D
  8
0
  2
*X168
 10
0.0
 20
0.0
 30
0.0
1001
ACAD
1000
HATCH
1002
{
1070
    19
1000
ANSI37
1040
0.15
1040
0.0
1000
ASC_BOUNDS
1070
     1
1070
     2
1070
     8
1005
2033E
1005
20341
1005
20345
1005
20344
1005
20343
1005
20340
1005
20342
1005
2033F
1000
ASC_SEEDPOINT
1011
39.74896370716704
1021
4.484843821435049
1031
0.0
1021
4.484843821435049
1031
0.0
1000
R14_HATCH_DATA
1000
2035D
1011
1.0
1021
0.0
1031
0.0
1021
0.0
1031
0.0
1011
0.0
1021
1.0
1031
0.0
1021
1.0
1031
0.0
1011
0.0
1021
0.0
1031
1.0
1021
0.0
1031
1.0
1040
0.0
1010
0.0
1020
0.0
1030
1.0
1000
ANSI37
1070
     0
1070
     1
1071
        1
1071
        7
1070
     0
1070
     1
1071
        9
1040
40.02599999995994
1040
5.341799999994635
1040
44.99999999995498
1040
-0.2368999999997641
1040
44.99999999995498
1040
8.763099999991255
1040
43.57899999995641
1040
8.763099999991255
1040
43.57899999995641
1040
3.421199999996588
1040
38.60499999996136
1040
8.999899999990987
1040
38.60499999996136
1040
8.999999999991019
1040
38.60499999996136
1040
0.0
1040
40.02599999995994
1040
0.0
1071
        8
1005
2033E
1005
20341
1005
20345
1005
20344
1005
20343
1005
20340
1005
20342
1005
2033F
1070
     0
1070
     1
1040
0.0
1040
0.15
1070
     0
1070
     2
1040
0.7853981633974483
1040
49.29960901727088
1040
-10.17736998311392
1040
-0.3367596045400932
1040
0.3367596045400932
1070
     0
1040
2.356194490192345
1040
49.29960901727088
1040
-10.17736998311392
1040
-0.3367596045400932
1040
-0.3367596045400932
1070
     0
1040
0.0110235143455945
1071
        1
1040
39.74896370716704
1040
4.484843821435049
1040
0.0
1002
}
  0
INSERT
  5
2035E
  8
0
  2
*X169
 10
0.0
 20
0.0
 30
0.0
1001
ACAD
1000
HATCH
1002
{
1070
    19
1000
ANSI37
1040
0.15
1040
0.0
1000
ASC_BOUNDS
1070
     1
1070
     2
1070
     4
1005
20322
1005
20331
1005
20323
1005
20325
1000
ASC_SEEDPOINT
1011
1.079051535452663
1021
4.148538732891836
1031
0.0
1021
4.148538732891836
1031
0.0
1000
R14_HATCH_DATA
1000
2035E
1011
1.0
1021
0.0
1031
0.0
1021
0.0
1031
0.0
1011
0.0
1021
1.0
1031
0.0
1021
1.0
1031
0.0
1011
0.0
1021
0.0
1031
1.0
1021
0.0
1031
1.0
1040
0.0
1010
0.0
1020
0.0
1030
1.0
1000
ANSI37
1070
     0
1070
     1
1071
        1
1071
        7
1070
     0
1070
     1
1071
        4
1040
1.420999999998571
1040
0.0
1040
1.420999999998571
1040
8.763099999991255
1040
0.0
1040
8.763099999991255
1040
0.0
1040
0.0
1071
        4
1005
20322
1005
20331
1005
20323
1005
20325
1070
     0
1070
     1
1040
0.0
1040
0.15
1070
     0
1070
     2
1040
0.7853981633974483
1040
49.29960901727088
1040
-10.17736998311392
1040
-0.3367596045400932
1040
0.3367596045400932
1070
     0
1040
2.356194490192345
1040
49.29960901727088
1040
-10.17736998311392
1040
-0.3367596045400932
1040
-0.3367596045400932
1070
     0
1040
0.0053004257112761
1071
        1
1040
1.079051535452663
1040
4.148538732891836
1040
0.0
1002
}
  0
ENDBLK
  5
20A16
  8
0
  0
BLOCK
  8
0
  2
*X164
 70
     1
 10
0.0
 20
0.0
 30
0.0
  3
*X164
  1

  0
LINE
  5
229CF
  8
0
  6
CONTINUOUS
 10
3.418023043697893
 20
7.251849696850613
 30
0.0
 11
4.929273346838536
 21
8.763099999991255
 31
0.0
  0
LINE
  5
229D0
  8
0
  6
CONTINUOUS
 10
1.483656411257782
 20
4.643963855330318
 30
0.0
 11
5.60279255591872
 21
8.763099999991255
 31
0.0
  0
LINE
  5
229D1
  8
0
  6
CONTINUOUS
 10
1.755053947328235
 20
4.241842182320584
 30
0.0
 11
6.276311764998907
 21
8.763099999991255
 31
0.0
  0
LINE
  5
229D2
  8
0
  6
CONTINUOUS
 10
2.026451483398688
 20
3.839720509310849
 30
0.0
 11
4.441040904851878
 21
6.254309930764039
 31
0.0
  0
LINE
  5
229D3
  8
0
  6
CONTINUOUS
 10
2.297849019469139
 20
3.437598836301114
 30
0.0
 11
3.321765168359338
 21
4.461514985191313
 31
0.0
  0
LINE
  5
229D4
  8
0
  6
CONTINUOUS
 10
2.569246555539591
 20
3.03547716329138
 30
0.0
 11
3.593163397972743
 21
4.059394005724531
 31
0.0
  0
LINE
  5
229D5
  8
0
  6
CONTINUOUS
 10
2.840644091610043
 20
2.633355490281646
 30
0.0
 11
3.864561627586149
 21
3.657273026257751
 31
0.0
  0
LINE
  5
229D6
  8
0
  6
CONTINUOUS
 10
3.112041627680496
 20
2.231233817271911
 30
0.0
 11
4.135959857199554
 21
3.25515204679097
 31
0.0
  0
LINE
  5
229D7
  8
0
  6
CONTINUOUS
 10
3.383439163750948
 20
1.829112144262177
 30
0.0
 11
4.40735808681296
 21
2.853031067324189
 31
0.0
  0
LINE
  5
229D8
  8
0
  6
CONTINUOUS
 10
3.654836699821399
 20
1.426990471252442
 30
0.0
 11
4.678756316426365
 21
2.450910087857407
 31
0.0
  0
LINE
  5
229D9
  8
0
  6
CONTINUOUS
 10
3.926234235891853
 20
1.024868798242709
 30
0.0
 11
4.95015454603977
 21
2.048789108390626
 31
0.0
  0
LINE
  5
229DA
  8
0
  6
CONTINUOUS
 10
4.197631771962304
 20
0.6227471252329737
 30
0.0
 11
5.221552775653176
 21
1.646668128923846
 31
0.0
  0
LINE
  5
229DB
  8
0
  6
CONTINUOUS
 10
8.715877546767851
 20
7.835069736359266
 30
0.0
 11
9.435953450375058
 21
8.555145639966472
 31
0.0
  0
LINE
  5
229DC
  8
0
  6
CONTINUOUS
 10
8.170620868422267
 20
6.616293848933497
 30
0.0
 11
9.644120833743461
 21
8.08979381425469
 31
0.0
  0
LINE
  5
229DD
  8
0
  6
CONTINUOUS
 10
7.625364190076684
 20
5.397517961507727
 30
0.0
 11
9.852288217111864
 21
7.624441988542907
 31
0.0
  0
LINE
  5
229DE
  8
0
  6
CONTINUOUS
 10
7.080107511731101
 20
4.178742074081957
 30
0.0
 11
10.06045560048027
 21
7.159090162831124
 31
0.0
  0
LINE
  5
229DF
  8
0
  6
CONTINUOUS
 10
6.534850833385518
 20
2.959966186656187
 30
0.0
 11
10.26862298384867
 21
6.693738337119342
 31
0.0
  0
LINE
  5
229E0
  8
0
  6
CONTINUOUS
 10
4.469029308032756
 20
0.2206254522232385
 30
0.0
 11
5.492951005266582
 21
1.244547149457064
 31
0.0
  0
LINE
  5
229E1
  8
0
  6
CONTINUOUS
 10
5.989594155039935
 20
1.741190299230417
 30
0.0
 11
8.806950407233131
 21
4.558546551423613
 31
0.0
  0
LINE
  5
229E2
  8
0
  6
CONTINUOUS
 10
9.401251593263643
 20
5.152847737454126
 30
0.0
 11
10.47679036721708
 21
6.228386511407559
 31
0.0
  0
LINE
  5
229E3
  8
0
  6
CONTINUOUS
 10
4.921837203428691
 20
-0.0000858614610131
 30
0.0
 11
8.592923064886001
 21
3.670999999996297
 31
0.0
  0
LINE
  5
229E4
  8
0
  6
CONTINUOUS
 10
9.609390446785305
 20
4.6874673818956
 30
0.0
 11
10.68495775058548
 21
5.763034685695775
 31
0.0
  0
LINE
  5
229E5
  8
0
  6
CONTINUOUS
 10
5.595387755019432
 20
-0.0000545189504582
 30
0.0
 11
7.716137258923768
 21
2.120694984953879
 31
0.0
  0
LINE
  5
229E6
  8
0
  6
CONTINUOUS
 10
6.268938306610172
 20
-0.000023176439905
 30
0.0
 11
7.170485805526503
 21
0.9015243224764267
 31
0.0
  0
LINE
  5
229E7
  8
0
  6
CONTINUOUS
 10
7.963842273967511
 20
2.368399999997621
 30
0.0
 11
9.266442273966188
 21
3.670999999996297
 31
0.0
  0
LINE
  5
229E8
  8
0
  6
CONTINUOUS
 10
8.637361483047696
 20
2.368399999997621
 30
0.0
 11
9.939961483046375
 21
3.670999999996297
 31
0.0
  0
LINE
  5
229E9
  8
0
  6
CONTINUOUS
 10
9.817529300306965
 20
4.222087026337075
 30
0.0
 11
10.89312513395388
 21
5.297682859983993
 31
0.0
  0
LINE
  5
229EA
  8
0
  6
CONTINUOUS
 10
10.02566815382863
 20
3.756706670778549
 30
0.0
 11
11.10129251732229
 21
4.832331034272211
 31
0.0
  0
LINE
  5
229EB
  8
0
  6
CONTINUOUS
 10
9.310880692127883
 20
2.368399999997621
 30
0.0
 11
11.30945990069069
 21
4.366979208560428
 31
0.0
  0
LINE
  5
229EC
  8
0
  6
CONTINUOUS
 10
9.98439990120807
 20
2.36839999999762
 30
0.0
 11
11.5176272840591
 21
3.901627382848645
 31
0.0
  0
LINE
  5
229ED
  8
0
  6
CONTINUOUS
 10
10.65037369446246
 20
2.36085458417182
 30
0.0
 11
11.7257946674275
 21
3.436275557136862
 31
0.0
  0
LINE
  5
229EE
  8
0
  6
CONTINUOUS
 10
10.85847197087848
 20
1.895433651507656
 30
0.0
 11
11.9339620507959
 21
2.97092373142508
 31
0.0
  0
LINE
  5
229EF
  8
0
  6
CONTINUOUS
 10
11.0665702472945
 20
1.430012718843491
 30
0.0
 11
12.14212943416431
 21
2.505571905713296
 31
0.0
  0
LINE
  5
229F0
  8
0
  6
CONTINUOUS
 10
11.27466852371052
 20
0.9645917861793256
 30
0.0
 11
12.35029681753271
 21
2.040220080001513
 31
0.0
  0
LINE
  5
229F1
  8
0
  6
CONTINUOUS
 10
11.48276680012654
 20
0.4991708535151611
 30
0.0
 11
12.55846420090111
 21
1.57486825428973
 31
0.0
  0
LINE
  5
229F2
  8
0
  6
CONTINUOUS
 10
11.69086507654257
 20
0.0337499208509957
 30
0.0
 11
12.76663158426952
 21
1.109516428577947
 31
0.0
  0
LINE
  5
229F3
  8
0
  6
CONTINUOUS
 10
12.33057447873954
 20
-0.0000598860322123
 30
0.0
 11
12.97479896763792
 21
0.6441646028661663
 31
0.0
  0
LINE
  5
229F4
  8
0
  6
CONTINUOUS
 10
13.00413694809395
 20
-0.0000166257579952
 30
0.0
 11
13.18296635100632
 21
0.1788127771543824
 31
0.0
  0
LINE
  5
229F5
  8
0
  6
CONTINUOUS
 10
4.772852165289667
 20
-0.000092794222212
 30
0.0
 11
4.296495091028902
 21
0.4762642800385528
 31
0.0
  0
LINE
  5
229F6
  8
0
  6
CONTINUOUS
 10
5.446340034776103
 20
-0.0000614546284616
 30
0.0
 11
2.898195908335625
 21
2.548082671812017
 31
0.0
  0
LINE
  5
229F7
  8
0
  6
CONTINUOUS
 10
6.119827904262539
 20
-0.0000301150347113
 30
0.0
 11
1.499896725642348
 21
4.61990106358548
 31
0.0
  0
LINE
  5
229F8
  8
0
  6
CONTINUOUS
 10
6.775136745476159
 20
0.0181802528318542
 30
0.0
 11
5.699826040202669
 21
1.093490958105344
 31
0.0
  0
LINE
  5
229F9
  8
0
  6
CONTINUOUS
 10
6.983376846288489
 20
0.4834593610997118
 30
0.0
 11
5.908008617934405
 21
1.558827589453796
 31
0.0
  0
LINE
  5
229FA
  8
0
  6
CONTINUOUS
 10
5.377063484962296
 20
1.416253513345719
 30
0.0
 11
1.702276957014131
 21
5.091040041293883
 31
0.0
  0
LINE
  5
229FB
  8
0
  6
CONTINUOUS
 10
3.978745891735324
 20
3.488090315652877
 30
0.0
 11
2.000373521109399
 21
5.466462686278803
 31
0.0
  0
LINE
  5
229FC
  8
0
  6
CONTINUOUS
 10
7.191616947100819
 20
0.948738469367568
 30
0.0
 11
6.11619119566614
 21
2.024164220802247
 31
0.0
  0
LINE
  5
229FD
  8
0
  6
CONTINUOUS
 10
7.399857047913149
 20
1.414017577635424
 30
0.0
 11
6.324373773397875
 21
2.489500852150698
 31
0.0
  0
LINE
  5
229FE
  8
0
  6
CONTINUOUS
 10
7.608097148725479
 20
1.879296685903281
 30
0.0
 11
6.53255635112961
 21
2.95483748349915
 31
0.0
  0
LINE
  5
229FF
  8
0
  6
CONTINUOUS
 10
7.816337249537808
 20
2.344575794171138
 30
0.0
 11
6.740738928861345
 21
3.420174114847601
 31
0.0
  0
LINE
  5
22A00
  8
0
  6
CONTINUOUS
 10
3.310241080789734
 20
4.830114335678653
 30
0.0
 11
2.298470085204666
 21
5.84188533126372
 31
0.0
  0
LINE
  5
22A01
  8
0
  6
CONTINUOUS
 10
3.60832983563551
 20
5.205544789913063
 30
0.0
 11
2.596566649299935
 21
6.217307976248638
 31
0.0
  0
LINE
  5
22A02
  8
0
  6
CONTINUOUS
 10
3.906418590481286
 20
5.580975244147473
 30
0.0
 11
2.894663213395203
 21
6.592730621233557
 31
0.0
  0
LINE
  5
22A03
  8
0
  6
CONTINUOUS
 10
4.204507345327062
 20
5.956405698381884
 30
0.0
 11
3.192759777490472
 21
6.968153266218474
 31
0.0
  0
LINE
  5
22A04
  8
0
  6
CONTINUOUS
 10
8.466032252791512
 20
2.368399999997621
 30
0.0
 11
6.948921506593081
 21
3.885510746196053
 31
0.0
  0
LINE
  5
22A05
  8
0
  6
CONTINUOUS
 10
9.139551461871699
 20
2.36839999999762
 30
0.0
 11
7.157104084324816
 21
4.350847377544504
 31
0.0
  0
LINE
  5
22A06
  8
0
  6
CONTINUOUS
 10
4.502596100172839
 20
6.331836152616295
 30
0.0
 11
3.49085634158574
 21
7.343575911203393
 31
0.0
  0
LINE
  5
22A07
  8
0
  6
CONTINUOUS
 10
4.800684855018615
 20
6.707266606850705
 30
0.0
 11
3.788952905681008
 21
7.718998556188312
 31
0.0
  0
LINE
  5
22A08
  8
0
  6
CONTINUOUS
 10
12.18154012887317
 20
-0.0000694579236642
 30
0.0
 11
11.32140332908496
 21
0.8600673418645499
 31
0.0
  0
LINE
  5
22A09
  8
0
  6
CONTINUOUS
 10
12.85501608323566
 20
-0.0000262032059659
 30
0.0
 11
10.77672456435345
 21
2.078265315676246
 31
0.0
  0
LINE
  5
22A0A
  8
0
  6
CONTINUOUS
 10
9.813070670951886
 20
2.36839999999762
 30
0.0
 11
8.51047067095321
 21
3.670999999996297
 31
0.0
  0
LINE
  5
22A0B
  8
0
  6
CONTINUOUS
 10
10.48658988003207
 20
2.36839999999762
 30
0.0
 11
9.183989880033396
 21
3.670999999996297
 31
0.0
  0
LINE
  5
22A0C
  8
0
  6
CONTINUOUS
 10
8.441048632286794
 20
3.740422038662712
 30
0.0
 11
7.365286662056551
 21
4.816184008892956
 31
0.0
  0
LINE
  5
22A0D
  8
0
  6
CONTINUOUS
 10
8.649187485808454
 20
4.205802394221237
 30
0.0
 11
7.573469239788285
 21
5.281520640241407
 31
0.0
  0
LINE
  5
22A0E
  8
0
  6
CONTINUOUS
 10
5.098773609864391
 20
7.082697061085115
 30
0.0
 11
4.087049469776277
 21
8.09442120117323
 31
0.0
  0
LINE
  5
22A0F
  8
0
  6
CONTINUOUS
 10
5.396862364710167
 20
7.458127515319526
 30
0.0
 11
4.385146033871544
 21
8.469843846158149
 31
0.0
  0
LINE
  5
22A10
  8
0
  6
CONTINUOUS
 10
13.04801363231285
 20
0.4804954567970334
 30
0.0
 11
9.85750908911358
 21
3.670999999996297
 31
0.0
  0
LINE
  5
22A11
  8
0
  6
CONTINUOUS
 10
8.857326339330116
 20
4.671182749779763
 30
0.0
 11
7.781651817520021
 21
5.746857271589858
 31
0.0
  0
LINE
  5
22A12
  8
0
  6
CONTINUOUS
 10
5.694951119555943
 20
7.833557969553937
 30
0.0
 11
4.765409089118624
 21
8.763099999991255
 31
0.0
  0
LINE
  5
22A13
  8
0
  6
CONTINUOUS
 10
12.50286117236978
 20
1.699167125820288
 30
0.0
 11
9.68611877250287
 21
4.515909525687196
 31
0.0
  0
LINE
  5
22A14
  8
0
  6
CONTINUOUS
 10
9.065465192851777
 20
5.136563105338288
 30
0.0
 11
7.989834395251757
 21
6.21219390293831
 31
0.0
  0
LINE
  5
22A15
  8
0
  6
CONTINUOUS
 10
5.993039874401719
 20
8.208988423788346
 30
0.0
 11
5.43892829819881
 21
8.763099999991255
 31
0.0
  0
LINE
  5
22A16
  8
0
  6
CONTINUOUS
 10
11.95770871242671
 20
2.917838794843543
 30
0.0
 11
8.19801697298349
 21
6.677530534286761
 31
0.0
  0
LINE
  5
22A17
  8
0
  6
CONTINUOUS
 10
6.291128629247495
 20
8.584418878022756
 30
0.0
 11
6.112447507278997
 21
8.763099999991255
 31
0.0
  0
LINE
  5
22A18
  8
0
  6
CONTINUOUS
 10
11.41255625248364
 20
4.136510463866797
 30
0.0
 11
8.406199550715227
 21
7.142867165635211
 31
0.0
  0
LINE
  5
22A19
  8
0
  6
CONTINUOUS
 10
10.86740379254057
 20
5.355182132890051
 30
0.0
 11
8.614382128446962
 21
7.608203796983664
 31
0.0
  0
LINE
  5
22A1A
  8
0
  6
CONTINUOUS
 10
10.3222513325975
 20
6.573853801913305
 30
0.0
 11
8.822564706178696
 21
8.073540428332114
 31
0.0
  0
LINE
  5
22A1B
  8
0
  6
CONTINUOUS
 10
9.777098872654436
 20
7.792525470936562
 30
0.0
 11
9.030747283910433
 21
8.538877059680566
 31
0.0
  0
ENDBLK
  5
22B5D
  8
0
  0
BLOCK
  8
0
  2
*X165
 70
     1
 10
0.0
 20
0.0
 30
0.0
  3
*X165
  1

  0
LINE
  5
22A1D
  8
0
  6
CONTINUOUS
 10
10.67292308101235
 20
8.445076852443387
 30
0.0
 11
10.99094622856022
 21
8.763099999991255
 31
0.0
  0
LINE
  5
22A1E
  8
0
  6
CONTINUOUS
 10
10.87250383178748
 20
7.971138394138331
 30
0.0
 11
11.6644654376404
 21
8.763099999991255
 31
0.0
  0
LINE
  5
22A1F
  8
0
  6
CONTINUOUS
 10
11.07208458256261
 20
7.497199935833273
 30
0.0
 11
12.12126590876355
 21
8.546381262034211
 31
0.0
  0
LINE
  5
22A20
  8
0
  6
CONTINUOUS
 10
11.27166533333774
 20
7.023261477528216
 30
0.0
 11
12.32085164573666
 21
8.072447789927136
 31
0.0
  0
LINE
  5
22A21
  8
0
  6
CONTINUOUS
 10
11.47124608411287
 20
6.549323019223158
 30
0.0
 11
12.52043738270977
 21
7.59851431782006
 31
0.0
  0
LINE
  5
22A22
  8
0
  6
CONTINUOUS
 10
11.670826834888
 20
6.075384560918101
 30
0.0
 11
12.72002311968288
 21
7.124580845712984
 31
0.0
  0
LINE
  5
22A23
  8
0
  6
CONTINUOUS
 10
11.87040758566313
 20
5.601446102613043
 30
0.0
 11
12.91960885665599
 21
6.650647373605907
 31
0.0
  0
LINE
  5
22A24
  8
0
  6
CONTINUOUS
 10
12.06998833643825
 20
5.127507644307986
 30
0.0
 11
13.1191945936291
 21
6.176713901498832
 31
0.0
  0
LINE
  5
22A25
  8
0
  6
CONTINUOUS
 10
12.26956908721338
 20
4.65356918600293
 30
0.0
 11
13.31878033060221
 21
5.702780429391757
 31
0.0
  0
LINE
  5
22A26
  8
0
  6
CONTINUOUS
 10
12.46914983798851
 20
4.179630727697873
 30
0.0
 11
13.51836606757532
 21
5.228846957284683
 31
0.0
  0
LINE
  5
22A27
  8
0
  6
CONTINUOUS
 10
12.66873058876364
 20
3.705692269392816
 30
0.0
 11
13.71795180454843
 21
4.754913485177607
 31
0.0
  0
LINE
  5
22A28
  8
0
  6
CONTINUOUS
 10
12.86831133953877
 20
3.231753811087759
 30
0.0
 11
13.91753754152154
 21
4.280980013070531
 31
0.0
  0
LINE
  5
22A29
  8
0
  6
CONTINUOUS
 10
13.0678920903139
 20
2.757815352782702
 30
0.0
 11
14.11712327849465
 21
3.807046540963456
 31
0.0
  0
LINE
  5
22A2A
  8
0
  6
CONTINUOUS
 10
13.26747284108903
 20
2.283876894477644
 30
0.0
 11
14.31670901546777
 21
3.333113068856379
 31
0.0
  0
LINE
  5
22A2B
  8
0
  6
CONTINUOUS
 10
16.36767838827179
 20
8.751678487061342
 30
0.0
 11
16.50332410898388
 21
8.887324207773432
 31
0.0
  0
LINE
  5
22A2C
  8
0
  6
CONTINUOUS
 10
15.96190732182191
 20
7.67238821153127
 30
0.0
 11
16.68735328004734
 21
8.397834169756699
 31
0.0
  0
LINE
  5
22A2D
  8
0
  6
CONTINUOUS
 10
15.55613625537202
 20
6.593097936001196
 30
0.0
 11
16.87138245111079
 21
7.908344131739965
 31
0.0
  0
LINE
  5
22A2E
  8
0
  6
CONTINUOUS
 10
15.15036518892213
 20
5.513807660471122
 30
0.0
 11
17.05541162217424
 21
7.418854093723231
 31
0.0
  0
LINE
  5
22A2F
  8
0
  6
CONTINUOUS
 10
14.74459412247225
 20
4.434517384941048
 30
0.0
 11
17.2394407932377
 21
6.929364055706499
 31
0.0
  0
LINE
  5
22A30
  8
0
  6
CONTINUOUS
 10
14.33882305602236
 20
3.355227109410975
 30
0.0
 11
17.42346996430115
 21
6.439874017689766
 31
0.0
  0
LINE
  5
22A31
  8
0
  6
CONTINUOUS
 10
13.46705359186416
 20
1.809938436172586
 30
0.0
 11
16.0819338255367
 21
4.424818669845129
 31
0.0
  0
LINE
  5
22A32
  8
0
  6
CONTINUOUS
 10
16.63283254238972
 20
4.975717386698149
 30
0.0
 11
17.60749913536461
 21
5.950383979673033
 31
0.0
  0
LINE
  5
22A33
  8
0
  6
CONTINUOUS
 10
13.66663434263929
 20
1.335999977867529
 30
0.0
 11
15.67604797733754
 21
3.345413612565779
 31
0.0
  0
LINE
  5
22A34
  8
0
  6
CONTINUOUS
 10
13.86621509341442
 20
0.8620615195624723
 30
0.0
 11
15.27016212913838
 21
2.26600855528643
 31
0.0
  0
LINE
  5
22A35
  8
0
  6
CONTINUOUS
 10
16.81682257348267
 20
4.486188208710908
 30
0.0
 11
17.79152830642806
 21
5.460893941656299
 31
0.0
  0
LINE
  5
22A36
  8
0
  6
CONTINUOUS
 10
17.00081260457561
 20
3.996659030723667
 30
0.0
 11
17.97555747749151
 21
4.971403903639565
 31
0.0
  0
LINE
  5
22A37
  8
0
  6
CONTINUOUS
 10
20.74362343514722
 20
8.412989070375462
 30
0.0
 11
21.09373436476302
 21
8.763099999991256
 31
0.0
  0
LINE
  5
22A38
  8
0
  6
CONTINUOUS
 10
20.25401257174777
 20
7.249858997895826
 30
0.0
 11
21.7672535738432
 21
8.763099999991255
 31
0.0
  0
LINE
  5
22A39
  8
0
  6
CONTINUOUS
 10
14.06579584418955
 20
0.3881230612574149
 30
0.0
 11
14.86427628093921
 21
1.186603498007082
 31
0.0
  0
LINE
  5
22A3A
  8
0
  6
CONTINUOUS
 10
14.26537659496467
 20
-0.0858153970476412
 30
0.0
 11
14.45839043274005
 21
0.1071984407277329
 31
0.0
  0
LINE
  5
22A3B
  8
0
  6
CONTINUOUS
 10
17.18480263566856
 20
3.507129852736426
 30
0.0
 11
18.15958664855496
 21
4.481913865622833
 31
0.0
  0
LINE
  5
22A3C
  8
0
  6
CONTINUOUS
 10
17.3687926667615
 20
3.017600674749186
 30
0.0
 11
18.34361581961842
 21
3.9924238276061
 31
0.0
  0
LINE
  5
22A3D
  8
0
  6
CONTINUOUS
 10
19.76440170834832
 20
6.086728925416191
 30
0.0
 11
22.33924590259489
 21
8.661573119662755
 31
0.0
  0
LINE
  5
22A3E
  8
0
  6
CONTINUOUS
 10
19.27479084494887
 20
4.923598852936555
 30
0.0
 11
21.84929622842713
 21
7.498104236414807
 31
0.0
  0
LINE
  5
22A3F
  8
0
  6
CONTINUOUS
 10
17.55278269785445
 20
2.528071496761945
 30
0.0
 11
18.52764499068187
 21
3.502933789589366
 31
0.0
  0
LINE
  5
22A40
  8
0
  6
CONTINUOUS
 10
18.78517998154942
 20
3.760468780456919
 30
0.0
 11
21.35934655425936
 21
6.33463535316686
 31
0.0
  0
LINE
  5
22A41
  8
0
  6
CONTINUOUS
 10
17.73677272894739
 20
2.038542318774704
 30
0.0
 11
20.8693968800916
 21
5.171166469918914
 31
0.0
  0
LINE
  5
22A42
  8
0
  6
CONTINUOUS
 10
17.92076276004034
 20
1.549013140787464
 30
0.0
 11
20.37944720592384
 21
4.007697586670968
 31
0.0
  0
LINE
  5
22A43
  8
0
  6
CONTINUOUS
 10
18.10475279113329
 20
1.059483962800223
 30
0.0
 11
19.88949753175608
 21
2.84422870342302
 31
0.0
  0
LINE
  5
22A44
  8
0
  6
CONTINUOUS
 10
18.28874282222623
 20
0.5699547848129822
 30
0.0
 11
19.39954785758832
 21
1.680759820175074
 31
0.0
  0
LINE
  5
22A45
  8
0
  6
CONTINUOUS
 10
18.47273285331918
 20
0.0804256068257416
 30
0.0
 11
18.90959818342056
 21
0.517290936927127
 31
0.0
  0
LINE
  5
22A46
  8
0
  6
CONTINUOUS
 10
14.3590401358224
 20
-0.1570118376323384
 30
0.0
 11
14.24903296539946
 21
-0.0470046672093929
 31
0.0
  0
LINE
  5
22A47
  8
0
  6
CONTINUOUS
 10
14.54309291258661
 20
0.332454594683643
 30
0.0
 11
13.75908329123172
 21
1.116464216038529
 31
0.0
  0
LINE
  5
22A48
  8
0
  6
CONTINUOUS
 10
14.72714568935081
 20
0.8219210269996244
 30
0.0
 11
13.26913361706399
 21
2.27993309928645
 31
0.0
  0
LINE
  5
22A49
  8
0
  6
CONTINUOUS
 10
14.91119846611502
 20
1.311387459315606
 30
0.0
 11
12.77918394289625
 21
3.443401982534371
 31
0.0
  0
LINE
  5
22A4A
  8
0
  6
CONTINUOUS
 10
15.09525124287922
 20
1.800853891631587
 30
0.0
 11
12.28923426872852
 21
4.606870865782293
 31
0.0
  0
LINE
  5
22A4B
  8
0
  6
CONTINUOUS
 10
15.27930401964343
 20
2.290320323947569
 30
0.0
 11
11.79928459456078
 21
5.770339749030213
 31
0.0
  0
LINE
  5
22A4C
  8
0
  6
CONTINUOUS
 10
15.46335679640763
 20
2.77978675626355
 30
0.0
 11
14.48885470994921
 21
3.754288842721972
 31
0.0
  0
LINE
  5
22A4D
  8
0
  6
CONTINUOUS
 10
13.88507249233704
 20
4.358071060334137
 30
0.0
 11
11.30933492039305
 21
6.933808632278135
 31
0.0
  0
LINE
  5
22A4E
  8
0
  6
CONTINUOUS
 10
18.75840522805855
 20
0.1582575336928151
 30
0.0
 11
18.25383727664818
 21
0.6628254851031863
 31
0.0
  0
LINE
  5
22A4F
  8
0
  6
CONTINUOUS
 10
15.64740957317184
 20
3.269253188579531
 30
0.0
 11
14.67288388101266
 21
4.243778880738705
 31
0.0
  0
LINE
  5
22A50
  8
0
  6
CONTINUOUS
 10
13.39509276772158
 20
5.521569994029786
 30
0.0
 11
10.81938524622531
 21
8.097277515526056
 31
0.0
  0
LINE
  5
22A51
  8
0
  6
CONTINUOUS
 10
18.95798597883369
 20
0.6321959919978686
 30
0.0
 11
17.84825644852853
 21
1.741925522303024
 31
0.0
  0
LINE
  5
22A52
  8
0
  6
CONTINUOUS
 10
19.15756672960882
 20
1.106134450302922
 30
0.0
 11
17.44267562040888
 21
2.821025559502861
 31
0.0
  0
LINE
  5
22A53
  8
0
  6
CONTINUOUS
 10
15.83146234993604
 20
3.758719620895513
 30
0.0
 11
14.85691305207612
 21
4.733268918755439
 31
0.0
  0
LINE
  5
22A54
  8
0
  6
CONTINUOUS
 10
16.01551512670025
 20
4.248186053211494
 30
0.0
 11
15.04094222313957
 21
5.222758956772172
 31
0.0
  0
LINE
  5
22A55
  8
0
  6
CONTINUOUS
 10
12.90511304310612
 20
6.685068927725435
 30
0.0
 11
10.8270819708403
 21
8.763099999991255
 31
0.0
  0
LINE
  5
22A56
  8
0
  6
CONTINUOUS
 10
12.41513331849066
 20
7.848567861421083
 30
0.0
 11
11.50060117992049
 21
8.763099999991255
 31
0.0
  0
LINE
  5
22A57
  8
0
  6
CONTINUOUS
 10
19.35714748038395
 20
1.580072908607975
 30
0.0
 11
17.03709479228923
 21
3.900125596702697
 31
0.0
  0
LINE
  5
22A58
  8
0
  6
CONTINUOUS
 10
19.55672823115909
 20
2.054011366913028
 30
0.0
 11
16.63151396416958
 21
4.979225633902534
 31
0.0
  0
LINE
  5
22A59
  8
0
  6
CONTINUOUS
 10
16.19956790346445
 20
4.737652485527476
 30
0.0
 11
15.22497139420302
 21
5.712248994788904
 31
0.0
  0
LINE
  5
22A5A
  8
0
  6
CONTINUOUS
 10
16.38362068022866
 20
5.227118917843457
 30
0.0
 11
15.40900056526648
 21
6.201739032805637
 31
0.0
  0
LINE
  5
22A5B
  8
0
  6
CONTINUOUS
 10
19.75630898193422
 20
2.527949825218081
 30
0.0
 11
18.70774536448286
 21
3.576513442669441
 31
0.0
  0
LINE
  5
22A5C
  8
0
  6
CONTINUOUS
 10
19.95588973270936
 20
3.001888283523134
 30
0.0
 11
18.90726987211446
 21
4.050508144118028
 31
0.0
  0
LINE
  5
22A5D
  8
0
  6
CONTINUOUS
 10
20.15547048348449
 20
3.475826741828186
 30
0.0
 11
19.10679437974606
 21
4.524502845566614
 31
0.0
  0
LINE
  5
22A5E
  8
0
  6
CONTINUOUS
 10
20.35505123425962
 20
3.94976520013324
 30
0.0
 11
19.30631888737766
 21
4.998497547015201
 31
0.0
  0
LINE
  5
22A5F
  8
0
  6
CONTINUOUS
 10
20.55463198503475
 20
4.423703658438292
 30
0.0
 11
19.50584339500926
 21
5.472492248463787
 31
0.0
  0
LINE
  5
22A60
  8
0
  6
CONTINUOUS
 10
18.37481191085755
 20
3.909446896294752
 30
0.0
 11
15.59302973632993
 21
6.691229070822371
 31
0.0
  0
LINE
  5
22A61
  8
0
  6
CONTINUOUS
 10
17.96904084440766
 20
4.988737171824825
 30
0.0
 11
15.77705890739338
 21
7.180719108839104
 31
0.0
  0
LINE
  5
22A62
  8
0
  6
CONTINUOUS
 10
17.56326977795777
 20
6.068027447354899
 30
0.0
 11
15.96108807845684
 21
7.670209146855838
 31
0.0
  0
LINE
  5
22A63
  8
0
  6
CONTINUOUS
 10
17.15749871150789
 20
7.147317722884972
 30
0.0
 11
16.14511724952029
 21
8.15969918487257
 31
0.0
  0
LINE
  5
22A64
  8
0
  6
CONTINUOUS
 10
16.751727645058
 20
8.226607998415046
 30
0.0
 11
16.32914642058374
 21
8.649189222889303
 31
0.0
  0
LINE
  5
22A65
  8
0
  6
CONTINUOUS
 10
20.75421273580989
 20
4.897642116743345
 30
0.0
 11
19.70536790264086
 21
5.946486949912374
 31
0.0
  0
LINE
  5
22A66
  8
0
  6
CONTINUOUS
 10
20.95379348658502
 20
5.371580575048398
 30
0.0
 11
19.90489241027246
 21
6.42048165136096
 31
0.0
  0
LINE
  5
22A67
  8
0
  6
CONTINUOUS
 10
21.15337423736015
 20
5.845519033353452
 30
0.0
 11
20.10441691790406
 21
6.894476352809547
 31
0.0
  0
LINE
  5
22A68
  8
0
  6
CONTINUOUS
 10
21.35295498813529
 20
6.319457491658505
 30
0.0
 11
20.30394142553566
 21
7.368471054258134
 31
0.0
  0
LINE
  5
22A69
  8
0
  6
CONTINUOUS
 10
21.55253573891042
 20
6.793395949963558
 30
0.0
 11
20.50346593316726
 21
7.842465755706721
 31
0.0
  0
LINE
  5
22A6A
  8
0
  6
CONTINUOUS
 10
21.75211648968556
 20
7.267334408268612
 30
0.0
 11
20.70299044079886
 21
8.316460457155308
 31
0.0
  0
LINE
  5
22A6B
  8
0
  6
CONTINUOUS
 10
21.95169724046069
 20
7.741272866573663
 30
0.0
 11
20.9298701070431
 21
8.763099999991256
 31
0.0
  0
LINE
  5
22A6C
  8
0
  6
CONTINUOUS
 10
22.15127799123582
 20
8.215211324878716
 30
0.0
 11
21.60338931612328
 21
8.763099999991256
 31
0.0
  0
LINE
  5
22A6D
  8
0
  6
CONTINUOUS
 10
22.35085874201096
 20
8.689149783183769
 30
0.0
 11
22.27690852520347
 21
8.763099999991255
 31
0.0
  0
ENDBLK
  5
22B5F
  8
0
  0
BLOCK
  8
0
  2
*X166
 70
     1
 10
0.0
 20
0.0
 30
0.0
  3
*X166
  1

  0
LINE
  5
22A6F
  8
0
  6
CONTINUOUS
 10
23.19462913593892
 20
8.169917934846424
 30
0.0
 11
23.70775465517246
 21
8.683043454079957
 31
0.0
  0
LINE
  5
22A70
  8
0
  6
CONTINUOUS
 10
22.64923161835078
 20
6.951001208178088
 30
0.0
 11
23.9159364069932
 21
8.217705996820516
 31
0.0
  0
LINE
  5
22A71
  8
0
  6
CONTINUOUS
 10
22.10383410076263
 20
5.732084481509751
 30
0.0
 11
24.12411815881395
 21
7.752368539561078
 31
0.0
  0
LINE
  5
22A72
  8
0
  6
CONTINUOUS
 10
21.55843658317447
 20
4.513167754841414
 30
0.0
 11
24.3322999106347
 21
7.287031082301639
 31
0.0
  0
LINE
  5
22A73
  8
0
  6
CONTINUOUS
 10
21.01303906558632
 20
3.294251028173077
 30
0.0
 11
24.54048166245544
 21
6.821693625042199
 31
0.0
  0
LINE
  5
22A74
  8
0
  6
CONTINUOUS
 10
20.46764154799817
 20
2.075334301504738
 30
0.0
 11
23.28571549467848
 21
4.89340824818505
 31
0.0
  0
LINE
  5
22A75
  8
0
  6
CONTINUOUS
 10
19.92224403041002
 20
0.8564175748364002
 30
0.0
 11
22.74075865492779
 21
3.674932199354171
 31
0.0
  0
LINE
  5
22A76
  8
0
  6
CONTINUOUS
 10
23.67305085490148
 20
5.280743608408048
 30
0.0
 11
24.74866341427619
 21
6.356356167782759
 31
0.0
  0
LINE
  5
22A77
  8
0
  6
CONTINUOUS
 10
23.88118970842314
 20
4.815363252849522
 30
0.0
 11
24.95684516609694
 21
5.89101871052332
 31
0.0
  0
LINE
  5
22A78
  8
0
  6
CONTINUOUS
 10
19.73925852647308
 20
-0.0000871381807288
 30
0.0
 11
23.4103456646501
 21
3.670999999996297
 31
0.0
  0
LINE
  5
22A79
  8
0
  6
CONTINUOUS
 10
24.0893285619448
 20
4.349982897290997
 30
0.0
 11
25.16502691791769
 21
5.42568125326388
 31
0.0
  0
LINE
  5
22A7A
  8
0
  6
CONTINUOUS
 10
20.41282099582748
 20
-0.0000438779065108
 30
0.0
 11
21.64944178675636
 21
1.236576913022366
 31
0.0
  0
LINE
  5
22A7B
  8
0
  6
CONTINUOUS
 10
22.78126487373161
 20
2.36839999999762
 30
0.0
 11
24.08386487373029
 21
3.670999999996297
 31
0.0
  0
LINE
  5
22A7C
  8
0
  6
CONTINUOUS
 10
24.29746741546646
 20
3.884602541732471
 30
0.0
 11
25.37320866973843
 21
4.960343796004441
 31
0.0
  0
LINE
  5
22A7D
  8
0
  6
CONTINUOUS
 10
21.08638346518189
 20
-0.0000006176322938
 30
0.0
 11
21.10379033335899
 21
0.0174062505448083
 31
0.0
  0
LINE
  5
22A7E
  8
0
  6
CONTINUOUS
 10
23.4547840828118
 20
2.36839999999762
 30
0.0
 11
25.58139042155918
 21
4.495006338745002
 31
0.0
  0
LINE
  5
22A7F
  8
0
  6
CONTINUOUS
 10
29.30199999996933
 20
8.215615917155148
 30
0.0
 11
29.84948408280543
 21
8.763099999991255
 31
0.0
  0
LINE
  5
22A80
  8
0
  6
CONTINUOUS
 10
24.12830329189199
 20
2.36839999999762
 30
0.0
 11
25.78957217337993
 21
4.029668881485562
 31
0.0
  0
LINE
  5
22A81
  8
0
  6
CONTINUOUS
 10
29.30199999996933
 20
7.54209670807496
 30
0.0
 11
30.52300329188562
 21
8.763099999991255
 31
0.0
  0
LINE
  5
22A82
  8
0
  6
CONTINUOUS
 10
24.80182250097217
 20
2.36839999999762
 30
0.0
 11
25.99775392520067
 21
3.564331424226122
 31
0.0
  0
LINE
  5
22A83
  8
0
  6
CONTINUOUS
 10
29.30199999996933
 20
6.868577498994774
 30
0.0
 11
30.74199999996926
 21
8.308577498994712
 31
0.0
  0
LINE
  5
22A84
  8
0
  6
CONTINUOUS
 10
25.13028238392013
 20
2.023340673865392
 30
0.0
 11
26.20593567702142
 21
3.098993966966683
 31
0.0
  0
LINE
  5
22A85
  8
0
  6
CONTINUOUS
 10
25.33838066033617
 20
1.557919741201244
 30
0.0
 11
26.41411742884217
 21
2.633656509707244
 31
0.0
  0
LINE
  5
22A86
  8
0
  6
CONTINUOUS
 10
25.54647893675221
 20
1.092498808537098
 30
0.0
 11
26.62229918066291
 21
2.168319052447804
 31
0.0
  0
LINE
  5
22A87
  8
0
  6
CONTINUOUS
 10
25.75457721316825
 20
0.62707787587295
 30
0.0
 11
26.83048093248366
 21
1.702981595188365
 31
0.0
  0
LINE
  5
22A88
  8
0
  6
CONTINUOUS
 10
29.30199999996933
 20
6.195058289914587
 30
0.0
 11
30.74199999996926
 21
7.635058289914522
 31
0.0
  0
LINE
  5
22A89
  8
0
  6
CONTINUOUS
 10
29.30199999996933
 20
5.521539080834401
 30
0.0
 11
30.74199999996926
 21
6.961539080834331
 31
0.0
  0
LINE
  5
22A8A
  8
0
  6
CONTINUOUS
 10
29.30199999996933
 20
4.848019871754214
 30
0.0
 11
30.74199999996925
 21
6.288019871754143
 31
0.0
  0
LINE
  5
22A8B
  8
0
  6
CONTINUOUS
 10
29.30199999996933
 20
4.174500662674028
 30
0.0
 11
30.74199999996925
 21
5.614500662673953
 31
0.0
  0
LINE
  5
22A8C
  8
0
  6
CONTINUOUS
 10
25.96267548958429
 20
0.1616569432088024
 30
0.0
 11
27.18411854636669
 21
1.383099999991207
 31
0.0
  0
LINE
  5
22A8D
  8
0
  6
CONTINUOUS
 10
29.30199999996933
 20
3.500981453593841
 30
0.0
 11
30.74199999996925
 21
4.940981453593762
 31
0.0
  0
LINE
  5
22A8E
  8
0
  6
CONTINUOUS
 10
26.50763775544691
 20
0.0330999999912356
 30
0.0
 11
27.85763775544689
 21
1.383099999991223
 31
0.0
  0
LINE
  5
22A8F
  8
0
  6
CONTINUOUS
 10
29.30199999996933
 20
2.827462244513656
 30
0.0
 11
30.74199999996925
 21
4.267462244513574
 31
0.0
  0
LINE
  5
22A90
  8
0
  6
CONTINUOUS
 10
27.18115696452709
 20
0.0330999999912356
 30
0.0
 11
28.6224847300034
 21
1.474427765467545
 31
0.0
  0
LINE
  5
22A91
  8
0
  6
CONTINUOUS
 10
29.21067223449293
 20
2.062615269957069
 30
0.0
 11
30.74199999996924
 21
3.593943035433383
 31
0.0
  0
LINE
  5
22A92
  8
0
  6
CONTINUOUS
 10
27.85467617360728
 20
0.0330999999912356
 30
0.0
 11
30.74199999996924
 21
2.920423826353195
 31
0.0
  0
LINE
  5
22A93
  8
0
  6
CONTINUOUS
 10
28.57438609860264
 20
0.0792907159064073
 30
0.0
 11
30.69580928405405
 21
2.200713901357819
 31
0.0
  0
LINE
  5
22A94
  8
0
  6
CONTINUOUS
 10
29.49443044814297
 20
0.3258158563665496
 30
0.0
 11
30.44928414359389
 21
1.280669551817477
 31
0.0
  0
LINE
  5
22A95
  8
0
  6
CONTINUOUS
 10
19.59027867740337
 20
-0.0000967065718083
 30
0.0
 11
19.55485265190471
 21
0.035329318926844
 31
0.0
  0
LINE
  5
22A96
  8
0
  6
CONTINUOUS
 10
20.26375463176586
 20
-0.0000534518541091
 30
0.0
 11
19.76305575737534
 21
0.5006454225364014
 31
0.0
  0
LINE
  5
22A97
  8
0
  6
CONTINUOUS
 10
20.93723058612834
 20
-0.0000101971364099
 30
0.0
 11
19.97125886284597
 21
0.965961526145958
 31
0.0
  0
LINE
  5
22A98
  8
0
  6
CONTINUOUS
 10
21.25514828313686
 20
0.355591314935257
 30
0.0
 11
20.1794619683166
 21
1.431277629755512
 31
0.0
  0
LINE
  5
22A99
  8
0
  6
CONTINUOUS
 10
21.46338838394921
 20
0.8208704232030986
 30
0.0
 11
20.38766507378723
 21
1.896593733365069
 31
0.0
  0
LINE
  5
22A9A
  8
0
  6
CONTINUOUS
 10
21.67162848476155
 20
1.28614953147094
 30
0.0
 11
20.59586817925786
 21
2.361909836974626
 31
0.0
  0
LINE
  5
22A9B
  8
0
  6
CONTINUOUS
 10
21.8798685855739
 20
1.751428639738782
 30
0.0
 11
20.80407128472849
 21
2.827225940584183
 31
0.0
  0
LINE
  5
22A9C
  8
0
  6
CONTINUOUS
 10
22.08810868638624
 20
2.216707748006623
 30
0.0
 11
21.01227439019912
 21
3.292542044193739
 31
0.0
  0
LINE
  5
22A9D
  8
0
  6
CONTINUOUS
 10
22.60993564347543
 20
2.36839999999762
 30
0.0
 11
21.22047749566975
 21
3.757858147803296
 31
0.0
  0
LINE
  5
22A9E
  8
0
  6
CONTINUOUS
 10
23.28345485255561
 20
2.36839999999762
 30
0.0
 11
21.42868060114038
 21
4.223174251412853
 31
0.0
  0
LINE
  5
22A9F
  8
0
  6
CONTINUOUS
 10
26.29227406164219
 20
0.0330999999912356
 30
0.0
 11
25.80009199592872
 21
0.5252820657046957
 31
0.0
  0
LINE
  5
22AA0
  8
0
  6
CONTINUOUS
 10
23.9569740616358
 20
2.36839999999762
 30
0.0
 11
21.63688370661101
 21
4.688490355022409
 31
0.0
  0
LINE
  5
22AA1
  8
0
  6
CONTINUOUS
 10
26.96579327072237
 20
0.0330999999912356
 30
0.0
 11
25.2554132311971
 21
1.743480039516508
 31
0.0
  0
LINE
  5
22AA2
  8
0
  6
CONTINUOUS
 10
24.63049327071599
 20
2.36839999999762
 30
0.0
 11
23.32789327071731
 21
3.670999999996297
 31
0.0
  0
LINE
  5
22AA3
  8
0
  6
CONTINUOUS
 10
22.92098674744635
 20
4.077906523267254
 30
0.0
 11
21.84508681208164
 21
5.153806458631966
 31
0.0
  0
LINE
  5
22AA4
  8
0
  6
CONTINUOUS
 10
27.63931247980256
 20
0.0330999999912356
 30
0.0
 11
24.0014124797975
 21
3.670999999996297
 31
0.0
  0
LINE
  5
22AA5
  8
0
  6
CONTINUOUS
 10
23.129125600968
 20
4.5432868788258
 30
0.0
 11
22.05328991755227
 21
5.619122562241522
 31
0.0
  0
LINE
  5
22AA6
  8
0
  6
CONTINUOUS
 10
28.31283168888275
 20
0.0330999999912356
 30
0.0
 11
24.16488385994816
 21
4.181047828925828
 31
0.0
  0
LINE
  5
22AA7
  8
0
  6
CONTINUOUS
 10
23.33726445448964
 20
5.008667234384345
 30
0.0
 11
22.2614930230229
 21
6.084438665851079
 31
0.0
  0
LINE
  5
22AA8
  8
0
  6
CONTINUOUS
 10
28.86286302309502
 20
0.1565878748591523
 30
0.0
 11
27.63635089796295
 21
1.383099999991217
 31
0.0
  0
LINE
  5
22AA9
  8
0
  6
CONTINUOUS
 10
26.43704649509776
 20
2.582404402856405
 30
0.0
 11
23.61992702019732
 21
5.399523877756844
 31
0.0
  0
LINE
  5
22AAA
  8
0
  6
CONTINUOUS
 10
23.54540330801128
 20
5.47404758994289
 30
0.0
 11
22.46969612849353
 21
6.549754769460635
 31
0.0
  0
LINE
  5
22AAB
  8
0
  6
CONTINUOUS
 10
29.39405087596853
 20
0.2989192310658284
 30
0.0
 11
28.30987010704312
 21
1.383099999991234
 31
0.0
  0
LINE
  5
22AAC
  8
0
  6
CONTINUOUS
 10
25.89179548232307
 20
3.801174624711282
 30
0.0
 11
22.67789923396416
 21
7.015070873070191
 31
0.0
  0
LINE
  5
22AAD
  8
0
  6
CONTINUOUS
 10
29.79594438047407
 20
0.570544935640473
 30
0.0
 11
28.81310432793121
 21
1.553384988183336
 31
0.0
  0
LINE
  5
22AAE
  8
0
  6
CONTINUOUS
 10
25.34654446954838
 20
5.01994484656616
 30
0.0
 11
22.88610233943479
 21
7.480386976679748
 31
0.0
  0
LINE
  5
22AAF
  8
0
  6
CONTINUOUS
 10
30.13270398501416
 20
0.9073045401805646
 30
0.0
 11
29.14234640337737
 21
1.897662121817355
 31
0.0
  0
LINE
  5
22AB0
  8
0
  6
CONTINUOUS
 10
24.80129345677369
 20
6.238715068421037
 30
0.0
 11
23.09430544490542
 21
7.945703080289305
 31
0.0
  0
LINE
  5
22AB1
  8
0
  6
CONTINUOUS
 10
30.44581292956759
 20
1.26771480470732
 30
0.0
 11
29.30199999996933
 21
2.411527734305588
 31
0.0
  0
LINE
  5
22AB2
  8
0
  6
CONTINUOUS
 10
30.58814428577427
 20
1.798902657580827
 30
0.0
 11
29.30199999996933
 21
3.085046943385775
 31
0.0
  0
LINE
  5
22AB3
  8
0
  6
CONTINUOUS
 10
24.256042443999
 20
7.457485290275915
 30
0.0
 11
23.30250855037605
 21
8.411019183898862
 31
0.0
  0
LINE
  5
22AB4
  8
0
  6
CONTINUOUS
 10
23.71079143122431
 20
8.676255512130794
 30
0.0
 11
23.51071165584668
 21
8.876335287508418
 31
0.0
  0
LINE
  5
22AB5
  8
0
  6
CONTINUOUS
 10
30.73047564198095
 20
2.330090510454333
 30
0.0
 11
29.30199999996933
 21
3.758566152465961
 31
0.0
  0
LINE
  5
22AB6
  8
0
  6
CONTINUOUS
 10
30.74199999996924
 20
2.992085361546236
 30
0.0
 11
29.30199999996933
 21
4.432085361546148
 31
0.0
  0
LINE
  5
22AB7
  8
0
  6
CONTINUOUS
 10
30.74199999996924
 20
3.665604570626419
 30
0.0
 11
29.30199999996933
 21
5.105604570626333
 31
0.0
  0
LINE
  5
22AB8
  8
0
  6
CONTINUOUS
 10
30.74199999996925
 20
4.339123779706602
 30
0.0
 11
29.30199999996933
 21
5.77912377970652
 31
0.0
  0
LINE
  5
22AB9
  8
0
  6
CONTINUOUS
 10
30.74199999996925
 20
5.012642988786785
 30
0.0
 11
29.30199999996933
 21
6.452642988786707
 31
0.0
  0
LINE
  5
22ABA
  8
0
  6
CONTINUOUS
 10
30.74199999996925
 20
5.68616219786697
 30
0.0
 11
29.30199999996933
 21
7.126162197866894
 31
0.0
  0
LINE
  5
22ABB
  8
0
  6
CONTINUOUS
 10
30.74199999996925
 20
6.359681406947153
 30
0.0
 11
29.30199999996933
 21
7.799681406947081
 31
0.0
  0
LINE
  5
22ABC
  8
0
  6
CONTINUOUS
 10
30.74199999996926
 20
7.033200616027337
 30
0.0
 11
29.30199999996933
 21
8.473200616027269
 31
0.0
  0
LINE
  5
22ABD
  8
0
  6
CONTINUOUS
 10
30.74199999996926
 20
7.706719825107518
 30
0.0
 11
29.68561982508552
 21
8.763099999991255
 31
0.0
  0
LINE
  5
22ABE
  8
0
  6
CONTINUOUS
 10
30.74199999996926
 20
8.380239034187703
 30
0.0
 11
30.35913903416571
 21
8.763099999991255
 31
0.0
  0
ENDBLK
  5
22B61
  8
0
  0
BLOCK
  8
0
  2
*X167
 70
     1
 10
0.0
 20
0.0
 30
0.0
  3
*X167
  1

  0
LINE
  5
22AC0
  8
0
  6
CONTINUOUS
 10
31.64199999996833
 20
8.5350582899136
 30
0.0
 11
31.87004171004599
 21
8.763099999991255
 31
0.0
  0
LINE
  5
22AC1
  8
0
  6
CONTINUOUS
 10
31.64199999996833
 20
7.861539080833413
 30
0.0
 11
32.54356091912618
 21
8.763099999991255
 31
0.0
  0
LINE
  5
22AC2
  8
0
  6
CONTINUOUS
 10
31.64199999996833
 20
7.188019871753227
 30
0.0
 11
33.08199999996839
 21
8.628019871753281
 31
0.0
  0
LINE
  5
22AC3
  8
0
  6
CONTINUOUS
 10
31.64199999996833
 20
6.514500662673041
 30
0.0
 11
33.08199999996839
 21
7.954500662673095
 31
0.0
  0
LINE
  5
22AC4
  8
0
  6
CONTINUOUS
 10
31.64199999996833
 20
5.840981453592855
 30
0.0
 11
33.08199999996839
 21
7.28098145359291
 31
0.0
  0
LINE
  5
22AC5
  8
0
  6
CONTINUOUS
 10
31.64199999996833
 20
5.167462244512668
 30
0.0
 11
33.08199999996839
 21
6.607462244512723
 31
0.0
  0
LINE
  5
22AC6
  8
0
  6
CONTINUOUS
 10
31.64199999996833
 20
4.493943035432482
 30
0.0
 11
33.08199999996839
 21
5.933943035432536
 31
0.0
  0
LINE
  5
22AC7
  8
0
  6
CONTINUOUS
 10
31.64199999996833
 20
3.820423826352294
 30
0.0
 11
33.08199999996839
 21
5.260423826352349
 31
0.0
  0
LINE
  5
22AC8
  8
0
  6
CONTINUOUS
 10
31.64199999996833
 20
3.146904617272108
 30
0.0
 11
33.08199999996839
 21
4.586904617272163
 31
0.0
  0
LINE
  5
22AC9
  8
0
  6
CONTINUOUS
 10
36.23199999996837
 20
8.410423826352327
 30
0.0
 11
36.58467617360729
 21
8.763099999991255
 31
0.0
  0
LINE
  5
22ACA
  8
0
  6
CONTINUOUS
 10
36.23199999996837
 20
7.73690461727214
 30
0.0
 11
37.25819538268748
 21
8.763099999991255
 31
0.0
  0
LINE
  5
22ACB
  8
0
  6
CONTINUOUS
 10
31.64323424774199
 20
2.474619655965573
 30
0.0
 11
33.08199999996839
 21
3.913385408191976
 31
0.0
  0
LINE
  5
22ACC
  8
0
  6
CONTINUOUS
 10
31.74419223861915
 20
1.902058437762552
 30
0.0
 11
33.08199999996839
 21
3.239866199111789
 31
0.0
  0
LINE
  5
22ACD
  8
0
  6
CONTINUOUS
 10
36.23199999996837
 20
7.063385408191953
 30
0.0
 11
37.67199999996831
 21
8.503385408191894
 31
0.0
  0
LINE
  5
22ACE
  8
0
  6
CONTINUOUS
 10
36.23199999996837
 20
6.389866199111767
 30
0.0
 11
37.67199999996831
 21
7.829866199111708
 31
0.0
  0
LINE
  5
22ACF
  8
0
  6
CONTINUOUS
 10
31.91111233414976
 20
1.39545932421297
 30
0.0
 11
33.08199999996839
 21
2.566346990031603
 31
0.0
  0
LINE
  5
22AD0
  8
0
  6
CONTINUOUS
 10
36.23199999996837
 20
5.71634699003158
 30
0.0
 11
37.67199999996831
 21
7.156346990031522
 31
0.0
  0
LINE
  5
22AD1
  8
0
  6
CONTINUOUS
 10
32.1576374746103
 20
0.9684652555933289
 30
0.0
 11
33.20642631446081
 21
2.017254095443838
 31
0.0
  0
LINE
  5
22AD2
  8
0
  6
CONTINUOUS
 10
36.23199999996837
 20
5.042827780951393
 30
0.0
 11
37.67199999996831
 21
6.482827780951334
 31
0.0
  0
LINE
  5
22AD3
  8
0
  6
CONTINUOUS
 10
32.47774023927325
 20
0.6150488111760914
 30
0.0
 11
33.49903056428258
 21
1.636339136185419
 31
0.0
  0
LINE
  5
22AD4
  8
0
  6
CONTINUOUS
 10
36.23199999996837
 20
4.369308571871207
 30
0.0
 11
37.67199999996831
 21
5.809308571871148
 31
0.0
  0
LINE
  5
22AD5
  8
0
  6
CONTINUOUS
 10
32.84396249154443
 20
0.3077518543670883
 30
0.0
 11
33.93324121824649
 21
1.397030581069146
 31
0.0
  0
LINE
  5
22AD6
  8
0
  6
CONTINUOUS
 10
36.23199999996837
 20
3.695789362791021
 30
0.0
 11
37.67199999996831
 21
5.135789362790963
 31
0.0
  0
LINE
  5
22AD7
  8
0
  6
CONTINUOUS
 10
33.30186329036846
 20
0.0921334441109263
 30
0.0
 11
34.46442907112041
 21
1.254699224862875
 31
0.0
  0
LINE
  5
22AD8
  8
0
  6
CONTINUOUS
 10
36.23199999996837
 20
3.022270153710834
 30
0.0
 11
37.67199999996831
 21
4.462270153710776
 31
0.0
  0
LINE
  5
22AD9
  8
0
  6
CONTINUOUS
 10
33.79565647746294
 20
-0.0875925778747773
 30
0.0
 11
35.24350171668284
 21
1.360252661345124
 31
0.0
  0
LINE
  5
22ADA
  8
0
  6
CONTINUOUS
 10
36.18336676155003
 20
2.300117706212308
 30
0.0
 11
37.67199999996831
 21
3.788750944630589
 31
0.0
  0
LINE
  5
22ADB
  8
0
  6
CONTINUOUS
 10
34.37182574910968
 20
-0.184942515308224
 30
0.0
 11
37.67199999996831
 21
3.115231735550402
 31
0.0
  0
LINE
  5
22ADC
  8
0
  6
CONTINUOUS
 10
35.0453449581892
 20
-0.1849425153088955
 30
0.0
 11
37.66345697088136
 21
2.433169497383271
 31
0.0
  0
LINE
  5
22ADD
  8
0
  6
CONTINUOUS
 10
35.98667157609191
 20
0.0828648935136398
 30
0.0
 11
37.51927401744566
 21
1.615467334867382
 31
0.0
  0
LINE
  5
22ADE
  8
0
  6
CONTINUOUS
 10
32.27747408544484
 20
0.7830920669904482
 30
0.0
 11
32.24716210471949
 21
0.8134040477157893
 31
0.0
  0
LINE
  5
22ADF
  8
0
  6
CONTINUOUS
 10
33.83656881101902
 20
-0.1024834495035494
 30
0.0
 11
31.72538911593758
 21
2.008696245577891
 31
0.0
  0
LINE
  5
22AE0
  8
0
  6
CONTINUOUS
 10
34.5925470859041
 20
-0.1849425153084434
 30
0.0
 11
31.64199999996833
 21
2.765604570627322
 31
0.0
  0
LINE
  5
22AE1
  8
0
  6
CONTINUOUS
 10
35.26201302775981
 20
-0.1808892480839752
 30
0.0
 11
31.64199999996833
 21
3.439123779707508
 31
0.0
  0
LINE
  5
22AE2
  8
0
  6
CONTINUOUS
 10
35.75580621485512
 20
-0.0011632260990879
 30
0.0
 11
34.51294304365551
 21
1.241699945100514
 31
0.0
  0
LINE
  5
22AE3
  8
0
  6
CONTINUOUS
 10
33.08199999996839
 20
2.672642988787641
 30
0.0
 11
31.64199999996833
 21
4.112642988787695
 31
0.0
  0
LINE
  5
22AE4
  8
0
  6
CONTINUOUS
 10
36.24959940195042
 20
0.1785627958857976
 30
0.0
 11
35.10501653033629
 21
1.323145667499924
 31
0.0
  0
LINE
  5
22AE5
  8
0
  6
CONTINUOUS
 10
33.08199999996839
 20
3.346162197867827
 30
0.0
 11
31.64199999996833
 21
4.786162197867881
 31
0.0
  0
LINE
  5
22AE6
  8
0
  6
CONTINUOUS
 10
36.64615197150552
 20
0.4555294354108876
 30
0.0
 11
35.6362043832099
 21
1.465477023706505
 31
0.0
  0
LINE
  5
22AE7
  8
0
  6
CONTINUOUS
 10
33.08199999996839
 20
4.019681406948013
 30
0.0
 11
31.64199999996833
 21
5.459681406948068
 31
0.0
  0
LINE
  5
22AE8
  8
0
  6
CONTINUOUS
 10
37.0123742237774
 20
0.7628263922191891
 30
0.0
 11
35.97691545773309
 21
1.798285158263504
 31
0.0
  0
LINE
  5
22AE9
  8
0
  6
CONTINUOUS
 10
33.08199999996839
 20
4.6932006160282
 30
0.0
 11
31.64199999996833
 21
6.133200616028255
 31
0.0
  0
LINE
  5
22AEA
  8
0
  6
CONTINUOUS
 10
37.27491524157143
 20
1.173804583505349
 30
0.0
 11
36.17602012811361
 21
2.272699696963169
 31
0.0
  0
LINE
  5
22AEB
  8
0
  6
CONTINUOUS
 10
33.08199999996839
 20
5.366719825108387
 30
0.0
 11
31.64199999996833
 21
6.806719825108441
 31
0.0
  0
LINE
  5
22AEC
  8
0
  6
CONTINUOUS
 10
37.51739996707661
 20
1.604839067080355
 30
0.0
 11
36.23199999996837
 21
2.890239034188595
 31
0.0
  0
LINE
  5
22AED
  8
0
  6
CONTINUOUS
 10
37.6183579579535
 20
2.177400285283649
 30
0.0
 11
36.23199999996837
 21
3.563758243268782
 31
0.0
  0
LINE
  5
22AEE
  8
0
  6
CONTINUOUS
 10
33.08199999996839
 20
6.040239034188573
 30
0.0
 11
31.64199999996833
 21
7.480239034188628
 31
0.0
  0
LINE
  5
22AEF
  8
0
  6
CONTINUOUS
 10
33.08199999996839
 20
6.713758243268759
 30
0.0
 11
31.64199999996833
 21
8.153758243268815
 31
0.0
  0
LINE
  5
22AF0
  8
0
  6
CONTINUOUS
 10
37.67199999996831
 20
2.797277452349027
 30
0.0
 11
36.23199999996837
 21
4.237277452348969
 31
0.0
  0
LINE
  5
22AF1
  8
0
  6
CONTINUOUS
 10
37.67199999996831
 20
3.470796661429214
 30
0.0
 11
36.23199999996837
 21
4.910796661429155
 31
0.0
  0
LINE
  5
22AF2
  8
0
  6
CONTINUOUS
 10
37.67199999996831
 20
4.1443158705094
 30
0.0
 11
36.23199999996837
 21
5.584315870509341
 31
0.0
  0
LINE
  5
22AF3
  8
0
  6
CONTINUOUS
 10
33.08199999996839
 20
7.387277452348946
 30
0.0
 11
31.70617745232608
 21
8.763099999991255
 31
0.0
  0
LINE
  5
22AF4
  8
0
  6
CONTINUOUS
 10
33.08199999996839
 20
8.060796661429134
 30
0.0
 11
32.37969666140626
 21
8.763099999991255
 31
0.0
  0
LINE
  5
22AF5
  8
0
  6
CONTINUOUS
 10
33.08199999996839
 20
8.734315870509318
 30
0.0
 11
33.05321587048645
 21
8.763099999991255
 31
0.0
  0
LINE
  5
22AF6
  8
0
  6
CONTINUOUS
 10
37.67199999996831
 20
4.817835079589586
 30
0.0
 11
36.23199999996837
 21
6.257835079589528
 31
0.0
  0
LINE
  5
22AF7
  8
0
  6
CONTINUOUS
 10
37.67199999996831
 20
5.491354288669772
 30
0.0
 11
36.23199999996837
 21
6.931354288669715
 31
0.0
  0
LINE
  5
22AF8
  8
0
  6
CONTINUOUS
 10
37.67199999996831
 20
6.164873497749959
 30
0.0
 11
36.23199999996837
 21
7.6048734977499
 31
0.0
  0
LINE
  5
22AF9
  8
0
  6
CONTINUOUS
 10
37.67199999996831
 20
6.838392706830145
 30
0.0
 11
36.23199999996837
 21
8.278392706830086
 31
0.0
  0
LINE
  5
22AFA
  8
0
  6
CONTINUOUS
 10
37.67199999996831
 20
7.511911915910333
 30
0.0
 11
36.42081191588738
 21
8.763099999991255
 31
0.0
  0
LINE
  5
22AFB
  8
0
  6
CONTINUOUS
 10
37.67199999996831
 20
8.185431124990519
 30
0.0
 11
37.09433112496757
 21
8.763099999991255
 31
0.0
  0
ENDBLK
  5
22B63
  8
0
  0
BLOCK
  8
0
  2
*X168
 70
     1
 10
0.0
 20
0.0
 30
0.0
  3
*X168
  1

  0
LINE
  5
22AFD
  8
0
  6
CONTINUOUS
 10
38.60499999996136
 20
8.762866199104765
 30
0.0
 11
38.71672554182345
 21
8.874591740966855
 31
0.0
  0
LINE
  5
22AFE
  8
0
  6
CONTINUOUS
 10
38.60499999996136
 20
8.089346990024577
 30
0.0
 11
39.03418785440363
 21
8.518534844466847
 31
0.0
  0
LINE
  5
22AFF
  8
0
  6
CONTINUOUS
 10
38.60499999996136
 20
7.41582778094439
 30
0.0
 11
39.35165016698382
 21
8.16247794796684
 31
0.0
  0
LINE
  5
22B00
  8
0
  6
CONTINUOUS
 10
38.60499999996136
 20
6.742308571864204
 30
0.0
 11
39.66911247956399
 21
7.806421051466834
 31
0.0
  0
LINE
  5
22B01
  8
0
  6
CONTINUOUS
 10
38.60499999996136
 20
6.068789362784018
 30
0.0
 11
39.98657479214418
 21
7.450364154966827
 31
0.0
  0
LINE
  5
22B02
  8
0
  6
CONTINUOUS
 10
38.60499999996136
 20
5.395270153703832
 30
0.0
 11
40.30403710472435
 21
7.09430725846682
 31
0.0
  0
LINE
  5
22B03
  8
0
  6
CONTINUOUS
 10
38.60499999996136
 20
4.721750944623645
 30
0.0
 11
40.62149941730453
 21
6.738250361966813
 31
0.0
  0
LINE
  5
22B04
  8
0
  6
CONTINUOUS
 10
38.60499999996136
 20
4.048231735543458
 30
0.0
 11
40.93896172988471
 21
6.382193465466806
 31
0.0
  0
LINE
  5
22B05
  8
0
  6
CONTINUOUS
 10
38.60499999996136
 20
3.374712526463272
 30
0.0
 11
40.02599999995994
 21
4.795712526461843
 31
0.0
  0
LINE
  5
22B06
  8
0
  6
CONTINUOUS
 10
38.60499999996136
 20
2.701193317383085
 30
0.0
 11
40.02599999995994
 21
4.122193317381657
 31
0.0
  0
LINE
  5
22B07
  8
0
  6
CONTINUOUS
 10
40.28339754687704
 20
5.053110073378947
 30
0.0
 11
41.25642404246489
 21
6.026136568966799
 31
0.0
  0
LINE
  5
22B08
  8
0
  6
CONTINUOUS
 10
40.60085985945722
 20
4.697053176878939
 30
0.0
 11
41.57388635504507
 21
5.670079672466793
 31
0.0
  0
LINE
  5
22B09
  8
0
  6
CONTINUOUS
 10
43.57899999995641
 20
8.348712526458318
 30
0.0
 11
43.99338747348935
 21
8.763099999991255
 31
0.0
  0
LINE
  5
22B0A
  8
0
  6
CONTINUOUS
 10
43.57899999995641
 20
7.675193317378131
 30
0.0
 11
44.66690668256953
 21
8.763099999991255
 31
0.0
  0
LINE
  5
22B0B
  8
0
  6
CONTINUOUS
 10
38.60499999996136
 20
2.027674108302898
 30
0.0
 11
40.02599999995994
 21
3.44867410830147
 31
0.0
  0
LINE
  5
22B0C
  8
0
  6
CONTINUOUS
 10
38.60499999996136
 20
1.354154899222712
 30
0.0
 11
40.02599999995994
 21
2.775154899221284
 31
0.0
  0
LINE
  5
22B0D
  8
0
  6
CONTINUOUS
 10
38.60499999996136
 20
0.6806356901425255
 30
0.0
 11
40.02599999995994
 21
2.101635690141098
 31
0.0
  0
LINE
  5
22B0E
  8
0
  6
CONTINUOUS
 10
38.60499999996136
 20
0.0071164810623383
 30
0.0
 11
40.02599999995994
 21
1.428116481060911
 31
0.0
  0
LINE
  5
22B0F
  8
0
  6
CONTINUOUS
 10
40.9183221720374
 20
4.340996280378933
 30
0.0
 11
41.89134866762525
 21
5.314022775966786
 31
0.0
  0
LINE
  5
22B10
  8
0
  6
CONTINUOUS
 10
41.23578448461758
 20
3.984939383878926
 30
0.0
 11
42.20881098020543
 21
4.957965879466778
 31
0.0
  0
LINE
  5
22B11
  8
0
  6
CONTINUOUS
 10
41.55324679719776
 20
3.628882487378919
 30
0.0
 11
42.52627329278561
 21
4.601908982966772
 31
0.0
  0
LINE
  5
22B12
  8
0
  6
CONTINUOUS
 10
41.87070910977793
 20
3.272825590878912
 30
0.0
 11
42.84373560536579
 21
4.245852086466765
 31
0.0
  0
LINE
  5
22B13
  8
0
  6
CONTINUOUS
 10
43.57899999995641
 20
7.001674108297943
 30
0.0
 11
44.99999999995498
 21
8.422674108296516
 31
0.0
  0
LINE
  5
22B14
  8
0
  6
CONTINUOUS
 10
43.57899999995641
 20
6.328154899217758
 30
0.0
 11
44.99999999995498
 21
7.749154899216329
 31
0.0
  0
LINE
  5
22B15
  8
0
  6
CONTINUOUS
 10
43.57899999995641
 20
5.654635690137571
 30
0.0
 11
44.99999999995498
 21
7.075635690136142
 31
0.0
  0
LINE
  5
22B16
  8
0
  6
CONTINUOUS
 10
43.57899999995641
 20
4.981116481057384
 30
0.0
 11
44.99999999995498
 21
6.402116481055955
 31
0.0
  0
LINE
  5
22B17
  8
0
  6
CONTINUOUS
 10
39.27140272797921
 20
-0.0000000000000009
 30
0.0
 11
40.02599999995994
 21
0.7545972719807246
 31
0.0
  0
LINE
  5
22B18
  8
0
  6
CONTINUOUS
 10
39.9449219370594
 20
-0.0000000000000009
 30
0.0
 11
40.02599999995994
 21
0.0810780629005379
 31
0.0
  0
LINE
  5
22B19
  8
0
  6
CONTINUOUS
 10
42.18817142235812
 20
2.916768694378905
 30
0.0
 11
43.16119791794597
 21
3.889795189966758
 31
0.0
  0
LINE
  5
22B1A
  8
0
  6
CONTINUOUS
 10
42.50563373493829
 20
2.560711797878898
 30
0.0
 11
43.47866023052615
 21
3.533738293466751
 31
0.0
  0
LINE
  5
22B1B
  8
0
  6
CONTINUOUS
 10
43.57899999995641
 20
4.307597271977198
 30
0.0
 11
44.99999999995498
 21
5.728597271975769
 31
0.0
  0
LINE
  5
22B1C
  8
0
  6
CONTINUOUS
 10
43.57899999995641
 20
3.634078062897011
 30
0.0
 11
44.99999999995498
 21
5.055078062895582
 31
0.0
  0
LINE
  5
22B1D
  8
0
  6
CONTINUOUS
 10
42.82309604751848
 20
2.204654901378891
 30
0.0
 11
44.99999999995498
 21
4.381558853815395
 31
0.0
  0
LINE
  5
22B1E
  8
0
  6
CONTINUOUS
 10
43.14055836009865
 20
1.848598004878885
 30
0.0
 11
44.99999999995498
 21
3.70803964473521
 31
0.0
  0
LINE
  5
22B1F
  8
0
  6
CONTINUOUS
 10
43.45802067267883
 20
1.492541108378878
 30
0.0
 11
44.99999999995498
 21
3.034520435655023
 31
0.0
  0
LINE
  5
22B20
  8
0
  6
CONTINUOUS
 10
43.77548298525902
 20
1.136484211878871
 30
0.0
 11
44.99999999995498
 21
2.361001226574837
 31
0.0
  0
LINE
  5
22B21
  8
0
  6
CONTINUOUS
 10
44.09294529783919
 20
0.7804273153788639
 30
0.0
 11
44.99999999995498
 21
1.687482017494649
 31
0.0
  0
LINE
  5
22B22
  8
0
  6
CONTINUOUS
 10
44.41040761041938
 20
0.4243704188788566
 30
0.0
 11
44.99999999995498
 21
1.013962808414463
 31
0.0
  0
LINE
  5
22B23
  8
0
  6
CONTINUOUS
 10
44.72786992299955
 20
0.0683135223788494
 30
0.0
 11
44.99999999995498
 21
0.340443599334276
 31
0.0
  0
LINE
  5
22B24
  8
0
  6
CONTINUOUS
 10
39.12223903415696
 20
-0.0000000000000009
 30
0.0
 11
38.60499999996136
 21
0.5172390341955961
 31
0.0
  0
LINE
  5
22B25
  8
0
  6
CONTINUOUS
 10
39.79575824323715
 20
-0.0000000000000009
 30
0.0
 11
38.60499999996136
 21
1.190758243275783
 31
0.0
  0
LINE
  5
22B26
  8
0
  6
CONTINUOUS
 10
40.02599999995994
 20
0.443277452357397
 30
0.0
 11
38.60499999996136
 21
1.864277452355969
 31
0.0
  0
LINE
  5
22B27
  8
0
  6
CONTINUOUS
 10
40.02599999995994
 20
1.116796661437583
 30
0.0
 11
38.60499999996136
 21
2.537796661436155
 31
0.0
  0
LINE
  5
22B28
  8
0
  6
CONTINUOUS
 10
40.02599999995994
 20
1.79031587051777
 30
0.0
 11
38.60499999996136
 21
3.211315870516341
 31
0.0
  0
LINE
  5
22B29
  8
0
  6
CONTINUOUS
 10
40.02599999995994
 20
2.463835079597956
 30
0.0
 11
38.60499999996136
 21
3.884835079596527
 31
0.0
  0
LINE
  5
22B2A
  8
0
  6
CONTINUOUS
 10
40.02599999995994
 20
3.137354288678143
 30
0.0
 11
38.60499999996136
 21
4.558354288676714
 31
0.0
  0
LINE
  5
22B2B
  8
0
  6
CONTINUOUS
 10
40.02599999995994
 20
3.810873497758329
 30
0.0
 11
38.60499999996136
 21
5.2318734977569
 31
0.0
  0
LINE
  5
22B2C
  8
0
  6
CONTINUOUS
 10
40.02599999995994
 20
4.484392706838515
 30
0.0
 11
38.60499999996136
 21
5.905392706837086
 31
0.0
  0
LINE
  5
22B2D
  8
0
  6
CONTINUOUS
 10
44.99999999995498
 20
0.183911915923658
 30
0.0
 11
41.53858364506288
 21
3.64532827081576
 31
0.0
  0
LINE
  5
22B2E
  8
0
  6
CONTINUOUS
 10
40.02599999995994
 20
5.157911915918703
 30
0.0
 11
38.60499999996136
 21
6.578911915917274
 31
0.0
  0
LINE
  5
22B2F
  8
0
  6
CONTINUOUS
 10
44.99999999995498
 20
0.8574311250038447
 30
0.0
 11
38.60499999996136
 21
7.25243112499746
 31
0.0
  0
LINE
  5
22B30
  8
0
  6
CONTINUOUS
 10
44.99999999995498
 20
1.530950334084031
 30
0.0
 11
38.60499999996136
 21
7.925950334077647
 31
0.0
  0
LINE
  5
22B31
  8
0
  6
CONTINUOUS
 10
44.99999999995498
 20
2.204469543164218
 30
0.0
 11
43.57899999995641
 21
3.625469543162789
 31
0.0
  0
LINE
  5
22B32
  8
0
  6
CONTINUOUS
 10
41.89876730984767
 20
5.305702233271528
 30
0.0
 11
38.60499999996136
 21
8.599469543157834
 31
0.0
  0
LINE
  5
22B33
  8
0
  6
CONTINUOUS
 10
44.99999999995498
 20
2.877988752244405
 30
0.0
 11
43.57899999995641
 21
4.298988752242975
 31
0.0
  0
LINE
  5
22B34
  8
0
  6
CONTINUOUS
 10
44.99999999995498
 20
3.551507961324591
 30
0.0
 11
43.57899999995641
 21
4.972507961323163
 31
0.0
  0
LINE
  5
22B35
  8
0
  6
CONTINUOUS
 10
44.99999999995498
 20
4.225027170404777
 30
0.0
 11
43.57899999995641
 21
5.646027170403348
 31
0.0
  0
LINE
  5
22B36
  8
0
  6
CONTINUOUS
 10
44.99999999995498
 20
4.898546379484964
 30
0.0
 11
43.57899999995641
 21
6.319546379483535
 31
0.0
  0
LINE
  5
22B37
  8
0
  6
CONTINUOUS
 10
44.99999999995498
 20
5.572065588565151
 30
0.0
 11
43.57899999995641
 21
6.993065588563722
 31
0.0
  0
LINE
  5
22B38
  8
0
  6
CONTINUOUS
 10
44.99999999995498
 20
6.245584797645336
 30
0.0
 11
43.57899999995641
 21
7.666584797643908
 31
0.0
  0
LINE
  5
22B39
  8
0
  6
CONTINUOUS
 10
44.99999999995498
 20
6.919104006725522
 30
0.0
 11
43.57899999995641
 21
8.340104006724093
 31
0.0
  0
LINE
  5
22B3A
  8
0
  6
CONTINUOUS
 10
44.99999999995498
 20
7.592623215805709
 30
0.0
 11
43.82952321576943
 21
8.763099999991255
 31
0.0
  0
LINE
  5
22B3B
  8
0
  6
CONTINUOUS
 10
44.99999999995498
 20
8.266142424885896
 30
0.0
 11
44.50304242484962
 21
8.763099999991255
 31
0.0
  0
ENDBLK
  5
22B65
  8
0
  0
BLOCK
  8
0
  2
*X169
 70
     1
 10
0.0
 20
0.0
 30
0.0
  3
*X169
  1

  0
LINE
  5
22B3D
  8
0
  6
CONTINUOUS
 10
0.0
 20
8.548461116714023
 30
0.0
 11
0.2146388832772324
 21
8.763099999991255
 31
0.0
  0
LINE
  5
22B3E
  8
0
  6
CONTINUOUS
 10
-0.0000000000000002
 20
7.874941907633837
 30
0.0
 11
0.8881580923574184
 21
8.763099999991255
 31
0.0
  0
LINE
  5
22B3F
  8
0
  6
CONTINUOUS
 10
0.0
 20
7.20142269855365
 30
0.0
 11
1.420999999998572
 21
8.622422698552223
 31
0.0
  0
LINE
  5
22B40
  8
0
  6
CONTINUOUS
 10
-0.0000000000000001
 20
6.527903489473465
 30
0.0
 11
1.420999999998571
 21
7.948903489472036
 31
0.0
  0
LINE
  5
22B41
  8
0
  6
CONTINUOUS
 10
-0.0000000000000002
 20
5.854384280393278
 30
0.0
 11
1.420999999998571
 21
7.275384280391849
 31
0.0
  0
LINE
  5
22B42
  8
0
  6
CONTINUOUS
 10
-0.0000000000000002
 20
5.180865071313091
 30
0.0
 11
1.420999999998571
 21
6.601865071311663
 31
0.0
  0
LINE
  5
22B43
  8
0
  6
CONTINUOUS
 10
0.0
 20
4.507345862232905
 30
0.0
 11
1.420999999998571
 21
5.928345862231477
 31
0.0
  0
LINE
  5
22B44
  8
0
  6
CONTINUOUS
 10
-0.0000000000000003
 20
3.833826653152718
 30
0.0
 11
1.420999999998571
 21
5.25482665315129
 31
0.0
  0
LINE
  5
22B45
  8
0
  6
CONTINUOUS
 10
-0.0000000000000002
 20
3.160307444072532
 30
0.0
 11
1.420999999998571
 21
4.581307444071103
 31
0.0
  0
LINE
  5
22B46
  8
0
  6
CONTINUOUS
 10
-0.0000000000000001
 20
2.486788234992345
 30
0.0
 11
1.420999999998571
 21
3.907788234990917
 31
0.0
  0
LINE
  5
22B47
  8
0
  6
CONTINUOUS
 10
-0.0000000000000006
 20
1.813269025912159
 30
0.0
 11
1.420999999998571
 21
3.234269025910731
 31
0.0
  0
LINE
  5
22B48
  8
0
  6
CONTINUOUS
 10
0.0
 20
1.139749816831973
 30
0.0
 11
1.420999999998571
 21
2.560749816830544
 31
0.0
  0
LINE
  5
22B49
  8
0
  6
CONTINUOUS
 10
0.0000000000000002
 20
0.466230607751787
 30
0.0
 11
1.420999999998571
 21
1.887230607750358
 31
0.0
  0
LINE
  5
22B4A
  8
0
  6
CONTINUOUS
 10
0.2072886013284003
 20
-0.0000000000000009
 30
0.0
 11
1.420999999998571
 21
1.213711398670171
 31
0.0
  0
LINE
  5
22B4B
  8
0
  6
CONTINUOUS
 10
0.8808078104085864
 20
-0.0000000000000009
 30
0.0
 11
1.420999999998571
 21
0.5401921895899839
 31
0.0
  0
LINE
  5
22B4C
  8
0
  6
CONTINUOUS
 10
0.0581249075061505
 20
-0.0000000000000009
 30
0.0
 11
-0.0000000000000002
 21
0.0581249075061496
 31
0.0
  0
LINE
  5
22B4D
  8
0
  6
CONTINUOUS
 10
0.7316441165863372
 20
-0.0000000000000009
 30
0.0
 11
-0.0000000000000002
 21
0.7316441165863363
 31
0.0
  0
LINE
  5
22B4E
  8
0
  6
CONTINUOUS
 10
1.405163325666523
 20
-0.0000000000000009
 30
0.0
 11
-0.0000000000000002
 21
1.405163325666523
 31
0.0
  0
LINE
  5
22B4F
  8
0
  6
CONTINUOUS
 10
1.420999999998572
 20
0.6576825347481381
 30
0.0
 11
-0.0000000000000001
 21
2.07868253474671
 31
0.0
  0
LINE
  5
22B50
  8
0
  6
CONTINUOUS
 10
1.420999999998571
 20
1.331201743828324
 30
0.0
 11
-0.0000000000000001
 21
2.752201743826896
 31
0.0
  0
LINE
  5
22B51
  8
0
  6
CONTINUOUS
 10
1.420999999998571
 20
2.004720952908511
 30
0.0
 11
-0.0000000000000002
 21
3.425720952907082
 31
0.0
  0
LINE
  5
22B52
  8
0
  6
CONTINUOUS
 10
1.420999999998571
 20
2.678240161988697
 30
0.0
 11
-0.0000000000000001
 21
4.099240161987269
 31
0.0
  0
LINE
  5
22B53
  8
0
  6
CONTINUOUS
 10
1.420999999998572
 20
3.351759371068884
 30
0.0
 11
0.0
 21
4.772759371067455
 31
0.0
  0
LINE
  5
22B54
  8
0
  6
CONTINUOUS
 10
1.420999999998571
 20
4.02527858014907
 30
0.0
 11
-0.0000000000000003
 21
5.446278580147642
 31
0.0
  0
LINE
  5
22B55
  8
0
  6
CONTINUOUS
 10
1.420999999998571
 20
4.698797789229257
 30
0.0
 11
0.0
 21
6.119797789227828
 31
0.0
  0
LINE
  5
22B56
  8
0
  6
CONTINUOUS
 10
1.420999999998571
 20
5.372316998309444
 30
0.0
 11
-0.0000000000000001
 21
6.793316998308015
 31
0.0
  0
LINE
  5
22B57
  8
0
  6
CONTINUOUS
 10
1.420999999998572
 20
6.045836207389629
 30
0.0
 11
-0.0000000000000004
 21
7.466836207388202
 31
0.0
  0
LINE
  5
22B58
  8
0
  6
CONTINUOUS
 10
1.420999999998571
 20
6.719355416469816
 30
0.0
 11
0.0
 21
8.140355416468388
 31
0.0
  0
LINE
  5
22B59
  8
0
  6
CONTINUOUS
 10
1.420999999998571
 20
7.392874625550003
 30
0.0
 11
0.0507746255573185
 21
8.763099999991255
 31
0.0
  0
LINE
  5
22B5A
  8
0
  6
CONTINUOUS
 10
1.420999999998571
 20
8.06639383463019
 30
0.0
 11
0.7242938346375052
 21
8.763099999991255
 31
0.0
  0
LINE
  5
22B5B
  8
0
  6
CONTINUOUS
 10
1.420999999998571
 20
8.739913043710375
 30
0.0
 11
1.397813043717691
 21
8.763099999991255
 31
0.0
  0
ENDBLK
  5
22B67
  8
0
  0
ENDSEC
  0
SECTION
  2
ENTITIES
  0
LINE
  5
2211E
  8
01
 10
-240.8847793562684
 20
-1009.60475701925
 30
0.0
 11
-187.1847793562685
 21
-1009.604757019251
 31
0.0
  0
ARC
  5
2211F
  8
01
 10
-240.8847793562684
 20
-1008.60475701925
 30
0.0
 40
1.0
 50
180.0
 51
270.0
  0
ARC
  5
22120
  8
01
 10
-187.1847793562685
 20
-1009.304757019251
 30
0.0
 40
0.3
 50
270.0
 51
0.0
  0
LINE
  5
22121
  8
01
 10
-240.8847793562685
 20
-981.6047570192501
 30
0.0
 11
-187.1847793562684
 21
-981.6047570192504
 31
0.0
  0
ARC
  5
22122
  8
01
 10
-240.8847793562685
 20
-982.6047570192501
 30
0.0
 40
1.0
 50
90.0
 51
180.0
  0
ARC
  5
22123
  8
01
 10
-187.1847793562684
 20
-981.9047570192504
 30
0.0
 40
0.3
 50
0.0
 51
90.0
  0
LINE
  5
22124
  8
01
 10
-186.8847793562685
 20
-1009.304757019251
 30
0.0
 11
-186.8847793562666
 21
-981.9047570192504
 31
0.0
  0
LINE
  5
22125
  8
01
 10
-241.8847793562684
 20
-1008.60475701925
 30
0.0
 11
-241.8847793562685
 21
-982.6047570192501
 31
0.0
  0
LINE
  5
22126
  8
01
 10
-186.5847793562675
 20
-981.6047570192504
 30
0.0
 11
302.8152206437276
 21
-981.6047570192502
 31
0.0
  0
ARC
  5
22127
  8
01
 10
302.8152206437276
 20
-981.9047570192503
 30
0.0
 40
0.3
 50
0.0
 51
90.0
  0
LINE
  5
22128
  8
01
 10
-186.5847793562677
 20
-1009.60475701925
 30
0.0
 11
302.8152206437278
 21
-1009.60475701925
 31
0.0
  0
ARC
  5
22129
  8
01
 10
302.8152206437278
 20
-1009.30475701925
 30
0.0
 40
0.3
 50
270.0
 51
0.0
  0
ARC
  5
2212A
  8
01
 10
-186.5847793562675
 20
-981.9047570192502
 30
0.0
 40
0.3
 50
90.0
 51
180.0
  0
LINE
  5
2212B
  8
01
 10
303.1152206437275
 20
-981.9047570192503
 30
0.0
 11
303.1152206437278
 21
-1009.30475701925
 31
0.0
  0
ARC
  5
2212C
  8
01
 10
-186.5847793562677
 20
-1009.30475701925
 30
0.0
 40
0.3
 50
180.0
 51
270.0
  0
LINE
  5
2212D
  8
01
 10
-186.8847793562675
 20
-981.9047570192502
 30
0.0
 11
-186.8847793562676
 21
-1009.30475701925
 31
0.0
  0
LINE
  5
2212E
  8
01
 10
357.1152206437278
 20
-1009.60475701925
 30
0.0
 11
303.4152206437279
 21
-1009.604757019251
 31
0.0
  0
ARC
  5
2212F
  8
01
 10
357.1152206437278
 20
-1008.60475701925
 30
0.0
 40
1.0
 50
270.0
 51
0.0
  0
LINE
  5
22130
  8
01
 10
357.1152206437279
 20
-981.6047570192502
 30
0.0
 11
303.4152206437278
 21
-981.6047570192505
 31
0.0
  0
ARC
  5
22131
  8
01
 10
357.1152206437279
 20
-982.6047570192502
 30
0.0
 40
1.0
 50
0.0
 51
90.0
  0
ARC
  5
22132
  8
01
 10
303.4152206437278
 20
-981.9047570192505
 30
0.0
 40
0.3
 50
90.0
 51
180.0
  0
LINE
  5
22133
  8
01
 10
303.1152206437279
 20
-1009.304757019251
 30
0.0
 11
303.1152206437259
 21
-981.9047570192505
 31
0.0
  0
LINE
  5
22134
  8
01
 10
358.1152206437278
 20
-1008.60475701925
 30
0.0
 11
358.1152206437279
 21
-982.6047570192502
 31
0.0
  0
LINE
  5
22135
  8
01
 10
-241.8847793562722
 20
-898.868362033071
 30
0.0
 11
-186.8847793562722
 21
-898.8683620330711
 31
0.0
  0
LINE
  5
22136
  8
01
 10
-241.884779356272
 20
-949.8683620330708
 30
0.0
 11
-241.8847793562722
 21
-898.8683620330711
 31
0.0
  0
ARC
  5
22137
  8
01
 10
-240.884779356272
 20
-949.8683620330708
 30
0.0
 40
0.9999999999999998
 50
180.0
 51
270.0
  0
LINE
  5
22138
  8
01
 10
-187.1847793562721
 20
-950.868362033071
 30
0.0
 11
-240.884779356272
 21
-950.8683620330708
 31
0.0
  0
ARC
  5
22139
  8
01
 10
-187.1847793562721
 20
-950.568362033071
 30
0.0
 40
0.2999999999999999
 50
270.0
 51
0.0
  0
LINE
  5
2213A
  8
01
 10
-186.8847793562721
 20
-950.568362033071
 30
0.0
 11
-186.8847793562684
 21
-898.8683620330711
 31
0.0
  0
LINE
  5
2213B
  8
1CENTER
 10
-234.5847793562723
 20
-918.8683620330723
 30
0.0
 11
-246.5847793562723
 21
-918.8683620330723
 31
0.0
  0
LINE
  5
2213C
  8
01
 10
-186.584779356272
 20
-930.8683620330712
 30
0.0
 11
302.8152206437235
 21
-930.8683620330712
 31
0.0
  0
ARC
  5
2213D
  8
01
 10
302.8152206437235
 20
-931.1683620330712
 30
0.0
 40
0.3
 50
0.0
 51
90.0
  0
ARC
  5
2213E
  8
01
 10
-186.5847793562721
 20
-950.568362033071
 30
0.0
 40
0.3
 50
180.0
 51
270.0
  0
LINE
  5
2213F
  8
01
 10
-186.5847793562721
 20
-950.8683620330712
 30
0.0
 11
302.8152206437235
 21
-950.8683620330712
 31
0.0
  0
ARC
  5
22140
  8
01
 10
302.8152206437235
 20
-950.5683620330711
 30
0.0
 40
0.3
 50
270.0
 51
0.0
  0
LINE
  5
22141
  8
01
 10
-186.8847793562719
 20
-931.168362033071
 30
0.0
 11
-186.884779356272
 21
-950.568362033071
 31
0.0
  0
ARC
  5
22142
  8
01
 10
-186.584779356272
 20
-931.168362033071
 30
0.0
 40
0.3
 50
90.0
 51
180.0
  0
LINE
  5
22143
  8
01
 10
303.1152206437234
 20
-931.1683620330712
 30
0.0
 11
303.1152206437234
 21
-950.5683620330711
 31
0.0
  0
LINE
  5
22144
  8
01
 10
358.115220643723
 20
-898.8683620330711
 30
0.0
 11
303.115220643723
 21
-898.8683620330712
 31
0.0
  0
LINE
  5
22145
  8
01
 10
358.1152206437228
 20
-949.8683620330709
 30
0.0
 11
358.115220643723
 21
-898.8683620330712
 31
0.0
  0
ARC
  5
22146
  8
01
 10
357.1152206437228
 20
-949.8683620330709
 30
0.0
 40
0.9999999999999998
 50
270.0
 51
0.0
  0
LINE
  5
22147
  8
01
 10
303.4152206437229
 20
-950.8683620330711
 30
0.0
 11
357.1152206437228
 21
-950.8683620330709
 31
0.0
  0
ARC
  5
22148
  8
01
 10
303.4152206437229
 20
-950.5683620330711
 30
0.0
 40
0.2999999999999999
 50
180.0
 51
270.0
  0
LINE
  5
22149
  8
01
 10
303.1152206437229
 20
-950.5683620330711
 30
0.0
 11
303.1152206437191
 21
-898.8683620330712
 31
0.0
  0
LINE
  5
2214A
  8
1CENTER
 10
350.815220643723
 20
-918.8683620330725
 30
0.0
 11
362.815220643723
 21
-918.8683620330725
 31
0.0
  0
ARC
  5
2214B
  8
01
 10
303.4152206437278
 20
-1009.30475701925
 30
0.0
 40
0.3
 50
180.0
 51
270.0
  0
LINE
  5
2214D
  8
01
 10
475.283626508203
 20
-949.2673475197666
 30
0.0
 11
475.2836265082029
 21
-1019.267347519766
 31
0.0
  0
LINE
  5
2214E
  8
01
 10
487.283626508203
 20
-949.2673475197666
 30
0.0
 11
487.283626508203
 21
-1019.267347519766
 31
0.0
  0
LINE
  5
2214F
  8
01
 10
466.283626508203
 20
-949.2673475197666
 30
0.0
 11
466.283626508203
 21
-1019.267347519766
 31
0.0
  0
TEXT
  5
22154
  8
1TEXT
 10
381.7559838845871
 20
-873.3085547716531
 30
0.0
 40
8.0
  1
KH-46-X
  0
LINE
  5
22155
  8
1DIM
 10
378.0614956876266
 20
-886.2308443951796
 30
0.0
 11
504.6100490805139
 21
-886.230844395179
 31
0.0
  0
TEXT
  5
22156
  8
1TEXT
 10
378.99482902096
 20
-884.7308443951796
 30
0.0
 40
4.0
  1
表面処理：脚部
 72
     1
 11
395.4614956876267
 21
-884.7308443951796
 31
0.0
  0
LINE
  5
22157
  8
1DIM
 10
378.0614956876266
 20
-879.2308443951796
 30
0.0
 11
504.610049080514
 21
-879.230844395179
 31
0.0
  0
TEXT
  5
22158
  8
1TEXT
 10
477.6811263619085
 20
-884.7308443951796
 30
0.0
 40
4.0
  1
コード
 72
     1
 11
484.5477930285751
 21
-884.7308443951796
 31
0.0
  0
TEXT
  5
22159
  8
1TEXT
 10
424.3792206812837
 20
-884.7308443951796
 30
0.0
 40
4.0
  1
表面処理：握り
 72
     1
 11
440.312554014617
 21
-884.7308443951796
 31
0.0
  0
LINE
  5
2215A
  8
1DIM
 10
378.0614956876263
 20
-893.2308443951794
 30
0.0
 11
504.6100490805137
 21
-893.2308443951796
 31
0.0
  0
LINE
  5
2215B
  8
1DIM
 10
413.0614956876266
 20
-900.2308443951796
 30
0.0
 11
448.0614956876266
 21
-900.2308443951796
 31
0.0
  0
LINE
  5
2215C
  8
1DIM
 10
378.0614956876263
 20
-900.2308443951794
 30
0.0
 11
504.6100490805136
 21
-900.2308443951796
 31
0.0
  0
TEXT
  5
2215D
  8
1TEXT
 10
414.2458873479513
 20
-898.945201378829
 30
0.0
 40
4.0
  1
ステンカラーヘアライン
 72
     1
 11
440.3125540146179
 21
-898.945201378829
 31
0.0
  0
TEXT
  5
2215E
  8
1TEXT
 10
421.7125540146179
 20
-891.945201378829
 30
0.0
 40
4.0
  1
ブラストシルバー
 72
     1
 11
440.3125540146179
 21
-891.945201378829
 31
0.0
  0
LINE
  5
2215F
  8
1DIM
 10
413.0614956876266
 20
-879.2308443951796
 30
0.0
 11
413.0614956876263
 21
-913.9219039258098
 31
0.0
  0
LINE
  5
22160
  8
1DIM
 10
466.5322290155905
 20
-879.2308443951791
 30
0.0
 11
466.5322290155905
 21
-913.9219039258099
 31
0.0
  0
LINE
  5
22161
  8
1DIM
 10
504.610049080514
 20
-879.230844395179
 30
0.0
 11
504.6100490805134
 21
-913.92190392581
 31
0.0
  0
LINE
  5
22162
  8
1DIM
 10
378.0614956876266
 20
-879.2308443951796
 30
0.0
 11
378.0614956876262
 21
-913.9219039258097
 31
0.0
  0
TEXT
  5
22163
  8
1TEXT
 10
470.1239168258308
 20
-898.945201378829
 30
0.0
 40
4.0
  1
KH-46-ZC
 72
     1
 11
485.471139048053
 21
-898.945201378829
 31
0.0
  0
TEXT
  5
22164
  8
1TEXT
 10
470.1239168258308
 20
-891.945201378829
 30
0.0
 40
4.0
  1
KH-46-SC
 72
     1
 11
485.471139048053
 21
-891.945201378829
 31
0.0
  0
TEXT
  5
22165
  8
1TEXT
 10
385.9948290209607
 20
-891.945201378829
 30
0.0
 40
4.0
  1
クローム
 72
     1
 11
395.4614956876273
 21
-891.945201378829
 31
0.0
  0
LINE
  5
22166
  8
01
 10
420.2836265082032
 20
-981.6047570192502
 30
0.0
 11
466.283626508203
 21
-981.6047570192503
 31
0.0
  0
ARC
  5
22167
  8
01
 10
420.2836265082032
 20
-987.6047570192502
 30
0.0
 40
6.0
 50
90.0
 51
180.0
  0
LINE
  5
22168
  8
01
 10
420.2836265082032
 20
-1009.60475701925
 30
0.0
 11
466.283626508203
 21
-1009.60475701925
 31
0.0
  0
LINE
  5
22169
  8
01
 10
414.2836265082032
 20
-1003.60475701925
 30
0.0
 11
414.2836265082032
 21
-987.6047570192502
 31
0.0
  0
ARC
  5
2216A
  8
01
 10
420.2836265082032
 20
-1003.60475701925
 30
0.0
 40
6.0
 50
180.0
 51
270.0
  0
LINE
  5
2216B
  8
01
 10
466.283626508203
 20
-1009.60475701925
 30
0.0
 11
466.283626508203
 21
-981.6047570192503
 31
0.0
  0
LINE
  5
2216C
  8
1CENTER
 10
481.9862704584593
 20
-995.6047570192503
 30
0.0
 11
398.0300590852958
 21
-995.6047570192502
 31
0.0
  0
CIRCLE
  5
2216D
  8
01
 10
446.283626508203
 20
-995.6047570192503
 30
0.0
 40
3.0
  0
LINE
  5
2216E
  8
1CENTER
 10
440.2836265082027
 20
-995.60475701925
 30
0.0
 11
452.2836265082027
 21
-995.60475701925
 31
0.0
  0
LINE
  5
2216F
  8
1CENTER
 10
446.2836265082027
 20
-1001.60475701925
 30
0.0
 11
446.2836265082027
 21
-989.60475701925
 31
0.0
  0
LINE
  5
22171
  8
1PHANTOM
 10
460.2836366657286
 20
-999.9797570192499
 30
0.0
 11
460.2836162840706
 21
-991.2202149502449
 31
0.0
  0
LINE
  5
22172
  8
1PHANTOM
 10
460.2836366435261
 20
-999.9702149502449
 30
0.0
 11
461.2836264860009
 21
-999.9702149502449
 31
0.0
  0
LINE
  5
22173
  8
1PHANTOM
 10
460.2836366435261
 20
-998.2702149502446
 30
0.0
 11
461.2836264860009
 21
-998.2702149502446
 31
0.0
  0
LINE
  5
22174
  8
1PHANTOM
 10
460.2836162840706
 20
-991.2202149502449
 30
0.0
 11
461.2836265082035
 21
-991.2202149502453
 31
0.0
  0
LINE
  5
22175
  8
1PHANTOM
 10
460.2836162840706
 20
-992.9202149502452
 30
0.0
 11
461.2836264860009
 21
-992.9202149502452
 31
0.0
  0
LINE
  5
22177
  8
1PHANTOM
 10
492.4014920720467
 20
-998.1047570192503
 30
0.0
 11
493.4014920720467
 21
-993.1047570192503
 31
0.0
  0
LINE
  5
22178
  8
1PHANTOM
 10
509.2641634094355
 20
-995.2914003323066
 30
0.0
 11
509.1141634094356
 21
-994.5414003323066
 31
0.0
  0
LINE
  5
22179
  8
1PHANTOM
 10
498.4014920720467
 20
-998.1047570192503
 30
0.0
 11
499.4014920720467
 21
-993.1047570192503
 31
0.0
  0
LINE
  5
2217A
  8
1PHANTOM
 10
499.5514920720468
 20
-993.8547570192503
 30
0.0
 11
499.4014920720467
 21
-993.1047570192503
 31
0.0
  0
LINE
  5
2217B
  8
1PHANTOM
 10
501.5514920720468
 20
-993.8547570192503
 30
0.0
 11
501.4014920720467
 21
-993.1047570192503
 31
0.0
  0
LINE
  5
2217C
  8
1PHANTOM
 10
500.4014920720467
 20
-998.1047570192503
 30
0.0
 11
500.2514920720469
 21
-997.3547570192503
 31
0.0
  0
LINE
  5
2217D
  8
1PHANTOM
 10
500.4014920720467
 20
-998.1047570192503
 30
0.0
 11
501.4014920720467
 21
-993.1047570192503
 31
0.0
  0
LINE
  5
2217E
  8
1PHANTOM
 10
505.4676195800578
 20
-994.2741194791955
 30
0.0
 11
505.3176195800577
 21
-993.5241194791955
 31
0.0
  0
LINE
  5
2217F
  8
1PHANTOM
 10
507.3658914947466
 20
-994.7827599057508
 30
0.0
 11
507.2158914947465
 21
-994.0327599057508
 31
0.0
  0
LINE
  5
22180
  8
1PHANTOM
 10
506.5514873378916
 20
-997.3547806900268
 30
0.0
 11
506.4014873378915
 21
-996.6047806900268
 31
0.0
  0
LINE
  5
22181
  8
1PHANTOM
 10
506.5514873378916
 20
-997.3547806900268
 30
0.0
 11
507.2158914947465
 21
-994.0327599057508
 31
0.0
  0
LINE
  5
22182
  8
1PHANTOM
 10
508.6647359919434
 20
-996.7885374197675
 30
0.0
 11
508.5147359919433
 21
-996.0385374197675
 31
0.0
  0
LINE
  5
22183
  8
1PHANTOM
 10
503.5514920720468
 20
-993.8547570192503
 30
0.0
 11
503.4014920720467
 21
-993.1047570192503
 31
0.0
  0
LINE
  5
22184
  8
1PHANTOM
 10
502.4014920720467
 20
-998.1047570192503
 30
0.0
 11
502.2514920720469
 21
-997.3547570192503
 31
0.0
  0
LINE
  5
22185
  8
1PHANTOM
 10
502.4014920720467
 20
-998.1047570192503
 30
0.0
 11
503.4014920720467
 21
-993.1047570192503
 31
0.0
  0
LINE
  5
22186
  8
1PHANTOM
 10
504.4382386838395
 20
-997.9210239602861
 30
0.0
 11
504.2882386838396
 21
-997.1710239602861
 31
0.0
  0
LINE
  5
22187
  8
1PHANTOM
 10
504.4382386838395
 20
-997.9210239602861
 30
0.0
 11
505.3176195800577
 21
-993.5241194791955
 31
0.0
  0
LINE
  5
22188
  8
1PHANTOM
 10
508.6647359919434
 20
-996.7885374197675
 30
0.0
 11
509.1141634094356
 21
-994.5414003323066
 31
0.0
  0
LINE
  5
22189
  8
1PHANTOM
 10
493.5514920720468
 20
-993.8547570192503
 30
0.0
 11
493.4014920720467
 21
-993.1047570192503
 31
0.0
  0
LINE
  5
2218A
  8
1PHANTOM
 10
494.4014920720467
 20
-998.1047570192503
 30
0.0
 11
494.2514920720469
 21
-997.3547570192503
 31
0.0
  0
LINE
  5
2218B
  8
1PHANTOM
 10
494.4014920720467
 20
-998.1047570192503
 30
0.0
 11
495.4014920720467
 21
-993.1047570192503
 31
0.0
  0
LINE
  5
2218C
  8
1PHANTOM
 10
497.5514920720468
 20
-993.8547570192503
 30
0.0
 11
497.4014920720467
 21
-993.1047570192503
 31
0.0
  0
LINE
  5
2218D
  8
1PHANTOM
 10
496.4014920720467
 20
-998.1047570192503
 30
0.0
 11
496.2514920720469
 21
-997.3547570192503
 31
0.0
  0
LINE
  5
2218E
  8
1PHANTOM
 10
498.4014920720467
 20
-998.1047570192503
 30
0.0
 11
498.2514920720469
 21
-997.3547570192503
 31
0.0
  0
LINE
  5
2218F
  8
1PHANTOM
 10
496.4014920720467
 20
-998.1047570192503
 30
0.0
 11
497.4014920720467
 21
-993.1047570192503
 31
0.0
  0
LINE
  5
22190
  8
1PHANTOM
 10
495.5514920720468
 20
-993.8547570192503
 30
0.0
 11
495.4014920720467
 21
-993.1047570192503
 31
0.0
  0
LINE
  5
22191
  8
1PHANTOM
 10
461.5514920720468
 20
-993.8547570192503
 30
0.0
 11
461.4014920720467
 21
-993.1047570192503
 31
0.0
  0
LINE
  5
22192
  8
1PHANTOM
 10
460.4014920720467
 20
-998.1047570192503
 30
0.0
 11
460.2514920720469
 21
-997.3547570192503
 31
0.0
  0
LINE
  5
22193
  8
1PHANTOM
 10
460.4014920720467
 20
-998.1047570192503
 30
0.0
 11
461.4014920720467
 21
-993.1047570192503
 31
0.0
  0
LINE
  5
22194
  8
1PHANTOM
 10
463.5514920720468
 20
-993.8547570192503
 30
0.0
 11
463.4014920720467
 21
-993.1047570192503
 31
0.0
  0
LINE
  5
22195
  8
1PHANTOM
 10
462.4014920720467
 20
-998.1047570192503
 30
0.0
 11
462.2514920720469
 21
-997.3547570192503
 31
0.0
  0
LINE
  5
22196
  8
1PHANTOM
 10
462.4014920720467
 20
-998.1047570192503
 30
0.0
 11
463.4014920720467
 21
-993.1047570192503
 31
0.0
  0
LINE
  5
22197
  8
1PHANTOM
 10
465.5514920720468
 20
-993.8547570192503
 30
0.0
 11
465.4014920720467
 21
-993.1047570192503
 31
0.0
  0
LINE
  5
22198
  8
1PHANTOM
 10
464.4014920720467
 20
-998.1047570192503
 30
0.0
 11
464.2514920720469
 21
-997.3547570192503
 31
0.0
  0
LINE
  5
22199
  8
1PHANTOM
 10
464.4014920720467
 20
-998.1047570192503
 30
0.0
 11
465.4014920720467
 21
-993.1047570192503
 31
0.0
  0
LINE
  5
2219A
  8
1PHANTOM
 10
467.5514920720468
 20
-993.8547570192503
 30
0.0
 11
467.4014920720467
 21
-993.1047570192503
 31
0.0
  0
LINE
  5
2219B
  8
1PHANTOM
 10
466.4014920720467
 20
-998.1047570192503
 30
0.0
 11
466.2514920720469
 21
-997.3547570192503
 31
0.0
  0
LINE
  5
2219C
  8
1PHANTOM
 10
466.4014920720467
 20
-998.1047570192503
 30
0.0
 11
467.4014920720467
 21
-993.1047570192503
 31
0.0
  0
LINE
  5
2219D
  8
1PHANTOM
 10
469.5514920720468
 20
-993.8547570192503
 30
0.0
 11
469.4014920720467
 21
-993.1047570192503
 31
0.0
  0
LINE
  5
2219E
  8
1PHANTOM
 10
468.4014920720467
 20
-998.1047570192503
 30
0.0
 11
468.2514920720469
 21
-997.3547570192503
 31
0.0
  0
LINE
  5
2219F
  8
1PHANTOM
 10
468.4014920720467
 20
-998.1047570192503
 30
0.0
 11
469.4014920720467
 21
-993.1047570192503
 31
0.0
  0
LINE
  5
221A0
  8
1PHANTOM
 10
460.2836264860009
 20
-993.8547570192503
 30
0.0
 11
460.2836264860009
 21
-997.3547570192503
 31
0.0
  0
LINE
  5
221A1
  8
1PHANTOM
 10
488.4014920720467
 20
-998.1047570192503
 30
0.0
 11
488.2514920720469
 21
-997.3547570192503
 31
0.0
  0
LINE
  5
221A2
  8
1PHANTOM
 10
489.5514920720468
 20
-993.8547570192503
 30
0.0
 11
489.4014920720467
 21
-993.1047570192503
 31
0.0
  0
LINE
  5
221A3
  8
1PHANTOM
 10
490.4014920720467
 20
-998.1047570192503
 30
0.0
 11
490.2514920720469
 21
-997.3547570192503
 31
0.0
  0
LINE
  5
221A4
  8
1PHANTOM
 10
488.4014920720467
 20
-998.1047570192503
 30
0.0
 11
489.4014920720467
 21
-993.1047570192503
 31
0.0
  0
LINE
  5
221A5
  8
1PHANTOM
 10
476.4014920720467
 20
-998.1047570192503
 30
0.0
 11
477.4014920720467
 21
-993.1047570192503
 31
0.0
  0
LINE
  5
221A6
  8
1PHANTOM
 10
481.5514920720468
 20
-993.8547570192503
 30
0.0
 11
481.4014920720467
 21
-993.1047570192503
 31
0.0
  0
LINE
  5
221A7
  8
1PHANTOM
 10
480.4014920720467
 20
-998.1047570192503
 30
0.0
 11
480.2514920720469
 21
-997.3547570192503
 31
0.0
  0
LINE
  5
221A8
  8
1PHANTOM
 10
480.4014920720467
 20
-998.1047570192503
 30
0.0
 11
481.4014920720467
 21
-993.1047570192503
 31
0.0
  0
LINE
  5
221A9
  8
1PHANTOM
 10
478.4014920720467
 20
-998.1047570192503
 30
0.0
 11
479.4014920720467
 21
-993.1047570192503
 31
0.0
  0
LINE
  5
221AA
  8
1PHANTOM
 10
478.4014920720467
 20
-998.1047570192503
 30
0.0
 11
478.2514920720469
 21
-997.3547570192503
 31
0.0
  0
LINE
  5
221AB
  8
1PHANTOM
 10
479.5514920720468
 20
-993.8547570192503
 30
0.0
 11
479.4014920720467
 21
-993.1047570192503
 31
0.0
  0
LINE
  5
221AC
  8
1PHANTOM
 10
477.5514920720468
 20
-993.8547570192503
 30
0.0
 11
477.4014920720467
 21
-993.1047570192503
 31
0.0
  0
LINE
  5
221AD
  8
1PHANTOM
 10
484.4014920720467
 20
-998.1047570192503
 30
0.0
 11
485.4014920720467
 21
-993.1047570192503
 31
0.0
  0
LINE
  5
221AE
  8
1PHANTOM
 10
485.5514920720468
 20
-993.8547570192503
 30
0.0
 11
485.4014920720467
 21
-993.1047570192503
 31
0.0
  0
LINE
  5
221AF
  8
1PHANTOM
 10
486.4014920720467
 20
-998.1047570192503
 30
0.0
 11
486.2514920720469
 21
-997.3547570192503
 31
0.0
  0
LINE
  5
221B0
  8
1PHANTOM
 10
487.5514920720468
 20
-993.8547570192503
 30
0.0
 11
487.4014920720467
 21
-993.1047570192503
 31
0.0
  0
LINE
  5
221B1
  8
1PHANTOM
 10
486.4014920720467
 20
-998.1047570192503
 30
0.0
 11
487.4014920720467
 21
-993.1047570192503
 31
0.0
  0
LINE
  5
221B2
  8
1PHANTOM
 10
483.5514920720468
 20
-993.8547570192503
 30
0.0
 11
483.4014920720467
 21
-993.1047570192503
 31
0.0
  0
LINE
  5
221B3
  8
1PHANTOM
 10
482.4014920720467
 20
-998.1047570192503
 30
0.0
 11
482.2514920720469
 21
-997.3547570192503
 31
0.0
  0
LINE
  5
221B4
  8
1PHANTOM
 10
484.4014920720467
 20
-998.1047570192503
 30
0.0
 11
484.2514920720469
 21
-997.3547570192503
 31
0.0
  0
LINE
  5
221B5
  8
1PHANTOM
 10
482.4014920720467
 20
-998.1047570192503
 30
0.0
 11
483.4014920720467
 21
-993.1047570192503
 31
0.0
  0
LINE
  5
221B6
  8
1PHANTOM
 10
474.4014920720467
 20
-998.1047570192503
 30
0.0
 11
474.2514920720469
 21
-997.3547570192503
 31
0.0
  0
LINE
  5
221B7
  8
1PHANTOM
 10
472.4014920720467
 20
-998.1047570192503
 30
0.0
 11
473.4014920720467
 21
-993.1047570192503
 31
0.0
  0
LINE
  5
221B8
  8
1PHANTOM
 10
472.4014920720467
 20
-998.1047570192503
 30
0.0
 11
472.2514920720469
 21
-997.3547570192503
 31
0.0
  0
LINE
  5
221B9
  8
1PHANTOM
 10
473.5514920720468
 20
-993.8547570192503
 30
0.0
 11
473.4014920720467
 21
-993.1047570192503
 31
0.0
  0
LINE
  5
221BA
  8
1PHANTOM
 10
470.4014920720467
 20
-998.1047570192503
 30
0.0
 11
471.4014920720467
 21
-993.1047570192503
 31
0.0
  0
LINE
  5
221BB
  8
1PHANTOM
 10
470.4014920720467
 20
-998.1047570192503
 30
0.0
 11
470.2514920720469
 21
-997.3547570192503
 31
0.0
  0
LINE
  5
221BC
  8
1PHANTOM
 10
471.5514920720468
 20
-993.8547570192503
 30
0.0
 11
471.4014920720467
 21
-993.1047570192503
 31
0.0
  0
LINE
  5
221BD
  8
1PHANTOM
 10
476.4014920720467
 20
-998.1047570192503
 30
0.0
 11
476.2514920720469
 21
-997.3547570192503
 31
0.0
  0
LINE
  5
221BE
  8
1PHANTOM
 10
475.5514920720468
 20
-993.8547570192503
 30
0.0
 11
475.4014920720467
 21
-993.1047570192503
 31
0.0
  0
LINE
  5
221BF
  8
1PHANTOM
 10
474.4014920720467
 20
-998.1047570192503
 30
0.0
 11
475.4014920720467
 21
-993.1047570192503
 31
0.0
  0
LINE
  5
221C0
  8
1PHANTOM
 10
492.4014920720467
 20
-998.1047570192503
 30
0.0
 11
492.2514920720469
 21
-997.3547570192503
 31
0.0
  0
LINE
  5
221C1
  8
1PHANTOM
 10
491.5514920720468
 20
-993.8547570192503
 30
0.0
 11
491.4014920720467
 21
-993.1047570192503
 31
0.0
  0
LINE
  5
221C2
  8
1PHANTOM
 10
490.4014920720467
 20
-998.1047570192503
 30
0.0
 11
491.4014920720467
 21
-993.1047570192503
 31
0.0
  0
LINE
  5
221C3
  8
1PHANTOM
 10
461.2836265082035
 20
-991.2202149502453
 30
0.0
 11
461.2836264860009
 21
-999.9702149502449
 31
0.0
  0
LINE
  5
221C4
  8
1CENTER
 10
455.0518263427016
 20
-995.6047570192503
 30
0.0
 11
511.9878908371647
 21
-995.6047570192503
 31
0.0
  0
LINE
  5
221CA
  8
1DIM
 10
413.0614956876266
 20
-907.0763741604948
 30
0.0
 11
448.0614956876266
 21
-907.0763741604948
 31
0.0
  0
LINE
  5
221CB
  8
1DIM
 10
378.0614956876262
 20
-907.0763741604945
 30
0.0
 11
504.6100490805135
 21
-907.0763741604949
 31
0.0
  0
TEXT
  5
221CC
  8
1TEXT
 10
414.2458873479513
 20
-905.7907311441442
 30
0.0
 40
4.0
  1
ブラストダークブロンズ
 72
     1
 11
440.3125540146179
 21
-905.7907311441442
 31
0.0
  0
TEXT
  5
221CD
  8
1TEXT
 10
470.458639048053
 20
-905.7907311441442
 30
0.0
 40
4.0
  1
KH-46-1UC
 41
0.9
 72
     1
 11
485.471139048053
 21
-905.7907311441442
 31
0.0
  0
TEXT
  5
221CE
  8
1TEXT
 10
385.9948290209607
 20
-898.945201378829
 30
0.0
 40
4.0
  1
クローム
 72
     1
 11
395.4614956876273
 21
-898.945201378829
 31
0.0
  0
TEXT
  5
221CF
  8
1TEXT
 10
385.9948290209607
 20
-905.7907311441442
 30
0.0
 40
4.0
  1
クローム
 72
     1
 11
395.4614956876273
 21
-905.7907311441442
 31
0.0
  0
LINE
  5
221D1
  8
1PHANTOM
 10
466.283626508203
 20
-983.2547570192502
 30
0.0
 11
420.283626508203
 21
-983.2547570192502
 31
0.0
  0
ARC
  5
221D2
  8
1PHANTOM
 10
420.1836265082029
 20
-987.5047570192503
 30
0.0
 40
2.25
 50
90.0
 51
180.0
  0
LINE
  5
221D3
  8
1PHANTOM
 10
466.283626508203
 20
-985.2547570192502
 30
0.0
 11
420.1836265082029
 21
-985.2547570192503
 31
0.0
  0
ARC
  5
221D4
  8
1PHANTOM
 10
439.2836265082028
 20
-986.2547570192502
 30
0.0
 40
1.0
 50
90.0
 51
180.0
  0
LINE
  5
221D5
  8
1PHANTOM
 10
415.9336265082031
 20
-987.6047570192502
 30
0.0
 11
415.9336265082031
 21
-1003.60475701925
 31
0.0
  0
ARC
  5
221D6
  8
1PHANTOM
 10
420.283626508203
 20
-987.6047570192502
 30
0.0
 40
4.35
 50
90.0
 51
180.0
  0
LINE
  5
221D7
  8
1PHANTOM
 10
420.283626508203
 20
-1007.95475701925
 30
0.0
 11
466.283626508203
 21
-1007.95475701925
 31
0.0
  0
LINE
  5
221D8
  8
1PHANTOM
 10
417.9336265082029
 20
-987.5047570192503
 30
0.0
 11
417.9336265082031
 21
-1003.70475701925
 31
0.0
  0
ARC
  5
221D9
  8
1PHANTOM
 10
420.283626508203
 20
-1003.60475701925
 30
0.0
 40
4.35
 50
180.0
 51
270.0
  0
ARC
  5
221DA
  8
1PHANTOM
 10
420.1836265082031
 20
-1003.70475701925
 30
0.0
 40
2.25
 50
180.0
 51
270.0
  0
LINE
  5
221DB
  8
1PHANTOM
 10
420.1836265082031
 20
-1005.95475701925
 30
0.0
 11
466.283626508203
 21
-1005.95475701925
 31
0.0
  0
ARC
  5
221DC
  8
1PHANTOM
 10
439.2836265082028
 20
-1004.95475701925
 30
0.0
 40
1.0
 50
180.0
 51
270.0
  0
LINE
  5
221DD
  8
1PHANTOM
 10
466.283626508203
 20
-1007.95475701925
 30
0.0
 11
466.283626508203
 21
-983.2547570192502
 31
0.0
  0
LINE
  5
221DE
  8
1PHANTOM
 10
422.783626508203
 20
-985.2547570192503
 30
0.0
 11
422.783626508203
 21
-1005.95475701925
 31
0.0
  0
LINE
  5
221DF
  8
1PHANTOM
 10
438.2836265082028
 20
-986.2547570192502
 30
0.0
 11
438.2836265082028
 21
-1004.95475701925
 31
0.0
  0
LINE
  5
221E0
  8
1PHANTOM
 10
426.283626508203
 20
-985.2547570192503
 30
0.0
 11
426.283626508203
 21
-1005.95475701925
 31
0.0
  0
LINE
  5
221E1
  8
1PHANTOM
 10
306.1152206437195
 20
-898.8683620330712
 30
0.0
 11
355.115220643719
 21
-898.8683620330714
 31
0.0
  0
ARC
  5
221E2
  8
1PHANTOM
 10
306.4152206437194
 20
-947.4683620330711
 30
0.0
 40
0.3
 50
89.9999999999783
 51
180.0
  0
LINE
  5
221E3
  8
1PHANTOM
 10
306.1152206437193
 20
-947.4683620330711
 30
0.0
 11
306.1152206437195
 21
-948.9183620329793
 31
0.0
  0
ARC
  5
221E4
  8
1PHANTOM
 10
305.8152206437194
 20
-948.9183620329793
 30
0.0
 40
0.3
 50
269.9999999827168
 51
0.0
  0
LINE
  5
221E5
  8
1PHANTOM
 10
305.8152206436288
 20
-949.2183620329793
 30
0.0
 11
303.1152206437189
 21
-949.2183620321644
 31
0.0
  0
LINE
  5
221E6
  8
1PHANTOM
 10
273.1152206437188
 20
-933.5183620330713
 30
0.0
 11
273.1152206437188
 21
-938.7423261767935
 31
0.0
  0
LINE
  5
221E7
  8
1PHANTOM
 10
273.1152206437188
 20
-938.7423261767935
 30
0.0
 11
273.1152206437188
 21
-948.2183620330727
 31
0.0
  0
LINE
  5
221E8
  8
1PHANTOM
 10
303.1177141908416
 20
-939.4336724009947
 30
0.0
 11
303.1152206437191
 21
-898.8683620330712
 31
0.0
  0
LINE
  5
221E9
  8
1PHANTOM
 10
302.615220643719
 20
-932.5183620330713
 30
0.0
 11
303.115220643719
 21
-932.0183620330713
 31
0.0
  0
LINE
  5
221EA
  8
1PHANTOM
 10
306.115220643719
 20
-947.6683620330714
 30
0.0
 11
306.1152206437195
 21
-898.8683620330712
 31
0.0
  0
LINE
  5
221EB
  8
1PHANTOM
 10
302.615220643719
 20
-932.5183620330713
 30
0.0
 11
274.1152206437188
 21
-932.5183620330713
 31
0.0
  0
LINE
  5
221EC
  8
1PHANTOM
 10
273.1152206437188
 20
-933.5183620330713
 30
0.0
 11
274.1152206437188
 21
-932.5183620330713
 31
0.0
  0
LINE
  5
221ED
  8
1PHANTOM
 10
274.1152206437188
 20
-949.2183620330727
 30
0.0
 11
303.1152206437188
 21
-949.2183620330727
 31
0.0
  0
LINE
  5
221EE
  8
1PHANTOM
 10
273.1152206437188
 20
-948.2183620330727
 30
0.0
 11
274.1152206437188
 21
-949.2183620330727
 31
0.0
  0
LINE
  5
221EF
  8
1PHANTOM
 10
303.1152206437191
 20
-898.8683620330712
 30
0.0
 11
306.1152206437195
 21
-898.8683620330712
 31
0.0
  0
LINE
  5
221F0
  8
1PHANTOM
 10
312.7285442452666
 20
-946.1770885685703
 30
0.0
 11
312.7617824981929
 21
-942.3683620330714
 31
0.0
  0
ARC
  5
221F1
  8
1PHANTOM
 10
317.8536050019246
 20
-931.8683620330717
 30
0.0
 40
5.0
 50
90.0
 51
179.5000000000084
  0
LINE
  5
221F2
  8
1PHANTOM
 10
317.8536050019254
 20
-926.8683620330658
 30
0.0
 11
353.8795571349827
 21
-926.8683620330719
 31
0.0
  0
ARC
  5
221F3
  8
1PHANTOM
 10
353.8795571349827
 20
-925.8683620330719
 30
0.0
 40
1.0
 50
270.0
 51
359.5000000000084
  0
LINE
  5
221F4
  8
1PHANTOM
 10
311.7285823222023
 20
-947.1683620330718
 30
0.0
 11
306.4152206437192
 21
-947.1683620330714
 31
0.0
  0
ARC
  5
221F5
  8
1PHANTOM
 10
311.7285823222024
 20
-946.1683620330718
 30
0.0
 40
1.0
 50
269.9999999999935
 51
359.5000000000084
  0
LINE
  5
221F6
  8
1PHANTOM
 10
312.7617824981929
 20
-942.3683620330717
 30
0.0
 11
310.615220643712
 21
-942.3683620330717
 31
0.0
  0
LINE
  5
221F7
  8
1PHANTOM
 10
354.879519058047
 20
-925.8770885685703
 30
0.0
 11
355.115220643719
 21
-898.8683620330712
 31
0.0
  0
ARC
  5
221F8
  8
1PHANTOM
 10
310.615220643712
 20
-941.8683620330717
 30
0.0
 40
0.5
 50
180.0
 51
270.0
  0
LINE
  5
221F9
  8
1PHANTOM
 10
310.115220643712
 20
-941.8683620330717
 30
0.0
 11
310.1152206437122
 21
-939.3683620330717
 31
0.0
  0
ARC
  5
221FA
  8
1PHANTOM
 10
310.6152206437122
 20
-939.3683620330717
 30
0.0
 40
0.5
 50
90.0
 51
180.0
  0
LINE
  5
221FB
  8
1PHANTOM
 10
312.7923265354606
 20
-938.8683620330717
 30
0.0
 11
310.6152206437122
 21
-938.8683620330717
 31
0.0
  0
LINE
  5
221FC
  8
1PHANTOM
 10
312.8537953866037
 20
-931.8247293555805
 30
0.0
 11
312.7923265354606
 21
-938.8683620330717
 31
0.0
  0
LINE
  5
221FD
  8
1PHANTOM
 10
274.1131829039466
 20
-983.2545727346968
 30
0.0
 11
305.8131829039469
 21
-983.2545727346968
 31
0.0
  0
LINE
  5
221FE
  8
1PHANTOM
 10
273.1131829039466
 20
-984.2545727346968
 30
0.0
 11
274.1131829039466
 21
-983.2545727346968
 31
0.0
  0
LINE
  5
221FF
  8
1PHANTOM
 10
305.8131829039471
 20
-1007.954572734697
 30
0.0
 11
274.1131829039468
 21
-1007.954572734697
 31
0.0
  0
LINE
  5
22200
  8
1PHANTOM
 10
273.1131829039468
 20
-1006.954572734697
 30
0.0
 11
274.1131829039468
 21
-1007.954572734697
 31
0.0
  0
LINE
  5
22201
  8
1PHANTOM
 10
306.1131829039471
 20
-1007.654572734696
 30
0.0
 11
306.1131829039473
 21
-1006.201966097872
 31
0.0
  0
ARC
  5
22202
  8
1PHANTOM
 10
305.8131829039471
 20
-1007.654572734696
 30
0.0
 40
0.3
 50
270.0
 51
0.0000000000217126
  0
LINE
  5
22203
  8
1PHANTOM
 10
273.1131829039468
 20
-1006.954572734697
 30
0.0
 11
273.1131829039466
 21
-984.2545727346968
 31
0.0
  0
LINE
  5
22204
  8
1PHANTOM
 10
306.4105649432977
 20
-1005.901977520953
 30
0.0
 11
354.1219094394453
 21
-1005.485606925413
 31
0.0
  0
ARC
  5
22205
  8
1PHANTOM
 10
306.4131829039472
 20
-1006.201966097872
 30
0.0
 40
0.3
 50
90.50000000000904
 51
179.9999999999783
  0
ARC
  5
22206
  8
1PHANTOM
 10
354.1131829039471
 20
-1004.485645002349
 30
0.0
 40
1.0
 50
270.5000000000046
 51
0.0
  0
ARC
  5
22207
  8
1PHANTOM
 10
312.1131829039548
 20
-1004.852173449563
 30
0.0
 40
1.0
 50
270.5000000000046
 51
0.0000000000260551
  0
CIRCLE
  5
22208
  8
1PHANTOM
 10
344.6131829039473
 20
-995.6045727346963
 30
0.0
 40
3.0
  0
CIRCLE
  5
22209
  8
1PHANTOM
 10
319.6131829039468
 20
-995.604572734697
 30
0.0
 40
2.999999999999886
  0
LINE
  5
2220A
  8
1PHANTOM
 10
350.3131829039467
 20
-988.3045727346962
 30
0.0
 11
314.1131829039466
 21
-988.3045727346961
 31
0.0
  0
ARC
  5
2220B
  8
1PHANTOM
 10
350.3131829039467
 20
-989.3045727346962
 30
0.0
 40
1.0
 50
0.0
 51
90.0
  0
ARC
  5
2220C
  8
1PHANTOM
 10
314.1131829039466
 20
-989.3045727346961
 30
0.0
 40
1.0
 50
90.0
 51
180.0
  0
LINE
  5
2220D
  8
1PHANTOM
 10
351.3131829039464
 20
-1001.904572734697
 30
0.0
 11
351.3131829039467
 21
-989.3045727346962
 31
0.0
  0
ARC
  5
2220E
  8
1PHANTOM
 10
350.3131829039464
 20
-1001.904572734697
 30
0.0
 40
1.0
 50
270.0
 51
0.0
  0
LINE
  5
2220F
  8
1PHANTOM
 10
314.1131829039466
 20
-1002.904572734696
 30
0.0
 11
350.3131829039464
 21
-1002.904572734697
 31
0.0
  0
ARC
  5
22210
  8
1PHANTOM
 10
314.1131829039466
 20
-1001.904572734696
 30
0.0
 40
1.0
 50
180.0
 51
270.0
  0
LINE
  5
22211
  8
1PHANTOM
 10
355.1131829039471
 20
-986.7235004670424
 30
0.0
 11
355.1131829039471
 21
-1004.485645002349
 31
0.0
  0
LINE
  5
22212
  8
1PHANTOM
 10
306.1131829039475
 20
-1006.201966097872
 30
0.0
 11
306.1131829039475
 21
-985.0071793715189
 31
0.0
  0
LINE
  5
22213
  8
1PHANTOM
 10
313.1131829039464
 20
-986.3569720198274
 30
0.0
 11
313.1131829039548
 21
-1004.852173449562
 31
0.0
  0
LINE
  5
22214
  8
1PHANTOM
 10
306.4105649432977
 20
-985.3071679484381
 30
0.0
 11
354.1219094394453
 21
-985.7235385439783
 31
0.0
  0
ARC
  5
22215
  8
1PHANTOM
 10
354.1131829039471
 20
-986.7235004670424
 30
0.0
 40
1.0
 50
0.0
 51
89.4999999999954
  0
ARC
  5
22216
  8
1PHANTOM
 10
312.1131829039464
 20
-986.3569720198278
 30
0.0
 40
1.0
 50
0.0000000000260551
 51
89.49999999999547
  0
LINE
  5
22217
  8
1PHANTOM
 10
306.1131829039471
 20
-983.5545727346968
 30
0.0
 11
306.1131829039471
 21
-985.0071793715189
 31
0.0
  0
ARC
  5
22218
  8
1PHANTOM
 10
306.4131829039472
 20
-985.0071793715189
 30
0.0
 40
0.3
 50
179.9999999999783
 51
269.499999999991
  0
ARC
  5
22219
  8
1PHANTOM
 10
305.8131829039469
 20
-983.5545727346968
 30
0.0
 40
0.3
 50
0.0
 51
90.0
  0
LINE
  5
2221A
  8
1PHANTOM
 10
303.115220643719
 20
-932.0183620330713
 30
0.0
 11
306.1152206437191
 21
-932.0183620330713
 31
0.0
  0
LINE
  5
2221B
  8
1PHANTOM
 10
-189.884779356268
 20
-898.8683620330712
 30
0.0
 11
-238.8847793562676
 21
-898.8683620330714
 31
0.0
  0
ARC
  5
2221C
  8
1PHANTOM
 10
-190.184779356268
 20
-947.4683620330711
 30
0.0
 40
0.3000000000000001
 50
0.0
 51
90.00000000000543
  0
LINE
  5
2221D
  8
1PHANTOM
 10
-189.8847793562679
 20
-947.4683620330711
 30
0.0
 11
-189.884779356268
 21
-948.9183620329793
 31
0.0
  0
ARC
  5
2221E
  8
1PHANTOM
 10
-189.584779356268
 20
-948.9183620329793
 30
0.0
 40
0.3000000000000001
 50
180.0
 51
270.0000000172941
  0
LINE
  5
2221F
  8
1PHANTOM
 10
-189.5847793561774
 20
-949.2183620329793
 30
0.0
 11
-186.8847793562675
 21
-949.2183620321644
 31
0.0
  0
LINE
  5
22220
  8
1PHANTOM
 10
-156.8847793562674
 20
-933.5183620330713
 30
0.0
 11
-156.8847793562674
 21
-938.7423261767935
 31
0.0
  0
LINE
  5
22221
  8
1PHANTOM
 10
-156.8847793562674
 20
-938.7423261767935
 30
0.0
 11
-156.8847793562674
 21
-948.2183620330727
 31
0.0
  0
LINE
  5
22222
  8
1PHANTOM
 10
-186.8872729033902
 20
-939.4336724009947
 30
0.0
 11
-186.8847793562677
 21
-898.8683620330712
 31
0.0
  0
LINE
  5
22223
  8
1PHANTOM
 10
-186.3847793562676
 20
-932.5183620330713
 30
0.0
 11
-186.8847793562676
 21
-932.0183620330713
 31
0.0
  0
LINE
  5
22224
  8
1PHANTOM
 10
-189.8847793562676
 20
-947.6683620330714
 30
0.0
 11
-189.884779356268
 21
-898.8683620330712
 31
0.0
  0
LINE
  5
22225
  8
1PHANTOM
 10
-186.3847793562676
 20
-932.5183620330713
 30
0.0
 11
-157.8847793562674
 21
-932.5183620330713
 31
0.0
  0
LINE
  5
22226
  8
1PHANTOM
 10
-156.8847793562674
 20
-933.5183620330713
 30
0.0
 11
-157.8847793562674
 21
-932.5183620330713
 31
0.0
  0
LINE
  5
22227
  8
1PHANTOM
 10
-157.8847793562674
 20
-949.2183620330727
 30
0.0
 11
-186.8847793562674
 21
-949.2183620330727
 31
0.0
  0
LINE
  5
22228
  8
1PHANTOM
 10
-156.8847793562674
 20
-948.2183620330727
 30
0.0
 11
-157.8847793562674
 21
-949.2183620330727
 31
0.0
  0
LINE
  5
22229
  8
1PHANTOM
 10
-186.8847793562677
 20
-898.8683620330712
 30
0.0
 11
-189.884779356268
 21
-898.8683620330712
 31
0.0
  0
LINE
  5
2222A
  8
1PHANTOM
 10
-196.4981029578151
 20
-946.1770885685703
 30
0.0
 11
-196.5313412107415
 21
-942.3683620330714
 31
0.0
  0
ARC
  5
2222B
  8
1PHANTOM
 10
-201.6231637144732
 20
-931.8683620330717
 30
0.0
 40
5.000000000000002
 50
0.4999999999915467
 51
90.0
  0
LINE
  5
2222C
  8
1PHANTOM
 10
-201.623163714474
 20
-926.8683620330658
 30
0.0
 11
-237.6491158475314
 21
-926.8683620330719
 31
0.0
  0
ARC
  5
2222D
  8
1PHANTOM
 10
-237.6491158475314
 20
-925.8683620330719
 30
0.0
 40
1.0
 50
180.4999999999916
 51
270.0
  0
LINE
  5
2222E
  8
1PHANTOM
 10
-195.4981410347509
 20
-947.1683620330718
 30
0.0
 11
-190.1847793562678
 21
-947.1683620330714
 31
0.0
  0
ARC
  5
2222F
  8
1PHANTOM
 10
-195.498141034751
 20
-946.1683620330718
 30
0.0
 40
1.0
 50
180.4999999999916
 51
270.0000000000065
  0
LINE
  5
22230
  8
1PHANTOM
 10
-196.5313412107415
 20
-942.3683620330717
 30
0.0
 11
-194.3847793562605
 21
-942.3683620330717
 31
0.0
  0
LINE
  5
22231
  8
1PHANTOM
 10
-238.6490777705956
 20
-925.8770885685703
 30
0.0
 11
-238.8847793562676
 21
-898.8683620330712
 31
0.0
  0
ARC
  5
22232
  8
1PHANTOM
 10
-194.3847793562605
 20
-941.8683620330717
 30
0.0
 40
0.5000000000000002
 50
270.0
 51
0.0
  0
LINE
  5
22233
  8
1PHANTOM
 10
-193.8847793562605
 20
-941.8683620330717
 30
0.0
 11
-193.8847793562608
 21
-939.3683620330717
 31
0.0
  0
ARC
  5
22234
  8
1PHANTOM
 10
-194.3847793562608
 20
-939.3683620330717
 30
0.0
 40
0.5000000000000002
 50
0.0
 51
90.0
  0
LINE
  5
22235
  8
1PHANTOM
 10
-196.5618852480092
 20
-938.8683620330717
 30
0.0
 11
-194.3847793562608
 21
-938.8683620330717
 31
0.0
  0
LINE
  5
22236
  8
1PHANTOM
 10
-196.6233540991523
 20
-931.8247293555805
 30
0.0
 11
-196.5618852480092
 21
-938.8683620330717
 31
0.0
  0
LINE
  5
22237
  8
1PHANTOM
 10
-157.8827416164953
 20
-983.2545727346968
 30
0.0
 11
-189.5827416164955
 21
-983.2545727346968
 31
0.0
  0
LINE
  5
22238
  8
1PHANTOM
 10
-156.8827416164953
 20
-984.2545727346968
 30
0.0
 11
-157.8827416164953
 21
-983.2545727346968
 31
0.0
  0
LINE
  5
22239
  8
1PHANTOM
 10
-189.5827416164956
 20
-1007.954572734697
 30
0.0
 11
-157.8827416164954
 21
-1007.954572734697
 31
0.0
  0
LINE
  5
2223A
  8
1PHANTOM
 10
-156.8827416164954
 20
-1006.954572734697
 30
0.0
 11
-157.8827416164954
 21
-1007.954572734697
 31
0.0
  0
LINE
  5
2223B
  8
1PHANTOM
 10
-189.8827416164957
 20
-1007.654572734696
 30
0.0
 11
-189.8827416164958
 21
-1006.201966097872
 31
0.0
  0
ARC
  5
2223C
  8
1PHANTOM
 10
-189.5827416164956
 20
-1007.654572734696
 30
0.0
 40
0.3000000000000001
 50
179.9999999999783
 51
270.0
  0
LINE
  5
2223D
  8
1PHANTOM
 10
-156.8827416164954
 20
-1006.954572734697
 30
0.0
 11
-156.8827416164953
 21
-984.2545727346968
 31
0.0
  0
LINE
  5
2223E
  8
1PHANTOM
 10
-190.1801236558463
 20
-1005.901977520953
 30
0.0
 11
-237.891468151994
 21
-1005.485606925413
 31
0.0
  0
ARC
  5
2223F
  8
1PHANTOM
 10
-190.1827416164958
 20
-1006.201966097872
 30
0.0
 40
0.3000000000000001
 50
0.0000000000217126
 51
89.49999999999659
  0
ARC
  5
22240
  8
1PHANTOM
 10
-237.8827416164957
 20
-1004.485645002349
 30
0.0
 40
1.0
 50
180.0
 51
269.4999999999954
  0
ARC
  5
22241
  8
1PHANTOM
 10
-195.8827416165033
 20
-1004.852173449563
 30
0.0
 40
1.0
 50
179.9999999999739
 51
269.4999999999954
  0
CIRCLE
  5
22242
  8
1PHANTOM
 10
-228.3827416164959
 20
-995.6045727346963
 30
0.0
 40
3.000000000000001
  0
CIRCLE
  5
22243
  8
1PHANTOM
 10
-203.3827416164954
 20
-995.604572734697
 30
0.0
 40
2.999999999999888
  0
LINE
  5
22244
  8
1PHANTOM
 10
-234.0827416164952
 20
-988.3045727346962
 30
0.0
 11
-197.8827416164951
 21
-988.3045727346961
 31
0.0
  0
ARC
  5
22245
  8
1PHANTOM
 10
-234.0827416164952
 20
-989.3045727346962
 30
0.0
 40
1.0
 50
90.0
 51
180.0
  0
ARC
  5
22246
  8
1PHANTOM
 10
-197.8827416164951
 20
-989.3045727346961
 30
0.0
 40
1.0
 50
0.0
 51
90.0
  0
LINE
  5
22247
  8
1PHANTOM
 10
-235.0827416164951
 20
-1001.904572734697
 30
0.0
 11
-235.0827416164952
 21
-989.3045727346962
 31
0.0
  0
ARC
  5
22248
  8
1PHANTOM
 10
-234.0827416164951
 20
-1001.904572734697
 30
0.0
 40
1.0
 50
180.0
 51
270.0
  0
LINE
  5
22249
  8
1PHANTOM
 10
-197.8827416164951
 20
-1002.904572734696
 30
0.0
 11
-234.0827416164951
 21
-1002.904572734697
 31
0.0
  0
ARC
  5
2224A
  8
1PHANTOM
 10
-197.8827416164951
 20
-1001.904572734696
 30
0.0
 40
1.0
 50
270.0
 51
0.0
  0
LINE
  5
2224B
  8
1PHANTOM
 10
-238.8827416164957
 20
-986.7235004670424
 30
0.0
 11
-238.8827416164957
 21
-1004.485645002349
 31
0.0
  0
LINE
  5
2224C
  8
1PHANTOM
 10
-189.882741616496
 20
-1006.201966097872
 30
0.0
 11
-189.882741616496
 21
-985.0071793715189
 31
0.0
  0
LINE
  5
2224D
  8
1PHANTOM
 10
-196.882741616495
 20
-986.3569720198274
 30
0.0
 11
-196.8827416165033
 21
-1004.852173449562
 31
0.0
  0
LINE
  5
2224E
  8
1PHANTOM
 10
-190.1801236558462
 20
-985.3071679484381
 30
0.0
 11
-237.891468151994
 21
-985.7235385439783
 31
0.0
  0
ARC
  5
2224F
  8
1PHANTOM
 10
-237.8827416164957
 20
-986.7235004670424
 30
0.0
 40
1.0
 50
90.50000000000459
 51
180.0
  0
ARC
  5
22250
  8
1PHANTOM
 10
-195.882741616495
 20
-986.3569720198278
 30
0.0
 40
1.0
 50
90.50000000000455
 51
179.9999999999739
  0
LINE
  5
22251
  8
1PHANTOM
 10
-189.8827416164956
 20
-983.5545727346968
 30
0.0
 11
-189.8827416164957
 21
-985.0071793715189
 31
0.0
  0
ARC
  5
22252
  8
1PHANTOM
 10
-190.1827416164958
 20
-985.0071793715189
 30
0.0
 40
0.3000000000000001
 50
270.5000000000036
 51
0.0000000000217126
  0
ARC
  5
22253
  8
1PHANTOM
 10
-189.5827416164955
 20
-983.5545727346968
 30
0.0
 40
0.3000000000000001
 50
90.0
 51
180.0
  0
ARC
  5
22259
  8
1PHANTOM
 10
314.089078118732
 20
-904.8697137385589
 30
0.0
 40
1.0
 50
90.0
 51
179.5000000000019
  0
LINE
  5
2225A
  8
1PHANTOM
 10
351.5247416260186
 20
-925.878440274058
 30
0.0
 11
351.3413250917691
 21
-904.8609872030609
 31
0.0
  0
LINE
  5
2225B
  8
1PHANTOM
 10
322.6152206437187
 20
-903.8697137385589
 30
0.0
 11
322.6152206437187
 21
-898.8697137385589
 31
0.0
  0
ARC
  5
2225C
  8
1PHANTOM
 10
350.341363168705
 20
-904.8697137385593
 30
0.0
 40
1.0
 50
0.4999999999980886
 51
90.0
  0
LINE
  5
2225D
  8
1PHANTOM
 10
312.8539019589946
 20
-931.8138690746553
 30
0.0
 11
313.0891161956679
 21
-904.8609872030605
 31
0.0
  0
LINE
  5
2225E
  8
1PHANTOM
 10
316.6152206437187
 20
-898.8697137385589
 30
0.0
 11
316.6152206437187
 21
-903.8697137385589
 31
0.0
  0
LINE
  5
2225F
  8
1PHANTOM
 10
341.6152206437191
 20
-898.8697137385589
 30
0.0
 11
341.6152206437191
 21
-903.8697137385593
 31
0.0
  0
LINE
  5
22260
  8
1PHANTOM
 10
354.710330536588
 20
-916.8683620330721
 30
0.0
 11
351.4461118644249
 21
-916.8683620330717
 31
0.0
  0
LINE
  5
22261
  8
1PHANTOM
 10
354.360330536588
 20
-920.5183620330718
 30
0.0
 11
354.3603305365879
 21
-917.218362033072
 31
0.0
  0
LINE
  5
22262
  8
1PHANTOM
 10
354.360330536588
 20
-917.218362033072
 30
0.0
 11
351.4491662681517
 21
-917.218362033072
 31
0.0
  0
LINE
  5
22263
  8
1PHANTOM
 10
354.9213993785983
 20
-921.0794308750826
 30
0.0
 11
354.360330536588
 21
-920.5183620330718
 31
0.0
  0
LINE
  5
22264
  8
1PHANTOM
 10
347.615220643719
 20
-903.8697137385593
 30
0.0
 11
347.6152206437191
 21
-898.8697137385589
 31
0.0
  0
LINE
  5
22265
  8
1PHANTOM
 10
354.710330536588
 20
-920.8683620330721
 30
0.0
 11
351.481019335588
 21
-920.8683620330723
 31
0.0
  0
LINE
  5
22266
  8
1PHANTOM
 10
354.3603305365881
 20
-920.5183620330722
 30
0.0
 11
351.4779649318613
 21
-920.5183620330715
 31
0.0
  0
LINE
  5
22267
  8
1PHANTOM
 10
354.960330536588
 20
-916.6183620330721
 30
0.0
 11
354.360330536588
 21
-917.218362033072
 31
0.0
  0
LINE
  5
22268
  8
1PHANTOM
 10
314.089078118732
 20
-903.8697137385589
 30
0.0
 11
350.341363168705
 21
-903.8697137385593
 31
0.0
  0
LINE
  5
22269
  8
1PHANTOM
 10
348.9997627127239
 20
-904.8697035699328
 30
0.0
 11
340.2402206437189
 21
-904.8697239515908
 31
0.0
  0
LINE
  5
2226A
  8
1PHANTOM
 10
348.9902206437189
 20
-904.8697035921354
 30
0.0
 11
348.9902206437189
 21
-903.8697137496605
 31
0.0
  0
LINE
  5
2226B
  8
1PHANTOM
 10
347.2902206437186
 20
-904.8697035921354
 30
0.0
 11
347.2902206437186
 21
-903.8697137496605
 31
0.0
  0
LINE
  5
2226C
  8
1PHANTOM
 10
340.2402206437189
 20
-904.8697239515908
 30
0.0
 11
340.2402206437193
 21
-903.8697137274579
 31
0.0
  0
LINE
  5
2226D
  8
1PHANTOM
 10
341.9402206437192
 20
-904.8697239515908
 30
0.0
 11
341.9402206437192
 21
-903.8697137496605
 31
0.0
  0
LINE
  5
2226F
  8
1PHANTOM
 10
347.1247627127243
 20
-872.7518481636147
 30
0.0
 11
342.1247627127243
 21
-871.7518481636147
 31
0.0
  0
LINE
  5
22270
  8
1PHANTOM
 10
344.3114060257806
 20
-855.8891768262259
 30
0.0
 11
343.5614060257806
 21
-856.0391768262258
 31
0.0
  0
LINE
  5
22271
  8
1PHANTOM
 10
347.1247627127243
 20
-866.7518481636147
 30
0.0
 11
342.1247627127243
 21
-865.7518481636147
 31
0.0
  0
LINE
  5
22272
  8
1PHANTOM
 10
342.8747627127243
 20
-865.6018481636146
 30
0.0
 11
342.1247627127243
 21
-865.7518481636147
 31
0.0
  0
LINE
  5
22273
  8
1PHANTOM
 10
342.8747627127243
 20
-863.6018481636146
 30
0.0
 11
342.1247627127243
 21
-863.7518481636147
 31
0.0
  0
LINE
  5
22274
  8
1PHANTOM
 10
347.1247627127243
 20
-864.7518481636147
 30
0.0
 11
346.3747627127243
 21
-864.9018481636145
 31
0.0
  0
LINE
  5
22275
  8
1PHANTOM
 10
347.1247627127243
 20
-864.7518481636147
 30
0.0
 11
342.1247627127243
 21
-863.7518481636147
 31
0.0
  0
LINE
  5
22276
  8
1PHANTOM
 10
343.2941251726695
 20
-859.6857206556036
 30
0.0
 11
342.5441251726695
 21
-859.8357206556036
 31
0.0
  0
LINE
  5
22277
  8
1PHANTOM
 10
343.8027655992248
 20
-857.7874487409148
 30
0.0
 11
343.0527655992248
 21
-857.9374487409148
 31
0.0
  0
LINE
  5
22278
  8
1PHANTOM
 10
346.3747863835008
 20
-858.6018528977698
 30
0.0
 11
345.6247863835008
 21
-858.7518528977699
 31
0.0
  0
LINE
  5
22279
  8
1PHANTOM
 10
346.3747863835008
 20
-858.6018528977698
 30
0.0
 11
343.0527655992248
 21
-857.9374487409148
 31
0.0
  0
LINE
  5
2227A
  8
1PHANTOM
 10
345.8085431132415
 20
-856.488604243718
 30
0.0
 11
345.0585431132415
 21
-856.6386042437181
 31
0.0
  0
LINE
  5
2227B
  8
1PHANTOM
 10
342.8747627127243
 20
-861.6018481636146
 30
0.0
 11
342.1247627127243
 21
-861.7518481636147
 31
0.0
  0
LINE
  5
2227C
  8
1PHANTOM
 10
347.1247627127243
 20
-862.7518481636147
 30
0.0
 11
346.3747627127243
 21
-862.9018481636145
 31
0.0
  0
LINE
  5
2227D
  8
1PHANTOM
 10
347.1247627127243
 20
-862.7518481636147
 30
0.0
 11
342.1247627127243
 21
-861.7518481636147
 31
0.0
  0
LINE
  5
2227E
  8
1PHANTOM
 10
346.9410296537601
 20
-860.7151015518218
 30
0.0
 11
346.1910296537601
 21
-860.8651015518218
 31
0.0
  0
LINE
  5
2227F
  8
1PHANTOM
 10
346.9410296537601
 20
-860.7151015518218
 30
0.0
 11
342.5441251726695
 21
-859.8357206556036
 31
0.0
  0
LINE
  5
22280
  8
1PHANTOM
 10
345.8085431132415
 20
-856.488604243718
 30
0.0
 11
343.5614060257806
 21
-856.0391768262258
 31
0.0
  0
LINE
  5
22281
  8
1PHANTOM
 10
342.8747627127243
 20
-871.6018481636146
 30
0.0
 11
342.1247627127243
 21
-871.7518481636147
 31
0.0
  0
LINE
  5
22282
  8
1PHANTOM
 10
347.1247627127243
 20
-870.7518481636147
 30
0.0
 11
346.3747627127243
 21
-870.9018481636145
 31
0.0
  0
LINE
  5
22283
  8
1PHANTOM
 10
347.1247627127243
 20
-870.7518481636147
 30
0.0
 11
342.1247627127243
 21
-869.7518481636147
 31
0.0
  0
LINE
  5
22284
  8
1PHANTOM
 10
342.8747627127243
 20
-867.6018481636146
 30
0.0
 11
342.1247627127243
 21
-867.7518481636147
 31
0.0
  0
LINE
  5
22285
  8
1PHANTOM
 10
347.1247627127243
 20
-868.7518481636147
 30
0.0
 11
346.3747627127243
 21
-868.9018481636145
 31
0.0
  0
LINE
  5
22286
  8
1PHANTOM
 10
347.1247627127243
 20
-866.7518481636147
 30
0.0
 11
346.3747627127243
 21
-866.9018481636145
 31
0.0
  0
LINE
  5
22287
  8
1PHANTOM
 10
347.1247627127243
 20
-868.7518481636147
 30
0.0
 11
342.1247627127243
 21
-867.7518481636147
 31
0.0
  0
LINE
  5
22288
  8
1PHANTOM
 10
342.8747627127243
 20
-869.6018481636146
 30
0.0
 11
342.1247627127243
 21
-869.7518481636147
 31
0.0
  0
LINE
  5
22289
  8
1PHANTOM
 10
342.8747627127243
 20
-903.6018481636146
 30
0.0
 11
342.1247627127243
 21
-903.7518481636147
 31
0.0
  0
LINE
  5
2228A
  8
1PHANTOM
 10
347.1247627127243
 20
-904.7518481636147
 30
0.0
 11
346.3747627127243
 21
-904.9018481636145
 31
0.0
  0
LINE
  5
2228B
  8
1PHANTOM
 10
347.1247627127243
 20
-904.7518481636147
 30
0.0
 11
342.1247627127243
 21
-903.7518481636147
 31
0.0
  0
LINE
  5
2228C
  8
1PHANTOM
 10
342.8747627127243
 20
-901.6018481636146
 30
0.0
 11
342.1247627127243
 21
-901.7518481636147
 31
0.0
  0
LINE
  5
2228D
  8
1PHANTOM
 10
347.1247627127243
 20
-902.7518481636147
 30
0.0
 11
346.3747627127243
 21
-902.9018481636145
 31
0.0
  0
LINE
  5
2228E
  8
1PHANTOM
 10
347.1247627127243
 20
-902.7518481636147
 30
0.0
 11
342.1247627127243
 21
-901.7518481636147
 31
0.0
  0
LINE
  5
2228F
  8
1PHANTOM
 10
342.8747627127243
 20
-899.6018481636146
 30
0.0
 11
342.1247627127243
 21
-899.7518481636147
 31
0.0
  0
LINE
  5
22290
  8
1PHANTOM
 10
347.1247627127243
 20
-900.7518481636147
 30
0.0
 11
346.3747627127243
 21
-900.9018481636145
 31
0.0
  0
LINE
  5
22291
  8
1PHANTOM
 10
347.1247627127243
 20
-900.7518481636147
 30
0.0
 11
342.1247627127243
 21
-899.7518481636147
 31
0.0
  0
LINE
  5
22292
  8
1PHANTOM
 10
342.8747627127243
 20
-897.6018481636146
 30
0.0
 11
342.1247627127243
 21
-897.7518481636147
 31
0.0
  0
LINE
  5
22293
  8
1PHANTOM
 10
347.1247627127243
 20
-898.7518481636147
 30
0.0
 11
346.3747627127243
 21
-898.9018481636145
 31
0.0
  0
LINE
  5
22294
  8
1PHANTOM
 10
347.1247627127243
 20
-898.7518481636147
 30
0.0
 11
342.1247627127243
 21
-897.7518481636147
 31
0.0
  0
LINE
  5
22295
  8
1PHANTOM
 10
342.8747627127243
 20
-895.6018481636146
 30
0.0
 11
342.1247627127243
 21
-895.7518481636147
 31
0.0
  0
LINE
  5
22296
  8
1PHANTOM
 10
347.1247627127243
 20
-896.7518481636147
 30
0.0
 11
346.3747627127243
 21
-896.9018481636145
 31
0.0
  0
LINE
  5
22297
  8
1PHANTOM
 10
347.1247627127243
 20
-896.7518481636147
 30
0.0
 11
342.1247627127243
 21
-895.7518481636147
 31
0.0
  0
LINE
  5
22298
  8
1PHANTOM
 10
342.8747627127243
 20
-904.8697137496605
 30
0.0
 11
346.3747627127243
 21
-904.8697137496605
 31
0.0
  0
LINE
  5
22299
  8
1PHANTOM
 10
347.1247627127243
 20
-876.7518481636147
 30
0.0
 11
346.3747627127243
 21
-876.9018481636145
 31
0.0
  0
LINE
  5
2229A
  8
1PHANTOM
 10
342.8747627127243
 20
-875.6018481636146
 30
0.0
 11
342.1247627127243
 21
-875.7518481636147
 31
0.0
  0
LINE
  5
2229B
  8
1PHANTOM
 10
347.1247627127243
 20
-874.7518481636147
 30
0.0
 11
346.3747627127243
 21
-874.9018481636145
 31
0.0
  0
LINE
  5
2229C
  8
1PHANTOM
 10
347.1247627127243
 20
-876.7518481636147
 30
0.0
 11
342.1247627127243
 21
-875.7518481636147
 31
0.0
  0
LINE
  5
2229D
  8
1PHANTOM
 10
347.1247627127243
 20
-888.7518481636147
 30
0.0
 11
342.1247627127243
 21
-887.7518481636147
 31
0.0
  0
LINE
  5
2229E
  8
1PHANTOM
 10
342.8747627127243
 20
-883.6018481636146
 30
0.0
 11
342.1247627127243
 21
-883.7518481636147
 31
0.0
  0
LINE
  5
2229F
  8
1PHANTOM
 10
347.1247627127243
 20
-884.7518481636147
 30
0.0
 11
346.3747627127243
 21
-884.9018481636145
 31
0.0
  0
LINE
  5
222A0
  8
1PHANTOM
 10
347.1247627127243
 20
-884.7518481636147
 30
0.0
 11
342.1247627127243
 21
-883.7518481636147
 31
0.0
  0
LINE
  5
222A1
  8
1PHANTOM
 10
347.1247627127243
 20
-886.7518481636147
 30
0.0
 11
342.1247627127243
 21
-885.7518481636147
 31
0.0
  0
LINE
  5
222A2
  8
1PHANTOM
 10
347.1247627127243
 20
-886.7518481636147
 30
0.0
 11
346.3747627127243
 21
-886.9018481636145
 31
0.0
  0
LINE
  5
222A3
  8
1PHANTOM
 10
342.8747627127243
 20
-885.6018481636146
 30
0.0
 11
342.1247627127243
 21
-885.7518481636147
 31
0.0
  0
LINE
  5
222A4
  8
1PHANTOM
 10
342.8747627127243
 20
-887.6018481636146
 30
0.0
 11
342.1247627127243
 21
-887.7518481636147
 31
0.0
  0
LINE
  5
222A5
  8
1PHANTOM
 10
347.1247627127243
 20
-880.7518481636147
 30
0.0
 11
342.1247627127243
 21
-879.7518481636147
 31
0.0
  0
LINE
  5
222A6
  8
1PHANTOM
 10
342.8747627127243
 20
-879.6018481636146
 30
0.0
 11
342.1247627127243
 21
-879.7518481636147
 31
0.0
  0
LINE
  5
222A7
  8
1PHANTOM
 10
347.1247627127243
 20
-878.7518481636147
 30
0.0
 11
346.3747627127243
 21
-878.9018481636145
 31
0.0
  0
LINE
  5
222A8
  8
1PHANTOM
 10
342.8747627127243
 20
-877.6018481636146
 30
0.0
 11
342.1247627127243
 21
-877.7518481636147
 31
0.0
  0
LINE
  5
222A9
  8
1PHANTOM
 10
347.1247627127243
 20
-878.7518481636147
 30
0.0
 11
342.1247627127243
 21
-877.7518481636147
 31
0.0
  0
LINE
  5
222AA
  8
1PHANTOM
 10
342.8747627127243
 20
-881.6018481636146
 30
0.0
 11
342.1247627127243
 21
-881.7518481636147
 31
0.0
  0
LINE
  5
222AB
  8
1PHANTOM
 10
347.1247627127243
 20
-882.7518481636147
 30
0.0
 11
346.3747627127243
 21
-882.9018481636145
 31
0.0
  0
LINE
  5
222AC
  8
1PHANTOM
 10
347.1247627127243
 20
-880.7518481636147
 30
0.0
 11
346.3747627127243
 21
-880.9018481636145
 31
0.0
  0
LINE
  5
222AD
  8
1PHANTOM
 10
347.1247627127243
 20
-882.7518481636147
 30
0.0
 11
342.1247627127243
 21
-881.7518481636147
 31
0.0
  0
LINE
  5
222AE
  8
1PHANTOM
 10
347.1247627127243
 20
-890.7518481636147
 30
0.0
 11
346.3747627127243
 21
-890.9018481636145
 31
0.0
  0
LINE
  5
222AF
  8
1PHANTOM
 10
347.1247627127243
 20
-892.7518481636147
 30
0.0
 11
342.1247627127243
 21
-891.7518481636147
 31
0.0
  0
LINE
  5
222B0
  8
1PHANTOM
 10
347.1247627127243
 20
-892.7518481636147
 30
0.0
 11
346.3747627127243
 21
-892.9018481636145
 31
0.0
  0
LINE
  5
222B1
  8
1PHANTOM
 10
342.8747627127243
 20
-891.6018481636146
 30
0.0
 11
342.1247627127243
 21
-891.7518481636147
 31
0.0
  0
LINE
  5
222B2
  8
1PHANTOM
 10
347.1247627127243
 20
-894.7518481636147
 30
0.0
 11
342.1247627127243
 21
-893.7518481636147
 31
0.0
  0
LINE
  5
222B3
  8
1PHANTOM
 10
347.1247627127243
 20
-894.7518481636147
 30
0.0
 11
346.3747627127243
 21
-894.9018481636145
 31
0.0
  0
LINE
  5
222B4
  8
1PHANTOM
 10
342.8747627127243
 20
-893.6018481636146
 30
0.0
 11
342.1247627127243
 21
-893.7518481636147
 31
0.0
  0
LINE
  5
222B5
  8
1PHANTOM
 10
347.1247627127243
 20
-888.7518481636147
 30
0.0
 11
346.3747627127243
 21
-888.9018481636145
 31
0.0
  0
LINE
  5
222B6
  8
1PHANTOM
 10
342.8747627127243
 20
-889.6018481636146
 30
0.0
 11
342.1247627127243
 21
-889.7518481636147
 31
0.0
  0
LINE
  5
222B7
  8
1PHANTOM
 10
347.1247627127243
 20
-890.7518481636147
 30
0.0
 11
342.1247627127243
 21
-889.7518481636147
 31
0.0
  0
LINE
  5
222B8
  8
1PHANTOM
 10
347.1247627127243
 20
-872.7518481636147
 30
0.0
 11
346.3747627127243
 21
-872.9018481636145
 31
0.0
  0
LINE
  5
222B9
  8
1PHANTOM
 10
342.8747627127243
 20
-873.6018481636146
 30
0.0
 11
342.1247627127243
 21
-873.7518481636147
 31
0.0
  0
LINE
  5
222BA
  8
1PHANTOM
 10
347.1247627127243
 20
-874.7518481636147
 30
0.0
 11
342.1247627127243
 21
-873.7518481636147
 31
0.0
  0
LINE
  5
222BB
  8
1PHANTOM
 10
340.2402206437193
 20
-903.8697137274579
 30
0.0
 11
348.9902206437189
 21
-903.8697137496605
 31
0.0
  0
LINE
  5
222BC
  8
1CENTER
 10
344.6247627127243
 20
-910.1015138929598
 30
0.0
 11
344.6247627127243
 21
-853.1654493984967
 31
0.0
  0
LINE
  5
222BD
  8
1PHANTOM
 10
323.9997627127234
 20
-904.8697035699328
 30
0.0
 11
315.2402206437184
 21
-904.8697239515908
 31
0.0
  0
LINE
  5
222BE
  8
1PHANTOM
 10
323.9902206437184
 20
-904.8697035921354
 30
0.0
 11
323.9902206437184
 21
-903.8697137496605
 31
0.0
  0
LINE
  5
222BF
  8
1PHANTOM
 10
322.2902206437182
 20
-904.8697035921354
 30
0.0
 11
322.2902206437182
 21
-903.8697137496605
 31
0.0
  0
LINE
  5
222C0
  8
1PHANTOM
 10
315.2402206437184
 20
-904.8697239515908
 30
0.0
 11
315.2402206437189
 21
-903.8697137274579
 31
0.0
  0
LINE
  5
222C1
  8
1PHANTOM
 10
316.9402206437187
 20
-904.8697239515908
 30
0.0
 11
316.9402206437187
 21
-903.8697137496605
 31
0.0
  0
LINE
  5
222C3
  8
1PHANTOM
 10
322.1247627127239
 20
-872.7518481636147
 30
0.0
 11
317.1247627127239
 21
-871.7518481636147
 31
0.0
  0
LINE
  5
222C4
  8
1PHANTOM
 10
319.3114060257801
 20
-855.8891768262259
 30
0.0
 11
318.5614060257801
 21
-856.0391768262258
 31
0.0
  0
LINE
  5
222C5
  8
1PHANTOM
 10
322.1247627127239
 20
-866.7518481636147
 30
0.0
 11
317.1247627127239
 21
-865.7518481636147
 31
0.0
  0
LINE
  5
222C6
  8
1PHANTOM
 10
317.8747627127239
 20
-865.6018481636146
 30
0.0
 11
317.1247627127239
 21
-865.7518481636147
 31
0.0
  0
LINE
  5
222C7
  8
1PHANTOM
 10
317.8747627127239
 20
-863.6018481636146
 30
0.0
 11
317.1247627127239
 21
-863.7518481636147
 31
0.0
  0
LINE
  5
222C8
  8
1PHANTOM
 10
322.1247627127239
 20
-864.7518481636147
 30
0.0
 11
321.3747627127239
 21
-864.9018481636145
 31
0.0
  0
LINE
  5
222C9
  8
1PHANTOM
 10
322.1247627127239
 20
-864.7518481636147
 30
0.0
 11
317.1247627127239
 21
-863.7518481636147
 31
0.0
  0
LINE
  5
222CA
  8
1PHANTOM
 10
318.2941251726691
 20
-859.6857206556036
 30
0.0
 11
317.5441251726691
 21
-859.8357206556036
 31
0.0
  0
LINE
  5
222CB
  8
1PHANTOM
 10
318.8027655992244
 20
-857.7874487409148
 30
0.0
 11
318.0527655992244
 21
-857.9374487409148
 31
0.0
  0
LINE
  5
222CC
  8
1PHANTOM
 10
321.3747863835003
 20
-858.6018528977698
 30
0.0
 11
320.6247863835003
 21
-858.7518528977699
 31
0.0
  0
LINE
  5
222CD
  8
1PHANTOM
 10
321.3747863835003
 20
-858.6018528977698
 30
0.0
 11
318.0527655992244
 21
-857.9374487409148
 31
0.0
  0
LINE
  5
222CE
  8
1PHANTOM
 10
320.8085431132411
 20
-856.488604243718
 30
0.0
 11
320.0585431132411
 21
-856.6386042437181
 31
0.0
  0
LINE
  5
222CF
  8
1PHANTOM
 10
317.8747627127239
 20
-861.6018481636146
 30
0.0
 11
317.1247627127239
 21
-861.7518481636147
 31
0.0
  0
LINE
  5
222D0
  8
1PHANTOM
 10
322.1247627127239
 20
-862.7518481636147
 30
0.0
 11
321.3747627127239
 21
-862.9018481636145
 31
0.0
  0
LINE
  5
222D1
  8
1PHANTOM
 10
322.1247627127239
 20
-862.7518481636147
 30
0.0
 11
317.1247627127239
 21
-861.7518481636147
 31
0.0
  0
LINE
  5
222D2
  8
1PHANTOM
 10
321.9410296537596
 20
-860.7151015518218
 30
0.0
 11
321.1910296537596
 21
-860.8651015518218
 31
0.0
  0
LINE
  5
222D3
  8
1PHANTOM
 10
321.9410296537596
 20
-860.7151015518218
 30
0.0
 11
317.5441251726691
 21
-859.8357206556036
 31
0.0
  0
LINE
  5
222D4
  8
1PHANTOM
 10
320.8085431132411
 20
-856.488604243718
 30
0.0
 11
318.5614060257801
 21
-856.0391768262258
 31
0.0
  0
LINE
  5
222D5
  8
1PHANTOM
 10
317.8747627127239
 20
-871.6018481636146
 30
0.0
 11
317.1247627127239
 21
-871.7518481636147
 31
0.0
  0
LINE
  5
222D6
  8
1PHANTOM
 10
322.1247627127239
 20
-870.7518481636147
 30
0.0
 11
321.3747627127239
 21
-870.9018481636145
 31
0.0
  0
LINE
  5
222D7
  8
1PHANTOM
 10
322.1247627127239
 20
-870.7518481636147
 30
0.0
 11
317.1247627127239
 21
-869.7518481636147
 31
0.0
  0
LINE
  5
222D8
  8
1PHANTOM
 10
317.8747627127239
 20
-867.6018481636146
 30
0.0
 11
317.1247627127239
 21
-867.7518481636147
 31
0.0
  0
LINE
  5
222D9
  8
1PHANTOM
 10
322.1247627127239
 20
-868.7518481636147
 30
0.0
 11
321.3747627127239
 21
-868.9018481636145
 31
0.0
  0
LINE
  5
222DA
  8
1PHANTOM
 10
322.1247627127239
 20
-866.7518481636147
 30
0.0
 11
321.3747627127239
 21
-866.9018481636145
 31
0.0
  0
LINE
  5
222DB
  8
1PHANTOM
 10
322.1247627127239
 20
-868.7518481636147
 30
0.0
 11
317.1247627127239
 21
-867.7518481636147
 31
0.0
  0
LINE
  5
222DC
  8
1PHANTOM
 10
317.8747627127239
 20
-869.6018481636146
 30
0.0
 11
317.1247627127239
 21
-869.7518481636147
 31
0.0
  0
LINE
  5
222DD
  8
1PHANTOM
 10
317.8747627127239
 20
-903.6018481636146
 30
0.0
 11
317.1247627127239
 21
-903.7518481636147
 31
0.0
  0
LINE
  5
222DE
  8
1PHANTOM
 10
322.1247627127239
 20
-904.7518481636147
 30
0.0
 11
321.3747627127239
 21
-904.9018481636145
 31
0.0
  0
LINE
  5
222DF
  8
1PHANTOM
 10
322.1247627127239
 20
-904.7518481636147
 30
0.0
 11
317.1247627127239
 21
-903.7518481636147
 31
0.0
  0
LINE
  5
222E0
  8
1PHANTOM
 10
317.8747627127239
 20
-901.6018481636146
 30
0.0
 11
317.1247627127239
 21
-901.7518481636147
 31
0.0
  0
LINE
  5
222E1
  8
1PHANTOM
 10
322.1247627127239
 20
-902.7518481636147
 30
0.0
 11
321.3747627127239
 21
-902.9018481636145
 31
0.0
  0
LINE
  5
222E2
  8
1PHANTOM
 10
322.1247627127239
 20
-902.7518481636147
 30
0.0
 11
317.1247627127239
 21
-901.7518481636147
 31
0.0
  0
LINE
  5
222E3
  8
1PHANTOM
 10
317.8747627127239
 20
-899.6018481636146
 30
0.0
 11
317.1247627127239
 21
-899.7518481636147
 31
0.0
  0
LINE
  5
222E4
  8
1PHANTOM
 10
322.1247627127239
 20
-900.7518481636147
 30
0.0
 11
321.3747627127239
 21
-900.9018481636145
 31
0.0
  0
LINE
  5
222E5
  8
1PHANTOM
 10
322.1247627127239
 20
-900.7518481636147
 30
0.0
 11
317.1247627127239
 21
-899.7518481636147
 31
0.0
  0
LINE
  5
222E6
  8
1PHANTOM
 10
317.8747627127239
 20
-897.6018481636146
 30
0.0
 11
317.1247627127239
 21
-897.7518481636147
 31
0.0
  0
LINE
  5
222E7
  8
1PHANTOM
 10
322.1247627127239
 20
-898.7518481636147
 30
0.0
 11
321.3747627127239
 21
-898.9018481636145
 31
0.0
  0
LINE
  5
222E8
  8
1PHANTOM
 10
322.1247627127239
 20
-898.7518481636147
 30
0.0
 11
317.1247627127239
 21
-897.7518481636147
 31
0.0
  0
LINE
  5
222E9
  8
1PHANTOM
 10
317.8747627127239
 20
-895.6018481636146
 30
0.0
 11
317.1247627127239
 21
-895.7518481636147
 31
0.0
  0
LINE
  5
222EA
  8
1PHANTOM
 10
322.1247627127239
 20
-896.7518481636147
 30
0.0
 11
321.3747627127239
 21
-896.9018481636145
 31
0.0
  0
LINE
  5
222EB
  8
1PHANTOM
 10
322.1247627127239
 20
-896.7518481636147
 30
0.0
 11
317.1247627127239
 21
-895.7518481636147
 31
0.0
  0
LINE
  5
222EC
  8
1PHANTOM
 10
317.8747627127239
 20
-904.8697137496605
 30
0.0
 11
321.3747627127239
 21
-904.8697137496605
 31
0.0
  0
LINE
  5
222ED
  8
1PHANTOM
 10
322.1247627127239
 20
-876.7518481636147
 30
0.0
 11
321.3747627127239
 21
-876.9018481636145
 31
0.0
  0
LINE
  5
222EE
  8
1PHANTOM
 10
317.8747627127239
 20
-875.6018481636146
 30
0.0
 11
317.1247627127239
 21
-875.7518481636147
 31
0.0
  0
LINE
  5
222EF
  8
1PHANTOM
 10
322.1247627127239
 20
-874.7518481636147
 30
0.0
 11
321.3747627127239
 21
-874.9018481636145
 31
0.0
  0
LINE
  5
222F0
  8
1PHANTOM
 10
322.1247627127239
 20
-876.7518481636147
 30
0.0
 11
317.1247627127239
 21
-875.7518481636147
 31
0.0
  0
LINE
  5
222F1
  8
1PHANTOM
 10
322.1247627127239
 20
-888.7518481636147
 30
0.0
 11
317.1247627127239
 21
-887.7518481636147
 31
0.0
  0
LINE
  5
222F2
  8
1PHANTOM
 10
317.8747627127239
 20
-883.6018481636146
 30
0.0
 11
317.1247627127239
 21
-883.7518481636147
 31
0.0
  0
LINE
  5
222F3
  8
1PHANTOM
 10
322.1247627127239
 20
-884.7518481636147
 30
0.0
 11
321.3747627127239
 21
-884.9018481636145
 31
0.0
  0
LINE
  5
222F4
  8
1PHANTOM
 10
322.1247627127239
 20
-884.7518481636147
 30
0.0
 11
317.1247627127239
 21
-883.7518481636147
 31
0.0
  0
LINE
  5
222F5
  8
1PHANTOM
 10
322.1247627127239
 20
-886.7518481636147
 30
0.0
 11
317.1247627127239
 21
-885.7518481636147
 31
0.0
  0
LINE
  5
222F6
  8
1PHANTOM
 10
322.1247627127239
 20
-886.7518481636147
 30
0.0
 11
321.3747627127239
 21
-886.9018481636145
 31
0.0
  0
LINE
  5
222F7
  8
1PHANTOM
 10
317.8747627127239
 20
-885.6018481636146
 30
0.0
 11
317.1247627127239
 21
-885.7518481636147
 31
0.0
  0
LINE
  5
222F8
  8
1PHANTOM
 10
317.8747627127239
 20
-887.6018481636146
 30
0.0
 11
317.1247627127239
 21
-887.7518481636147
 31
0.0
  0
LINE
  5
222F9
  8
1PHANTOM
 10
322.1247627127239
 20
-880.7518481636147
 30
0.0
 11
317.1247627127239
 21
-879.7518481636147
 31
0.0
  0
LINE
  5
222FA
  8
1PHANTOM
 10
317.8747627127239
 20
-879.6018481636146
 30
0.0
 11
317.1247627127239
 21
-879.7518481636147
 31
0.0
  0
LINE
  5
222FB
  8
1PHANTOM
 10
322.1247627127239
 20
-878.7518481636147
 30
0.0
 11
321.3747627127239
 21
-878.9018481636145
 31
0.0
  0
LINE
  5
222FC
  8
1PHANTOM
 10
317.8747627127239
 20
-877.6018481636146
 30
0.0
 11
317.1247627127239
 21
-877.7518481636147
 31
0.0
  0
LINE
  5
222FD
  8
1PHANTOM
 10
322.1247627127239
 20
-878.7518481636147
 30
0.0
 11
317.1247627127239
 21
-877.7518481636147
 31
0.0
  0
LINE
  5
222FE
  8
1PHANTOM
 10
317.8747627127239
 20
-881.6018481636146
 30
0.0
 11
317.1247627127239
 21
-881.7518481636147
 31
0.0
  0
LINE
  5
222FF
  8
1PHANTOM
 10
322.1247627127239
 20
-882.7518481636147
 30
0.0
 11
321.3747627127239
 21
-882.9018481636145
 31
0.0
  0
LINE
  5
22300
  8
1PHANTOM
 10
322.1247627127239
 20
-880.7518481636147
 30
0.0
 11
321.3747627127239
 21
-880.9018481636145
 31
0.0
  0
LINE
  5
22301
  8
1PHANTOM
 10
322.1247627127239
 20
-882.7518481636147
 30
0.0
 11
317.1247627127239
 21
-881.7518481636147
 31
0.0
  0
LINE
  5
22302
  8
1PHANTOM
 10
322.1247627127239
 20
-890.7518481636147
 30
0.0
 11
321.3747627127239
 21
-890.9018481636145
 31
0.0
  0
LINE
  5
22303
  8
1PHANTOM
 10
322.1247627127239
 20
-892.7518481636147
 30
0.0
 11
317.1247627127239
 21
-891.7518481636147
 31
0.0
  0
LINE
  5
22304
  8
1PHANTOM
 10
322.1247627127239
 20
-892.7518481636147
 30
0.0
 11
321.3747627127239
 21
-892.9018481636145
 31
0.0
  0
LINE
  5
22305
  8
1PHANTOM
 10
317.8747627127239
 20
-891.6018481636146
 30
0.0
 11
317.1247627127239
 21
-891.7518481636147
 31
0.0
  0
LINE
  5
22306
  8
1PHANTOM
 10
322.1247627127239
 20
-894.7518481636147
 30
0.0
 11
317.1247627127239
 21
-893.7518481636147
 31
0.0
  0
LINE
  5
22307
  8
1PHANTOM
 10
322.1247627127239
 20
-894.7518481636147
 30
0.0
 11
321.3747627127239
 21
-894.9018481636145
 31
0.0
  0
LINE
  5
22308
  8
1PHANTOM
 10
317.8747627127239
 20
-893.6018481636146
 30
0.0
 11
317.1247627127239
 21
-893.7518481636147
 31
0.0
  0
LINE
  5
22309
  8
1PHANTOM
 10
322.1247627127239
 20
-888.7518481636147
 30
0.0
 11
321.3747627127239
 21
-888.9018481636145
 31
0.0
  0
LINE
  5
2230A
  8
1PHANTOM
 10
317.8747627127239
 20
-889.6018481636146
 30
0.0
 11
317.1247627127239
 21
-889.7518481636147
 31
0.0
  0
LINE
  5
2230B
  8
1PHANTOM
 10
322.1247627127239
 20
-890.7518481636147
 30
0.0
 11
317.1247627127239
 21
-889.7518481636147
 31
0.0
  0
LINE
  5
2230C
  8
1PHANTOM
 10
322.1247627127239
 20
-872.7518481636147
 30
0.0
 11
321.3747627127239
 21
-872.9018481636145
 31
0.0
  0
LINE
  5
2230D
  8
1PHANTOM
 10
317.8747627127239
 20
-873.6018481636146
 30
0.0
 11
317.1247627127239
 21
-873.7518481636147
 31
0.0
  0
LINE
  5
2230E
  8
1PHANTOM
 10
322.1247627127239
 20
-874.7518481636147
 30
0.0
 11
317.1247627127239
 21
-873.7518481636147
 31
0.0
  0
LINE
  5
2230F
  8
1PHANTOM
 10
315.2402206437189
 20
-903.8697137274579
 30
0.0
 11
323.9902206437184
 21
-903.8697137496605
 31
0.0
  0
LINE
  5
22310
  8
1CENTER
 10
319.6247627127239
 20
-910.1015138929598
 30
0.0
 11
319.6247627127239
 21
-853.1654493984967
 31
0.0
  0
ARC
  5
22311
  8
1PHANTOM
 10
-197.8586368312805
 20
-904.8697137385589
 30
0.0
 40
0.9999999999999998
 50
0.4999999999980602
 51
90.0
  0
LINE
  5
22312
  8
1PHANTOM
 10
-235.294300338567
 20
-925.878440274058
 30
0.0
 11
-235.1108838043176
 21
-904.8609872030609
 31
0.0
  0
LINE
  5
22313
  8
1PHANTOM
 10
-206.3847793562671
 20
-903.8697137385589
 30
0.0
 11
-206.3847793562671
 21
-898.8697137385589
 31
0.0
  0
ARC
  5
22314
  8
1PHANTOM
 10
-234.1109218812535
 20
-904.8697137385593
 30
0.0
 40
0.9999999999999998
 50
90.0
 51
179.5000000000019
  0
LINE
  5
22315
  8
1PHANTOM
 10
-196.6234606715431
 20
-931.8138690746553
 30
0.0
 11
-196.8586749082164
 21
-904.8609872030605
 31
0.0
  0
LINE
  5
22316
  8
1PHANTOM
 10
-200.3847793562671
 20
-898.8697137385589
 30
0.0
 11
-200.3847793562671
 21
-903.8697137385589
 31
0.0
  0
LINE
  5
22317
  8
1PHANTOM
 10
-225.3847793562676
 20
-898.8697137385589
 30
0.0
 11
-225.3847793562676
 21
-903.8697137385593
 31
0.0
  0
LINE
  5
22318
  8
1PHANTOM
 10
-238.4798892491365
 20
-916.8683620330721
 30
0.0
 11
-235.2156705769734
 21
-916.8683620330717
 31
0.0
  0
LINE
  5
22319
  8
1PHANTOM
 10
-238.1298892491365
 20
-920.5183620330718
 30
0.0
 11
-238.1298892491363
 21
-917.218362033072
 31
0.0
  0
LINE
  5
2231A
  8
1PHANTOM
 10
-238.1298892491365
 20
-917.218362033072
 30
0.0
 11
-235.2187249807001
 21
-917.218362033072
 31
0.0
  0
LINE
  5
2231B
  8
1PHANTOM
 10
-238.6909580911467
 20
-921.0794308750826
 30
0.0
 11
-238.1298892491365
 21
-920.5183620330718
 31
0.0
  0
LINE
  5
2231C
  8
1PHANTOM
 10
-231.3847793562675
 20
-903.8697137385593
 30
0.0
 11
-231.3847793562676
 21
-898.8697137385589
 31
0.0
  0
LINE
  5
2231D
  8
1PHANTOM
 10
-238.4798892491365
 20
-920.8683620330721
 30
0.0
 11
-235.2505780481365
 21
-920.8683620330723
 31
0.0
  0
LINE
  5
2231E
  8
1PHANTOM
 10
-238.1298892491366
 20
-920.5183620330722
 30
0.0
 11
-235.2475236444097
 21
-920.5183620330715
 31
0.0
  0
LINE
  5
2231F
  8
1PHANTOM
 10
-238.7298892491365
 20
-916.6183620330721
 30
0.0
 11
-238.1298892491365
 21
-917.218362033072
 31
0.0
  0
LINE
  5
22320
  8
1PHANTOM
 10
-197.8586368312805
 20
-903.8697137385589
 30
0.0
 11
-234.1109218812535
 21
-903.8697137385593
 31
0.0
  0
LINE
  5
22321
  8
1PHANTOM
 10
-199.0002372872623
 20
-904.8697035775452
 30
0.0
 11
-207.7597793562672
 21
-904.8697239592033
 31
0.0
  0
LINE
  5
22322
  8
1PHANTOM
 10
-199.0097793562672
 20
-904.8697035997478
 30
0.0
 11
-199.0097793562672
 21
-903.869713757273
 31
0.0
  0
LINE
  5
22323
  8
1PHANTOM
 10
-200.7097793562675
 20
-904.8697035997478
 30
0.0
 11
-200.7097793562675
 21
-903.869713757273
 31
0.0
  0
LINE
  5
22324
  8
1PHANTOM
 10
-207.7597793562672
 20
-904.8697239592033
 30
0.0
 11
-207.7597793562668
 21
-903.8697137350704
 31
0.0
  0
LINE
  5
22325
  8
1PHANTOM
 10
-206.059779356267
 20
-904.8697239592033
 30
0.0
 11
-206.059779356267
 21
-903.869713757273
 31
0.0
  0
LINE
  5
22327
  8
1PHANTOM
 10
-200.8752372872618
 20
-872.7518481712272
 30
0.0
 11
-205.8752372872618
 21
-871.7518481712272
 31
0.0
  0
LINE
  5
22328
  8
1PHANTOM
 10
-203.6885939742056
 20
-855.8891768338384
 30
0.0
 11
-204.4385939742056
 21
-856.0391768338383
 31
0.0
  0
LINE
  5
22329
  8
1PHANTOM
 10
-200.8752372872618
 20
-866.7518481712272
 30
0.0
 11
-205.8752372872618
 21
-865.7518481712272
 31
0.0
  0
LINE
  5
2232A
  8
1PHANTOM
 10
-205.1252372872618
 20
-865.6018481712271
 30
0.0
 11
-205.8752372872618
 21
-865.7518481712272
 31
0.0
  0
LINE
  5
2232B
  8
1PHANTOM
 10
-205.1252372872618
 20
-863.6018481712271
 30
0.0
 11
-205.8752372872618
 21
-863.7518481712272
 31
0.0
  0
LINE
  5
2232C
  8
1PHANTOM
 10
-200.8752372872618
 20
-864.7518481712272
 30
0.0
 11
-201.6252372872618
 21
-864.901848171227
 31
0.0
  0
LINE
  5
2232D
  8
1PHANTOM
 10
-200.8752372872618
 20
-864.7518481712272
 30
0.0
 11
-205.8752372872618
 21
-863.7518481712272
 31
0.0
  0
LINE
  5
2232E
  8
1PHANTOM
 10
-204.7058748273166
 20
-859.6857206632161
 30
0.0
 11
-205.4558748273166
 21
-859.8357206632161
 31
0.0
  0
LINE
  5
2232F
  8
1PHANTOM
 10
-204.1972344007613
 20
-857.7874487485273
 30
0.0
 11
-204.9472344007613
 21
-857.9374487485272
 31
0.0
  0
LINE
  5
22330
  8
1PHANTOM
 10
-201.6252136164853
 20
-858.6018529053823
 30
0.0
 11
-202.3752136164853
 21
-858.7518529053824
 31
0.0
  0
LINE
  5
22331
  8
1PHANTOM
 10
-201.6252136164853
 20
-858.6018529053823
 30
0.0
 11
-204.9472344007613
 21
-857.9374487485272
 31
0.0
  0
LINE
  5
22332
  8
1PHANTOM
 10
-202.1914568867446
 20
-856.4886042513305
 30
0.0
 11
-202.9414568867446
 21
-856.6386042513305
 31
0.0
  0
LINE
  5
22333
  8
1PHANTOM
 10
-205.1252372872618
 20
-861.6018481712271
 30
0.0
 11
-205.8752372872618
 21
-861.7518481712272
 31
0.0
  0
LINE
  5
22334
  8
1PHANTOM
 10
-200.8752372872618
 20
-862.7518481712272
 30
0.0
 11
-201.6252372872618
 21
-862.901848171227
 31
0.0
  0
LINE
  5
22335
  8
1PHANTOM
 10
-200.8752372872618
 20
-862.7518481712272
 30
0.0
 11
-205.8752372872618
 21
-861.7518481712272
 31
0.0
  0
LINE
  5
22336
  8
1PHANTOM
 10
-201.058970346226
 20
-860.7151015594343
 30
0.0
 11
-201.808970346226
 21
-860.8651015594343
 31
0.0
  0
LINE
  5
22337
  8
1PHANTOM
 10
-201.058970346226
 20
-860.7151015594343
 30
0.0
 11
-205.4558748273166
 21
-859.8357206632161
 31
0.0
  0
LINE
  5
22338
  8
1PHANTOM
 10
-202.1914568867446
 20
-856.4886042513305
 30
0.0
 11
-204.4385939742056
 21
-856.0391768338383
 31
0.0
  0
LINE
  5
22339
  8
1PHANTOM
 10
-205.1252372872618
 20
-871.6018481712271
 30
0.0
 11
-205.8752372872618
 21
-871.7518481712272
 31
0.0
  0
LINE
  5
2233A
  8
1PHANTOM
 10
-200.8752372872618
 20
-870.7518481712272
 30
0.0
 11
-201.6252372872618
 21
-870.901848171227
 31
0.0
  0
LINE
  5
2233B
  8
1PHANTOM
 10
-200.8752372872618
 20
-870.7518481712272
 30
0.0
 11
-205.8752372872618
 21
-869.7518481712272
 31
0.0
  0
LINE
  5
2233C
  8
1PHANTOM
 10
-205.1252372872618
 20
-867.6018481712271
 30
0.0
 11
-205.8752372872618
 21
-867.7518481712272
 31
0.0
  0
LINE
  5
2233D
  8
1PHANTOM
 10
-200.8752372872618
 20
-868.7518481712272
 30
0.0
 11
-201.6252372872618
 21
-868.901848171227
 31
0.0
  0
LINE
  5
2233E
  8
1PHANTOM
 10
-200.8752372872618
 20
-866.7518481712272
 30
0.0
 11
-201.6252372872618
 21
-866.901848171227
 31
0.0
  0
LINE
  5
2233F
  8
1PHANTOM
 10
-200.8752372872618
 20
-868.7518481712272
 30
0.0
 11
-205.8752372872618
 21
-867.7518481712272
 31
0.0
  0
LINE
  5
22340
  8
1PHANTOM
 10
-205.1252372872618
 20
-869.6018481712271
 30
0.0
 11
-205.8752372872618
 21
-869.7518481712272
 31
0.0
  0
LINE
  5
22341
  8
1PHANTOM
 10
-205.1252372872618
 20
-903.6018481712271
 30
0.0
 11
-205.8752372872618
 21
-903.7518481712272
 31
0.0
  0
LINE
  5
22342
  8
1PHANTOM
 10
-200.8752372872618
 20
-904.7518481712272
 30
0.0
 11
-201.6252372872618
 21
-904.901848171227
 31
0.0
  0
LINE
  5
22343
  8
1PHANTOM
 10
-200.8752372872618
 20
-904.7518481712272
 30
0.0
 11
-205.8752372872618
 21
-903.7518481712272
 31
0.0
  0
LINE
  5
22344
  8
1PHANTOM
 10
-205.1252372872618
 20
-901.6018481712271
 30
0.0
 11
-205.8752372872618
 21
-901.7518481712272
 31
0.0
  0
LINE
  5
22345
  8
1PHANTOM
 10
-200.8752372872618
 20
-902.7518481712272
 30
0.0
 11
-201.6252372872618
 21
-902.901848171227
 31
0.0
  0
LINE
  5
22346
  8
1PHANTOM
 10
-200.8752372872618
 20
-902.7518481712272
 30
0.0
 11
-205.8752372872618
 21
-901.7518481712272
 31
0.0
  0
LINE
  5
22347
  8
1PHANTOM
 10
-205.1252372872618
 20
-899.6018481712271
 30
0.0
 11
-205.8752372872618
 21
-899.7518481712272
 31
0.0
  0
LINE
  5
22348
  8
1PHANTOM
 10
-200.8752372872618
 20
-900.7518481712272
 30
0.0
 11
-201.6252372872618
 21
-900.901848171227
 31
0.0
  0
LINE
  5
22349
  8
1PHANTOM
 10
-200.8752372872618
 20
-900.7518481712272
 30
0.0
 11
-205.8752372872618
 21
-899.7518481712272
 31
0.0
  0
LINE
  5
2234A
  8
1PHANTOM
 10
-205.1252372872618
 20
-897.6018481712271
 30
0.0
 11
-205.8752372872618
 21
-897.7518481712272
 31
0.0
  0
LINE
  5
2234B
  8
1PHANTOM
 10
-200.8752372872618
 20
-898.7518481712272
 30
0.0
 11
-201.6252372872618
 21
-898.901848171227
 31
0.0
  0
LINE
  5
2234C
  8
1PHANTOM
 10
-200.8752372872618
 20
-898.7518481712272
 30
0.0
 11
-205.8752372872618
 21
-897.7518481712272
 31
0.0
  0
LINE
  5
2234D
  8
1PHANTOM
 10
-205.1252372872618
 20
-895.6018481712271
 30
0.0
 11
-205.8752372872618
 21
-895.7518481712272
 31
0.0
  0
LINE
  5
2234E
  8
1PHANTOM
 10
-200.8752372872618
 20
-896.7518481712272
 30
0.0
 11
-201.6252372872618
 21
-896.901848171227
 31
0.0
  0
LINE
  5
2234F
  8
1PHANTOM
 10
-200.8752372872618
 20
-896.7518481712272
 30
0.0
 11
-205.8752372872618
 21
-895.7518481712272
 31
0.0
  0
LINE
  5
22350
  8
1PHANTOM
 10
-205.1252372872618
 20
-904.869713757273
 30
0.0
 11
-201.6252372872618
 21
-904.869713757273
 31
0.0
  0
LINE
  5
22351
  8
1PHANTOM
 10
-200.8752372872618
 20
-876.7518481712272
 30
0.0
 11
-201.6252372872618
 21
-876.901848171227
 31
0.0
  0
LINE
  5
22352
  8
1PHANTOM
 10
-205.1252372872618
 20
-875.6018481712271
 30
0.0
 11
-205.8752372872618
 21
-875.7518481712272
 31
0.0
  0
LINE
  5
22353
  8
1PHANTOM
 10
-200.8752372872618
 20
-874.7518481712272
 30
0.0
 11
-201.6252372872618
 21
-874.901848171227
 31
0.0
  0
LINE
  5
22354
  8
1PHANTOM
 10
-200.8752372872618
 20
-876.7518481712272
 30
0.0
 11
-205.8752372872618
 21
-875.7518481712272
 31
0.0
  0
LINE
  5
22355
  8
1PHANTOM
 10
-200.8752372872618
 20
-888.7518481712272
 30
0.0
 11
-205.8752372872618
 21
-887.7518481712272
 31
0.0
  0
LINE
  5
22356
  8
1PHANTOM
 10
-205.1252372872618
 20
-883.6018481712271
 30
0.0
 11
-205.8752372872618
 21
-883.7518481712272
 31
0.0
  0
LINE
  5
22357
  8
1PHANTOM
 10
-200.8752372872618
 20
-884.7518481712272
 30
0.0
 11
-201.6252372872618
 21
-884.901848171227
 31
0.0
  0
LINE
  5
22358
  8
1PHANTOM
 10
-200.8752372872618
 20
-884.7518481712272
 30
0.0
 11
-205.8752372872618
 21
-883.7518481712272
 31
0.0
  0
LINE
  5
22359
  8
1PHANTOM
 10
-200.8752372872618
 20
-886.7518481712272
 30
0.0
 11
-205.8752372872618
 21
-885.7518481712272
 31
0.0
  0
LINE
  5
2235A
  8
1PHANTOM
 10
-200.8752372872618
 20
-886.7518481712272
 30
0.0
 11
-201.6252372872618
 21
-886.901848171227
 31
0.0
  0
LINE
  5
2235B
  8
1PHANTOM
 10
-205.1252372872618
 20
-885.6018481712271
 30
0.0
 11
-205.8752372872618
 21
-885.7518481712272
 31
0.0
  0
LINE
  5
2235C
  8
1PHANTOM
 10
-205.1252372872618
 20
-887.6018481712271
 30
0.0
 11
-205.8752372872618
 21
-887.7518481712272
 31
0.0
  0
LINE
  5
2235D
  8
1PHANTOM
 10
-200.8752372872618
 20
-880.7518481712272
 30
0.0
 11
-205.8752372872618
 21
-879.7518481712272
 31
0.0
  0
LINE
  5
2235E
  8
1PHANTOM
 10
-205.1252372872618
 20
-879.6018481712271
 30
0.0
 11
-205.8752372872618
 21
-879.7518481712272
 31
0.0
  0
LINE
  5
2235F
  8
1PHANTOM
 10
-200.8752372872618
 20
-878.7518481712272
 30
0.0
 11
-201.6252372872618
 21
-878.901848171227
 31
0.0
  0
LINE
  5
22360
  8
1PHANTOM
 10
-205.1252372872618
 20
-877.6018481712271
 30
0.0
 11
-205.8752372872618
 21
-877.7518481712272
 31
0.0
  0
LINE
  5
22361
  8
1PHANTOM
 10
-200.8752372872618
 20
-878.7518481712272
 30
0.0
 11
-205.8752372872618
 21
-877.7518481712272
 31
0.0
  0
LINE
  5
22362
  8
1PHANTOM
 10
-205.1252372872618
 20
-881.6018481712271
 30
0.0
 11
-205.8752372872618
 21
-881.7518481712272
 31
0.0
  0
LINE
  5
22363
  8
1PHANTOM
 10
-200.8752372872618
 20
-882.7518481712272
 30
0.0
 11
-201.6252372872618
 21
-882.901848171227
 31
0.0
  0
LINE
  5
22364
  8
1PHANTOM
 10
-200.8752372872618
 20
-880.7518481712272
 30
0.0
 11
-201.6252372872618
 21
-880.901848171227
 31
0.0
  0
LINE
  5
22365
  8
1PHANTOM
 10
-200.8752372872618
 20
-882.7518481712272
 30
0.0
 11
-205.8752372872618
 21
-881.7518481712272
 31
0.0
  0
LINE
  5
22366
  8
1PHANTOM
 10
-200.8752372872618
 20
-890.7518481712272
 30
0.0
 11
-201.6252372872618
 21
-890.901848171227
 31
0.0
  0
LINE
  5
22367
  8
1PHANTOM
 10
-200.8752372872618
 20
-892.7518481712272
 30
0.0
 11
-205.8752372872618
 21
-891.7518481712272
 31
0.0
  0
LINE
  5
22368
  8
1PHANTOM
 10
-200.8752372872618
 20
-892.7518481712272
 30
0.0
 11
-201.6252372872618
 21
-892.901848171227
 31
0.0
  0
LINE
  5
22369
  8
1PHANTOM
 10
-205.1252372872618
 20
-891.6018481712271
 30
0.0
 11
-205.8752372872618
 21
-891.7518481712272
 31
0.0
  0
LINE
  5
2236A
  8
1PHANTOM
 10
-200.8752372872618
 20
-894.7518481712272
 30
0.0
 11
-205.8752372872618
 21
-893.7518481712272
 31
0.0
  0
LINE
  5
2236B
  8
1PHANTOM
 10
-200.8752372872618
 20
-894.7518481712272
 30
0.0
 11
-201.6252372872618
 21
-894.901848171227
 31
0.0
  0
LINE
  5
2236C
  8
1PHANTOM
 10
-205.1252372872618
 20
-893.6018481712271
 30
0.0
 11
-205.8752372872618
 21
-893.7518481712272
 31
0.0
  0
LINE
  5
2236D
  8
1PHANTOM
 10
-200.8752372872618
 20
-888.7518481712272
 30
0.0
 11
-201.6252372872618
 21
-888.901848171227
 31
0.0
  0
LINE
  5
2236E
  8
1PHANTOM
 10
-205.1252372872618
 20
-889.6018481712271
 30
0.0
 11
-205.8752372872618
 21
-889.7518481712272
 31
0.0
  0
LINE
  5
2236F
  8
1PHANTOM
 10
-200.8752372872618
 20
-890.7518481712272
 30
0.0
 11
-205.8752372872618
 21
-889.7518481712272
 31
0.0
  0
LINE
  5
22370
  8
1PHANTOM
 10
-200.8752372872618
 20
-872.7518481712272
 30
0.0
 11
-201.6252372872618
 21
-872.901848171227
 31
0.0
  0
LINE
  5
22371
  8
1PHANTOM
 10
-205.1252372872618
 20
-873.6018481712271
 30
0.0
 11
-205.8752372872618
 21
-873.7518481712272
 31
0.0
  0
LINE
  5
22372
  8
1PHANTOM
 10
-200.8752372872618
 20
-874.7518481712272
 30
0.0
 11
-205.8752372872618
 21
-873.7518481712272
 31
0.0
  0
LINE
  5
22373
  8
1PHANTOM
 10
-207.7597793562668
 20
-903.8697137350704
 30
0.0
 11
-199.0097793562672
 21
-903.869713757273
 31
0.0
  0
LINE
  5
22374
  8
1CENTER
 10
-203.3752372872618
 20
-910.1015139005723
 30
0.0
 11
-203.3752372872618
 21
-853.1654494061091
 31
0.0
  0
LINE
  5
22375
  8
1PHANTOM
 10
-224.0002372872627
 20
-904.8697035775452
 30
0.0
 11
-232.7597793562677
 21
-904.8697239592033
 31
0.0
  0
LINE
  5
22376
  8
1PHANTOM
 10
-224.0097793562677
 20
-904.8697035997478
 30
0.0
 11
-224.0097793562677
 21
-903.869713757273
 31
0.0
  0
LINE
  5
22377
  8
1PHANTOM
 10
-225.709779356268
 20
-904.8697035997478
 30
0.0
 11
-225.709779356268
 21
-903.869713757273
 31
0.0
  0
LINE
  5
22378
  8
1PHANTOM
 10
-232.7597793562677
 20
-904.8697239592033
 30
0.0
 11
-232.7597793562672
 21
-903.8697137350704
 31
0.0
  0
LINE
  5
22379
  8
1PHANTOM
 10
-231.0597793562674
 20
-904.8697239592033
 30
0.0
 11
-231.0597793562674
 21
-903.869713757273
 31
0.0
  0
LINE
  5
2237B
  8
1PHANTOM
 10
-225.8752372872623
 20
-872.7518481712272
 30
0.0
 11
-230.8752372872623
 21
-871.7518481712272
 31
0.0
  0
LINE
  5
2237C
  8
1PHANTOM
 10
-228.688593974206
 20
-855.8891768338384
 30
0.0
 11
-229.438593974206
 21
-856.0391768338383
 31
0.0
  0
LINE
  5
2237D
  8
1PHANTOM
 10
-225.8752372872623
 20
-866.7518481712272
 30
0.0
 11
-230.8752372872623
 21
-865.7518481712272
 31
0.0
  0
LINE
  5
2237E
  8
1PHANTOM
 10
-230.1252372872623
 20
-865.6018481712271
 30
0.0
 11
-230.8752372872623
 21
-865.7518481712272
 31
0.0
  0
LINE
  5
2237F
  8
1PHANTOM
 10
-230.1252372872623
 20
-863.6018481712271
 30
0.0
 11
-230.8752372872623
 21
-863.7518481712272
 31
0.0
  0
LINE
  5
22380
  8
1PHANTOM
 10
-225.8752372872623
 20
-864.7518481712272
 30
0.0
 11
-226.6252372872623
 21
-864.901848171227
 31
0.0
  0
LINE
  5
22381
  8
1PHANTOM
 10
-225.8752372872623
 20
-864.7518481712272
 30
0.0
 11
-230.8752372872623
 21
-863.7518481712272
 31
0.0
  0
LINE
  5
22382
  8
1PHANTOM
 10
-229.7058748273171
 20
-859.6857206632161
 30
0.0
 11
-230.4558748273171
 21
-859.8357206632161
 31
0.0
  0
LINE
  5
22383
  8
1PHANTOM
 10
-229.1972344007618
 20
-857.7874487485273
 30
0.0
 11
-229.9472344007618
 21
-857.9374487485272
 31
0.0
  0
LINE
  5
22384
  8
1PHANTOM
 10
-226.6252136164858
 20
-858.6018529053823
 30
0.0
 11
-227.3752136164858
 21
-858.7518529053824
 31
0.0
  0
LINE
  5
22385
  8
1PHANTOM
 10
-226.6252136164858
 20
-858.6018529053823
 30
0.0
 11
-229.9472344007618
 21
-857.9374487485272
 31
0.0
  0
LINE
  5
22386
  8
1PHANTOM
 10
-227.1914568867451
 20
-856.4886042513305
 30
0.0
 11
-227.9414568867451
 21
-856.6386042513305
 31
0.0
  0
LINE
  5
22387
  8
1PHANTOM
 10
-230.1252372872623
 20
-861.6018481712271
 30
0.0
 11
-230.8752372872623
 21
-861.7518481712272
 31
0.0
  0
LINE
  5
22388
  8
1PHANTOM
 10
-225.8752372872623
 20
-862.7518481712272
 30
0.0
 11
-226.6252372872623
 21
-862.901848171227
 31
0.0
  0
LINE
  5
22389
  8
1PHANTOM
 10
-225.8752372872623
 20
-862.7518481712272
 30
0.0
 11
-230.8752372872623
 21
-861.7518481712272
 31
0.0
  0
LINE
  5
2238A
  8
1PHANTOM
 10
-226.0589703462265
 20
-860.7151015594343
 30
0.0
 11
-226.8089703462265
 21
-860.8651015594343
 31
0.0
  0
LINE
  5
2238B
  8
1PHANTOM
 10
-226.0589703462265
 20
-860.7151015594343
 30
0.0
 11
-230.4558748273171
 21
-859.8357206632161
 31
0.0
  0
LINE
  5
2238C
  8
1PHANTOM
 10
-227.1914568867451
 20
-856.4886042513305
 30
0.0
 11
-229.438593974206
 21
-856.0391768338383
 31
0.0
  0
LINE
  5
2238D
  8
1PHANTOM
 10
-230.1252372872623
 20
-871.6018481712271
 30
0.0
 11
-230.8752372872623
 21
-871.7518481712272
 31
0.0
  0
LINE
  5
2238E
  8
1PHANTOM
 10
-225.8752372872623
 20
-870.7518481712272
 30
0.0
 11
-226.6252372872623
 21
-870.901848171227
 31
0.0
  0
LINE
  5
2238F
  8
1PHANTOM
 10
-225.8752372872623
 20
-870.7518481712272
 30
0.0
 11
-230.8752372872623
 21
-869.7518481712272
 31
0.0
  0
LINE
  5
22390
  8
1PHANTOM
 10
-230.1252372872623
 20
-867.6018481712271
 30
0.0
 11
-230.8752372872623
 21
-867.7518481712272
 31
0.0
  0
LINE
  5
22391
  8
1PHANTOM
 10
-225.8752372872623
 20
-868.7518481712272
 30
0.0
 11
-226.6252372872623
 21
-868.901848171227
 31
0.0
  0
LINE
  5
22392
  8
1PHANTOM
 10
-225.8752372872623
 20
-866.7518481712272
 30
0.0
 11
-226.6252372872623
 21
-866.901848171227
 31
0.0
  0
LINE
  5
22393
  8
1PHANTOM
 10
-225.8752372872623
 20
-868.7518481712272
 30
0.0
 11
-230.8752372872623
 21
-867.7518481712272
 31
0.0
  0
LINE
  5
22394
  8
1PHANTOM
 10
-230.1252372872623
 20
-869.6018481712271
 30
0.0
 11
-230.8752372872623
 21
-869.7518481712272
 31
0.0
  0
LINE
  5
22395
  8
1PHANTOM
 10
-230.1252372872623
 20
-903.6018481712271
 30
0.0
 11
-230.8752372872623
 21
-903.7518481712272
 31
0.0
  0
LINE
  5
22396
  8
1PHANTOM
 10
-225.8752372872623
 20
-904.7518481712272
 30
0.0
 11
-226.6252372872623
 21
-904.901848171227
 31
0.0
  0
LINE
  5
22397
  8
1PHANTOM
 10
-225.8752372872623
 20
-904.7518481712272
 30
0.0
 11
-230.8752372872623
 21
-903.7518481712272
 31
0.0
  0
LINE
  5
22398
  8
1PHANTOM
 10
-230.1252372872623
 20
-901.6018481712271
 30
0.0
 11
-230.8752372872623
 21
-901.7518481712272
 31
0.0
  0
LINE
  5
22399
  8
1PHANTOM
 10
-225.8752372872623
 20
-902.7518481712272
 30
0.0
 11
-226.6252372872623
 21
-902.901848171227
 31
0.0
  0
LINE
  5
2239A
  8
1PHANTOM
 10
-225.8752372872623
 20
-902.7518481712272
 30
0.0
 11
-230.8752372872623
 21
-901.7518481712272
 31
0.0
  0
LINE
  5
2239B
  8
1PHANTOM
 10
-230.1252372872623
 20
-899.6018481712271
 30
0.0
 11
-230.8752372872623
 21
-899.7518481712272
 31
0.0
  0
LINE
  5
2239C
  8
1PHANTOM
 10
-225.8752372872623
 20
-900.7518481712272
 30
0.0
 11
-226.6252372872623
 21
-900.901848171227
 31
0.0
  0
LINE
  5
2239D
  8
1PHANTOM
 10
-225.8752372872623
 20
-900.7518481712272
 30
0.0
 11
-230.8752372872623
 21
-899.7518481712272
 31
0.0
  0
LINE
  5
2239E
  8
1PHANTOM
 10
-230.1252372872623
 20
-897.6018481712271
 30
0.0
 11
-230.8752372872623
 21
-897.7518481712272
 31
0.0
  0
LINE
  5
2239F
  8
1PHANTOM
 10
-225.8752372872623
 20
-898.7518481712272
 30
0.0
 11
-226.6252372872623
 21
-898.901848171227
 31
0.0
  0
LINE
  5
223A0
  8
1PHANTOM
 10
-225.8752372872623
 20
-898.7518481712272
 30
0.0
 11
-230.8752372872623
 21
-897.7518481712272
 31
0.0
  0
LINE
  5
223A1
  8
1PHANTOM
 10
-230.1252372872623
 20
-895.6018481712271
 30
0.0
 11
-230.8752372872623
 21
-895.7518481712272
 31
0.0
  0
LINE
  5
223A2
  8
1PHANTOM
 10
-225.8752372872623
 20
-896.7518481712272
 30
0.0
 11
-226.6252372872623
 21
-896.901848171227
 31
0.0
  0
LINE
  5
223A3
  8
1PHANTOM
 10
-225.8752372872623
 20
-896.7518481712272
 30
0.0
 11
-230.8752372872623
 21
-895.7518481712272
 31
0.0
  0
LINE
  5
223A4
  8
1PHANTOM
 10
-230.1252372872623
 20
-904.869713757273
 30
0.0
 11
-226.6252372872623
 21
-904.869713757273
 31
0.0
  0
LINE
  5
223A5
  8
1PHANTOM
 10
-225.8752372872623
 20
-876.7518481712272
 30
0.0
 11
-226.6252372872623
 21
-876.901848171227
 31
0.0
  0
LINE
  5
223A6
  8
1PHANTOM
 10
-230.1252372872623
 20
-875.6018481712271
 30
0.0
 11
-230.8752372872623
 21
-875.7518481712272
 31
0.0
  0
LINE
  5
223A7
  8
1PHANTOM
 10
-225.8752372872623
 20
-874.7518481712272
 30
0.0
 11
-226.6252372872623
 21
-874.901848171227
 31
0.0
  0
LINE
  5
223A8
  8
1PHANTOM
 10
-225.8752372872623
 20
-876.7518481712272
 30
0.0
 11
-230.8752372872623
 21
-875.7518481712272
 31
0.0
  0
LINE
  5
223A9
  8
1PHANTOM
 10
-225.8752372872623
 20
-888.7518481712272
 30
0.0
 11
-230.8752372872623
 21
-887.7518481712272
 31
0.0
  0
LINE
  5
223AA
  8
1PHANTOM
 10
-230.1252372872623
 20
-883.6018481712271
 30
0.0
 11
-230.8752372872623
 21
-883.7518481712272
 31
0.0
  0
LINE
  5
223AB
  8
1PHANTOM
 10
-225.8752372872623
 20
-884.7518481712272
 30
0.0
 11
-226.6252372872623
 21
-884.901848171227
 31
0.0
  0
LINE
  5
223AC
  8
1PHANTOM
 10
-225.8752372872623
 20
-884.7518481712272
 30
0.0
 11
-230.8752372872623
 21
-883.7518481712272
 31
0.0
  0
LINE
  5
223AD
  8
1PHANTOM
 10
-225.8752372872623
 20
-886.7518481712272
 30
0.0
 11
-230.8752372872623
 21
-885.7518481712272
 31
0.0
  0
LINE
  5
223AE
  8
1PHANTOM
 10
-225.8752372872623
 20
-886.7518481712272
 30
0.0
 11
-226.6252372872623
 21
-886.901848171227
 31
0.0
  0
LINE
  5
223AF
  8
1PHANTOM
 10
-230.1252372872623
 20
-885.6018481712271
 30
0.0
 11
-230.8752372872623
 21
-885.7518481712272
 31
0.0
  0
LINE
  5
223B0
  8
1PHANTOM
 10
-230.1252372872623
 20
-887.6018481712271
 30
0.0
 11
-230.8752372872623
 21
-887.7518481712272
 31
0.0
  0
LINE
  5
223B1
  8
1PHANTOM
 10
-225.8752372872623
 20
-880.7518481712272
 30
0.0
 11
-230.8752372872623
 21
-879.7518481712272
 31
0.0
  0
LINE
  5
223B2
  8
1PHANTOM
 10
-230.1252372872623
 20
-879.6018481712271
 30
0.0
 11
-230.8752372872623
 21
-879.7518481712272
 31
0.0
  0
LINE
  5
223B3
  8
1PHANTOM
 10
-225.8752372872623
 20
-878.7518481712272
 30
0.0
 11
-226.6252372872623
 21
-878.901848171227
 31
0.0
  0
LINE
  5
223B4
  8
1PHANTOM
 10
-230.1252372872623
 20
-877.6018481712271
 30
0.0
 11
-230.8752372872623
 21
-877.7518481712272
 31
0.0
  0
LINE
  5
223B5
  8
1PHANTOM
 10
-225.8752372872623
 20
-878.7518481712272
 30
0.0
 11
-230.8752372872623
 21
-877.7518481712272
 31
0.0
  0
LINE
  5
223B6
  8
1PHANTOM
 10
-230.1252372872623
 20
-881.6018481712271
 30
0.0
 11
-230.8752372872623
 21
-881.7518481712272
 31
0.0
  0
LINE
  5
223B7
  8
1PHANTOM
 10
-225.8752372872623
 20
-882.7518481712272
 30
0.0
 11
-226.6252372872623
 21
-882.901848171227
 31
0.0
  0
LINE
  5
223B8
  8
1PHANTOM
 10
-225.8752372872623
 20
-880.7518481712272
 30
0.0
 11
-226.6252372872623
 21
-880.901848171227
 31
0.0
  0
LINE
  5
223B9
  8
1PHANTOM
 10
-225.8752372872623
 20
-882.7518481712272
 30
0.0
 11
-230.8752372872623
 21
-881.7518481712272
 31
0.0
  0
LINE
  5
223BA
  8
1PHANTOM
 10
-225.8752372872623
 20
-890.7518481712272
 30
0.0
 11
-226.6252372872623
 21
-890.901848171227
 31
0.0
  0
LINE
  5
223BB
  8
1PHANTOM
 10
-225.8752372872623
 20
-892.7518481712272
 30
0.0
 11
-230.8752372872623
 21
-891.7518481712272
 31
0.0
  0
LINE
  5
223BC
  8
1PHANTOM
 10
-225.8752372872623
 20
-892.7518481712272
 30
0.0
 11
-226.6252372872623
 21
-892.901848171227
 31
0.0
  0
LINE
  5
223BD
  8
1PHANTOM
 10
-230.1252372872623
 20
-891.6018481712271
 30
0.0
 11
-230.8752372872623
 21
-891.7518481712272
 31
0.0
  0
LINE
  5
223BE
  8
1PHANTOM
 10
-225.8752372872623
 20
-894.7518481712272
 30
0.0
 11
-230.8752372872623
 21
-893.7518481712272
 31
0.0
  0
LINE
  5
223BF
  8
1PHANTOM
 10
-225.8752372872623
 20
-894.7518481712272
 30
0.0
 11
-226.6252372872623
 21
-894.901848171227
 31
0.0
  0
LINE
  5
223C0
  8
1PHANTOM
 10
-230.1252372872623
 20
-893.6018481712271
 30
0.0
 11
-230.8752372872623
 21
-893.7518481712272
 31
0.0
  0
LINE
  5
223C1
  8
1PHANTOM
 10
-225.8752372872623
 20
-888.7518481712272
 30
0.0
 11
-226.6252372872623
 21
-888.901848171227
 31
0.0
  0
LINE
  5
223C2
  8
1PHANTOM
 10
-230.1252372872623
 20
-889.6018481712271
 30
0.0
 11
-230.8752372872623
 21
-889.7518481712272
 31
0.0
  0
LINE
  5
223C3
  8
1PHANTOM
 10
-225.8752372872623
 20
-890.7518481712272
 30
0.0
 11
-230.8752372872623
 21
-889.7518481712272
 31
0.0
  0
LINE
  5
223C4
  8
1PHANTOM
 10
-225.8752372872623
 20
-872.7518481712272
 30
0.0
 11
-226.6252372872623
 21
-872.901848171227
 31
0.0
  0
LINE
  5
223C5
  8
1PHANTOM
 10
-230.1252372872623
 20
-873.6018481712271
 30
0.0
 11
-230.8752372872623
 21
-873.7518481712272
 31
0.0
  0
LINE
  5
223C6
  8
1PHANTOM
 10
-225.8752372872623
 20
-874.7518481712272
 30
0.0
 11
-230.8752372872623
 21
-873.7518481712272
 31
0.0
  0
LINE
  5
223C7
  8
1PHANTOM
 10
-232.7597793562672
 20
-903.8697137350704
 30
0.0
 11
-224.0097793562677
 21
-903.869713757273
 31
0.0
  0
LINE
  5
223C8
  8
1CENTER
 10
-228.3752372872623
 20
-910.1015139005723
 30
0.0
 11
-228.3752372872623
 21
-853.1654494061091
 31
0.0
  0
LINE
  5
227C8
  8
1DIM
 10
378.0614956876261
 20
-913.9219039258097
 30
0.0
 11
504.6100490805134
 21
-913.92190392581
 31
0.0
  0
TEXT
  5
227C9
  8
1TEXT
 10
421.7125540146178
 20
-912.6362609094593
 30
0.0
 40
4.0
  1
ブラストブラック
 72
     1
 11
440.3125540146178
 21
-912.6362609094593
 31
0.0
  0
TEXT
  5
227CA
  8
1TEXT
 10
468.6586390480529
 20
-912.6362609094593
 30
0.0
 40
4.0
  1
KH-46-K003
 41
0.9
 72
     1
 11
485.4711390480529
 21
-912.6362609094593
 31
0.0
  0
TEXT
  5
227CB
  8
1TEXT
 10
379.1948290209606
 20
-912.6362609094593
 30
0.0
 40
4.0
  1
マットブラック
 72
     1
 11
395.4614956876272
 21
-912.6362609094593
 31
0.0
  0
CIRCLE
  5
228E4
  8
01
 10
446.2836265082007
 20
-995.6047570192526
 30
0.0
 40
3.0
  0
CIRCLE
  5
228E5
  8
01
 10
444.7836265082007
 20
-994.1047570192526
 30
0.0
 40
0.3
  0
LINE
  5
228E6
  8
01
 10
443.8836265082001
 20
-995.6047570192526
 30
0.0
 11
448.6836265082012
 21
-995.6047570192526
 31
0.0
  0
LINE
  5
228E7
  8
01
 10
446.2836265082007
 20
-998.0047570192525
 30
0.0
 11
446.2836265082007
 21
-993.2047570192527
 31
0.0
  0
LINE
  5
228E8
  8
1DIM
 10
-240.8847793562682
 20
-1009.60475701925
 30
0.0
 11
-260.9184299621793
 21
-1009.60475701925
 31
0.0
1001
ACAD
1000
DSTYLE
1002
{
1070
    40
1040
2.0
1002
}
  0
LINE
  5
228E9
  8
1DIM
 10
-240.8847793562681
 20
-981.6047570192501
 30
0.0
 11
-260.9184299621793
 21
-981.6047570192501
 31
0.0
1001
ACAD
1000
DSTYLE
1002
{
1070
    40
1040
2.0
1002
}
  0
LINE
  5
228EA
  8
1DIM
 10
-258.9184299621793
 20
-1005.60475701925
 30
0.0
 11
-258.9184299621793
 21
-985.6047570192501
 31
0.0
1001
ACAD
1000
DSTYLE
1002
{
1070
    40
1040
2.0
1002
}
  0
TEXT
  5
228EE
  8
1DIM
  6
CONTINUOUS
 10
475.21899647266
 20
-928.7471416549729
 30
0.0
 40
3.5
  1
合板12mm以上
  0
TEXT
  5
228EF
  8
1DIM
  6
CONTINUOUS
 10
472.41899647266
 20
-934.5853360994173
 30
0.0
 40
3.5
  1
（15㎜以上推奨）
  0
SOLID
  5
228F0
  8
1DIM
 10
478.826117992159
 20
-948.1529687453001
 30
0.0
 11
479.3615773442223
 21
-950.1085746343788
 31
0.0
 12
478.2208111822991
 22
-948.4323396642978
 32
0.0
 13
478.2208111822991
 23
-948.4323396642978
 33
0.0
  0
LINE
  5
228F1
  8
1DIM
 10
478.5234645872291
 20
-948.292654204799
 30
0.0
 11
472.51899647266
 21
-935.282905543862
 31
0.0
  0
LINE
  5
228F2
  8
1DIM
 10
472.51899647266
 20
-935.282905543862
 30
0.0
 11
475.21899647266
 21
-935.282905543862
 31
0.0
  0
SOLID
  5
228F3
  8
1HATCH
 10
470.9267073015619
 20
-948.1291461958173
 30
0.0
 11
470.8635951302811
 21
-950.1557512300919
 31
0.0
 12
470.2660185244306
 22
-948.2182236015789
 32
0.0
 13
470.2660185244306
 23
-948.2182236015789
 33
0.0
  0
LINE
  5
228F4
  8
1HATCH
 10
470.5963629129963
 20
-948.1736848986981
 30
0.0
 11
467.2387277505941
 21
-923.2700423808874
 31
0.0
  0
LINE
  5
228F5
  8
1HATCH
 10
467.2387277505941
 20
-923.2700423808874
 30
0.0
 11
469.9387277505941
 21
-923.2700423808874
 31
0.0
  0
TEXT
  5
228F6
  8
1HATCH
  6
CONTINUOUS
 10
469.9387277505941
 20
-922.5700423808876
 30
0.0
 40
3.5
  1
PB
  0
LINE
  5
228F7
  8
1PHANTOM
 10
510.2836264860009
 20
-995.6047570192503
 30
0.0
 11
503.7525375727554
 21
-997.3547570192504
 31
0.0
  0
LINE
  5
228F8
  8
1PHANTOM
 10
510.2836264860009
 20
-995.6047570192503
 30
0.0
 11
503.7525375727554
 21
-993.8547570192502
 31
0.0
  0
LINE
  5
228F9
  8
1PHANTOM
 10
503.7525375727554
 20
-993.8547570192503
 30
0.0
 11
460.2836264860009
 21
-993.8547570192503
 31
0.0
  0
LINE
  5
228FA
  8
1PHANTOM
 10
460.2836264860009
 20
-991.1047570192503
 30
0.0
 11
460.2836264860009
 21
-993.8547570192503
 31
0.0
  0
LINE
  5
228FB
  8
1PHANTOM
 10
460.2836264860009
 20
-991.1047570192503
 30
0.0
 11
459.4836264860009
 21
-991.1047570192503
 31
0.0
  0
ARC
  5
228FC
  8
1PHANTOM
 10
-459.4836264860009
 20
-993.6047570192503
 30
0.0
 40
2.5
 50
0.0
 51
90.0
210
0.0
220
0.0
230
-1.0
  0
LINE
  5
228FD
  8
1PHANTOM
 10
456.9836264860009
 20
-993.6047570192503
 30
0.0
 11
456.9836264860009
 21
-997.6047570192503
 31
0.0
  0
ARC
  5
228FE
  8
1PHANTOM
 10
-459.4836264860009
 20
-997.6047570192503
 30
0.0
 40
2.5
 50
269.9999999999948
 51
0.0
210
0.0
220
0.0
230
-1.0
  0
LINE
  5
228FF
  8
1PHANTOM
 10
460.2836264860009
 20
-1000.10475701925
 30
0.0
 11
459.4836264860011
 21
-1000.10475701925
 31
0.0
  0
LINE
  5
22900
  8
1PHANTOM
 10
460.2836264860009
 20
-997.3547570192503
 30
0.0
 11
460.2836264860009
 21
-1000.10475701925
 31
0.0
  0
LINE
  5
22901
  8
1PHANTOM
 10
503.7525375727554
 20
-997.3547570192503
 30
0.0
 11
460.2836264860009
 21
-997.3547570192503
 31
0.0
  0
LINE
  5
22902
  8
1DIM
 10
319.6152206437239
 20
-995.6047570192503
 30
0.0
 11
319.6152206437239
 21
-968.1777206049651
 31
0.0
  0
LINE
  5
22903
  8
1DIM
 10
344.6152206437239
 20
-995.6047570192503
 30
0.0
 11
344.6152206437239
 21
-968.1777206049651
 31
0.0
  0
LINE
  5
22904
  8
1DIM
 10
321.6152206437239
 20
-969.1777206049651
 30
0.0
 11
342.6152206437239
 21
-969.1777206049651
 31
0.0
  0
LINE
  5
22908
  8
1DIM
 10
420.2836265082032
 20
-981.6047570192502
 30
0.0
 11
394.4819304044327
 21
-981.6047570192502
 31
0.0
  0
LINE
  5
22909
  8
1DIM
 10
420.2836265082032
 20
-1009.60475701925
 30
0.0
 11
394.4819304044327
 21
-1009.60475701925
 31
0.0
  0
LINE
  5
2290A
  8
1DIM
 10
395.4819304044327
 20
-983.6047570192502
 30
0.0
 11
395.4819304044327
 21
-1007.60475701925
 31
0.0
  0
LINE
  5
2290E
  8
1DIM
 10
414.2836265082032
 20
-995.6047570192502
 30
0.0
 11
414.2836265082032
 21
-959.6549779755326
 31
0.0
  0
LINE
  5
2290F
  8
1DIM
 10
466.283626508203
 20
-995.6047570192502
 30
0.0
 11
466.283626508203
 21
-959.6549779755326
 31
0.0
  0
LINE
  5
22910
  8
1DIM
 10
416.2836265082032
 20
-960.6549779755326
 30
0.0
 11
464.283626508203
 21
-960.6549779755326
 31
0.0
  0
LINE
  5
22914
  8
1DIM1
 10
-215.8847793562645
 20
-995.6047570192502
 30
0.0
 11
-215.8847793562645
 21
-1035.784671617306
 31
0.0
1001
ACAD
1000
DSTYLE
1002
{
1070
    40
1040
3.0
1002
}
  0
LINE
  5
22915
  8
1DIM1
 10
332.1152206437239
 20
-995.6047570192503
 30
0.0
 11
332.1152206437239
 21
-1035.784671617306
 31
0.0
1001
ACAD
1000
DSTYLE
1002
{
1070
    40
1040
3.0
1002
}
  0
LINE
  5
22916
  8
1DIM1
 10
-209.8847793562645
 20
-1032.784671617306
 30
0.0
 11
326.1152206437239
 21
-1032.784671617306
 31
0.0
1001
ACAD
1000
DSTYLE
1002
{
1070
    40
1040
3.0
1002
}
  0
LINE
  5
2291A
  8
1DIM1
 10
-241.8847793562685
 20
-982.6047570192501
 30
0.0
 11
-241.8847793562685
 21
-1055.246864411909
 31
0.0
1001
ACAD
1000
DSTYLE
1002
{
1070
    40
1040
3.0
1002
}
  0
LINE
  5
2291B
  8
1DIM1
 10
358.1152206437279
 20
-982.6047570192502
 30
0.0
 11
358.1152206437279
 21
-1055.246864411909
 31
0.0
1001
ACAD
1000
DSTYLE
1002
{
1070
    40
1040
3.0
1002
}
  0
LINE
  5
2291C
  8
1DIM1
 10
-235.8847793562685
 20
-1052.246864411909
 30
0.0
 11
352.1152206437279
 21
-1052.246864411909
 31
0.0
1001
ACAD
1000
DSTYLE
1002
{
1070
    40
1040
3.0
1002
}
  0
LINE
  5
22920
  8
1DIM
 10
466.283626508203
 20
-995.6047570192502
 30
0.0
 11
466.283626508203
 21
-968.1777206049651
 31
0.0
  0
LINE
  5
22921
  8
1DIM
 10
446.2836265082027
 20
-995.60475701925
 30
0.0
 11
446.2836265082027
 21
-968.1777206049651
 31
0.0
  0
LINE
  5
22922
  8
1DIM
 10
464.283626508203
 20
-969.1777206049651
 30
0.0
 11
448.2836265082027
 21
-969.1777206049651
 31
0.0
  0
SOLID
  5
22926
  8
1DIM
 10
317.5402591947283
 20
-920.4955465419449
 30
0.0
 11
319.0215043238645
 21
-921.8801128922948
 31
0.0
 12
317.1712779529465
 22
-921.050791791954
 32
0.0
 13
317.1712779529465
 23
-921.050791791954
 33
0.0
1001
ACAD
1000
DSTYLE
1002
{
1070
    40
1040
1.0
1002
}
  0
LINE
  5
22927
  8
1DIM
 10
317.3557685738374
 20
-920.7731691669494
 30
0.0
 11
292.9414728738734
 21
-904.5489562728201
 31
0.0
1001
ACAD
1000
DSTYLE
1002
{
1070
    40
1040
1.0
1002
}
  0
LINE
  5
22928
  8
1DIM
 10
292.9414728738734
 20
-904.5489562728201
 30
0.0
 11
290.2414728738734
 21
-904.5489562728201
 31
0.0
1001
ACAD
1000
DSTYLE
1002
{
1070
    40
1040
1.0
1002
}
  0
TEXT
  5
22929
  8
1DIM
  6
CONTINUOUS
 10
245.4414728738735
 20
-896.0548802332468
 30
0.0
 40
3.5
  1
材質：亜鉛ダイキャスト
  0
TEXT
  5
2292A
  8
1DIM
  6
CONTINUOUS
 10
253.1414728738735
 20
-901.8882135665801
 30
0.0
 40
3.5
  1
仕上げ：各種仕上げ
  0
TEXT
  5
2292B
  8
1DIM
  6
CONTINUOUS
 10
214.8278928804699
 20
-911.7054267940424
 30
0.0
 40
3.5
  1
材質：アルミ
  0
TEXT
  5
2292C
  8
1DIM
  6
CONTINUOUS
 10
214.9445595471366
 20
-917.5387601273758
 30
0.0
 40
3.5
  1
仕上げ：各種仕上
  0
SOLID
  5
2292D
  8
1DIM
 10
265.1585423011694
 20
-933.0081520339836
 30
0.0
 11
266.3721530834092
 21
-934.6324241726174
 31
0.0
 12
264.6973519201119
 22
-933.4895540249064
 32
0.0
 13
264.6973519201119
 23
-933.4895540249064
 33
0.0
1001
ACAD
1000
DSTYLE
1002
{
1070
    40
1040
1.0
1002
}
  0
LINE
  5
2292E
  8
1DIM
 10
264.9279471106406
 20
-933.248853029445
 30
0.0
 11
249.2600387938528
 21
-918.2387601273758
 31
0.0
1001
ACAD
1000
DSTYLE
1002
{
1070
    40
1040
1.0
1002
}
  0
LINE
  5
2292F
  8
1DIM
 10
249.2600387938528
 20
-918.2387601273758
 30
0.0
 11
247.2600387938528
 21
-918.2387601273758
 31
0.0
1001
ACAD
1000
DSTYLE
1002
{
1070
    40
1040
1.0
1002
}
  0
LINE
  5
22930
  8
1DIM
 10
303.1152206437259
 20
-981.9047570192506
 30
0.0
 11
303.1152206437259
 21
-959.6549779755326
 31
0.0
  0
LINE
  5
22931
  8
1DIM
 10
358.1152206437279
 20
-982.6047570192502
 30
0.0
 11
358.1152206437279
 21
-959.6549779755326
 31
0.0
  0
LINE
  5
22932
  8
1DIM
 10
305.1152206437259
 20
-960.6549779755326
 30
0.0
 11
356.1152206437279
 21
-960.6549779755326
 31
0.0
  0
LINE
  5
22936
  8
1PHANTOM
 10
344.6247627127243
 20
-854.8697137496605
 30
0.0
 11
346.3747627127244
 21
-861.4008026629059
 31
0.0
  0
LINE
  5
22937
  8
1PHANTOM
 10
344.6247627127243
 20
-854.8697137496605
 30
0.0
 11
342.8747627127242
 21
-861.4008026629059
 31
0.0
  0
LINE
  5
22938
  8
1PHANTOM
 10
342.8747627127243
 20
-861.4008026629059
 30
0.0
 11
342.8747627127243
 21
-904.8697137496605
 31
0.0
  0
LINE
  5
22939
  8
1PHANTOM
 10
340.1247627127243
 20
-904.8697137496605
 30
0.0
 11
342.8747627127243
 21
-904.8697137496605
 31
0.0
  0
LINE
  5
2293A
  8
1PHANTOM
 10
340.1247627127243
 20
-904.8697137496605
 30
0.0
 11
340.1247627127243
 21
-905.6697137496604
 31
0.0
  0
ARC
  5
2293B
  8
1PHANTOM
 10
-342.6247627127243
 20
-905.6697137496604
 30
0.0
 40
2.5
 50
270.0
 51
0.0
210
0.0
220
0.0
230
-1.0
  0
LINE
  5
2293C
  8
1PHANTOM
 10
342.6247627127243
 20
-908.1697137496604
 30
0.0
 11
346.6247627127243
 21
-908.1697137496604
 31
0.0
  0
ARC
  5
2293D
  8
1PHANTOM
 10
-346.6247627127243
 20
-905.6697137496604
 30
0.0
 40
2.5
 50
179.9999999999948
 51
270.0
210
0.0
220
0.0
230
-1.0
  0
LINE
  5
2293E
  8
1PHANTOM
 10
349.1247627127243
 20
-904.8697137496605
 30
0.0
 11
349.1247627127243
 21
-905.6697137496602
 31
0.0
  0
LINE
  5
2293F
  8
1PHANTOM
 10
346.3747627127243
 20
-904.8697137496605
 30
0.0
 11
349.1247627127243
 21
-904.8697137496605
 31
0.0
  0
LINE
  5
22940
  8
1PHANTOM
 10
346.3747627127243
 20
-861.4008026629059
 30
0.0
 11
346.3747627127243
 21
-904.8697137496605
 31
0.0
  0
LINE
  5
22941
  8
1PHANTOM
 10
319.6247627127239
 20
-854.8697137496605
 30
0.0
 11
321.374762712724
 21
-861.4008026629059
 31
0.0
  0
LINE
  5
22942
  8
1PHANTOM
 10
319.6247627127239
 20
-854.8697137496605
 30
0.0
 11
317.8747627127237
 21
-861.4008026629059
 31
0.0
  0
LINE
  5
22943
  8
1PHANTOM
 10
317.8747627127239
 20
-861.4008026629059
 30
0.0
 11
317.8747627127239
 21
-904.8697137496605
 31
0.0
  0
LINE
  5
22944
  8
1PHANTOM
 10
315.1247627127239
 20
-904.8697137496605
 30
0.0
 11
317.8747627127239
 21
-904.8697137496605
 31
0.0
  0
LINE
  5
22945
  8
1PHANTOM
 10
315.1247627127239
 20
-904.8697137496605
 30
0.0
 11
315.1247627127239
 21
-905.6697137496604
 31
0.0
  0
ARC
  5
22946
  8
1PHANTOM
 10
-317.6247627127239
 20
-905.6697137496604
 30
0.0
 40
2.5
 50
270.0
 51
0.0
210
0.0
220
0.0
230
-1.0
  0
LINE
  5
22947
  8
1PHANTOM
 10
317.6247627127239
 20
-908.1697137496604
 30
0.0
 11
321.6247627127239
 21
-908.1697137496604
 31
0.0
  0
ARC
  5
22948
  8
1PHANTOM
 10
-321.6247627127239
 20
-905.6697137496604
 30
0.0
 40
2.5
 50
179.9999999999948
 51
270.0
210
0.0
220
0.0
230
-1.0
  0
LINE
  5
22949
  8
1PHANTOM
 10
324.1247627127239
 20
-904.8697137496605
 30
0.0
 11
324.1247627127239
 21
-905.6697137496602
 31
0.0
  0
LINE
  5
2294A
  8
1PHANTOM
 10
321.3747627127239
 20
-904.8697137496605
 30
0.0
 11
324.1247627127239
 21
-904.8697137496605
 31
0.0
  0
LINE
  5
2294B
  8
1PHANTOM
 10
321.3747627127239
 20
-861.4008026629059
 30
0.0
 11
321.3747627127239
 21
-904.8697137496605
 31
0.0
  0
LINE
  5
2294C
  8
1PHANTOM
 10
-203.3752372872618
 20
-854.869713757273
 30
0.0
 11
-201.6252372872619
 21
-861.4008026705184
 31
0.0
  0
LINE
  5
2294D
  8
1PHANTOM
 10
-203.3752372872618
 20
-854.869713757273
 30
0.0
 11
-205.1252372872617
 21
-861.4008026705184
 31
0.0
  0
LINE
  5
2294E
  8
1PHANTOM
 10
-205.1252372872618
 20
-861.4008026705184
 30
0.0
 11
-205.1252372872618
 21
-904.869713757273
 31
0.0
  0
LINE
  5
2294F
  8
1PHANTOM
 10
-207.8752372872618
 20
-904.869713757273
 30
0.0
 11
-205.1252372872618
 21
-904.869713757273
 31
0.0
  0
LINE
  5
22950
  8
1PHANTOM
 10
-207.8752372872618
 20
-904.869713757273
 30
0.0
 11
-207.8752372872618
 21
-905.6697137572729
 31
0.0
  0
ARC
  5
22951
  8
1PHANTOM
 10
205.3752372872618
 20
-905.6697137572729
 30
0.0
 40
2.5
 50
270.0
 51
0.0
210
0.0
220
0.0
230
-1.0
  0
LINE
  5
22952
  8
1PHANTOM
 10
-205.3752372872618
 20
-908.1697137572729
 30
0.0
 11
-201.3752372872618
 21
-908.1697137572729
 31
0.0
  0
ARC
  5
22953
  8
1PHANTOM
 10
201.3752372872618
 20
-905.6697137572729
 30
0.0
 40
2.5
 50
179.9999999999948
 51
270.0
210
0.0
220
0.0
230
-1.0
  0
LINE
  5
22954
  8
1PHANTOM
 10
-198.8752372872618
 20
-904.869713757273
 30
0.0
 11
-198.8752372872618
 21
-905.6697137572727
 31
0.0
  0
LINE
  5
22955
  8
1PHANTOM
 10
-201.6252372872618
 20
-904.869713757273
 30
0.0
 11
-198.8752372872618
 21
-904.869713757273
 31
0.0
  0
LINE
  5
22956
  8
1PHANTOM
 10
-201.6252372872618
 20
-861.4008026705184
 30
0.0
 11
-201.6252372872618
 21
-904.869713757273
 31
0.0
  0
LINE
  5
22957
  8
1PHANTOM
 10
-228.3752372872623
 20
-854.869713757273
 30
0.0
 11
-226.6252372872624
 21
-861.4008026705184
 31
0.0
  0
LINE
  5
22958
  8
1PHANTOM
 10
-228.3752372872623
 20
-854.869713757273
 30
0.0
 11
-230.1252372872622
 21
-861.4008026705184
 31
0.0
  0
LINE
  5
22959
  8
1PHANTOM
 10
-230.1252372872623
 20
-861.4008026705184
 30
0.0
 11
-230.1252372872623
 21
-904.869713757273
 31
0.0
  0
LINE
  5
2295A
  8
1PHANTOM
 10
-232.8752372872623
 20
-904.869713757273
 30
0.0
 11
-230.1252372872623
 21
-904.869713757273
 31
0.0
  0
LINE
  5
2295B
  8
1PHANTOM
 10
-232.8752372872623
 20
-904.869713757273
 30
0.0
 11
-232.8752372872623
 21
-905.6697137572729
 31
0.0
  0
ARC
  5
2295C
  8
1PHANTOM
 10
230.3752372872623
 20
-905.6697137572729
 30
0.0
 40
2.5
 50
270.0
 51
0.0
210
0.0
220
0.0
230
-1.0
  0
LINE
  5
2295D
  8
1PHANTOM
 10
-230.3752372872623
 20
-908.1697137572729
 30
0.0
 11
-226.3752372872623
 21
-908.1697137572729
 31
0.0
  0
ARC
  5
2295E
  8
1PHANTOM
 10
226.3752372872623
 20
-905.6697137572729
 30
0.0
 40
2.5
 50
179.9999999999948
 51
270.0
210
0.0
220
0.0
230
-1.0
  0
LINE
  5
2295F
  8
1PHANTOM
 10
-223.8752372872623
 20
-904.869713757273
 30
0.0
 11
-223.8752372872623
 21
-905.6697137572727
 31
0.0
  0
LINE
  5
22960
  8
1PHANTOM
 10
-226.6252372872623
 20
-904.869713757273
 30
0.0
 11
-223.8752372872623
 21
-904.869713757273
 31
0.0
  0
LINE
  5
22961
  8
1PHANTOM
 10
-226.6252372872623
 20
-861.4008026705184
 30
0.0
 11
-226.6252372872623
 21
-904.869713757273
 31
0.0
  0
LINE
  5
22962
  8
1HATCH
 10
-240.2347793562719
 20
-917.2183620330724
 30
0.0
 11
-240.5847791821979
 21
-916.8683620330723
 31
0.0
  0
LINE
  5
22963
  8
1HATCH
 10
-240.5847791821979
 20
-920.8683620330723
 30
0.0
 11
-240.2347793562719
 21
-920.5183620330723
 31
0.0
  0
LINE
  5
22964
  8
1HATCH
 10
-241.5847793462719
 20
-915.8683620330723
 30
0.0
 11
-241.5847793462719
 21
-921.8683620330723
 31
0.0
  0
LINE
  5
22965
  8
1HATCH
 10
-234.2347793562719
 20
-916.8683620330723
 30
0.0
 11
-234.2347793562719
 21
-920.8683620330723
 31
0.0
  0
LINE
  5
22967
  8
1HATCH
 10
-233.8847793562719
 20
-920.5183620330723
 30
0.0
 11
-240.2347793562719
 21
-920.5183620330723
 31
0.0
  0
LINE
  5
22968
  8
1HATCH
 10
-233.8847793562719
 20
-917.2183620330724
 30
0.0
 11
-240.2347793562719
 21
-917.2183620330724
 31
0.0
  0
LINE
  5
22969
  8
1CENTER
 10
-232.2831043562719
 20
-918.8683620330723
 30
0.0
 11
-243.4435482562719
 21
-918.8683620330723
 31
0.0
  0
LINE
  5
2296A
  8
1HATCH
 10
356.4652206437233
 20
-917.2183620330724
 30
0.0
 11
356.8152204696493
 21
-916.8683620330723
 31
0.0
  0
LINE
  5
2296B
  8
1HATCH
 10
356.8152204696493
 20
-920.8683620330723
 30
0.0
 11
356.4652206437233
 21
-920.5183620330723
 31
0.0
  0
LINE
  5
2296C
  8
1HATCH
 10
357.8152206337233
 20
-915.8683620330723
 30
0.0
 11
357.8152206337233
 21
-921.8683620330723
 31
0.0
  0
LINE
  5
2296D
  8
1HATCH
 10
350.4652206437233
 20
-916.8683620330723
 30
0.0
 11
350.4652206437233
 21
-920.8683620330723
 31
0.0
  0
LINE
  5
2296F
  8
1HATCH
 10
350.1152206437233
 20
-920.5183620330723
 30
0.0
 11
356.4652206437233
 21
-920.5183620330723
 31
0.0
  0
LINE
  5
22970
  8
1HATCH
 10
350.1152206437233
 20
-917.2183620330724
 30
0.0
 11
356.4652206437233
 21
-917.2183620330724
 31
0.0
  0
LINE
  5
22971
  8
1CENTER
 10
348.5135456437233
 20
-918.8683620330723
 30
0.0
 11
359.6739895437233
 21
-918.8683620330723
 31
0.0
  0
LINE
  5
22972
  8
1DIM1
 10
-203.3827416164954
 20
-995.604572734697
 30
0.0
 11
-203.3827416164954
 21
-972.550883970597
 31
0.0
1001
ACAD
1000
DSTYLE
1002
{
1070
    40
1040
3.0
1002
}
  0
LINE
  5
22973
  8
1DIM1
 10
319.6152206437239
 20
-995.6047570192503
 30
0.0
 11
319.6152206437239
 21
-972.550883970597
 31
0.0
1001
ACAD
1000
DSTYLE
1002
{
1070
    40
1040
3.0
1002
}
  0
LINE
  5
22974
  8
1DIM1
 10
-197.3827416164954
 20
-975.550883970597
 30
0.0
 11
313.6152206437239
 21
-975.550883970597
 31
0.0
1001
ACAD
1000
DSTYLE
1002
{
1070
    40
1040
3.0
1002
}
  0
LINE
  5
22978
  8
0
  6
BYBLOCK
 10
-257.8466332021793
 20
-1005.60475701925
 30
0.0
 11
-258.9184299621793
 21
-1009.60475701925
 31
0.0
  0
LINE
  5
22979
  8
0
  6
BYBLOCK
 10
-258.9184299621793
 20
-1009.60475701925
 30
0.0
 11
-259.9902267221793
 21
-1005.60475701925
 31
0.0
  0
LINE
  5
2297A
  8
0
  6
BYBLOCK
 10
-258.9184299621793
 20
-1009.60475701925
 30
0.0
 11
-258.9184299621793
 21
-1005.60475701925
 31
0.0
  0
LINE
  5
2297B
  8
0
  6
BYBLOCK
 10
-259.9902267221793
 20
-985.6047570192501
 30
0.0
 11
-258.9184299621793
 21
-981.6047570192501
 31
0.0
  0
LINE
  5
2297C
  8
0
  6
BYBLOCK
 10
-258.9184299621793
 20
-981.6047570192501
 30
0.0
 11
-257.8466332021793
 21
-985.6047570192501
 31
0.0
  0
LINE
  5
2297D
  8
0
  6
BYBLOCK
 10
-258.9184299621793
 20
-981.6047570192501
 30
0.0
 11
-258.9184299621793
 21
-985.6047570192501
 31
0.0
  0
TEXT
  5
2297E
  8
1DIM
  6
CONTINUOUS
 10
-260.3184299621792
 20
-1001.438090352583
 30
0.0
 40
7.0
  1
28
 50
90.0
1001
ACAD
1000
DSTYLE
1002
{
1070
    40
1040
2.0
1002
}
  0
LINE
  5
2297F
  8
0
  6
BYBLOCK
 10
321.6152206437239
 20
-969.7136189849651
 30
0.0
 11
319.6152206437239
 21
-969.1777206049651
 31
0.0
  0
LINE
  5
22980
  8
0
  6
BYBLOCK
 10
319.6152206437239
 20
-969.1777206049651
 30
0.0
 11
321.6152206437239
 21
-968.641822224965
 31
0.0
  0
LINE
  5
22981
  8
0
  6
BYBLOCK
 10
319.6152206437239
 20
-969.1777206049651
 30
0.0
 11
321.6152206437239
 21
-969.1777206049651
 31
0.0
  0
LINE
  5
22982
  8
0
  6
BYBLOCK
 10
342.6152206437239
 20
-968.641822224965
 30
0.0
 11
344.6152206437239
 21
-969.1777206049651
 31
0.0
  0
LINE
  5
22983
  8
0
  6
BYBLOCK
 10
344.6152206437239
 20
-969.1777206049651
 30
0.0
 11
342.6152206437239
 21
-969.7136189849651
 31
0.0
  0
LINE
  5
22984
  8
0
  6
BYBLOCK
 10
344.6152206437239
 20
-969.1777206049651
 30
0.0
 11
342.6152206437239
 21
-969.1777206049651
 31
0.0
  0
TEXT
  5
22985
  8
1DIM
  6
CONTINUOUS
 10
327.4485539770572
 20
-968.4777206049652
 30
0.0
 40
3.5
  1
P25
  0
LINE
  5
22986
  8
0
  6
BYBLOCK
 10
394.9460320244327
 20
-983.6047570192502
 30
0.0
 11
395.4819304044327
 21
-981.6047570192502
 31
0.0
  0
LINE
  5
22987
  8
0
  6
BYBLOCK
 10
395.4819304044327
 20
-981.6047570192502
 30
0.0
 11
396.0178287844327
 21
-983.6047570192502
 31
0.0
  0
LINE
  5
22988
  8
0
  6
BYBLOCK
 10
395.4819304044327
 20
-981.6047570192502
 30
0.0
 11
395.4819304044327
 21
-983.6047570192502
 31
0.0
  0
LINE
  5
22989
  8
0
  6
BYBLOCK
 10
396.0178287844327
 20
-1007.60475701925
 30
0.0
 11
395.4819304044327
 21
-1009.60475701925
 31
0.0
  0
LINE
  5
2298A
  8
0
  6
BYBLOCK
 10
395.4819304044327
 20
-1009.60475701925
 30
0.0
 11
394.9460320244327
 21
-1007.60475701925
 31
0.0
  0
LINE
  5
2298B
  8
0
  6
BYBLOCK
 10
395.4819304044327
 20
-1009.60475701925
 30
0.0
 11
395.4819304044327
 21
-1007.60475701925
 31
0.0
  0
TEXT
  5
2298C
  8
1DIM
  6
CONTINUOUS
 10
394.7819304044326
 20
-998.5214236859168
 30
0.0
 40
3.5
  1
28
 50
90.0
  0
LINE
  5
2298D
  8
0
  6
BYBLOCK
 10
416.2836265082032
 20
-961.1908763555326
 30
0.0
 11
414.2836265082032
 21
-960.6549779755326
 31
0.0
  0
LINE
  5
2298E
  8
0
  6
BYBLOCK
 10
414.2836265082032
 20
-960.6549779755326
 30
0.0
 11
416.2836265082032
 21
-960.1190795955325
 31
0.0
  0
LINE
  5
2298F
  8
0
  6
BYBLOCK
 10
414.2836265082032
 20
-960.6549779755326
 30
0.0
 11
416.2836265082032
 21
-960.6549779755326
 31
0.0
  0
LINE
  5
22990
  8
0
  6
BYBLOCK
 10
464.283626508203
 20
-960.1190795955325
 30
0.0
 11
466.283626508203
 21
-960.6549779755326
 31
0.0
  0
LINE
  5
22991
  8
0
  6
BYBLOCK
 10
466.283626508203
 20
-960.6549779755326
 30
0.0
 11
464.283626508203
 21
-961.1908763555326
 31
0.0
  0
LINE
  5
22992
  8
0
  6
BYBLOCK
 10
466.283626508203
 20
-960.6549779755326
 30
0.0
 11
464.283626508203
 21
-960.6549779755326
 31
0.0
  0
TEXT
  5
22993
  8
1DIM
  6
CONTINUOUS
 10
437.3548070637586
 20
-959.9549779755326
 30
0.0
 40
3.5
  1
52
  0
LINE
  5
22994
  8
0
  6
BYBLOCK
 10
-209.8847793562645
 20
-1034.392366757306
 30
0.0
 11
-215.8847793562645
 21
-1032.784671617306
 31
0.0
  0
LINE
  5
22995
  8
0
  6
BYBLOCK
 10
-215.8847793562645
 20
-1032.784671617306
 30
0.0
 11
-209.8847793562645
 21
-1031.176976477306
 31
0.0
  0
LINE
  5
22996
  8
0
  6
BYBLOCK
 10
-215.8847793562645
 20
-1032.784671617306
 30
0.0
 11
-209.8847793562645
 21
-1032.784671617306
 31
0.0
  0
LINE
  5
22997
  8
0
  6
BYBLOCK
 10
326.1152206437239
 20
-1031.176976477306
 30
0.0
 11
332.1152206437239
 21
-1032.784671617306
 31
0.0
  0
LINE
  5
22998
  8
0
  6
BYBLOCK
 10
332.1152206437239
 20
-1032.784671617306
 30
0.0
 11
326.1152206437239
 21
-1034.392366757306
 31
0.0
  0
LINE
  5
22999
  8
0
  6
BYBLOCK
 10
332.1152206437239
 20
-1032.784671617306
 30
0.0
 11
326.1152206437239
 21
-1032.784671617306
 31
0.0
  0
TEXT
  5
2299A
  8
1DIM1
  6
CONTINUOUS
 10
38.82876231039639
 20
-1030.684671617306
 30
0.0
 40
10.5
  1
P548
1001
ACAD
1000
DSTYLE
1002
{
1070
    40
1040
3.0
1002
}
  0
LINE
  5
2299B
  8
0
  6
BYBLOCK
 10
-235.8847793562685
 20
-1053.854559551909
 30
0.0
 11
-241.8847793562685
 21
-1052.246864411909
 31
0.0
  0
LINE
  5
2299C
  8
0
  6
BYBLOCK
 10
-241.8847793562685
 20
-1052.246864411909
 30
0.0
 11
-235.8847793562685
 21
-1050.639169271908
 31
0.0
  0
LINE
  5
2299D
  8
0
  6
BYBLOCK
 10
-241.8847793562685
 20
-1052.246864411909
 30
0.0
 11
-235.8847793562685
 21
-1052.246864411909
 31
0.0
  0
LINE
  5
2299E
  8
0
  6
BYBLOCK
 10
352.1152206437279
 20
-1050.639169271908
 30
0.0
 11
358.1152206437279
 21
-1052.246864411909
 31
0.0
  0
LINE
  5
2299F
  8
0
  6
BYBLOCK
 10
358.1152206437279
 20
-1052.246864411909
 30
0.0
 11
352.1152206437279
 21
-1053.854559551909
 31
0.0
  0
LINE
  5
229A0
  8
0
  6
BYBLOCK
 10
358.1152206437279
 20
-1052.246864411909
 30
0.0
 11
352.1152206437279
 21
-1052.246864411909
 31
0.0
  0
TEXT
  5
229A1
  8
1DIM1
  6
CONTINUOUS
 10
45.61001231039637
 20
-1050.146864411909
 30
0.0
 40
10.5
  1
600
1001
ACAD
1000
DSTYLE
1002
{
1070
    40
1040
3.0
1002
}
  0
LINE
  5
229A2
  8
0
  6
BYBLOCK
 10
464.283626508203
 20
-968.641822224965
 30
0.0
 11
466.283626508203
 21
-969.1777206049651
 31
0.0
  0
LINE
  5
229A3
  8
0
  6
BYBLOCK
 10
466.283626508203
 20
-969.1777206049651
 30
0.0
 11
464.283626508203
 21
-969.7136189849651
 31
0.0
  0
LINE
  5
229A4
  8
0
  6
BYBLOCK
 10
466.283626508203
 20
-969.1777206049651
 30
0.0
 11
464.283626508203
 21
-969.1777206049651
 31
0.0
  0
LINE
  5
229A5
  8
0
  6
BYBLOCK
 10
448.2836265082027
 20
-969.7136189849651
 30
0.0
 11
446.2836265082027
 21
-969.1777206049651
 31
0.0
  0
LINE
  5
229A6
  8
0
  6
BYBLOCK
 10
446.2836265082027
 20
-969.1777206049651
 30
0.0
 11
448.2836265082027
 21
-968.641822224965
 31
0.0
  0
LINE
  5
229A7
  8
0
  6
BYBLOCK
 10
446.2836265082027
 20
-969.1777206049651
 30
0.0
 11
448.2836265082027
 21
-969.1777206049651
 31
0.0
  0
TEXT
  5
229A8
  8
1DIM
  6
CONTINUOUS
 10
453.5857098415362
 20
-968.477720604965
 30
0.0
 40
3.5
  1
20
  0
LINE
  5
229A9
  8
0
  6
BYBLOCK
 10
305.1152206437259
 20
-961.1908763555326
 30
0.0
 11
303.1152206437259
 21
-960.6549779755326
 31
0.0
  0
LINE
  5
229AA
  8
0
  6
BYBLOCK
 10
303.1152206437259
 20
-960.6549779755326
 30
0.0
 11
305.1152206437259
 21
-960.1190795955325
 31
0.0
  0
LINE
  5
229AB
  8
0
  6
BYBLOCK
 10
303.1152206437259
 20
-960.6549779755326
 30
0.0
 11
305.1152206437259
 21
-960.6549779755326
 31
0.0
  0
LINE
  5
229AC
  8
0
  6
BYBLOCK
 10
356.1152206437279
 20
-960.1190795955325
 30
0.0
 11
358.1152206437279
 21
-960.6549779755326
 31
0.0
  0
LINE
  5
229AD
  8
0
  6
BYBLOCK
 10
358.1152206437279
 20
-960.6549779755326
 30
0.0
 11
356.1152206437279
 21
-961.1908763555326
 31
0.0
  0
LINE
  5
229AE
  8
0
  6
BYBLOCK
 10
358.1152206437279
 20
-960.6549779755326
 30
0.0
 11
356.1152206437279
 21
-960.6549779755326
 31
0.0
  0
TEXT
  5
229AF
  8
1DIM
  6
CONTINUOUS
 10
327.6864011992824
 20
-959.9549779755324
 30
0.0
 40
3.5
  1
55
  0
LINE
  5
229B0
  8
0
 10
-234.2347793562719
 20
-916.8683620330723
 30
0.0
 11
-240.5847791821979
 21
-916.8683620330723
 31
0.0
  0
LINE
  5
229B1
  8
0
 10
-240.5847791821979
 20
-916.8683620330723
 30
0.0
 11
-241.5847792562719
 21
-915.8683620330723
 31
0.0
  0
LINE
  5
229B2
  8
0
 10
-241.5847792562719
 20
-915.8683620330723
 30
0.0
 11
-241.8847793562719
 21
-915.8683620330723
 31
0.0
  0
LINE
  5
229B3
  8
0
 10
-241.8847793562719
 20
-915.8683620330723
 30
0.0
 11
-241.8847793562719
 21
-921.8683620330723
 31
0.0
  0
LINE
  5
229B4
  8
0
 10
-241.8847793562719
 20
-921.8683620330723
 30
0.0
 11
-241.5847793462719
 21
-921.8683620330723
 31
0.0
  0
LINE
  5
229B5
  8
0
 10
-241.5847793462719
 20
-921.8683620330723
 30
0.0
 11
-240.5847791821979
 21
-920.8683620330723
 31
0.0
  0
LINE
  5
229B6
  8
0
 10
-240.5847791821979
 20
-920.8683620330723
 30
0.0
 11
-234.2347793562719
 21
-920.8683620330723
 31
0.0
  0
LINE
  5
229B7
  8
0
 10
-234.2347793562719
 20
-920.8683620330723
 30
0.0
 11
-233.8847793562719
 21
-920.5183620330722
 31
0.0
  0
LINE
  5
229B8
  8
0
 10
-233.8847793562719
 20
-920.5183620330722
 30
0.0
 11
-233.8847793562719
 21
-917.2183620330724
 31
0.0
  0
LINE
  5
229B9
  8
0
 10
-233.8847793562719
 20
-917.2183620330724
 30
0.0
 11
-234.2347793562719
 21
-916.8683620330723
 31
0.0
  0
LINE
  5
229BA
  8
0
 10
356.8152204696493
 20
-916.8683620330723
 30
0.0
 11
350.4652206437233
 21
-916.8683620330723
 31
0.0
  0
LINE
  5
229BB
  8
0
 10
350.4652206437233
 20
-916.8683620330723
 30
0.0
 11
350.1152206437233
 21
-917.2183620330724
 31
0.0
  0
LINE
  5
229BC
  8
0
 10
350.1152206437233
 20
-917.2183620330724
 30
0.0
 11
350.1152206437233
 21
-920.5183620330722
 31
0.0
  0
LINE
  5
229BD
  8
0
 10
350.1152206437233
 20
-920.5183620330722
 30
0.0
 11
350.4652206437233
 21
-920.8683620330723
 31
0.0
  0
LINE
  5
229BE
  8
0
 10
350.4652206437233
 20
-920.8683620330723
 30
0.0
 11
356.8152204696493
 21
-920.8683620330723
 31
0.0
  0
LINE
  5
229BF
  8
0
 10
356.8152204696493
 20
-920.8683620330723
 30
0.0
 11
357.8152206337233
 21
-921.8683620330723
 31
0.0
  0
LINE
  5
229C0
  8
0
 10
357.8152206337233
 20
-921.8683620330723
 30
0.0
 11
358.1152206437233
 21
-921.8683620330723
 31
0.0
  0
LINE
  5
229C1
  8
0
 10
358.1152206437233
 20
-921.8683620330723
 30
0.0
 11
358.1152206437233
 21
-915.8683620330723
 31
0.0
  0
LINE
  5
229C2
  8
0
 10
358.1152206437233
 20
-915.8683620330723
 30
0.0
 11
357.8152205437233
 21
-915.8683620330723
 31
0.0
  0
LINE
  5
229C3
  8
0
 10
357.8152205437233
 20
-915.8683620330723
 30
0.0
 11
356.8152204696493
 21
-916.8683620330723
 31
0.0
  0
LINE
  5
229C4
  8
0
  6
BYBLOCK
 10
-197.3827416164954
 20
-977.1585791105971
 30
0.0
 11
-203.3827416164954
 21
-975.550883970597
 31
0.0
  0
LINE
  5
229C5
  8
0
  6
BYBLOCK
 10
-203.3827416164954
 20
-975.550883970597
 30
0.0
 11
-197.3827416164954
 21
-973.943188830597
 31
0.0
  0
LINE
  5
229C6
  8
0
  6
BYBLOCK
 10
-203.3827416164954
 20
-975.550883970597
 30
0.0
 11
-197.3827416164954
 21
-975.550883970597
 31
0.0
  0
LINE
  5
229C7
  8
0
  6
BYBLOCK
 10
313.6152206437239
 20
-973.943188830597
 30
0.0
 11
319.6152206437239
 21
-975.550883970597
 31
0.0
  0
LINE
  5
229C8
  8
0
  6
BYBLOCK
 10
319.6152206437239
 20
-975.550883970597
 30
0.0
 11
313.6152206437239
 21
-977.1585791105971
 31
0.0
  0
LINE
  5
229C9
  8
0
  6
BYBLOCK
 10
319.6152206437239
 20
-975.550883970597
 30
0.0
 11
313.6152206437239
 21
-975.550883970597
 31
0.0
  0
TEXT
  5
229CA
  8
1DIM1
  6
CONTINUOUS
 10
44.07978118028093
 20
-973.450883970597
 30
0.0
 40
10.5
  1
523
1001
ACAD
1000
DSTYLE
1002
{
1070
    40
1040
3.0
1002
}
  0
VIEWPORT
  5
57
 67
     1
  8
0
 10
0.0
 20
0.0
 30
0.0
 40
554.3757649938801
 41
297.0000000000001
 68
     1
 69
     1
1001
ACAD
1000
MVIEW
1002
{
1070
    16
1010
0.0
1020
0.0
1030
0.0
1010
0.0
1020
0.0
1030
1.0
1040
0.0
1040
297.0000000000001
1040
-4.171999999925333
1040
12.83903210976956
1040
50.0
1040
0.0
1040
0.0
1070
    16
1070
   100
1070
     0
1070
     1
1070
     0
1070
     0
1070
     0
1070
     0
1040
0.0
1040
0.0
1040
0.0
1040
10.0
1040
10.0
1040
10.0
1040
10.0
1070
     0
1002
{
1002
}
1002
}
  0
ENDSEC
  0
EOF
