  0
SECTION
  2
HEADER
  9
$ACADVER
  1
AC1012
  9
$DWGCODEPAGE
  3
ansi_932
  9
$INSBASE
 10
0.0
 20
0.0
 30
0.0
  9
$EXTMIN
 10
-83.23800916826127
 20
-700.854597647553
 30
-0.0000000000000018
  9
$EXTMAX
 10
762.8127355312274
 20
-487.4673527698107
 30
0.0000000000000018
  9
$LIMMIN
 10
0.0
 20
0.0
  9
$LIMMAX
 10
420.0
 20
297.0
  9
$ORTHOMODE
 70
     0
  9
$REGENMODE
 70
     1
  9
$FILLMODE
 70
     1
  9
$QTEXTMODE
 70
     0
  9
$MIRRTEXT
 70
     0
  9
$DRAGMODE
 70
     2
  9
$LTSCALE
 40
0.5
  9
$OSMODE
 70
 14463
  9
$ATTMODE
 70
     1
  9
$TEXTSIZE
 40
4.0
  9
$TRACEWID
 40
1.0
  9
$TEXTSTYLE
  7
STANDARD
  9
$CLAYER
  8
1TEXT
  9
$CELTYPE
  6
BYLAYER
  9
$CECOLOR
 62
   256
  9
$CELTSCALE
 40
1.0
  9
$DELOBJ
 70
     1
  9
$DISPSILH
 70
     0
  9
$DIMSCALE
 40
1.0
  9
$DIMASZ
 40
2.0
  9
$DIMEXO
 40
0.0
  9
$DIMDLI
 40
7.0
  9
$DIMRND
 40
0.0
  9
$DIMDLE
 40
0.0
  9
$DIMEXE
 40
1.0
  9
$DIMTP
 40
0.0
  9
$DIMTM
 40
0.0
  9
$DIMTXT
 40
3.5
  9
$DIMCEN
 40
0.0
  9
$DIMTSZ
 40
0.0
  9
$DIMTOL
 70
     0
  9
$DIMLIM
 70
     0
  9
$DIMTIH
 70
     0
  9
$DIMTOH
 70
     0
  9
$DIMSE1
 70
     0
  9
$DIMSE2
 70
     0
  9
$DIMTAD
 70
     1
  9
$DIMZIN
 70
     8
  9
$DIMBLK
  1

  9
$DIMASO
 70
     1
  9
$DIMSHO
 70
     1
  9
$DIMPOST
  1
 
  9
$DIMAPOST
  1

  9
$DIMALT
 70
     0
  9
$DIMALTD
 70
     2
  9
$DIMALTF
 40
25.4
  9
$DIMLFAC
 40
1.0
  9
$DIMTOFL
 70
     1
  9
$DIMTVP
 40
0.0
  9
$DIMTIX
 70
     0
  9
$DIMSOXD
 70
     0
  9
$DIMSAH
 70
     1
  9
$DIMBLK1
  1
OPEN30
  9
$DIMBLK2
  1
OPEN30
  9
$DIMSTYLE
  2
NEWX10
  9
$DIMCLRD
 70
   256
  9
$DIMCLRE
 70
   256
  9
$DIMCLRT
 70
   201
  9
$DIMTFAC
 40
0.7
  9
$DIMGAP
 40
0.7
  9
$DIMJUST
 70
     0
  9
$DIMSD1
 70
     0
  9
$DIMSD2
 70
     0
  9
$DIMTOLJ
 70
     1
  9
$DIMTZIN
 70
     8
  9
$DIMALTZ
 70
     0
  9
$DIMALTTZ
 70
     0
  9
$DIMFIT
 70
     2
  9
$DIMUPT
 70
     0
  9
$DIMUNIT
 70
     2
  9
$DIMDEC
 70
     2
  9
$DIMTDEC
 70
     4
  9
$DIMALTU
 70
     2
  9
$DIMALTTD
 70
     2
  9
$DIMTXSTY
  7
STANDARD
  9
$DIMAUNIT
 70
     0
  9
$LUNITS
 70
     2
  9
$LUPREC
 70
     4
  9
$SKETCHINC
 40
1.0
  9
$FILLETRAD
 40
0.0
  9
$AUNITS
 70
     0
  9
$AUPREC
 70
     2
  9
$MENU
  1
acad
  9
$ELEVATION
 40
0.0
  9
$PELEVATION
 40
0.0
  9
$THICKNESS
 40
0.0
  9
$LIMCHECK
 70
     0
  9
$CHAMFERA
 40
1.0
  9
$CHAMFERB
 40
1.0
  9
$CHAMFERC
 40
20.0
  9
$CHAMFERD
 40
0.0
  9
$SKPOLY
 70
     0
  9
$TDCREATE
 40
2453033.732663484
  9
$TDUPDATE
 40
2458095.393570798
  9
$TDINDWG
 40
2.4036975347
  9
$TDUSRTIMER
 40
2.4036975347
  9
$USRTIMER
 70
     1
  9
$ANGBASE
 50
0.0
  9
$ANGDIR
 70
     0
  9
$PDMODE
 70
     0
  9
$PDSIZE
 40
0.0
  9
$PLINEWID
 40
0.0
  9
$COORDS
 70
     2
  9
$SPLFRAME
 70
     0
  9
$SPLINETYPE
 70
     6
  9
$SPLINESEGS
 70
     8
  9
$ATTDIA
 70
     0
  9
$ATTREQ
 70
     1
  9
$HANDLING
 70
     1
  9
$HANDSEED
  5
23E28
  9
$SURFTAB1
 70
     6
  9
$SURFTAB2
 70
     6
  9
$SURFTYPE
 70
     6
  9
$SURFU
 70
     6
  9
$SURFV
 70
     6
  9
$UCSNAME
  2

  9
$UCSORG
 10
0.0
 20
0.0
 30
0.0
  9
$UCSXDIR
 10
1.0
 20
0.0
 30
0.0
  9
$UCSYDIR
 10
0.0
 20
1.0
 30
0.0
  9
$PUCSNAME
  2

  9
$PUCSORG
 10
0.0
 20
0.0
 30
0.0
  9
$PUCSXDIR
 10
1.0
 20
0.0
 30
0.0
  9
$PUCSYDIR
 10
0.0
 20
1.0
 30
0.0
  9
$USERI1
 70
     0
  9
$USERI2
 70
     0
  9
$USERI3
 70
     0
  9
$USERI4
 70
     0
  9
$USERI5
 70
     0
  9
$USERR1
 40
0.0
  9
$USERR2
 40
0.0
  9
$USERR3
 40
0.0
  9
$USERR4
 40
0.0
  9
$USERR5
 40
0.0
  9
$WORLDVIEW
 70
     1
  9
$SHADEDGE
 70
     3
  9
$SHADEDIF
 70
    70
  9
$TILEMODE
 70
     1
  9
$MAXACTVP
 70
    48
  9
$PINSBASE
 10
0.0
 20
0.0
 30
0.0
  9
$PLIMCHECK
 70
     0
  9
$PEXTMIN
 10
1.000000000000000E+20
 20
1.000000000000000E+20
 30
1.000000000000000E+20
  9
$PEXTMAX
 10
-1.000000000000000E+20
 20
-1.000000000000000E+20
 30
-1.000000000000000E+20
  9
$PLIMMIN
 10
0.0
 20
0.0
  9
$PLIMMAX
 10
420.0
 20
297.0
  9
$UNITMODE
 70
     0
  9
$VISRETAIN
 70
     1
  9
$PLINEGEN
 70
     0
  9
$PSLTSCALE
 70
     1
  9
$TREEDEPTH
 70
  3020
  9
$PICKSTYLE
 70
     1
  9
$CMLSTYLE
  2
STANDARD
  9
$CMLJUST
 70
     0
  9
$CMLSCALE
 40
20.0
  9
$SAVEIMAGES
 70
     1
  0
ENDSEC
  0
SECTION
  2
CLASSES
  0
CLASS
  1
DICTIONARYVAR
  2
AcDbDictionaryVar
  3
ObjectDBX Classes
 90
        0
280
     0
281
     0
  0
CLASS
  1
IDBUFFER
  2
AcDbIdBuffer
  3
ObjectDBX Classes
 90
    32768
280
     0
281
     0
  0
CLASS
  1
LWPOLYLINE
  2
AcDbPolyline
  3
ObjectDBX Classes
 90
    32768
280
     0
281
     1
  0
CLASS
  1
ACDBDICTIONARYWDFLT
  2
AcDbDictionaryWithDefault
  3
ObjectDBX Classes
 90
    32768
280
     0
281
     0
  0
CLASS
  1
ACDBPLACEHOLDER
  2
AcDbPlaceHolder
  3
ObjectDBX Classes
 90
        0
280
     0
281
     0
  0
CLASS
  1
LAYOUT
  2
AcDbLayout
  3
ObjectDBX Classes
 90
        0
280
     0
281
     0
  0
CLASS
  1
TABLESTYLE
  2
AcDbTableStyle
  3
ObjectDBX Classes
 90
     4095
280
     0
281
     0
  0
CLASS
  1
SORTENTSTABLE
  2
AcDbSortentsTable
  3
ObjectDBX Classes
 90
    32768
280
     0
281
     0
  0
CLASS
  1
DIMASSOC
  2
AcDbDimAssoc
  3
"AcDbDimAssoc|Product Desc:     AcDim ARX App For Dimension|Company:          Autodesk, Inc.|WEB Address:      www.autodesk.com"
 90
        0
280
     0
281
     0
  0
CLASS
  1
MATERIAL
  2
AcDbMaterial
  3
ObjectDBX Classes
 90
     1153
280
     0
281
     0
  0
CLASS
  1
VISUALSTYLE
  2
AcDbVisualStyle
  3
ObjectDBX Classes
 90
     4095
280
     0
281
     0
  0
CLASS
  1
SCALE
  2
AcDbScale
  3
ObjectDBX Classes
 90
     1153
280
     0
281
     0
  0
CLASS
  1
MLEADERSTYLE
  2
AcDbMLeaderStyle
  3
ACDB_MLEADERSTYLE_CLASS
 90
     4095
280
     0
281
     0
  0
CLASS
  1
CELLSTYLEMAP
  2
AcDbCellStyleMap
  3
ObjectDBX Classes
 90
     1152
280
     0
281
     0
  0
CLASS
  1
EXACXREFPANELOBJECT
  2
ExAcXREFPanelObject
  3
EXAC_ESW
 90
     1025
280
     1
281
     0
  0
CLASS
  1
NPOCOLLECTION
  2
AcDbImpNonPersistentObjectsCollection
  3
ObjectDBX Classes
 90
     1153
280
     1
281
     0
  0
CLASS
  1
SUN
  2
AcDbSun
  3
SCENEOE
 90
     1153
280
     0
281
     0
  0
CLASS
  1
RASTERVARIABLES
  2
AcDbRasterVariables
  3
ISM
 90
    32768
280
     0
281
     0
  0
CLASS
  1
XRECORD
  2
AcDbXrecord
  3
ObjectDBX Classes
 90
    32768
280
     0
281
     0
  0
CLASS
  1
HATCH
  2
AcDbHatch
  3
ObjectDBX Classes
 90
    32768
280
     0
281
     1
  0
ENDSEC
  0
SECTION
  2
TABLES
  0
TABLE
  2
VPORT
  5
8
330
0
100
AcDbSymbolTable
 70
     1
  0
VPORT
  5
19DC2
330
8
100
AcDbSymbolTableRecord
100
AcDbViewportTableRecord
  2
*ACTIVE
 70
     0
 10
0.0
 20
0.0
 11
1.0
 21
1.0
 12
339.7873631814831
 22
-594.1609752086819
 13
0.0
 23
0.0
 14
10.0
 24
10.0
 15
10.0
 25
10.0
 16
0.0
 26
0.0
 36
1.0
 17
0.0
 27
0.0
 37
0.0
 40
406.6606647947351
 41
2.233782129742962
 42
50.0
 43
0.0
 44
0.0
 50
0.0
 51
0.0
 71
    16
 72
   100
 73
     1
 74
     1
 75
     0
 76
     0
 77
     0
 78
     0
1001
ACAD_NAV_VCDISPLAY
1070
     3
  0
ENDTAB
  0
TABLE
  2
LTYPE
  5
5
330
0
100
AcDbSymbolTable
 70
     3
  0
LTYPE
  5
12
330
5
100
AcDbSymbolTableRecord
100
AcDbLinetypeTableRecord
  2
BYBLOCK
 70
     0
  3

 72
    65
 73
     0
 40
0.0
  0
LTYPE
  5
13
330
5
100
AcDbSymbolTableRecord
100
AcDbLinetypeTableRecord
  2
BYLAYER
 70
     0
  3

 72
    65
 73
     0
 40
0.0
  0
LTYPE
  5
14
330
5
100
AcDbSymbolTableRecord
100
AcDbLinetypeTableRecord
  2
CONTINUOUS
 70
     0
  3
Solid line
 72
    65
 73
     0
 40
0.0
  0
LTYPE
  5
26
330
5
100
AcDbSymbolTableRecord
100
AcDbLinetypeTableRecord
  2
CENTER2
 70
     0
  3
Center (.5x) ___ _ ___ _ ___ _ ___ _ ___ _ ___
 72
    65
 73
     4
 40
28.575
 49
19.05
 74
     0
 49
-3.175
 74
     0
 49
3.175
 74
     0
 49
-3.175
 74
     0
  0
LTYPE
  5
100
330
5
100
AcDbSymbolTableRecord
100
AcDbLinetypeTableRecord
  2
PHANTOM2
 70
     0
  3
Phantom (0.5x) ___ _ _ ___ _ _ ___ _ _ ___ _ _
 72
    65
 73
     6
 40
31.75
 49
15.875
 74
     0
 49
-3.175
 74
     0
 49
3.175
 74
     0
 49
-3.175
 74
     0
 49
3.175
 74
     0
 49
-3.175
 74
     0
  0
ENDTAB
  0
TABLE
  2
LAYER
  5
2
102
{ACAD_XDICTIONARY
360
18FE8
102
}
330
0
100
AcDbSymbolTable
 70
     8
  0
LAYER
  5
E
102
{ACAD_XDICTIONARY
360
1A20A
102
}
330
2
100
AcDbSymbolTableRecord
100
AcDbLayerTableRecord
  2
0
 70
     0
 62
     7
  6
CONTINUOUS
  0
LAYER
  5
29
102
{ACAD_XDICTIONARY
360
1A20C
102
}
330
2
100
AcDbSymbolTableRecord
100
AcDbLayerTableRecord
  2
1CENTER
 70
     0
 62
     7
  6
CENTER2
  0
LAYER
  5
31
102
{ACAD_XDICTIONARY
360
1A20E
102
}
330
2
100
AcDbSymbolTableRecord
100
AcDbLayerTableRecord
  2
1TEXT
 70
     0
 62
     7
  6
CONTINUOUS
  0
LAYER
  5
101
102
{ACAD_XDICTIONARY
360
1A218
102
}
330
2
100
AcDbSymbolTableRecord
100
AcDbLayerTableRecord
  2
1DIM
 70
     0
 62
     7
  6
CONTINUOUS
  0
LAYER
  5
103
102
{ACAD_XDICTIONARY
360
1A21C
102
}
330
2
100
AcDbSymbolTableRecord
100
AcDbLayerTableRecord
  2
1PHANTOM
 70
     0
 62
     7
  6
PHANTOM2
  0
LAYER
  5
25F
102
{ACAD_XDICTIONARY
360
1A220
102
}
330
2
100
AcDbSymbolTableRecord
100
AcDbLayerTableRecord
  2
01
 70
     0
 62
     1
  6
CONTINUOUS
  0
LAYER
  5
26A
102
{ACAD_XDICTIONARY
360
1A236
102
}
330
2
100
AcDbSymbolTableRecord
100
AcDbLayerTableRecord
  2
1DIM1
 70
     0
 62
     7
  6
CONTINUOUS
  0
LAYER
  5
26D
102
{ACAD_XDICTIONARY
360
1A23C
102
}
330
2
100
AcDbSymbolTableRecord
100
AcDbLayerTableRecord
  2
1HATCH
 70
     0
 62
     7
  6
CONTINUOUS
  0
ENDTAB
  0
TABLE
  2
STYLE
  5
3
330
0
100
AcDbSymbolTable
 70
     1
  0
STYLE
  5
F
330
3
100
AcDbSymbolTableRecord
100
AcDbTextStyleTableRecord
  2
STANDARD
 70
     0
 40
0.0
 41
1.0
 50
0.0
 71
     0
 42
4.0
  3
txt.shx
  4
extfont.shx
  0
ENDTAB
  0
TABLE
  2
VIEW
  5
6
330
0
100
AcDbSymbolTable
 70
     0
  0
ENDTAB
  0
TABLE
  2
UCS
  5
7
330
0
100
AcDbSymbolTable
 70
     4
  0
UCS
  5
238B4
330
7
100
AcDbSymbolTableRecord
100
AcDbUCSTableRecord
  2
U
 70
     0
 10
0.0
 20
0.0
 30
0.0
 11
1.0
 21
0.0
 31
0.0
 12
0.0
 22
2.220446049250313E-16
 32
1.0
 79
     0
146
0.0
  0
UCS
  5
238B5
330
7
100
AcDbSymbolTableRecord
100
AcDbUCSTableRecord
  2
L
 70
     0
 10
0.0
 20
0.0
 30
0.0
 11
-2.220446049250313E-16
 21
-1.0
 31
2.220446049250313E-16
 12
0.0
 22
2.220446049250313E-16
 32
1.0
 79
     0
146
0.0
  0
UCS
  5
238B6
330
7
100
AcDbSymbolTableRecord
100
AcDbUCSTableRecord
  2
R
 70
     0
 10
0.0
 20
0.0
 30
0.0
 11
3.445092848397667E-16
 21
1.0
 31
-2.220446049250313E-16
 12
0.0
 22
2.220446049250313E-16
 32
1.0
 79
     0
146
0.0
  0
UCS
  5
238B7
330
7
100
AcDbSymbolTableRecord
100
AcDbUCSTableRecord
  2
ISOME
 70
     0
 10
0.0
 20
0.0
 30
0.0
 11
0.7071450863198265
 21
-0.7070684729403536
 31
-3.830824619466267E-5
 12
0.4082704059428734
 22
0.4082704077401151
 32
0.8164744636514736
 79
     0
146
0.0
  0
ENDTAB
  0
TABLE
  2
APPID
  5
9
330
0
100
AcDbSymbolTable
 70
    17
  0
APPID
  5
10
330
9
100
AcDbSymbolTableRecord
100
AcDbRegAppTableRecord
  2
ACAD
 70
     0
  0
APPID
  5
21
330
9
100
AcDbSymbolTableRecord
100
AcDbRegAppTableRecord
  2
DRAWINGVARIABLESXDATA
 70
     0
  0
APPID
  5
64
330
9
100
AcDbSymbolTableRecord
100
AcDbRegAppTableRecord
  2
CONTENTTABDATA
 70
     0
  0
APPID
  5
65
330
9
100
AcDbSymbolTableRecord
100
AcDbRegAppTableRecord
  2
CONTENTCURRENTTAB
 70
     0
  0
APPID
  5
66
330
9
100
AcDbSymbolTableRecord
100
AcDbRegAppTableRecord
  2
CONTENTBLOCKDESCRIPTION
 70
     0
  0
APPID
  5
67
330
9
100
AcDbSymbolTableRecord
100
AcDbRegAppTableRecord
  2
CONTENTBLOCKICON
 70
     0
  0
APPID
  5
68
330
9
100
AcDbSymbolTableRecord
100
AcDbRegAppTableRecord
  2
CONTENTLONGBLOCKNAME
 70
     0
  0
APPID
  5
5A9
330
9
100
AcDbSymbolTableRecord
100
AcDbRegAppTableRecord
  2
ACAD_PSEXT
 70
     0
  0
APPID
  5
18AC
330
9
100
AcDbSymbolTableRecord
100
AcDbRegAppTableRecord
  2
ACAD_DSTYLE_DIMTEXT_FILL
 70
     0
  0
APPID
  5
19E1A
330
9
100
AcDbSymbolTableRecord
100
AcDbRegAppTableRecord
  2
ACAD_MLEADERVER
 70
     0
  0
APPID
  5
1A2FA
330
9
100
AcDbSymbolTableRecord
100
AcDbRegAppTableRecord
  2
ACAD_DSTYLE_DIMRADIAL_EXTE
 70
     0
  0
APPID
  5
1DBC1
330
9
100
AcDbSymbolTableRecord
100
AcDbRegAppTableRecord
  2
ACADANNOTATIVE
 70
     0
  0
APPID
  5
1E991
330
9
100
AcDbSymbolTableRecord
100
AcDbRegAppTableRecord
  2
ACAD_EXEMPT_FROM_CAD_STAND
 70
     0
  0
APPID
  5
202C7
330
9
100
AcDbSymbolTableRecord
100
AcDbRegAppTableRecord
  2
ACDBBLOCKREPETAG
 70
     0
  0
APPID
  5
20AA7
330
9
100
AcDbSymbolTableRecord
100
AcDbRegAppTableRecord
  2
ACAD_OBJECT_CHANGE_GUID
 70
     0
  0
APPID
  5
20B32
330
9
100
AcDbSymbolTableRecord
100
AcDbRegAppTableRecord
  2
ACAD_NAV_VCDISPLAY
 70
     0
  0
APPID
  5
20BBB
330
9
100
AcDbSymbolTableRecord
100
AcDbRegAppTableRecord
  2
ACLAYERTOOLS
 70
     0
  0
ENDTAB
  0
TABLE
  2
DIMSTYLE
  5
A
330
0
100
AcDbSymbolTable
 70
     1
  0
DIMSTYLE
105
48
330
A
100
AcDbSymbolTableRecord
100
AcDbDimStyleTableRecord
  2
NEWX10
 70
     0
  3
 
  4

  5

  6
OPEN30
  7
OPEN30
 40
1.0
 41
2.0
 42
0.0
 43
7.0
 44
1.0
 45
0.0
 46
0.0
 47
0.0
 48
0.0
140
3.5
141
0.0
142
0.0
143
25.4
144
1.0
145
0.0
146
0.7
147
0.7
 71
     0
 72
     0
 73
     0
 74
     0
 75
     0
 76
     0
 77
     1
 78
     8
170
     0
171
     2
172
     1
173
     1
174
     0
175
     0
176
   256
177
   256
178
   201
179
     2
270
     2
271
     2
272
     4
273
     2
274
     2
340
F
275
     0
280
     0
281
     0
282
     0
283
     1
284
     8
285
     0
286
     0
287
     2
288
     0
  0
ENDTAB
  0
TABLE
  2
BLOCK_RECORD
  5
1
330
0
100
AcDbSymbolTable
 70
     8
  0
BLOCK_RECORD
  5
18
102
{ACAD_XDICTIONARY
360
6E9
102
}
330
1
100
AcDbSymbolTableRecord
100
AcDbBlockTableRecord
  2
*MODEL_SPACE
  0
BLOCK_RECORD
  5
15
102
{ACAD_XDICTIONARY
360
59B
102
}
330
1
100
AcDbSymbolTableRecord
100
AcDbBlockTableRecord
  2
*PAPER_SPACE
  0
BLOCK_RECORD
  5
42
330
1
100
AcDbSymbolTableRecord
100
AcDbBlockTableRecord
  2
_OPEN30
  0
BLOCK_RECORD
  5
20316
330
1
100
AcDbSymbolTableRecord
100
AcDbBlockTableRecord
  2
A3WAKUKAWAJUN2017_HYOUDAI_
  0
BLOCK_RECORD
  5
23C88
330
1
100
AcDbSymbolTableRecord
100
AcDbBlockTableRecord
  2
*X48
  0
BLOCK_RECORD
  5
23CD6
330
1
100
AcDbSymbolTableRecord
100
AcDbBlockTableRecord
  2
*X49
  0
BLOCK_RECORD
  5
23D28
330
1
100
AcDbSymbolTableRecord
100
AcDbBlockTableRecord
  2
*X50
  0
BLOCK_RECORD
  5
23D79
330
1
100
AcDbSymbolTableRecord
100
AcDbBlockTableRecord
  2
*X51
  0
BLOCK_RECORD
  5
23DB6
330
1
100
AcDbSymbolTableRecord
100
AcDbBlockTableRecord
  2
*X52
  0
BLOCK_RECORD
  5
23DF6
330
1
100
AcDbSymbolTableRecord
100
AcDbBlockTableRecord
  2
*X53
  0
ENDTAB
  0
ENDSEC
  0
SECTION
  2
BLOCKS
  0
BLOCK
  5
19
330
18
100
AcDbEntity
  8
0
100
AcDbBlockBegin
  2
*MODEL_SPACE
 70
     0
 10
0.0
 20
0.0
 30
0.0
  3
*MODEL_SPACE
  1

  0
ENDBLK
  5
1A
330
18
100
AcDbEntity
  8
0
100
AcDbBlockEnd
  0
BLOCK
  5
16
330
15
100
AcDbEntity
 67
     1
  8
0
100
AcDbBlockBegin
  2
*PAPER_SPACE
 70
     0
 10
0.0
 20
0.0
 30
0.0
  3
*PAPER_SPACE
  1

  0
ENDBLK
  5
17
330
15
100
AcDbEntity
 67
     1
  8
0
100
AcDbBlockEnd
  0
BLOCK
  5
43
330
42
100
AcDbEntity
  8
0
100
AcDbBlockBegin
  2
_OPEN30
 70
     0
 10
0.0
 20
0.0
 30
0.0
  3
_OPEN30
  1

  0
LINE
  5
44
330
42
100
AcDbEntity
  8
0
  6
BYBLOCK
 62
     0
100
AcDbLine
 10
-1.0
 20
0.26794919
 30
0.0
 11
0.0
 21
0.0
 31
0.0
  0
LINE
  5
45
330
42
100
AcDbEntity
  8
0
  6
BYBLOCK
 62
     0
100
AcDbLine
 10
0.0
 20
0.0
 30
0.0
 11
-1.0
 21
-0.26794919
 31
0.0
  0
LINE
  5
46
330
42
100
AcDbEntity
  8
0
  6
BYBLOCK
 62
     0
100
AcDbLine
 10
0.0
 20
0.0
 30
0.0
 11
-1.0
 21
0.0
 31
0.0
  0
ENDBLK
  5
47
330
42
100
AcDbEntity
  8
0
100
AcDbBlockEnd
  0
BLOCK
  5
20A15
330
20316
100
AcDbEntity
  8
0
100
AcDbBlockBegin
  2
A3WAKUKAWAJUN2017_HYOUDAI_
 70
     0
 10
0.0
 20
0.0
 30
0.0
  3
A3WAKUKAWAJUN2017_HYOUDAI_
  1

  0
LINE
  5
20318
330
20316
100
AcDbEntity
  8
0
100
AcDbLine
 10
13.26299999998673
 20
-0.0001000000000317
 30
0.0
 11
9.236999999990758
 21
8.999899999990987
 31
0.0
1001
ACAD
1000
ASC_BOUNDS
1002
{
1070
    19
1005
20359
1002
}
  0
LINE
  5
20319
330
20316
100
AcDbEntity
  8
0
100
AcDbLine
 10
5.657999999994331
 20
0.9999999999989768
 30
0.0
 11
9.236999999990758
 21
8.999999999991019
 31
0.0
1001
ACAD
1000
ASC_BOUNDS
1002
{
1070
    19
1005
20359
1002
}
  0
LINE
  5
2031A
330
20316
100
AcDbEntity
  8
0
100
AcDbLine
 10
18.59199999998134
 20
-0.2368999999997641
 30
0.0
 11
16.46099999998353
 21
5.432899999994561
 31
0.0
1001
ACAD
1000
ASC_BOUNDS
1002
{
1070
    19
1005
2035A
1002
}
  0
LINE
  5
2031B
330
20316
100
AcDbEntity
  8
0
100
AcDbLine
 10
18.59199999998134
 20
-0.2368999999997641
 30
0.0
 11
22.38199999997767
 21
8.763099999991255
 31
0.0
1001
ACAD
1000
ASC_BOUNDS
1002
{
1070
    19
1005
2035A
1002
}
  0
LINE
  5
2031C
330
20316
100
AcDbEntity
  8
0
100
AcDbLine
 10
14.32899999998563
 20
-0.2368999999997641
 30
0.0
 11
16.46099999998353
 21
5.432899999994561
 31
0.0
1001
ACAD
1000
ASC_BOUNDS
1002
{
1070
    19
1005
2035A
1002
}
  0
LINE
  5
2031D
330
20316
100
AcDbEntity
  8
0
100
AcDbLine
 10
14.32899999998563
 20
-0.2368999999997641
 30
0.0
 11
10.53899999998941
 21
8.763099999991255
 31
0.0
1001
ACAD
1000
ASC_BOUNDS
1002
{
1070
    19
1005
2035A
1002
}
  0
LINE
  5
2031E
330
20316
100
AcDbEntity
  8
0
100
AcDbLine
 10
19.53899999998043
 20
-0.0001000000000317
 30
0.0
 11
23.56599999997638
 21
8.999899999990987
 31
0.0
1001
ACAD
1000
ASC_BOUNDS
1002
{
1070
    19
1005
2035B
1002
}
  0
LINE
  5
2031F
330
20316
100
AcDbEntity
  8
0
100
AcDbLine
 10
26.97358892824991
 20
1.383099999991202
 30
0.0
 11
23.56599999997638
 21
8.999899999990987
 31
0.0
1001
ACAD
1000
ASC_BOUNDS
1002
{
1070
    19
1005
2035B
1002
}
  0
LINE
  5
20320
330
20316
100
AcDbEntity
  8
0
100
AcDbLine
 10
5.657999999994331
 20
0.9999999999989768
 30
0.0
 11
3.181999999996833
 21
4.668599999995308
 31
0.0
1001
ACAD
1000
ASC_BOUNDS
1002
{
1070
    19
1005
20359
1002
}
  0
LINE
  5
20321
330
20316
100
AcDbEntity
  8
0
100
AcDbLine
 10
4.617999999995391
 20
-0.0001000000000317
 30
0.0
 11
1.420999999998571
 21
4.736799999995242
 31
0.0
1001
ACAD
1000
ASC_BOUNDS
1002
{
1070
    19
1005
20359
1002
}
  0
LINE
  5
20322
330
20316
100
AcDbEntity
  8
0
100
AcDbLine
 10
1.420999999998571
 20
8.763099999991255
 30
0.0
 11
1.420999999998571
 21
0.0
 31
0.0
1001
ACAD
1000
ASC_BOUNDS
1002
{
1070
    19
1005
2035E
1002
}
  0
LINE
  5
20323
330
20316
100
AcDbEntity
  8
0
100
AcDbLine
 10
0.0
 20
8.763099999991255
 30
0.0
 11
0.0
 21
0.0
 31
0.0
1001
ACAD
1000
ASC_BOUNDS
1002
{
1070
    19
1005
2035E
1002
}
  0
LINE
  5
20324
330
20316
100
AcDbEntity
  8
0
100
AcDbLine
 10
6.766999999993232
 20
-0.0001000000000317
 30
0.0
 11
7.826999999992154
 21
2.368399999997621
 31
0.0
1001
ACAD
1000
ASC_BOUNDS
1002
{
1070
    19
1005
20359
1002
}
  0
LINE
  5
20325
330
20316
100
AcDbEntity
  8
0
100
AcDbLine
 10
0.0
 20
0.0
 30
0.0
 11
1.420999999998571
 21
0.0
 31
0.0
1001
ACAD
1000
ASC_BOUNDS
1002
{
1070
    19
1005
2035E
1002
}
  0
LINE
  5
20326
330
20316
100
AcDbEntity
  8
0
100
AcDbLine
 10
4.617999999995391
 20
0.0
 30
0.0
 11
6.766999999993232
 21
0.0
 31
0.0
1001
ACAD
1000
ASC_BOUNDS
1002
{
1070
    19
1005
20359
1002
}
  0
LINE
  5
20327
330
20316
100
AcDbEntity
  8
0
100
AcDbLine
 10
11.70599999998831
 20
-0.0001000000000317
 30
0.0
 11
10.64699999998936
 21
2.368399999997621
 31
0.0
1001
ACAD
1000
ASC_BOUNDS
1002
{
1070
    19
1005
20359
1002
}
  0
LINE
  5
20328
330
20316
100
AcDbEntity
  8
0
100
AcDbLine
 10
7.826999999992154
 20
2.368399999997621
 30
0.0
 11
10.64699999998936
 21
2.368399999997621
 31
0.0
1001
ACAD
1000
ASC_BOUNDS
1002
{
1070
    19
1005
20359
1002
}
  0
LINE
  5
20329
330
20316
100
AcDbEntity
  8
0
100
AcDbLine
 10
11.70599999998831
 20
0.0
 30
0.0
 11
13.26299999998673
 21
0.0
 31
0.0
1001
ACAD
1000
ASC_BOUNDS
1002
{
1070
    19
1005
20359
1002
}
  0
LINE
  5
2032A
330
20316
100
AcDbEntity
  8
0
100
AcDbLine
 10
22.15599999997789
 20
2.368399999997621
 30
0.0
 11
24.97599999997499
 21
2.368399999997621
 31
0.0
1001
ACAD
1000
ASC_BOUNDS
1002
{
1070
    19
1005
2035B
1002
}
  0
LINE
  5
2032B
330
20316
100
AcDbEntity
  8
0
100
AcDbLine
 10
19.53899999998043
 20
0.0
 30
0.0
 11
21.09599999997886
 21
0.0
 31
0.0
1001
ACAD
1000
ASC_BOUNDS
1002
{
1070
    19
1005
2035B
1002
}
  0
LINE
  5
2032C
330
20316
100
AcDbEntity
  8
0
100
AcDbLine
 10
21.09599999997886
 20
-0.0001000000000317
 30
0.0
 11
22.15599999997789
 21
2.368399999997621
 31
0.0
1001
ACAD
1000
ASC_BOUNDS
1002
{
1070
    19
1005
2035B
1002
}
  0
LINE
  5
2032D
330
20316
100
AcDbEntity
  8
0
100
AcDbLine
 10
26.02015566812236
 20
0.0330999999912365
 30
0.0
 11
24.97599999997499
 21
2.368399999997621
 31
0.0
1001
ACAD
1000
ASC_BOUNDS
1002
{
1070
    19
1005
2035B
1002
}
  0
LINE
  5
2032E
330
20316
100
AcDbEntity
  8
0
100
AcDbLine
 10
14.32399999998563
 20
3.315799999996671
 30
0.0
 11
16.46099999998353
 21
8.999899999990987
 31
0.0
1001
ACAD
1000
ASC_BOUNDS
1002
{
1070
    19
1005
2035A
1002
}
  0
LINE
  5
2032F
330
20316
100
AcDbEntity
  8
0
100
AcDbLine
 10
6.432999999993513
 20
8.763099999991255
 30
0.0
 11
3.181999999996833
 21
4.668599999995308
 31
0.0
1001
ACAD
1000
ASC_BOUNDS
1002
{
1070
    19
1005
20359
1002
}
  0
LINE
  5
20330
330
20316
100
AcDbEntity
  8
0
100
AcDbLine
 10
4.617999999995391
 20
8.763099999991255
 30
0.0
 11
1.420999999998571
 21
4.736799999995242
 31
0.0
1001
ACAD
1000
ASC_BOUNDS
1002
{
1070
    19
1005
20359
1002
}
  0
LINE
  5
20331
330
20316
100
AcDbEntity
  8
0
100
AcDbLine
 10
0.0
 20
8.763099999991255
 30
0.0
 11
1.420999999998571
 21
8.763099999991255
 31
0.0
1001
ACAD
1000
ASC_BOUNDS
1002
{
1070
    19
1005
2035E
1002
}
  0
LINE
  5
20332
330
20316
100
AcDbEntity
  8
0
100
AcDbLine
 10
4.617999999995391
 20
8.763099999991255
 30
0.0
 11
6.432999999993513
 21
8.763099999991255
 31
0.0
1001
ACAD
1000
ASC_BOUNDS
1002
{
1070
    19
1005
20359
1002
}
  0
LINE
  5
20333
330
20316
100
AcDbEntity
  8
0
100
AcDbLine
 10
14.32399999998563
 20
3.315799999996671
 30
0.0
 11
12.02999999998792
 21
8.763099999991255
 31
0.0
1001
ACAD
1000
ASC_BOUNDS
1002
{
1070
    19
1005
2035A
1002
}
  0
LINE
  5
20334
330
20316
100
AcDbEntity
  8
0
100
AcDbLine
 10
10.06399999998996
 20
3.670999999996297
 30
0.0
 11
9.236999999990758
 21
5.5200999999945
 31
0.0
1001
ACAD
1000
ASC_BOUNDS
1002
{
1070
    19
1005
20359
1002
}
  0
LINE
  5
20335
330
20316
100
AcDbEntity
  8
0
100
AcDbLine
 10
8.409999999991555
 20
3.670999999996297
 30
0.0
 11
9.236999999990758
 21
5.5200999999945
 31
0.0
1001
ACAD
1000
ASC_BOUNDS
1002
{
1070
    19
1005
20359
1002
}
  0
LINE
  5
20336
330
20316
100
AcDbEntity
  8
0
100
AcDbLine
 10
8.409999999991555
 20
3.670999999996297
 30
0.0
 11
10.06399999998996
 21
3.670999999996297
 31
0.0
1001
ACAD
1000
ASC_BOUNDS
1002
{
1070
    19
1005
20359
1002
}
  0
LINE
  5
20337
330
20316
100
AcDbEntity
  8
0
100
AcDbLine
 10
10.53899999998941
 20
8.763099999991255
 30
0.0
 11
12.02999999998792
 21
8.763099999991255
 31
0.0
1001
ACAD
1000
ASC_BOUNDS
1002
{
1070
    19
1005
2035A
1002
}
  0
LINE
  5
20338
330
20316
100
AcDbEntity
  8
0
100
AcDbLine
 10
22.7389999999773
 20
3.670999999996297
 30
0.0
 11
23.56599999997638
 21
5.5200999999945
 31
0.0
1001
ACAD
1000
ASC_BOUNDS
1002
{
1070
    19
1005
2035B
1002
}
  0
LINE
  5
20339
330
20316
100
AcDbEntity
  8
0
100
AcDbLine
 10
22.7389999999773
 20
3.670999999996297
 30
0.0
 11
24.39299999997559
 21
3.670999999996297
 31
0.0
1001
ACAD
1000
ASC_BOUNDS
1002
{
1070
    19
1005
2035B
1002
}
  0
LINE
  5
2033A
330
20316
100
AcDbEntity
  8
0
100
AcDbLine
 10
18.59799999998143
 20
3.315799999996671
 30
0.0
 11
20.89099999997916
 21
8.763099999991255
 31
0.0
1001
ACAD
1000
ASC_BOUNDS
1002
{
1070
    19
1005
2035A
1002
}
  0
LINE
  5
2033B
330
20316
100
AcDbEntity
  8
0
100
AcDbLine
 10
18.59799999998143
 20
3.315799999996671
 30
0.0
 11
16.46099999998353
 21
8.999899999990987
 31
0.0
1001
ACAD
1000
ASC_BOUNDS
1002
{
1070
    19
1005
2035A
1002
}
  0
LINE
  5
2033C
330
20316
100
AcDbEntity
  8
0
100
AcDbLine
 10
20.89099999997916
 20
8.763099999991255
 30
0.0
 11
22.38199999997767
 21
8.763099999991255
 31
0.0
1001
ACAD
1000
ASC_BOUNDS
1002
{
1070
    19
1005
2035A
1002
}
  0
LINE
  5
2033D
330
20316
100
AcDbEntity
  8
0
100
AcDbLine
 10
24.39299999997559
 20
3.670999999996297
 30
0.0
 11
23.56599999997638
 21
5.5200999999945
 31
0.0
1001
ACAD
1000
ASC_BOUNDS
1002
{
1070
    19
1005
2035B
1002
}
  0
LINE
  5
2033E
330
20316
100
AcDbEntity
  8
0
100
AcDbLine
 10
44.99999999995498
 20
-0.2368999999997641
 30
0.0
 11
40.02599999995994
 21
5.341799999994635
 31
0.0
1001
ACAD
1000
ASC_BOUNDS
1002
{
1070
    19
1005
2035D
1002
}
  0
LINE
  5
2033F
330
20316
100
AcDbEntity
  8
0
100
AcDbLine
 10
40.02599999995994
 20
5.341799999994635
 30
0.0
 11
40.02599999995994
 21
0.0
 31
0.0
1001
ACAD
1000
ASC_BOUNDS
1002
{
1070
    19
1005
2035D
1002
}
  0
LINE
  5
20340
330
20316
100
AcDbEntity
  8
0
100
AcDbLine
 10
38.60499999996136
 20
8.999999999991019
 30
0.0
 11
38.60499999996136
 21
0.0
 31
0.0
1001
ACAD
1000
ASC_BOUNDS
1002
{
1070
    19
1005
2035D
1002
}
  0
LINE
  5
20341
330
20316
100
AcDbEntity
  8
0
100
AcDbLine
 10
44.99999999995498
 20
8.763099999991255
 30
0.0
 11
44.99999999995498
 21
-0.2368999999997641
 31
0.0
1001
ACAD
1000
ASC_BOUNDS
1002
{
1070
    19
1005
2035D
1002
}
  0
LINE
  5
20342
330
20316
100
AcDbEntity
  8
0
100
AcDbLine
 10
38.60499999996136
 20
0.0
 30
0.0
 11
40.02599999995994
 21
0.0
 31
0.0
1001
ACAD
1000
ASC_BOUNDS
1002
{
1070
    19
1005
2035D
1002
}
  0
LINE
  5
20343
330
20316
100
AcDbEntity
  8
0
100
AcDbLine
 10
43.57899999995641
 20
3.421199999996588
 30
0.0
 11
38.60499999996136
 21
8.999899999990987
 31
0.0
1001
ACAD
1000
ASC_BOUNDS
1002
{
1070
    19
1005
2035D
1002
}
  0
LINE
  5
20344
330
20316
100
AcDbEntity
  8
0
100
AcDbLine
 10
43.57899999995641
 20
8.763099999991255
 30
0.0
 11
43.57899999995641
 21
3.421199999996588
 31
0.0
1001
ACAD
1000
ASC_BOUNDS
1002
{
1070
    19
1005
2035D
1002
}
  0
LINE
  5
20345
330
20316
100
AcDbEntity
  8
0
100
AcDbLine
 10
43.57899999995641
 20
8.763099999991255
 30
0.0
 11
44.99999999995498
 21
8.763099999991255
 31
0.0
1001
ACAD
1000
ASC_BOUNDS
1002
{
1070
    19
1005
2035D
1002
}
  0
LINE
  5
20346
330
20316
100
AcDbEntity
  8
0
100
AcDbLine
 10
37.67199999996831
 20
8.763099999991255
 30
0.0
 11
36.23199999996837
 21
8.763099999991255
 31
0.0
  0
LINE
  5
20347
330
20316
100
AcDbEntity
  8
0
100
AcDbLine
 10
31.64199999996833
 20
8.763099999991255
 30
0.0
 11
31.64199999996833
 21
2.481619422925121
 31
0.0
  0
LINE
  5
20348
330
20316
100
AcDbEntity
  8
0
100
AcDbLine
 10
37.67199999996831
 20
8.763099999991255
 30
0.0
 11
37.67199999996831
 21
2.481619422925121
 31
0.0
  0
LINE
  5
20349
330
20316
100
AcDbEntity
  8
0
100
AcDbLine
 10
36.23199999996837
 20
8.763099999991255
 30
0.0
 11
36.23199999996837
 21
2.481619422925064
 31
0.0
  0
LINE
  5
2034A
330
20316
100
AcDbEntity
  8
0
100
AcDbLine
 10
33.08199999996839
 20
8.763099999991255
 30
0.0
 11
33.08199999996839
 21
2.481619422925121
 31
0.0
  0
ARC
  5
2034B
330
20316
100
AcDbEntity
  8
0
100
AcDbCircle
 10
34.65699999996832
 20
3.183099999991214
 30
0.0
 40
3.420000000000007
100
AcDbArc
 50
240.0000000000255
 51
299.9999999999766
  0
ARC
  5
2034C
330
20316
100
AcDbEntity
  8
0
100
AcDbCircle
 10
34.65699999996832
 20
3.183099999991214
 30
0.0
 40
1.97999999999999
100
AcDbArc
 50
240.000000000026
 51
299.9999999999703
  0
LINE
  5
2034D
330
20316
100
AcDbEntity
  8
0
100
AcDbLine
 10
33.08199999996828
 20
8.763099999991255
 30
0.0
 11
31.64199999996833
 21
8.763099999991255
 31
0.0
  0
ARC
  5
2034E
330
20316
100
AcDbEntity
  8
0
100
AcDbCircle
 10
35.06199999996829
 20
2.481619422925064
 30
0.0
 40
1.17
100
AcDbArc
 50
299.9999999999699
 51
0.0
  0
ARC
  5
2034F
330
20316
100
AcDbEntity
  8
0
100
AcDbCircle
 10
34.25199999996835
 20
2.481619422925121
 30
0.0
 40
1.17
100
AcDbArc
 50
180.0
 51
240.0000000000238
  0
ARC
  5
20350
330
20316
100
AcDbEntity
  8
0
100
AcDbCircle
 10
35.06199999996841
 20
2.481619422925121
 30
0.0
 40
2.61
100
AcDbArc
 50
299.9999999999756
 51
0.0
  0
ARC
  5
20351
330
20316
100
AcDbEntity
  8
0
100
AcDbCircle
 10
34.25199999996835
 20
2.481619422925121
 30
0.0
 40
2.61
100
AcDbArc
 50
180.0
 51
240.0000000000244
  0
LINE
  5
20352
330
20316
100
AcDbEntity
  8
0
100
AcDbLine
 10
29.30199999996933
 20
8.763099999991255
 30
0.0
 11
30.74199999996927
 21
8.763099999991255
 31
0.0
1001
ACAD
1000
ASC_BOUNDS
1002
{
1070
    19
1005
2035B
1002
}
  0
LINE
  5
20353
330
20316
100
AcDbEntity
  8
0
100
AcDbLine
 10
30.74199999996927
 20
8.763099999991255
 30
0.0
 11
30.74199999996927
 21
2.373099999991211
 31
0.0
1001
ACAD
1000
ASC_BOUNDS
1002
{
1070
    19
1005
2035B
1002
}
  0
LINE
  5
20354
330
20316
100
AcDbEntity
  8
0
100
AcDbLine
 10
26.02015566812236
 20
0.0330999999912365
 30
0.0
 11
28.40199999996923
 21
0.0330999999912365
 31
0.0
1001
ACAD
1000
ASC_BOUNDS
1002
{
1070
    19
1005
2035B
1002
}
  0
LINE
  5
20355
330
20316
100
AcDbEntity
  8
0
100
AcDbLine
 10
29.30199999996933
 20
8.763099999991255
 30
0.0
 11
29.30199999996933
 21
2.283099999991236
 31
0.0
1001
ACAD
1000
ASC_BOUNDS
1002
{
1070
    19
1005
2035B
1002
}
  0
LINE
  5
20356
330
20316
100
AcDbEntity
  8
0
100
AcDbLine
 10
26.97358892824991
 20
1.383099999991202
 30
0.0
 11
28.40199999996923
 21
1.383099999991202
 31
0.0
1001
ACAD
1000
ASC_BOUNDS
1002
{
1070
    19
1005
2035B
1002
}
  0
ARC
  5
20357
330
20316
100
AcDbEntity
  8
0
100
AcDbCircle
 10
28.40199999996923
 20
2.283099999991236
 30
0.0
 40
0.9
100
AcDbArc
 50
270.0
 51
0.0
1001
ACAD
1000
ASC_BOUNDS
1002
{
1070
    19
1005
2035B
1002
}
  0
ARC
  5
20358
330
20316
100
AcDbEntity
  8
0
100
AcDbCircle
 10
28.40199999996923
 20
2.373099999991211
 30
0.0
 40
2.34
100
AcDbArc
 50
270.0
 51
0.0
1001
ACAD
1000
ASC_BOUNDS
1002
{
1070
    19
1005
2035B
1002
}
  0
INSERT
  5
20359
330
20316
100
AcDbEntity
  8
0
100
AcDbBlockReference
  2
*X48
 10
0.0
 20
0.0
 30
0.0
1001
ACAD
1000
HATCH
1002
{
1070
    19
1000
ANSI37
1040
0.15
1040
0.0
1000
ASC_BOUNDS
1070
     2
1070
     2
1070
    12
1005
20318
1005
20319
1005
20320
1005
2032F
1005
20332
1005
20330
1005
20321
1005
20326
1005
20324
1005
20328
1005
20327
1005
20329
1070
     2
1070
     3
1005
20334
1005
20336
1005
20335
1000
ASC_SEEDPOINT
1011
3.614004224891801
1021
2.996669441146025
1031
0.0
1000
R14_HATCH_DATA
1000
20359
1011
1.0
1021
0.0
1031
0.0
1011
0.0
1021
1.0
1031
0.0
1011
0.0
1021
0.0
1031
1.0
1040
0.0
1010
0.0
1020
0.0
1030
1.0
1000
ANSI37
1070
     0
1070
     1
1071
        2
1071
        7
1070
     0
1070
     1
1071
       17
1040
13.26299999998673
1040
-0.0001000000000317
1040
9.236999999990758
1040
8.999899999990987
1040
9.236999999990758
1040
8.999999999991019
1040
5.657999999994331
1040
0.9999999999989768
1040
3.181999999996833
1040
4.668599999995308
1040
6.432999999993513
1040
8.763099999991255
1040
4.617999999995391
1040
8.763099999991255
1040
1.420999999998571
1040
4.736799999995242
1040
4.617999999995391
1040
-0.0001000000000317
1040
4.617999999995391
1040
0.0
1040
6.766999999993232
1040
0.0
1040
6.766999999993232
1040
-0.0001000000000317
1040
7.826999999992154
1040
2.368399999997621
1040
10.64699999998936
1040
2.368399999997621
1040
11.70599999998831
1040
-0.0001000000000317
1040
11.70599999998831
1040
0.0
1040
13.26299999998673
1040
0.0
1071
       12
1005
20318
1005
20319
1005
20320
1005
2032F
1005
20332
1005
20330
1005
20321
1005
20326
1005
20324
1005
20328
1005
20327
1005
20329
1071
       22
1070
     0
1070
     1
1071
        3
1040
9.236999999990758
1040
5.5200999999945
1040
10.06399999998996
1040
3.670999999996297
1040
8.409999999991555
1040
3.670999999996297
1071
        3
1005
20334
1005
20336
1005
20335
1070
     0
1070
     1
1040
0.0
1040
0.15
1070
     0
1070
     2
1040
0.7853981633974483
1040
49.29960901727088
1040
-10.17736998311392
1040
-0.3367596045400932
1040
0.3367596045400932
1070
     0
1040
2.356194490192345
1040
49.29960901727088
1040
-10.17736998311392
1040
-0.3367596045400932
1040
-0.3367596045400932
1070
     0
1040
0.0110235143455945
1071
        2
1040
3.614004224891801
1040
2.996669441146025
1040
0.0
1040
3.614004224891801
1040
2.996669441146025
1040
0.0
1002
}
  0
INSERT
  5
2035A
330
20316
100
AcDbEntity
  8
0
100
AcDbBlockReference
  2
*X49
 10
0.0
 20
0.0
 30
0.0
1001
ACAD
1000
HATCH
1002
{
1070
    19
1000
ANSI37
1040
0.15
1040
0.0
1000
ASC_BOUNDS
1070
     1
1070
     2
1070
    10
1005
2031A
1005
2031B
1005
2033C
1005
2033A
1005
2033B
1005
2032E
1005
20333
1005
20337
1005
2031D
1005
2031C
1000
ASC_SEEDPOINT
1011
14.73245321214324
1021
2.798246178283421
1031
0.0
1000
R14_HATCH_DATA
1000
2035A
1011
1.0
1021
0.0
1031
0.0
1011
0.0
1021
1.0
1031
0.0
1011
0.0
1021
0.0
1031
1.0
1040
0.0
1010
0.0
1020
0.0
1030
1.0
1000
ANSI37
1070
     0
1070
     1
1071
        1
1071
        7
1070
     0
1070
     1
1071
       10
1040
16.46099999998353
1040
5.432899999994561
1040
18.59199999998134
1040
-0.2368999999997641
1040
22.38199999997767
1040
8.763099999991255
1040
20.89099999997916
1040
8.763099999991255
1040
18.59799999998143
1040
3.315799999996671
1040
16.46099999998353
1040
8.999899999990987
1040
14.32399999998563
1040
3.315799999996671
1040
12.02999999998792
1040
8.763099999991255
1040
10.53899999998941
1040
8.763099999991255
1040
14.32899999998563
1040
-0.2368999999997641
1071
       10
1005
2031A
1005
2031B
1005
2033C
1005
2033A
1005
2033B
1005
2032E
1005
20333
1005
20337
1005
2031D
1005
2031C
1070
     0
1070
     1
1040
0.0
1040
0.15
1070
     0
1070
     2
1040
0.7853981633974483
1040
49.29960901727088
1040
-10.17736998311392
1040
-0.3367596045400932
1040
0.3367596045400932
1070
     0
1040
2.356194490192345
1040
49.29960901727088
1040
-10.17736998311392
1040
-0.3367596045400932
1040
-0.3367596045400932
1070
     0
1040
0.0110235143455945
1071
        1
1040
14.73245321214324
1040
2.798246178283421
1040
0.0
1002
}
  0
INSERT
  5
2035B
330
20316
100
AcDbEntity
  8
0
100
AcDbBlockReference
  2
*X50
 10
0.0
 20
0.0
 30
0.0
1001
ACAD
1000
HATCH
1002
{
1070
    19
1000
ANSI37
1040
0.15
1040
0.0
1000
ASC_BOUNDS
1070
     2
1070
     2
1070
    13
1005
2031E
1005
2032B
1005
2032C
1005
2032A
1005
2032D
1005
20354
1005
20358
1005
20353
1005
20352
1005
20355
1005
20357
1005
20356
1005
2031F
1070
     2
1070
     3
1005
20338
1005
2033D
1005
20339
1000
ASC_SEEDPOINT
1011
21.97929957367762
1021
3.294304244259308
1031
0.0
1000
R14_HATCH_DATA
1000
2035B
1011
1.0
1021
0.0
1031
0.0
1011
0.0
1021
1.0
1031
0.0
1011
0.0
1021
0.0
1031
1.0
1040
0.0
1010
0.0
1020
0.0
1030
1.0
1000
ANSI37
1070
     0
1070
     1
1071
        2
1071
        7
1070
     1
1070
     1
1071
       15
1040
23.56599999997638
1040
8.999899999990987
1040
0.0
1040
19.53899999998043
1040
-0.0001000000000317
1040
0.0
1040
19.53899999998043
1040
0.0
1040
0.0
1040
21.09599999997886
1040
0.0
1040
0.0
1040
21.09599999997886
1040
-0.0001000000000317
1040
0.0
1040
22.15599999997789
1040
2.368399999997621
1040
0.0
1040
24.97599999997499
1040
2.368399999997621
1040
0.0
1040
26.02015566812236
1040
0.0330999999912365
1040
0.0
1040
28.40199999996923
1040
0.0330999999912365
1040
0.414213562373095
1040
30.74199999996923
1040
2.373099999991211
1040
0.0
1040
30.74199999996927
1040
8.763099999991255
1040
0.0
1040
29.30199999996933
1040
8.763099999991255
1040
0.0
1040
29.30199999996933
1040
2.283099999991236
1040
-0.414213562373095
1040
28.40199999996923
1040
1.383099999991237
1040
0.0
1040
26.97358892824991
1040
1.383099999991202
1040
0.0
1071
       13
1005
2031E
1005
2032B
1005
2032C
1005
2032A
1005
2032D
1005
20354
1005
20358
1005
20353
1005
20352
1005
20355
1005
20357
1005
20356
1005
2031F
1071
       22
1070
     0
1070
     1
1071
        3
1040
22.7389999999773
1040
3.670999999996297
1040
23.56599999997638
1040
5.5200999999945
1040
24.39299999997559
1040
3.670999999996297
1071
        3
1005
20338
1005
2033D
1005
20339
1070
     0
1070
     1
1040
0.0
1040
0.15
1070
     0
1070
     2
1040
0.7853981633974483
1040
49.29960901727088
1040
-10.17736998311392
1040
-0.3367596045400932
1040
0.3367596045400932
1070
     0
1040
2.356194490192345
1040
49.29960901727088
1040
-10.17736998311392
1040
-0.3367596045400932
1040
-0.3367596045400932
1070
     0
1040
0.0110235143455945
1071
        2
1040
21.97929957367762
1040
3.294304244259308
1040
0.0
1040
21.97929957367762
1040
3.294304244259308
1040
0.0
1002
}
  0
INSERT
  5
2035C
330
20316
100
AcDbEntity
  8
0
100
AcDbBlockReference
  2
*X51
 10
0.0
 20
0.0
 30
0.0
1001
ACAD
1000
HATCH
1002
{
1070
    19
1000
ANSI37
1040
0.15
1040
0.0
1000
R14_HATCH_DATA
1000
2035C
1011
1.0
1021
0.0
1031
0.0
1011
0.0
1021
1.0
1031
0.0
1011
0.0
1021
0.0
1031
1.0
1040
0.0
1010
0.0
1020
0.0
1030
1.0
1000
ANSI37
1070
     0
1070
     1
1071
        1
1071
        7
1070
     1
1070
     1
1071
       12
1040
31.64199999996833
1040
2.481619422925121
1040
0.2679491924310942
1040
32.94699999997067
1040
0.2212931190493919
1040
0.2679491924301353
1040
36.36699999995983
1040
0.2212931190459813
1040
0.2679491924321411
1040
37.67199999996831
1040
2.481619422928361
1040
0.0
1040
37.67199999996831
1040
8.763099999991255
1040
0.0
1040
36.23199999996837
1040
8.763099999991255
1040
0.0
1040
36.23199999996837
1040
2.481619422925064
1040
-0.2679491924310291
1040
35.64699999996708
1040
1.468369700498386
1040
-0.267949192430519
1040
33.66699999997093
1040
1.468369700497703
1040
-0.267949192431809
1040
33.08199999996839
1040
2.481619422926997
1040
0.0
1040
33.08199999996839
1040
8.763099999991255
1040
0.0
1040
31.64199999996833
1040
8.763099999991255
1040
0.0
1071
        0
1070
     0
1070
     1
1040
0.0
1040
0.15
1070
     0
1070
     2
1040
0.7853981633974483
1040
49.29960901727088
1040
-10.17736998311392
1040
-0.3367596045400932
1040
0.3367596045400932
1070
     0
1040
2.356194490192345
1040
49.29960901727088
1040
-10.17736998311392
1040
-0.3367596045400932
1040
-0.3367596045400932
1070
     0
1040
0.0110235143455945
1071
        1
1040
32.30357378967278
1040
3.988785755459219
1040
0.0
1002
}
  0
INSERT
  5
2035D
330
20316
100
AcDbEntity
  8
0
100
AcDbBlockReference
  2
*X52
 10
0.0
 20
0.0
 30
0.0
1001
ACAD
1000
HATCH
1002
{
1070
    19
1000
ANSI37
1040
0.15
1040
0.0
1000
ASC_BOUNDS
1070
     1
1070
     2
1070
     8
1005
2033E
1005
20341
1005
20345
1005
20344
1005
20343
1005
20340
1005
20342
1005
2033F
1000
ASC_SEEDPOINT
1011
39.74896370716704
1021
4.484843821435049
1031
0.0
1000
R14_HATCH_DATA
1000
2035D
1011
1.0
1021
0.0
1031
0.0
1011
0.0
1021
1.0
1031
0.0
1011
0.0
1021
0.0
1031
1.0
1040
0.0
1010
0.0
1020
0.0
1030
1.0
1000
ANSI37
1070
     0
1070
     1
1071
        1
1071
        7
1070
     0
1070
     1
1071
        9
1040
40.02599999995994
1040
5.341799999994635
1040
44.99999999995498
1040
-0.2368999999997641
1040
44.99999999995498
1040
8.763099999991255
1040
43.57899999995641
1040
8.763099999991255
1040
43.57899999995641
1040
3.421199999996588
1040
38.60499999996136
1040
8.999899999990987
1040
38.60499999996136
1040
8.999999999991019
1040
38.60499999996136
1040
0.0
1040
40.02599999995994
1040
0.0
1071
        8
1005
2033E
1005
20341
1005
20345
1005
20344
1005
20343
1005
20340
1005
20342
1005
2033F
1070
     0
1070
     1
1040
0.0
1040
0.15
1070
     0
1070
     2
1040
0.7853981633974483
1040
49.29960901727088
1040
-10.17736998311392
1040
-0.3367596045400932
1040
0.3367596045400932
1070
     0
1040
2.356194490192345
1040
49.29960901727088
1040
-10.17736998311392
1040
-0.3367596045400932
1040
-0.3367596045400932
1070
     0
1040
0.0110235143455945
1071
        1
1040
39.74896370716704
1040
4.484843821435049
1040
0.0
1002
}
  0
INSERT
  5
2035E
330
20316
100
AcDbEntity
  8
0
100
AcDbBlockReference
  2
*X53
 10
0.0
 20
0.0
 30
0.0
1001
ACAD
1000
HATCH
1002
{
1070
    19
1000
ANSI37
1040
0.15
1040
0.0
1000
ASC_BOUNDS
1070
     1
1070
     2
1070
     4
1005
20322
1005
20331
1005
20323
1005
20325
1000
ASC_SEEDPOINT
1011
1.079051535452663
1021
4.148538732891836
1031
0.0
1000
R14_HATCH_DATA
1000
2035E
1011
1.0
1021
0.0
1031
0.0
1011
0.0
1021
1.0
1031
0.0
1011
0.0
1021
0.0
1031
1.0
1040
0.0
1010
0.0
1020
0.0
1030
1.0
1000
ANSI37
1070
     0
1070
     1
1071
        1
1071
        7
1070
     0
1070
     1
1071
        4
1040
1.420999999998571
1040
0.0
1040
1.420999999998571
1040
8.763099999991255
1040
0.0
1040
8.763099999991255
1040
0.0
1040
0.0
1071
        4
1005
20322
1005
20331
1005
20323
1005
20325
1070
     0
1070
     1
1040
0.0
1040
0.15
1070
     0
1070
     2
1040
0.7853981633974483
1040
49.29960901727088
1040
-10.17736998311392
1040
-0.3367596045400932
1040
0.3367596045400932
1070
     0
1040
2.356194490192345
1040
49.29960901727088
1040
-10.17736998311392
1040
-0.3367596045400932
1040
-0.3367596045400932
1070
     0
1040
0.0053004257112761
1071
        1
1040
1.079051535452663
1040
4.148538732891836
1040
0.0
1002
}
  0
ENDBLK
  5
20A16
330
20316
100
AcDbEntity
  8
0
100
AcDbBlockEnd
  0
BLOCK
  5
23E16
330
23C88
100
AcDbEntity
  8
0
100
AcDbBlockBegin
  2
*X48
 70
     1
 10
0.0
 20
0.0
 30
0.0
  3
*X48
  1

  0
LINE
  5
23C89
330
23C88
100
AcDbEntity
  8
0
  6
CONTINUOUS
100
AcDbLine
 10
3.418023043697893
 20
7.251849696850613
 30
0.0
 11
4.929273346838536
 21
8.763099999991255
 31
0.0
  0
LINE
  5
23C8A
330
23C88
100
AcDbEntity
  8
0
  6
CONTINUOUS
100
AcDbLine
 10
1.483656411257782
 20
4.643963855330318
 30
0.0
 11
5.60279255591872
 21
8.763099999991255
 31
0.0
  0
LINE
  5
23C8B
330
23C88
100
AcDbEntity
  8
0
  6
CONTINUOUS
100
AcDbLine
 10
1.755053947328235
 20
4.241842182320584
 30
0.0
 11
6.276311764998907
 21
8.763099999991255
 31
0.0
  0
LINE
  5
23C8C
330
23C88
100
AcDbEntity
  8
0
  6
CONTINUOUS
100
AcDbLine
 10
2.026451483398688
 20
3.839720509310849
 30
0.0
 11
4.441040904851878
 21
6.254309930764039
 31
0.0
  0
LINE
  5
23C8D
330
23C88
100
AcDbEntity
  8
0
  6
CONTINUOUS
100
AcDbLine
 10
2.297849019469139
 20
3.437598836301114
 30
0.0
 11
3.321765168359338
 21
4.461514985191313
 31
0.0
  0
LINE
  5
23C8E
330
23C88
100
AcDbEntity
  8
0
  6
CONTINUOUS
100
AcDbLine
 10
2.569246555539591
 20
3.03547716329138
 30
0.0
 11
3.593163397972743
 21
4.059394005724531
 31
0.0
  0
LINE
  5
23C8F
330
23C88
100
AcDbEntity
  8
0
  6
CONTINUOUS
100
AcDbLine
 10
2.840644091610043
 20
2.633355490281646
 30
0.0
 11
3.864561627586149
 21
3.657273026257751
 31
0.0
  0
LINE
  5
23C90
330
23C88
100
AcDbEntity
  8
0
  6
CONTINUOUS
100
AcDbLine
 10
3.112041627680496
 20
2.231233817271911
 30
0.0
 11
4.135959857199554
 21
3.25515204679097
 31
0.0
  0
LINE
  5
23C91
330
23C88
100
AcDbEntity
  8
0
  6
CONTINUOUS
100
AcDbLine
 10
3.383439163750948
 20
1.829112144262177
 30
0.0
 11
4.40735808681296
 21
2.853031067324189
 31
0.0
  0
LINE
  5
23C92
330
23C88
100
AcDbEntity
  8
0
  6
CONTINUOUS
100
AcDbLine
 10
3.654836699821399
 20
1.426990471252442
 30
0.0
 11
4.678756316426365
 21
2.450910087857407
 31
0.0
  0
LINE
  5
23C93
330
23C88
100
AcDbEntity
  8
0
  6
CONTINUOUS
100
AcDbLine
 10
3.926234235891853
 20
1.024868798242709
 30
0.0
 11
4.95015454603977
 21
2.048789108390626
 31
0.0
  0
LINE
  5
23C94
330
23C88
100
AcDbEntity
  8
0
  6
CONTINUOUS
100
AcDbLine
 10
4.197631771962304
 20
0.6227471252329737
 30
0.0
 11
5.221552775653176
 21
1.646668128923846
 31
0.0
  0
LINE
  5
23C95
330
23C88
100
AcDbEntity
  8
0
  6
CONTINUOUS
100
AcDbLine
 10
8.715877546767851
 20
7.835069736359266
 30
0.0
 11
9.435953450375058
 21
8.555145639966472
 31
0.0
  0
LINE
  5
23C96
330
23C88
100
AcDbEntity
  8
0
  6
CONTINUOUS
100
AcDbLine
 10
8.170620868422267
 20
6.616293848933497
 30
0.0
 11
9.644120833743461
 21
8.08979381425469
 31
0.0
  0
LINE
  5
23C97
330
23C88
100
AcDbEntity
  8
0
  6
CONTINUOUS
100
AcDbLine
 10
7.625364190076684
 20
5.397517961507727
 30
0.0
 11
9.852288217111864
 21
7.624441988542907
 31
0.0
  0
LINE
  5
23C98
330
23C88
100
AcDbEntity
  8
0
  6
CONTINUOUS
100
AcDbLine
 10
7.080107511731101
 20
4.178742074081957
 30
0.0
 11
10.06045560048027
 21
7.159090162831124
 31
0.0
  0
LINE
  5
23C99
330
23C88
100
AcDbEntity
  8
0
  6
CONTINUOUS
100
AcDbLine
 10
6.534850833385518
 20
2.959966186656187
 30
0.0
 11
10.26862298384867
 21
6.693738337119342
 31
0.0
  0
LINE
  5
23C9A
330
23C88
100
AcDbEntity
  8
0
  6
CONTINUOUS
100
AcDbLine
 10
4.469029308032756
 20
0.2206254522232385
 30
0.0
 11
5.492951005266582
 21
1.244547149457064
 31
0.0
  0
LINE
  5
23C9B
330
23C88
100
AcDbEntity
  8
0
  6
CONTINUOUS
100
AcDbLine
 10
5.989594155039935
 20
1.741190299230417
 30
0.0
 11
8.806950407233131
 21
4.558546551423613
 31
0.0
  0
LINE
  5
23C9C
330
23C88
100
AcDbEntity
  8
0
  6
CONTINUOUS
100
AcDbLine
 10
9.401251593263643
 20
5.152847737454126
 30
0.0
 11
10.47679036721708
 21
6.228386511407559
 31
0.0
  0
LINE
  5
23C9D
330
23C88
100
AcDbEntity
  8
0
  6
CONTINUOUS
100
AcDbLine
 10
4.921837203428691
 20
-0.0000858614610131
 30
0.0
 11
8.592923064886001
 21
3.670999999996297
 31
0.0
  0
LINE
  5
23C9E
330
23C88
100
AcDbEntity
  8
0
  6
CONTINUOUS
100
AcDbLine
 10
9.609390446785305
 20
4.6874673818956
 30
0.0
 11
10.68495775058548
 21
5.763034685695775
 31
0.0
  0
LINE
  5
23C9F
330
23C88
100
AcDbEntity
  8
0
  6
CONTINUOUS
100
AcDbLine
 10
5.595387755019432
 20
-0.0000545189504582
 30
0.0
 11
7.716137258923768
 21
2.120694984953879
 31
0.0
  0
LINE
  5
23CA0
330
23C88
100
AcDbEntity
  8
0
  6
CONTINUOUS
100
AcDbLine
 10
6.268938306610172
 20
-0.000023176439905
 30
0.0
 11
7.170485805526503
 21
0.9015243224764267
 31
0.0
  0
LINE
  5
23CA1
330
23C88
100
AcDbEntity
  8
0
  6
CONTINUOUS
100
AcDbLine
 10
7.963842273967511
 20
2.368399999997621
 30
0.0
 11
9.266442273966188
 21
3.670999999996297
 31
0.0
  0
LINE
  5
23CA2
330
23C88
100
AcDbEntity
  8
0
  6
CONTINUOUS
100
AcDbLine
 10
8.637361483047696
 20
2.368399999997621
 30
0.0
 11
9.939961483046375
 21
3.670999999996297
 31
0.0
  0
LINE
  5
23CA3
330
23C88
100
AcDbEntity
  8
0
  6
CONTINUOUS
100
AcDbLine
 10
9.817529300306965
 20
4.222087026337075
 30
0.0
 11
10.89312513395388
 21
5.297682859983993
 31
0.0
  0
LINE
  5
23CA4
330
23C88
100
AcDbEntity
  8
0
  6
CONTINUOUS
100
AcDbLine
 10
10.02566815382863
 20
3.756706670778549
 30
0.0
 11
11.10129251732229
 21
4.832331034272211
 31
0.0
  0
LINE
  5
23CA5
330
23C88
100
AcDbEntity
  8
0
  6
CONTINUOUS
100
AcDbLine
 10
9.310880692127883
 20
2.368399999997621
 30
0.0
 11
11.30945990069069
 21
4.366979208560428
 31
0.0
  0
LINE
  5
23CA6
330
23C88
100
AcDbEntity
  8
0
  6
CONTINUOUS
100
AcDbLine
 10
9.98439990120807
 20
2.36839999999762
 30
0.0
 11
11.5176272840591
 21
3.901627382848645
 31
0.0
  0
LINE
  5
23CA7
330
23C88
100
AcDbEntity
  8
0
  6
CONTINUOUS
100
AcDbLine
 10
10.65037369446246
 20
2.36085458417182
 30
0.0
 11
11.7257946674275
 21
3.436275557136862
 31
0.0
  0
LINE
  5
23CA8
330
23C88
100
AcDbEntity
  8
0
  6
CONTINUOUS
100
AcDbLine
 10
10.85847197087848
 20
1.895433651507656
 30
0.0
 11
11.9339620507959
 21
2.97092373142508
 31
0.0
  0
LINE
  5
23CA9
330
23C88
100
AcDbEntity
  8
0
  6
CONTINUOUS
100
AcDbLine
 10
11.0665702472945
 20
1.430012718843491
 30
0.0
 11
12.14212943416431
 21
2.505571905713296
 31
0.0
  0
LINE
  5
23CAA
330
23C88
100
AcDbEntity
  8
0
  6
CONTINUOUS
100
AcDbLine
 10
11.27466852371052
 20
0.9645917861793256
 30
0.0
 11
12.35029681753271
 21
2.040220080001513
 31
0.0
  0
LINE
  5
23CAB
330
23C88
100
AcDbEntity
  8
0
  6
CONTINUOUS
100
AcDbLine
 10
11.48276680012654
 20
0.4991708535151611
 30
0.0
 11
12.55846420090111
 21
1.57486825428973
 31
0.0
  0
LINE
  5
23CAC
330
23C88
100
AcDbEntity
  8
0
  6
CONTINUOUS
100
AcDbLine
 10
11.69086507654257
 20
0.0337499208509957
 30
0.0
 11
12.76663158426952
 21
1.109516428577947
 31
0.0
  0
LINE
  5
23CAD
330
23C88
100
AcDbEntity
  8
0
  6
CONTINUOUS
100
AcDbLine
 10
12.33057447873954
 20
-0.0000598860322123
 30
0.0
 11
12.97479896763792
 21
0.6441646028661663
 31
0.0
  0
LINE
  5
23CAE
330
23C88
100
AcDbEntity
  8
0
  6
CONTINUOUS
100
AcDbLine
 10
13.00413694809395
 20
-0.0000166257579952
 30
0.0
 11
13.18296635100632
 21
0.1788127771543824
 31
0.0
  0
LINE
  5
23CAF
330
23C88
100
AcDbEntity
  8
0
  6
CONTINUOUS
100
AcDbLine
 10
4.772852165289667
 20
-0.000092794222212
 30
0.0
 11
4.296495091028902
 21
0.4762642800385528
 31
0.0
  0
LINE
  5
23CB0
330
23C88
100
AcDbEntity
  8
0
  6
CONTINUOUS
100
AcDbLine
 10
5.446340034776103
 20
-0.0000614546284616
 30
0.0
 11
2.898195908335625
 21
2.548082671812017
 31
0.0
  0
LINE
  5
23CB1
330
23C88
100
AcDbEntity
  8
0
  6
CONTINUOUS
100
AcDbLine
 10
6.119827904262539
 20
-0.0000301150347113
 30
0.0
 11
1.499896725642348
 21
4.61990106358548
 31
0.0
  0
LINE
  5
23CB2
330
23C88
100
AcDbEntity
  8
0
  6
CONTINUOUS
100
AcDbLine
 10
6.775136745476159
 20
0.0181802528318542
 30
0.0
 11
5.699826040202669
 21
1.093490958105344
 31
0.0
  0
LINE
  5
23CB3
330
23C88
100
AcDbEntity
  8
0
  6
CONTINUOUS
100
AcDbLine
 10
6.983376846288489
 20
0.4834593610997118
 30
0.0
 11
5.908008617934405
 21
1.558827589453796
 31
0.0
  0
LINE
  5
23CB4
330
23C88
100
AcDbEntity
  8
0
  6
CONTINUOUS
100
AcDbLine
 10
5.377063484962296
 20
1.416253513345719
 30
0.0
 11
1.702276957014131
 21
5.091040041293883
 31
0.0
  0
LINE
  5
23CB5
330
23C88
100
AcDbEntity
  8
0
  6
CONTINUOUS
100
AcDbLine
 10
3.978745891735324
 20
3.488090315652877
 30
0.0
 11
2.000373521109399
 21
5.466462686278803
 31
0.0
  0
LINE
  5
23CB6
330
23C88
100
AcDbEntity
  8
0
  6
CONTINUOUS
100
AcDbLine
 10
7.191616947100819
 20
0.948738469367568
 30
0.0
 11
6.11619119566614
 21
2.024164220802247
 31
0.0
  0
LINE
  5
23CB7
330
23C88
100
AcDbEntity
  8
0
  6
CONTINUOUS
100
AcDbLine
 10
7.399857047913149
 20
1.414017577635424
 30
0.0
 11
6.324373773397875
 21
2.489500852150698
 31
0.0
  0
LINE
  5
23CB8
330
23C88
100
AcDbEntity
  8
0
  6
CONTINUOUS
100
AcDbLine
 10
7.608097148725479
 20
1.879296685903281
 30
0.0
 11
6.53255635112961
 21
2.95483748349915
 31
0.0
  0
LINE
  5
23CB9
330
23C88
100
AcDbEntity
  8
0
  6
CONTINUOUS
100
AcDbLine
 10
7.816337249537808
 20
2.344575794171138
 30
0.0
 11
6.740738928861345
 21
3.420174114847601
 31
0.0
  0
LINE
  5
23CBA
330
23C88
100
AcDbEntity
  8
0
  6
CONTINUOUS
100
AcDbLine
 10
3.310241080789734
 20
4.830114335678653
 30
0.0
 11
2.298470085204666
 21
5.84188533126372
 31
0.0
  0
LINE
  5
23CBB
330
23C88
100
AcDbEntity
  8
0
  6
CONTINUOUS
100
AcDbLine
 10
3.60832983563551
 20
5.205544789913063
 30
0.0
 11
2.596566649299935
 21
6.217307976248638
 31
0.0
  0
LINE
  5
23CBC
330
23C88
100
AcDbEntity
  8
0
  6
CONTINUOUS
100
AcDbLine
 10
3.906418590481286
 20
5.580975244147473
 30
0.0
 11
2.894663213395203
 21
6.592730621233557
 31
0.0
  0
LINE
  5
23CBD
330
23C88
100
AcDbEntity
  8
0
  6
CONTINUOUS
100
AcDbLine
 10
4.204507345327062
 20
5.956405698381884
 30
0.0
 11
3.192759777490472
 21
6.968153266218474
 31
0.0
  0
LINE
  5
23CBE
330
23C88
100
AcDbEntity
  8
0
  6
CONTINUOUS
100
AcDbLine
 10
8.466032252791512
 20
2.368399999997621
 30
0.0
 11
6.948921506593081
 21
3.885510746196053
 31
0.0
  0
LINE
  5
23CBF
330
23C88
100
AcDbEntity
  8
0
  6
CONTINUOUS
100
AcDbLine
 10
9.139551461871699
 20
2.36839999999762
 30
0.0
 11
7.157104084324816
 21
4.350847377544504
 31
0.0
  0
LINE
  5
23CC0
330
23C88
100
AcDbEntity
  8
0
  6
CONTINUOUS
100
AcDbLine
 10
4.502596100172839
 20
6.331836152616295
 30
0.0
 11
3.49085634158574
 21
7.343575911203393
 31
0.0
  0
LINE
  5
23CC1
330
23C88
100
AcDbEntity
  8
0
  6
CONTINUOUS
100
AcDbLine
 10
4.800684855018615
 20
6.707266606850705
 30
0.0
 11
3.788952905681008
 21
7.718998556188312
 31
0.0
  0
LINE
  5
23CC2
330
23C88
100
AcDbEntity
  8
0
  6
CONTINUOUS
100
AcDbLine
 10
12.18154012887317
 20
-0.0000694579236642
 30
0.0
 11
11.32140332908496
 21
0.8600673418645499
 31
0.0
  0
LINE
  5
23CC3
330
23C88
100
AcDbEntity
  8
0
  6
CONTINUOUS
100
AcDbLine
 10
12.85501608323566
 20
-0.0000262032059659
 30
0.0
 11
10.77672456435345
 21
2.078265315676246
 31
0.0
  0
LINE
  5
23CC4
330
23C88
100
AcDbEntity
  8
0
  6
CONTINUOUS
100
AcDbLine
 10
9.813070670951886
 20
2.36839999999762
 30
0.0
 11
8.51047067095321
 21
3.670999999996297
 31
0.0
  0
LINE
  5
23CC5
330
23C88
100
AcDbEntity
  8
0
  6
CONTINUOUS
100
AcDbLine
 10
10.48658988003207
 20
2.36839999999762
 30
0.0
 11
9.183989880033396
 21
3.670999999996297
 31
0.0
  0
LINE
  5
23CC6
330
23C88
100
AcDbEntity
  8
0
  6
CONTINUOUS
100
AcDbLine
 10
8.441048632286794
 20
3.740422038662712
 30
0.0
 11
7.365286662056551
 21
4.816184008892956
 31
0.0
  0
LINE
  5
23CC7
330
23C88
100
AcDbEntity
  8
0
  6
CONTINUOUS
100
AcDbLine
 10
8.649187485808454
 20
4.205802394221237
 30
0.0
 11
7.573469239788285
 21
5.281520640241407
 31
0.0
  0
LINE
  5
23CC8
330
23C88
100
AcDbEntity
  8
0
  6
CONTINUOUS
100
AcDbLine
 10
5.098773609864391
 20
7.082697061085115
 30
0.0
 11
4.087049469776277
 21
8.09442120117323
 31
0.0
  0
LINE
  5
23CC9
330
23C88
100
AcDbEntity
  8
0
  6
CONTINUOUS
100
AcDbLine
 10
5.396862364710167
 20
7.458127515319526
 30
0.0
 11
4.385146033871544
 21
8.469843846158149
 31
0.0
  0
LINE
  5
23CCA
330
23C88
100
AcDbEntity
  8
0
  6
CONTINUOUS
100
AcDbLine
 10
13.04801363231285
 20
0.4804954567970334
 30
0.0
 11
9.85750908911358
 21
3.670999999996297
 31
0.0
  0
LINE
  5
23CCB
330
23C88
100
AcDbEntity
  8
0
  6
CONTINUOUS
100
AcDbLine
 10
8.857326339330116
 20
4.671182749779763
 30
0.0
 11
7.781651817520021
 21
5.746857271589858
 31
0.0
  0
LINE
  5
23CCC
330
23C88
100
AcDbEntity
  8
0
  6
CONTINUOUS
100
AcDbLine
 10
5.694951119555943
 20
7.833557969553937
 30
0.0
 11
4.765409089118624
 21
8.763099999991255
 31
0.0
  0
LINE
  5
23CCD
330
23C88
100
AcDbEntity
  8
0
  6
CONTINUOUS
100
AcDbLine
 10
12.50286117236978
 20
1.699167125820288
 30
0.0
 11
9.68611877250287
 21
4.515909525687196
 31
0.0
  0
LINE
  5
23CCE
330
23C88
100
AcDbEntity
  8
0
  6
CONTINUOUS
100
AcDbLine
 10
9.065465192851777
 20
5.136563105338288
 30
0.0
 11
7.989834395251757
 21
6.21219390293831
 31
0.0
  0
LINE
  5
23CCF
330
23C88
100
AcDbEntity
  8
0
  6
CONTINUOUS
100
AcDbLine
 10
5.993039874401719
 20
8.208988423788346
 30
0.0
 11
5.43892829819881
 21
8.763099999991255
 31
0.0
  0
LINE
  5
23CD0
330
23C88
100
AcDbEntity
  8
0
  6
CONTINUOUS
100
AcDbLine
 10
11.95770871242671
 20
2.917838794843543
 30
0.0
 11
8.19801697298349
 21
6.677530534286761
 31
0.0
  0
LINE
  5
23CD1
330
23C88
100
AcDbEntity
  8
0
  6
CONTINUOUS
100
AcDbLine
 10
6.291128629247495
 20
8.584418878022756
 30
0.0
 11
6.112447507278997
 21
8.763099999991255
 31
0.0
  0
LINE
  5
23CD2
330
23C88
100
AcDbEntity
  8
0
  6
CONTINUOUS
100
AcDbLine
 10
11.41255625248364
 20
4.136510463866797
 30
0.0
 11
8.406199550715227
 21
7.142867165635211
 31
0.0
  0
LINE
  5
23CD3
330
23C88
100
AcDbEntity
  8
0
  6
CONTINUOUS
100
AcDbLine
 10
10.86740379254057
 20
5.355182132890051
 30
0.0
 11
8.614382128446962
 21
7.608203796983664
 31
0.0
  0
LINE
  5
23CD4
330
23C88
100
AcDbEntity
  8
0
  6
CONTINUOUS
100
AcDbLine
 10
10.3222513325975
 20
6.573853801913305
 30
0.0
 11
8.822564706178696
 21
8.073540428332114
 31
0.0
  0
LINE
  5
23CD5
330
23C88
100
AcDbEntity
  8
0
  6
CONTINUOUS
100
AcDbLine
 10
9.777098872654436
 20
7.792525470936562
 30
0.0
 11
9.030747283910433
 21
8.538877059680566
 31
0.0
  0
ENDBLK
  5
23E17
330
23C88
100
AcDbEntity
  8
0
100
AcDbBlockEnd
  0
BLOCK
  5
23E18
330
23CD6
100
AcDbEntity
  8
0
100
AcDbBlockBegin
  2
*X49
 70
     1
 10
0.0
 20
0.0
 30
0.0
  3
*X49
  1

  0
LINE
  5
23CD7
330
23CD6
100
AcDbEntity
  8
0
  6
CONTINUOUS
100
AcDbLine
 10
10.67292308101235
 20
8.445076852443387
 30
0.0
 11
10.99094622856022
 21
8.763099999991255
 31
0.0
  0
LINE
  5
23CD8
330
23CD6
100
AcDbEntity
  8
0
  6
CONTINUOUS
100
AcDbLine
 10
10.87250383178748
 20
7.971138394138331
 30
0.0
 11
11.6644654376404
 21
8.763099999991255
 31
0.0
  0
LINE
  5
23CD9
330
23CD6
100
AcDbEntity
  8
0
  6
CONTINUOUS
100
AcDbLine
 10
11.07208458256261
 20
7.497199935833273
 30
0.0
 11
12.12126590876355
 21
8.546381262034211
 31
0.0
  0
LINE
  5
23CDA
330
23CD6
100
AcDbEntity
  8
0
  6
CONTINUOUS
100
AcDbLine
 10
11.27166533333774
 20
7.023261477528216
 30
0.0
 11
12.32085164573666
 21
8.072447789927136
 31
0.0
  0
LINE
  5
23CDB
330
23CD6
100
AcDbEntity
  8
0
  6
CONTINUOUS
100
AcDbLine
 10
11.47124608411287
 20
6.549323019223158
 30
0.0
 11
12.52043738270977
 21
7.59851431782006
 31
0.0
  0
LINE
  5
23CDC
330
23CD6
100
AcDbEntity
  8
0
  6
CONTINUOUS
100
AcDbLine
 10
11.670826834888
 20
6.075384560918101
 30
0.0
 11
12.72002311968288
 21
7.124580845712984
 31
0.0
  0
LINE
  5
23CDD
330
23CD6
100
AcDbEntity
  8
0
  6
CONTINUOUS
100
AcDbLine
 10
11.87040758566313
 20
5.601446102613043
 30
0.0
 11
12.91960885665599
 21
6.650647373605907
 31
0.0
  0
LINE
  5
23CDE
330
23CD6
100
AcDbEntity
  8
0
  6
CONTINUOUS
100
AcDbLine
 10
12.06998833643825
 20
5.127507644307986
 30
0.0
 11
13.1191945936291
 21
6.176713901498832
 31
0.0
  0
LINE
  5
23CDF
330
23CD6
100
AcDbEntity
  8
0
  6
CONTINUOUS
100
AcDbLine
 10
12.26956908721338
 20
4.65356918600293
 30
0.0
 11
13.31878033060221
 21
5.702780429391757
 31
0.0
  0
LINE
  5
23CE0
330
23CD6
100
AcDbEntity
  8
0
  6
CONTINUOUS
100
AcDbLine
 10
12.46914983798851
 20
4.179630727697873
 30
0.0
 11
13.51836606757532
 21
5.228846957284683
 31
0.0
  0
LINE
  5
23CE1
330
23CD6
100
AcDbEntity
  8
0
  6
CONTINUOUS
100
AcDbLine
 10
12.66873058876364
 20
3.705692269392816
 30
0.0
 11
13.71795180454843
 21
4.754913485177607
 31
0.0
  0
LINE
  5
23CE2
330
23CD6
100
AcDbEntity
  8
0
  6
CONTINUOUS
100
AcDbLine
 10
12.86831133953877
 20
3.231753811087759
 30
0.0
 11
13.91753754152154
 21
4.280980013070531
 31
0.0
  0
LINE
  5
23CE3
330
23CD6
100
AcDbEntity
  8
0
  6
CONTINUOUS
100
AcDbLine
 10
13.0678920903139
 20
2.757815352782702
 30
0.0
 11
14.11712327849465
 21
3.807046540963456
 31
0.0
  0
LINE
  5
23CE4
330
23CD6
100
AcDbEntity
  8
0
  6
CONTINUOUS
100
AcDbLine
 10
13.26747284108903
 20
2.283876894477644
 30
0.0
 11
14.31670901546777
 21
3.333113068856379
 31
0.0
  0
LINE
  5
23CE5
330
23CD6
100
AcDbEntity
  8
0
  6
CONTINUOUS
100
AcDbLine
 10
16.36767838827179
 20
8.751678487061342
 30
0.0
 11
16.50332410898388
 21
8.887324207773432
 31
0.0
  0
LINE
  5
23CE6
330
23CD6
100
AcDbEntity
  8
0
  6
CONTINUOUS
100
AcDbLine
 10
15.96190732182191
 20
7.67238821153127
 30
0.0
 11
16.68735328004734
 21
8.397834169756699
 31
0.0
  0
LINE
  5
23CE7
330
23CD6
100
AcDbEntity
  8
0
  6
CONTINUOUS
100
AcDbLine
 10
15.55613625537202
 20
6.593097936001196
 30
0.0
 11
16.87138245111079
 21
7.908344131739965
 31
0.0
  0
LINE
  5
23CE8
330
23CD6
100
AcDbEntity
  8
0
  6
CONTINUOUS
100
AcDbLine
 10
15.15036518892213
 20
5.513807660471122
 30
0.0
 11
17.05541162217424
 21
7.418854093723231
 31
0.0
  0
LINE
  5
23CE9
330
23CD6
100
AcDbEntity
  8
0
  6
CONTINUOUS
100
AcDbLine
 10
14.74459412247225
 20
4.434517384941048
 30
0.0
 11
17.2394407932377
 21
6.929364055706499
 31
0.0
  0
LINE
  5
23CEA
330
23CD6
100
AcDbEntity
  8
0
  6
CONTINUOUS
100
AcDbLine
 10
14.33882305602236
 20
3.355227109410975
 30
0.0
 11
17.42346996430115
 21
6.439874017689766
 31
0.0
  0
LINE
  5
23CEB
330
23CD6
100
AcDbEntity
  8
0
  6
CONTINUOUS
100
AcDbLine
 10
13.46705359186416
 20
1.809938436172586
 30
0.0
 11
16.0819338255367
 21
4.424818669845129
 31
0.0
  0
LINE
  5
23CEC
330
23CD6
100
AcDbEntity
  8
0
  6
CONTINUOUS
100
AcDbLine
 10
16.63283254238972
 20
4.975717386698149
 30
0.0
 11
17.60749913536461
 21
5.950383979673033
 31
0.0
  0
LINE
  5
23CED
330
23CD6
100
AcDbEntity
  8
0
  6
CONTINUOUS
100
AcDbLine
 10
13.66663434263929
 20
1.335999977867529
 30
0.0
 11
15.67604797733754
 21
3.345413612565779
 31
0.0
  0
LINE
  5
23CEE
330
23CD6
100
AcDbEntity
  8
0
  6
CONTINUOUS
100
AcDbLine
 10
13.86621509341442
 20
0.8620615195624723
 30
0.0
 11
15.27016212913838
 21
2.26600855528643
 31
0.0
  0
LINE
  5
23CEF
330
23CD6
100
AcDbEntity
  8
0
  6
CONTINUOUS
100
AcDbLine
 10
16.81682257348267
 20
4.486188208710908
 30
0.0
 11
17.79152830642806
 21
5.460893941656299
 31
0.0
  0
LINE
  5
23CF0
330
23CD6
100
AcDbEntity
  8
0
  6
CONTINUOUS
100
AcDbLine
 10
17.00081260457561
 20
3.996659030723667
 30
0.0
 11
17.97555747749151
 21
4.971403903639565
 31
0.0
  0
LINE
  5
23CF1
330
23CD6
100
AcDbEntity
  8
0
  6
CONTINUOUS
100
AcDbLine
 10
20.74362343514722
 20
8.412989070375462
 30
0.0
 11
21.09373436476302
 21
8.763099999991256
 31
0.0
  0
LINE
  5
23CF2
330
23CD6
100
AcDbEntity
  8
0
  6
CONTINUOUS
100
AcDbLine
 10
20.25401257174777
 20
7.249858997895826
 30
0.0
 11
21.7672535738432
 21
8.763099999991255
 31
0.0
  0
LINE
  5
23CF3
330
23CD6
100
AcDbEntity
  8
0
  6
CONTINUOUS
100
AcDbLine
 10
14.06579584418955
 20
0.3881230612574149
 30
0.0
 11
14.86427628093921
 21
1.186603498007082
 31
0.0
  0
LINE
  5
23CF4
330
23CD6
100
AcDbEntity
  8
0
  6
CONTINUOUS
100
AcDbLine
 10
14.26537659496467
 20
-0.0858153970476412
 30
0.0
 11
14.45839043274005
 21
0.1071984407277329
 31
0.0
  0
LINE
  5
23CF5
330
23CD6
100
AcDbEntity
  8
0
  6
CONTINUOUS
100
AcDbLine
 10
17.18480263566856
 20
3.507129852736426
 30
0.0
 11
18.15958664855496
 21
4.481913865622833
 31
0.0
  0
LINE
  5
23CF6
330
23CD6
100
AcDbEntity
  8
0
  6
CONTINUOUS
100
AcDbLine
 10
17.3687926667615
 20
3.017600674749186
 30
0.0
 11
18.34361581961842
 21
3.9924238276061
 31
0.0
  0
LINE
  5
23CF7
330
23CD6
100
AcDbEntity
  8
0
  6
CONTINUOUS
100
AcDbLine
 10
19.76440170834832
 20
6.086728925416191
 30
0.0
 11
22.33924590259489
 21
8.661573119662755
 31
0.0
  0
LINE
  5
23CF8
330
23CD6
100
AcDbEntity
  8
0
  6
CONTINUOUS
100
AcDbLine
 10
19.27479084494887
 20
4.923598852936555
 30
0.0
 11
21.84929622842713
 21
7.498104236414807
 31
0.0
  0
LINE
  5
23CF9
330
23CD6
100
AcDbEntity
  8
0
  6
CONTINUOUS
100
AcDbLine
 10
17.55278269785445
 20
2.528071496761945
 30
0.0
 11
18.52764499068187
 21
3.502933789589366
 31
0.0
  0
LINE
  5
23CFA
330
23CD6
100
AcDbEntity
  8
0
  6
CONTINUOUS
100
AcDbLine
 10
18.78517998154942
 20
3.760468780456919
 30
0.0
 11
21.35934655425936
 21
6.33463535316686
 31
0.0
  0
LINE
  5
23CFB
330
23CD6
100
AcDbEntity
  8
0
  6
CONTINUOUS
100
AcDbLine
 10
17.73677272894739
 20
2.038542318774704
 30
0.0
 11
20.8693968800916
 21
5.171166469918914
 31
0.0
  0
LINE
  5
23CFC
330
23CD6
100
AcDbEntity
  8
0
  6
CONTINUOUS
100
AcDbLine
 10
17.92076276004034
 20
1.549013140787464
 30
0.0
 11
20.37944720592384
 21
4.007697586670968
 31
0.0
  0
LINE
  5
23CFD
330
23CD6
100
AcDbEntity
  8
0
  6
CONTINUOUS
100
AcDbLine
 10
18.10475279113329
 20
1.059483962800223
 30
0.0
 11
19.88949753175608
 21
2.84422870342302
 31
0.0
  0
LINE
  5
23CFE
330
23CD6
100
AcDbEntity
  8
0
  6
CONTINUOUS
100
AcDbLine
 10
18.28874282222623
 20
0.5699547848129822
 30
0.0
 11
19.39954785758832
 21
1.680759820175074
 31
0.0
  0
LINE
  5
23CFF
330
23CD6
100
AcDbEntity
  8
0
  6
CONTINUOUS
100
AcDbLine
 10
18.47273285331918
 20
0.0804256068257416
 30
0.0
 11
18.90959818342056
 21
0.517290936927127
 31
0.0
  0
LINE
  5
23D00
330
23CD6
100
AcDbEntity
  8
0
  6
CONTINUOUS
100
AcDbLine
 10
14.3590401358224
 20
-0.1570118376323384
 30
0.0
 11
14.24903296539946
 21
-0.0470046672093929
 31
0.0
  0
LINE
  5
23D01
330
23CD6
100
AcDbEntity
  8
0
  6
CONTINUOUS
100
AcDbLine
 10
14.54309291258661
 20
0.332454594683643
 30
0.0
 11
13.75908329123172
 21
1.116464216038529
 31
0.0
  0
LINE
  5
23D02
330
23CD6
100
AcDbEntity
  8
0
  6
CONTINUOUS
100
AcDbLine
 10
14.72714568935081
 20
0.8219210269996244
 30
0.0
 11
13.26913361706399
 21
2.27993309928645
 31
0.0
  0
LINE
  5
23D03
330
23CD6
100
AcDbEntity
  8
0
  6
CONTINUOUS
100
AcDbLine
 10
14.91119846611502
 20
1.311387459315606
 30
0.0
 11
12.77918394289625
 21
3.443401982534371
 31
0.0
  0
LINE
  5
23D04
330
23CD6
100
AcDbEntity
  8
0
  6
CONTINUOUS
100
AcDbLine
 10
15.09525124287922
 20
1.800853891631587
 30
0.0
 11
12.28923426872852
 21
4.606870865782293
 31
0.0
  0
LINE
  5
23D05
330
23CD6
100
AcDbEntity
  8
0
  6
CONTINUOUS
100
AcDbLine
 10
15.27930401964343
 20
2.290320323947569
 30
0.0
 11
11.79928459456078
 21
5.770339749030213
 31
0.0
  0
LINE
  5
23D06
330
23CD6
100
AcDbEntity
  8
0
  6
CONTINUOUS
100
AcDbLine
 10
15.46335679640763
 20
2.77978675626355
 30
0.0
 11
14.48885470994921
 21
3.754288842721972
 31
0.0
  0
LINE
  5
23D07
330
23CD6
100
AcDbEntity
  8
0
  6
CONTINUOUS
100
AcDbLine
 10
13.88507249233704
 20
4.358071060334137
 30
0.0
 11
11.30933492039305
 21
6.933808632278135
 31
0.0
  0
LINE
  5
23D08
330
23CD6
100
AcDbEntity
  8
0
  6
CONTINUOUS
100
AcDbLine
 10
18.75840522805855
 20
0.1582575336928151
 30
0.0
 11
18.25383727664818
 21
0.6628254851031863
 31
0.0
  0
LINE
  5
23D09
330
23CD6
100
AcDbEntity
  8
0
  6
CONTINUOUS
100
AcDbLine
 10
15.64740957317184
 20
3.269253188579531
 30
0.0
 11
14.67288388101266
 21
4.243778880738705
 31
0.0
  0
LINE
  5
23D0A
330
23CD6
100
AcDbEntity
  8
0
  6
CONTINUOUS
100
AcDbLine
 10
13.39509276772158
 20
5.521569994029786
 30
0.0
 11
10.81938524622531
 21
8.097277515526056
 31
0.0
  0
LINE
  5
23D0B
330
23CD6
100
AcDbEntity
  8
0
  6
CONTINUOUS
100
AcDbLine
 10
18.95798597883369
 20
0.6321959919978686
 30
0.0
 11
17.84825644852853
 21
1.741925522303024
 31
0.0
  0
LINE
  5
23D0C
330
23CD6
100
AcDbEntity
  8
0
  6
CONTINUOUS
100
AcDbLine
 10
19.15756672960882
 20
1.106134450302922
 30
0.0
 11
17.44267562040888
 21
2.821025559502861
 31
0.0
  0
LINE
  5
23D0D
330
23CD6
100
AcDbEntity
  8
0
  6
CONTINUOUS
100
AcDbLine
 10
15.83146234993604
 20
3.758719620895513
 30
0.0
 11
14.85691305207612
 21
4.733268918755439
 31
0.0
  0
LINE
  5
23D0E
330
23CD6
100
AcDbEntity
  8
0
  6
CONTINUOUS
100
AcDbLine
 10
16.01551512670025
 20
4.248186053211494
 30
0.0
 11
15.04094222313957
 21
5.222758956772172
 31
0.0
  0
LINE
  5
23D0F
330
23CD6
100
AcDbEntity
  8
0
  6
CONTINUOUS
100
AcDbLine
 10
12.90511304310612
 20
6.685068927725435
 30
0.0
 11
10.8270819708403
 21
8.763099999991255
 31
0.0
  0
LINE
  5
23D10
330
23CD6
100
AcDbEntity
  8
0
  6
CONTINUOUS
100
AcDbLine
 10
12.41513331849066
 20
7.848567861421083
 30
0.0
 11
11.50060117992049
 21
8.763099999991255
 31
0.0
  0
LINE
  5
23D11
330
23CD6
100
AcDbEntity
  8
0
  6
CONTINUOUS
100
AcDbLine
 10
19.35714748038395
 20
1.580072908607975
 30
0.0
 11
17.03709479228923
 21
3.900125596702697
 31
0.0
  0
LINE
  5
23D12
330
23CD6
100
AcDbEntity
  8
0
  6
CONTINUOUS
100
AcDbLine
 10
19.55672823115909
 20
2.054011366913028
 30
0.0
 11
16.63151396416958
 21
4.979225633902534
 31
0.0
  0
LINE
  5
23D13
330
23CD6
100
AcDbEntity
  8
0
  6
CONTINUOUS
100
AcDbLine
 10
16.19956790346445
 20
4.737652485527476
 30
0.0
 11
15.22497139420302
 21
5.712248994788904
 31
0.0
  0
LINE
  5
23D14
330
23CD6
100
AcDbEntity
  8
0
  6
CONTINUOUS
100
AcDbLine
 10
16.38362068022866
 20
5.227118917843457
 30
0.0
 11
15.40900056526648
 21
6.201739032805637
 31
0.0
  0
LINE
  5
23D15
330
23CD6
100
AcDbEntity
  8
0
  6
CONTINUOUS
100
AcDbLine
 10
19.75630898193422
 20
2.527949825218081
 30
0.0
 11
18.70774536448286
 21
3.576513442669441
 31
0.0
  0
LINE
  5
23D16
330
23CD6
100
AcDbEntity
  8
0
  6
CONTINUOUS
100
AcDbLine
 10
19.95588973270936
 20
3.001888283523134
 30
0.0
 11
18.90726987211446
 21
4.050508144118028
 31
0.0
  0
LINE
  5
23D17
330
23CD6
100
AcDbEntity
  8
0
  6
CONTINUOUS
100
AcDbLine
 10
20.15547048348449
 20
3.475826741828186
 30
0.0
 11
19.10679437974606
 21
4.524502845566614
 31
0.0
  0
LINE
  5
23D18
330
23CD6
100
AcDbEntity
  8
0
  6
CONTINUOUS
100
AcDbLine
 10
20.35505123425962
 20
3.94976520013324
 30
0.0
 11
19.30631888737766
 21
4.998497547015201
 31
0.0
  0
LINE
  5
23D19
330
23CD6
100
AcDbEntity
  8
0
  6
CONTINUOUS
100
AcDbLine
 10
20.55463198503475
 20
4.423703658438292
 30
0.0
 11
19.50584339500926
 21
5.472492248463787
 31
0.0
  0
LINE
  5
23D1A
330
23CD6
100
AcDbEntity
  8
0
  6
CONTINUOUS
100
AcDbLine
 10
18.37481191085755
 20
3.909446896294752
 30
0.0
 11
15.59302973632993
 21
6.691229070822371
 31
0.0
  0
LINE
  5
23D1B
330
23CD6
100
AcDbEntity
  8
0
  6
CONTINUOUS
100
AcDbLine
 10
17.96904084440766
 20
4.988737171824825
 30
0.0
 11
15.77705890739338
 21
7.180719108839104
 31
0.0
  0
LINE
  5
23D1C
330
23CD6
100
AcDbEntity
  8
0
  6
CONTINUOUS
100
AcDbLine
 10
17.56326977795777
 20
6.068027447354899
 30
0.0
 11
15.96108807845684
 21
7.670209146855838
 31
0.0
  0
LINE
  5
23D1D
330
23CD6
100
AcDbEntity
  8
0
  6
CONTINUOUS
100
AcDbLine
 10
17.15749871150789
 20
7.147317722884972
 30
0.0
 11
16.14511724952029
 21
8.15969918487257
 31
0.0
  0
LINE
  5
23D1E
330
23CD6
100
AcDbEntity
  8
0
  6
CONTINUOUS
100
AcDbLine
 10
16.751727645058
 20
8.226607998415046
 30
0.0
 11
16.32914642058374
 21
8.649189222889303
 31
0.0
  0
LINE
  5
23D1F
330
23CD6
100
AcDbEntity
  8
0
  6
CONTINUOUS
100
AcDbLine
 10
20.75421273580989
 20
4.897642116743345
 30
0.0
 11
19.70536790264086
 21
5.946486949912374
 31
0.0
  0
LINE
  5
23D20
330
23CD6
100
AcDbEntity
  8
0
  6
CONTINUOUS
100
AcDbLine
 10
20.95379348658502
 20
5.371580575048398
 30
0.0
 11
19.90489241027246
 21
6.42048165136096
 31
0.0
  0
LINE
  5
23D21
330
23CD6
100
AcDbEntity
  8
0
  6
CONTINUOUS
100
AcDbLine
 10
21.15337423736015
 20
5.845519033353452
 30
0.0
 11
20.10441691790406
 21
6.894476352809547
 31
0.0
  0
LINE
  5
23D22
330
23CD6
100
AcDbEntity
  8
0
  6
CONTINUOUS
100
AcDbLine
 10
21.35295498813529
 20
6.319457491658505
 30
0.0
 11
20.30394142553566
 21
7.368471054258134
 31
0.0
  0
LINE
  5
23D23
330
23CD6
100
AcDbEntity
  8
0
  6
CONTINUOUS
100
AcDbLine
 10
21.55253573891042
 20
6.793395949963558
 30
0.0
 11
20.50346593316726
 21
7.842465755706721
 31
0.0
  0
LINE
  5
23D24
330
23CD6
100
AcDbEntity
  8
0
  6
CONTINUOUS
100
AcDbLine
 10
21.75211648968556
 20
7.267334408268612
 30
0.0
 11
20.70299044079886
 21
8.316460457155308
 31
0.0
  0
LINE
  5
23D25
330
23CD6
100
AcDbEntity
  8
0
  6
CONTINUOUS
100
AcDbLine
 10
21.95169724046069
 20
7.741272866573663
 30
0.0
 11
20.9298701070431
 21
8.763099999991256
 31
0.0
  0
LINE
  5
23D26
330
23CD6
100
AcDbEntity
  8
0
  6
CONTINUOUS
100
AcDbLine
 10
22.15127799123582
 20
8.215211324878716
 30
0.0
 11
21.60338931612328
 21
8.763099999991256
 31
0.0
  0
LINE
  5
23D27
330
23CD6
100
AcDbEntity
  8
0
  6
CONTINUOUS
100
AcDbLine
 10
22.35085874201096
 20
8.689149783183769
 30
0.0
 11
22.27690852520347
 21
8.763099999991255
 31
0.0
  0
ENDBLK
  5
23E19
330
23CD6
100
AcDbEntity
  8
0
100
AcDbBlockEnd
  0
BLOCK
  5
23E1A
330
23D28
100
AcDbEntity
  8
0
100
AcDbBlockBegin
  2
*X50
 70
     1
 10
0.0
 20
0.0
 30
0.0
  3
*X50
  1

  0
LINE
  5
23D29
330
23D28
100
AcDbEntity
  8
0
  6
CONTINUOUS
100
AcDbLine
 10
23.19462913593892
 20
8.169917934846424
 30
0.0
 11
23.70775465517246
 21
8.683043454079957
 31
0.0
  0
LINE
  5
23D2A
330
23D28
100
AcDbEntity
  8
0
  6
CONTINUOUS
100
AcDbLine
 10
22.64923161835078
 20
6.951001208178088
 30
0.0
 11
23.9159364069932
 21
8.217705996820516
 31
0.0
  0
LINE
  5
23D2B
330
23D28
100
AcDbEntity
  8
0
  6
CONTINUOUS
100
AcDbLine
 10
22.10383410076263
 20
5.732084481509751
 30
0.0
 11
24.12411815881395
 21
7.752368539561078
 31
0.0
  0
LINE
  5
23D2C
330
23D28
100
AcDbEntity
  8
0
  6
CONTINUOUS
100
AcDbLine
 10
21.55843658317447
 20
4.513167754841414
 30
0.0
 11
24.3322999106347
 21
7.287031082301639
 31
0.0
  0
LINE
  5
23D2D
330
23D28
100
AcDbEntity
  8
0
  6
CONTINUOUS
100
AcDbLine
 10
21.01303906558632
 20
3.294251028173077
 30
0.0
 11
24.54048166245544
 21
6.821693625042199
 31
0.0
  0
LINE
  5
23D2E
330
23D28
100
AcDbEntity
  8
0
  6
CONTINUOUS
100
AcDbLine
 10
20.46764154799817
 20
2.075334301504738
 30
0.0
 11
23.28571549467848
 21
4.89340824818505
 31
0.0
  0
LINE
  5
23D2F
330
23D28
100
AcDbEntity
  8
0
  6
CONTINUOUS
100
AcDbLine
 10
19.92224403041002
 20
0.8564175748364002
 30
0.0
 11
22.74075865492779
 21
3.674932199354171
 31
0.0
  0
LINE
  5
23D30
330
23D28
100
AcDbEntity
  8
0
  6
CONTINUOUS
100
AcDbLine
 10
23.67305085490148
 20
5.280743608408048
 30
0.0
 11
24.74866341427619
 21
6.356356167782759
 31
0.0
  0
LINE
  5
23D31
330
23D28
100
AcDbEntity
  8
0
  6
CONTINUOUS
100
AcDbLine
 10
23.88118970842314
 20
4.815363252849522
 30
0.0
 11
24.95684516609694
 21
5.89101871052332
 31
0.0
  0
LINE
  5
23D32
330
23D28
100
AcDbEntity
  8
0
  6
CONTINUOUS
100
AcDbLine
 10
19.73925852647308
 20
-0.0000871381807288
 30
0.0
 11
23.4103456646501
 21
3.670999999996297
 31
0.0
  0
LINE
  5
23D33
330
23D28
100
AcDbEntity
  8
0
  6
CONTINUOUS
100
AcDbLine
 10
24.0893285619448
 20
4.349982897290997
 30
0.0
 11
25.16502691791769
 21
5.42568125326388
 31
0.0
  0
LINE
  5
23D34
330
23D28
100
AcDbEntity
  8
0
  6
CONTINUOUS
100
AcDbLine
 10
20.41282099582748
 20
-0.0000438779065108
 30
0.0
 11
21.64944178675636
 21
1.236576913022366
 31
0.0
  0
LINE
  5
23D35
330
23D28
100
AcDbEntity
  8
0
  6
CONTINUOUS
100
AcDbLine
 10
22.78126487373161
 20
2.36839999999762
 30
0.0
 11
24.08386487373029
 21
3.670999999996297
 31
0.0
  0
LINE
  5
23D36
330
23D28
100
AcDbEntity
  8
0
  6
CONTINUOUS
100
AcDbLine
 10
24.29746741546646
 20
3.884602541732471
 30
0.0
 11
25.37320866973843
 21
4.960343796004441
 31
0.0
  0
LINE
  5
23D37
330
23D28
100
AcDbEntity
  8
0
  6
CONTINUOUS
100
AcDbLine
 10
21.08638346518189
 20
-0.0000006176322938
 30
0.0
 11
21.10379033335899
 21
0.0174062505448083
 31
0.0
  0
LINE
  5
23D38
330
23D28
100
AcDbEntity
  8
0
  6
CONTINUOUS
100
AcDbLine
 10
23.4547840828118
 20
2.36839999999762
 30
0.0
 11
25.58139042155918
 21
4.495006338745002
 31
0.0
  0
LINE
  5
23D39
330
23D28
100
AcDbEntity
  8
0
  6
CONTINUOUS
100
AcDbLine
 10
29.30199999996933
 20
8.215615917155148
 30
0.0
 11
29.84948408280543
 21
8.763099999991255
 31
0.0
  0
LINE
  5
23D3A
330
23D28
100
AcDbEntity
  8
0
  6
CONTINUOUS
100
AcDbLine
 10
24.12830329189199
 20
2.36839999999762
 30
0.0
 11
25.78957217337993
 21
4.029668881485562
 31
0.0
  0
LINE
  5
23D3B
330
23D28
100
AcDbEntity
  8
0
  6
CONTINUOUS
100
AcDbLine
 10
29.30199999996933
 20
7.54209670807496
 30
0.0
 11
30.52300329188562
 21
8.763099999991255
 31
0.0
  0
LINE
  5
23D3C
330
23D28
100
AcDbEntity
  8
0
  6
CONTINUOUS
100
AcDbLine
 10
24.80182250097217
 20
2.36839999999762
 30
0.0
 11
25.99775392520067
 21
3.564331424226122
 31
0.0
  0
LINE
  5
23D3D
330
23D28
100
AcDbEntity
  8
0
  6
CONTINUOUS
100
AcDbLine
 10
29.30199999996933
 20
6.868577498994774
 30
0.0
 11
30.74199999996926
 21
8.308577498994712
 31
0.0
  0
LINE
  5
23D3E
330
23D28
100
AcDbEntity
  8
0
  6
CONTINUOUS
100
AcDbLine
 10
25.13028238392013
 20
2.023340673865392
 30
0.0
 11
26.20593567702142
 21
3.098993966966683
 31
0.0
  0
LINE
  5
23D3F
330
23D28
100
AcDbEntity
  8
0
  6
CONTINUOUS
100
AcDbLine
 10
25.33838066033617
 20
1.557919741201244
 30
0.0
 11
26.41411742884217
 21
2.633656509707244
 31
0.0
  0
LINE
  5
23D40
330
23D28
100
AcDbEntity
  8
0
  6
CONTINUOUS
100
AcDbLine
 10
25.54647893675221
 20
1.092498808537098
 30
0.0
 11
26.62229918066291
 21
2.168319052447804
 31
0.0
  0
LINE
  5
23D41
330
23D28
100
AcDbEntity
  8
0
  6
CONTINUOUS
100
AcDbLine
 10
25.75457721316825
 20
0.62707787587295
 30
0.0
 11
26.83048093248366
 21
1.702981595188365
 31
0.0
  0
LINE
  5
23D42
330
23D28
100
AcDbEntity
  8
0
  6
CONTINUOUS
100
AcDbLine
 10
29.30199999996933
 20
6.195058289914587
 30
0.0
 11
30.74199999996926
 21
7.635058289914522
 31
0.0
  0
LINE
  5
23D43
330
23D28
100
AcDbEntity
  8
0
  6
CONTINUOUS
100
AcDbLine
 10
29.30199999996933
 20
5.521539080834401
 30
0.0
 11
30.74199999996926
 21
6.961539080834331
 31
0.0
  0
LINE
  5
23D44
330
23D28
100
AcDbEntity
  8
0
  6
CONTINUOUS
100
AcDbLine
 10
29.30199999996933
 20
4.848019871754214
 30
0.0
 11
30.74199999996925
 21
6.288019871754143
 31
0.0
  0
LINE
  5
23D45
330
23D28
100
AcDbEntity
  8
0
  6
CONTINUOUS
100
AcDbLine
 10
29.30199999996933
 20
4.174500662674028
 30
0.0
 11
30.74199999996925
 21
5.614500662673953
 31
0.0
  0
LINE
  5
23D46
330
23D28
100
AcDbEntity
  8
0
  6
CONTINUOUS
100
AcDbLine
 10
25.96267548958429
 20
0.1616569432088024
 30
0.0
 11
27.18411854636669
 21
1.383099999991207
 31
0.0
  0
LINE
  5
23D47
330
23D28
100
AcDbEntity
  8
0
  6
CONTINUOUS
100
AcDbLine
 10
29.30199999996933
 20
3.500981453593841
 30
0.0
 11
30.74199999996925
 21
4.940981453593762
 31
0.0
  0
LINE
  5
23D48
330
23D28
100
AcDbEntity
  8
0
  6
CONTINUOUS
100
AcDbLine
 10
26.50763775544691
 20
0.0330999999912356
 30
0.0
 11
27.85763775544689
 21
1.383099999991223
 31
0.0
  0
LINE
  5
23D49
330
23D28
100
AcDbEntity
  8
0
  6
CONTINUOUS
100
AcDbLine
 10
29.30199999996933
 20
2.827462244513656
 30
0.0
 11
30.74199999996925
 21
4.267462244513574
 31
0.0
  0
LINE
  5
23D4A
330
23D28
100
AcDbEntity
  8
0
  6
CONTINUOUS
100
AcDbLine
 10
27.18115696452709
 20
0.0330999999912356
 30
0.0
 11
28.55073879889363
 21
1.402681834357775
 31
0.0
  0
LINE
  5
23D4B
330
23D28
100
AcDbEntity
  8
0
  6
CONTINUOUS
100
AcDbLine
 10
29.28241816560272
 20
2.134361201066866
 30
0.0
 11
30.74199999996924
 21
3.593943035433383
 31
0.0
  0
LINE
  5
23D4C
330
23D28
100
AcDbEntity
  8
0
  6
CONTINUOUS
100
AcDbLine
 10
27.85467617360728
 20
0.0330999999912356
 30
0.0
 11
30.74199999996924
 21
2.920423826353195
 31
0.0
  0
LINE
  5
23D4D
330
23D28
100
AcDbEntity
  8
0
  6
CONTINUOUS
100
AcDbLine
 10
28.53897559587887
 20
0.0438802131826428
 30
0.0
 11
30.73121978677781
 21
2.236124404081585
 31
0.0
  0
LINE
  5
23D4E
330
23D28
100
AcDbEntity
  8
0
  6
CONTINUOUS
100
AcDbLine
 10
29.45140055588722
 20
0.2827859641107988
 30
0.0
 11
30.49231403584965
 21
1.323699444073236
 31
0.0
  0
LINE
  5
23D4F
330
23D28
100
AcDbEntity
  8
0
  6
CONTINUOUS
100
AcDbLine
 10
19.59027867740337
 20
-0.0000967065718083
 30
0.0
 11
19.55485265190471
 21
0.035329318926844
 31
0.0
  0
LINE
  5
23D50
330
23D28
100
AcDbEntity
  8
0
  6
CONTINUOUS
100
AcDbLine
 10
20.26375463176586
 20
-0.0000534518541091
 30
0.0
 11
19.76305575737534
 21
0.5006454225364014
 31
0.0
  0
LINE
  5
23D51
330
23D28
100
AcDbEntity
  8
0
  6
CONTINUOUS
100
AcDbLine
 10
20.93723058612834
 20
-0.0000101971364099
 30
0.0
 11
19.97125886284597
 21
0.965961526145958
 31
0.0
  0
LINE
  5
23D52
330
23D28
100
AcDbEntity
  8
0
  6
CONTINUOUS
100
AcDbLine
 10
21.25514828313686
 20
0.355591314935257
 30
0.0
 11
20.1794619683166
 21
1.431277629755512
 31
0.0
  0
LINE
  5
23D53
330
23D28
100
AcDbEntity
  8
0
  6
CONTINUOUS
100
AcDbLine
 10
21.46338838394921
 20
0.8208704232030986
 30
0.0
 11
20.38766507378723
 21
1.896593733365069
 31
0.0
  0
LINE
  5
23D54
330
23D28
100
AcDbEntity
  8
0
  6
CONTINUOUS
100
AcDbLine
 10
21.67162848476155
 20
1.28614953147094
 30
0.0
 11
20.59586817925786
 21
2.361909836974626
 31
0.0
  0
LINE
  5
23D55
330
23D28
100
AcDbEntity
  8
0
  6
CONTINUOUS
100
AcDbLine
 10
21.8798685855739
 20
1.751428639738782
 30
0.0
 11
20.80407128472849
 21
2.827225940584183
 31
0.0
  0
LINE
  5
23D56
330
23D28
100
AcDbEntity
  8
0
  6
CONTINUOUS
100
AcDbLine
 10
22.08810868638624
 20
2.216707748006623
 30
0.0
 11
21.01227439019912
 21
3.292542044193739
 31
0.0
  0
LINE
  5
23D57
330
23D28
100
AcDbEntity
  8
0
  6
CONTINUOUS
100
AcDbLine
 10
22.60993564347543
 20
2.36839999999762
 30
0.0
 11
21.22047749566975
 21
3.757858147803296
 31
0.0
  0
LINE
  5
23D58
330
23D28
100
AcDbEntity
  8
0
  6
CONTINUOUS
100
AcDbLine
 10
23.28345485255561
 20
2.36839999999762
 30
0.0
 11
21.42868060114038
 21
4.223174251412853
 31
0.0
  0
LINE
  5
23D59
330
23D28
100
AcDbEntity
  8
0
  6
CONTINUOUS
100
AcDbLine
 10
26.29227406164219
 20
0.0330999999912356
 30
0.0
 11
25.80009199592872
 21
0.5252820657046957
 31
0.0
  0
LINE
  5
23D5A
330
23D28
100
AcDbEntity
  8
0
  6
CONTINUOUS
100
AcDbLine
 10
23.9569740616358
 20
2.36839999999762
 30
0.0
 11
21.63688370661101
 21
4.688490355022409
 31
0.0
  0
LINE
  5
23D5B
330
23D28
100
AcDbEntity
  8
0
  6
CONTINUOUS
100
AcDbLine
 10
26.96579327072237
 20
0.0330999999912356
 30
0.0
 11
25.2554132311971
 21
1.743480039516508
 31
0.0
  0
LINE
  5
23D5C
330
23D28
100
AcDbEntity
  8
0
  6
CONTINUOUS
100
AcDbLine
 10
24.63049327071599
 20
2.36839999999762
 30
0.0
 11
23.32789327071731
 21
3.670999999996297
 31
0.0
  0
LINE
  5
23D5D
330
23D28
100
AcDbEntity
  8
0
  6
CONTINUOUS
100
AcDbLine
 10
22.92098674744635
 20
4.077906523267254
 30
0.0
 11
21.84508681208164
 21
5.153806458631966
 31
0.0
  0
LINE
  5
23D5E
330
23D28
100
AcDbEntity
  8
0
  6
CONTINUOUS
100
AcDbLine
 10
27.63931247980256
 20
0.0330999999912356
 30
0.0
 11
24.0014124797975
 21
3.670999999996297
 31
0.0
  0
LINE
  5
23D5F
330
23D28
100
AcDbEntity
  8
0
  6
CONTINUOUS
100
AcDbLine
 10
23.129125600968
 20
4.5432868788258
 30
0.0
 11
22.05328991755227
 21
5.619122562241522
 31
0.0
  0
LINE
  5
23D60
330
23D28
100
AcDbEntity
  8
0
  6
CONTINUOUS
100
AcDbLine
 10
28.31283168888275
 20
0.0330999999912356
 30
0.0
 11
24.16488385994816
 21
4.181047828925828
 31
0.0
  0
LINE
  5
23D61
330
23D28
100
AcDbEntity
  8
0
  6
CONTINUOUS
100
AcDbLine
 10
23.33726445448964
 20
5.008667234384345
 30
0.0
 11
22.2614930230229
 21
6.084438665851079
 31
0.0
  0
LINE
  5
23D62
330
23D28
100
AcDbEntity
  8
0
  6
CONTINUOUS
100
AcDbLine
 10
28.92085740005492
 20
0.0985934978992438
 30
0.0
 11
27.63635089796295
 21
1.383099999991217
 31
0.0
  0
LINE
  5
23D63
330
23D28
100
AcDbEntity
  8
0
  6
CONTINUOUS
100
AcDbLine
 10
26.43704649509776
 20
2.582404402856405
 30
0.0
 11
23.61992702019732
 21
5.399523877756844
 31
0.0
  0
LINE
  5
23D64
330
23D28
100
AcDbEntity
  8
0
  6
CONTINUOUS
100
AcDbLine
 10
23.54540330801128
 20
5.47404758994289
 30
0.0
 11
22.46969612849353
 21
6.549754769460635
 31
0.0
  0
LINE
  5
23D65
330
23D28
100
AcDbEntity
  8
0
  6
CONTINUOUS
100
AcDbLine
 10
29.42225615078443
 20
0.2707139562499279
 30
0.0
 11
28.30987010704312
 21
1.383099999991234
 31
0.0
  0
LINE
  5
23D66
330
23D28
100
AcDbEntity
  8
0
  6
CONTINUOUS
100
AcDbLine
 10
25.89179548232307
 20
3.801174624711282
 30
0.0
 11
22.67789923396416
 21
7.015070873070191
 31
0.0
  0
LINE
  5
23D67
330
23D28
100
AcDbEntity
  8
0
  6
CONTINUOUS
100
AcDbLine
 10
29.83624534690007
 20
0.5302439692144705
 30
0.0
 11
28.85811781497101
 21
1.508371501143527
 31
0.0
  0
LINE
  5
23D68
330
23D28
100
AcDbEntity
  8
0
  6
CONTINUOUS
100
AcDbLine
 10
25.34654446954838
 20
5.01994484656616
 30
0.0
 11
22.88610233943479
 21
7.480386976679748
 31
0.0
  0
LINE
  5
23D69
330
23D28
100
AcDbEntity
  8
0
  6
CONTINUOUS
100
AcDbLine
 10
30.17865975401872
 20
0.8613487711760022
 30
0.0
 11
29.18888744090175
 21
1.851121084292977
 31
0.0
  0
LINE
  5
23D6A
330
23D28
100
AcDbEntity
  8
0
  6
CONTINUOUS
100
AcDbLine
 10
24.80129345677369
 20
6.238715068421037
 30
0.0
 11
23.09430544490542
 21
7.945703080289305
 31
0.0
  0
LINE
  5
23D6B
330
23D28
100
AcDbEntity
  8
0
  6
CONTINUOUS
100
AcDbLine
 10
30.45496647202376
 20
1.258561262251155
 30
0.0
 11
29.30199999996933
 21
2.411527734305588
 31
0.0
  0
LINE
  5
23D6C
330
23D28
100
AcDbEntity
  8
0
  6
CONTINUOUS
100
AcDbLine
 10
24.256042443999
 20
7.457485290275915
 30
0.0
 11
23.30250855037605
 21
8.411019183898862
 31
0.0
  0
LINE
  5
23D6D
330
23D28
100
AcDbEntity
  8
0
  6
CONTINUOUS
100
AcDbLine
 10
30.64868582078271
 20
1.738361122572387
 30
0.0
 11
29.30199999996933
 21
3.085046943385775
 31
0.0
  0
LINE
  5
23D6E
330
23D28
100
AcDbEntity
  8
0
  6
CONTINUOUS
100
AcDbLine
 10
23.71079143122431
 20
8.676255512130794
 30
0.0
 11
23.51071165584668
 21
8.876335287508416
 31
0.0
  0
LINE
  5
23D6F
330
23D28
100
AcDbEntity
  8
0
  6
CONTINUOUS
100
AcDbLine
 10
30.73802122914428
 20
2.322544923291007
 30
0.0
 11
29.30199999996933
 21
3.758566152465961
 31
0.0
  0
LINE
  5
23D70
330
23D28
100
AcDbEntity
  8
0
  6
CONTINUOUS
100
AcDbLine
 10
30.74199999996924
 20
2.992085361546236
 30
0.0
 11
29.30199999996933
 21
4.432085361546148
 31
0.0
  0
LINE
  5
23D71
330
23D28
100
AcDbEntity
  8
0
  6
CONTINUOUS
100
AcDbLine
 10
30.74199999996924
 20
3.665604570626419
 30
0.0
 11
29.30199999996933
 21
5.105604570626333
 31
0.0
  0
LINE
  5
23D72
330
23D28
100
AcDbEntity
  8
0
  6
CONTINUOUS
100
AcDbLine
 10
30.74199999996925
 20
4.339123779706602
 30
0.0
 11
29.30199999996933
 21
5.77912377970652
 31
0.0
  0
LINE
  5
23D73
330
23D28
100
AcDbEntity
  8
0
  6
CONTINUOUS
100
AcDbLine
 10
30.74199999996925
 20
5.012642988786785
 30
0.0
 11
29.30199999996933
 21
6.452642988786707
 31
0.0
  0
LINE
  5
23D74
330
23D28
100
AcDbEntity
  8
0
  6
CONTINUOUS
100
AcDbLine
 10
30.74199999996925
 20
5.68616219786697
 30
0.0
 11
29.30199999996933
 21
7.126162197866894
 31
0.0
  0
LINE
  5
23D75
330
23D28
100
AcDbEntity
  8
0
  6
CONTINUOUS
100
AcDbLine
 10
30.74199999996925
 20
6.359681406947153
 30
0.0
 11
29.30199999996933
 21
7.799681406947081
 31
0.0
  0
LINE
  5
23D76
330
23D28
100
AcDbEntity
  8
0
  6
CONTINUOUS
100
AcDbLine
 10
30.74199999996926
 20
7.033200616027337
 30
0.0
 11
29.30199999996933
 21
8.473200616027269
 31
0.0
  0
LINE
  5
23D77
330
23D28
100
AcDbEntity
  8
0
  6
CONTINUOUS
100
AcDbLine
 10
30.74199999996926
 20
7.706719825107518
 30
0.0
 11
29.68561982508552
 21
8.763099999991255
 31
0.0
  0
LINE
  5
23D78
330
23D28
100
AcDbEntity
  8
0
  6
CONTINUOUS
100
AcDbLine
 10
30.74199999996926
 20
8.380239034187703
 30
0.0
 11
30.35913903416571
 21
8.763099999991255
 31
0.0
  0
ENDBLK
  5
23E1B
330
23D28
100
AcDbEntity
  8
0
100
AcDbBlockEnd
  0
BLOCK
  5
23E1C
330
23D79
100
AcDbEntity
  8
0
100
AcDbBlockBegin
  2
*X51
 70
     1
 10
0.0
 20
0.0
 30
0.0
  3
*X51
  1

  0
LINE
  5
23D7A
330
23D79
100
AcDbEntity
  8
0
  6
CONTINUOUS
100
AcDbLine
 10
31.64199999996833
 20
8.535058289913598
 30
0.0
 11
31.87004171004599
 21
8.763099999991255
 31
0.0
  0
LINE
  5
23D7B
330
23D79
100
AcDbEntity
  8
0
  6
CONTINUOUS
100
AcDbLine
 10
31.64199999996833
 20
7.861539080833412
 30
0.0
 11
32.54356091912618
 21
8.763099999991255
 31
0.0
  0
LINE
  5
23D7C
330
23D79
100
AcDbEntity
  8
0
  6
CONTINUOUS
100
AcDbLine
 10
31.64199999996833
 20
7.188019871753226
 30
0.0
 11
33.08199999996839
 21
8.628019871753281
 31
0.0
  0
LINE
  5
23D7D
330
23D79
100
AcDbEntity
  8
0
  6
CONTINUOUS
100
AcDbLine
 10
31.64199999996833
 20
6.51450066267304
 30
0.0
 11
33.08199999996839
 21
7.954500662673095
 31
0.0
  0
LINE
  5
23D7E
330
23D79
100
AcDbEntity
  8
0
  6
CONTINUOUS
100
AcDbLine
 10
31.64199999996833
 20
5.840981453592853
 30
0.0
 11
33.08199999996839
 21
7.280981453592908
 31
0.0
  0
LINE
  5
23D7F
330
23D79
100
AcDbEntity
  8
0
  6
CONTINUOUS
100
AcDbLine
 10
31.64199999996833
 20
5.167462244512667
 30
0.0
 11
33.08199999996839
 21
6.607462244512721
 31
0.0
  0
LINE
  5
23D80
330
23D79
100
AcDbEntity
  8
0
  6
CONTINUOUS
100
AcDbLine
 10
31.64199999996833
 20
4.493943035432481
 30
0.0
 11
33.08199999996839
 21
5.933943035432535
 31
0.0
  0
LINE
  5
23D81
330
23D79
100
AcDbEntity
  8
0
  6
CONTINUOUS
100
AcDbLine
 10
31.64199999996833
 20
3.820423826352293
 30
0.0
 11
33.08199999996839
 21
5.260423826352348
 31
0.0
  0
LINE
  5
23D82
330
23D79
100
AcDbEntity
  8
0
  6
CONTINUOUS
100
AcDbLine
 10
31.64199999996833
 20
3.146904617272106
 30
0.0
 11
33.08199999996839
 21
4.586904617272161
 31
0.0
  0
LINE
  5
23D83
330
23D79
100
AcDbEntity
  8
0
  6
CONTINUOUS
100
AcDbLine
 10
36.23199999996837
 20
8.410423826352325
 30
0.0
 11
36.5846761736073
 21
8.763099999991255
 31
0.0
  0
LINE
  5
23D84
330
23D79
100
AcDbEntity
  8
0
  6
CONTINUOUS
100
AcDbLine
 10
36.23199999996837
 20
7.73690461727214
 30
0.0
 11
37.25819538268748
 21
8.763099999991255
 31
0.0
  0
LINE
  5
23D85
330
23D79
100
AcDbEntity
  8
0
  6
CONTINUOUS
100
AcDbLine
 10
31.64257403601376
 20
2.473959444237348
 30
0.0
 11
33.08199999996839
 21
3.913385408191974
 31
0.0
  0
LINE
  5
23D86
330
23D79
100
AcDbEntity
  8
0
  6
CONTINUOUS
100
AcDbLine
 10
36.23199999996837
 20
7.063385408191953
 30
0.0
 11
37.67199999996831
 21
8.503385408191894
 31
0.0
  0
LINE
  5
23D87
330
23D79
100
AcDbEntity
  8
0
  6
CONTINUOUS
100
AcDbLine
 10
31.72013636841932
 20
1.87800256756272
 30
0.0
 11
33.08199999996839
 21
3.239866199111788
 31
0.0
  0
LINE
  5
23D88
330
23D79
100
AcDbEntity
  8
0
  6
CONTINUOUS
100
AcDbLine
 10
36.23199999996837
 20
6.389866199111767
 30
0.0
 11
37.67199999996831
 21
7.829866199111708
 31
0.0
  0
LINE
  5
23D89
330
23D79
100
AcDbEntity
  8
0
  6
CONTINUOUS
100
AcDbLine
 10
31.89042734314753
 20
1.374774333210744
 30
0.0
 11
33.08199999996839
 21
2.566346990031601
 31
0.0
  0
LINE
  5
23D8A
330
23D79
100
AcDbEntity
  8
0
  6
CONTINUOUS
100
AcDbLine
 10
36.23199999996837
 20
5.71634699003158
 30
0.0
 11
37.67199999996831
 21
7.156346990031521
 31
0.0
  0
LINE
  5
23D8B
330
23D79
100
AcDbEntity
  8
0
  6
CONTINUOUS
100
AcDbLine
 10
32.14210568064475
 20
0.952933461627778
 30
0.0
 11
33.18745552475986
 21
1.998283305742888
 31
0.0
  0
LINE
  5
23D8C
330
23D79
100
AcDbEntity
  8
0
  6
CONTINUOUS
100
AcDbLine
 10
36.23199999996837
 20
5.042827780951393
 30
0.0
 11
37.67199999996831
 21
6.482827780951334
 31
0.0
  0
LINE
  5
23D8D
330
23D79
100
AcDbEntity
  8
0
  6
CONTINUOUS
100
AcDbLine
 10
32.45820639400955
 20
0.5955149659123915
 30
0.0
 11
33.47242681921943
 21
1.60973539112227
 31
0.0
  0
LINE
  5
23D8E
330
23D79
100
AcDbEntity
  8
0
  6
CONTINUOUS
100
AcDbLine
 10
36.23199999996837
 20
4.369308571871207
 30
0.0
 11
37.67199999996831
 21
5.809308571871147
 31
0.0
  0
LINE
  5
23D8F
330
23D79
100
AcDbEntity
  8
0
  6
CONTINUOUS
100
AcDbLine
 10
32.83432456621412
 20
0.2981139290367771
 30
0.0
 11
33.89722476612215
 21
1.361014128944803
 31
0.0
  0
LINE
  5
23D90
330
23D79
100
AcDbEntity
  8
0
  6
CONTINUOUS
100
AcDbLine
 10
36.23199999996837
 20
3.69578936279102
 30
0.0
 11
37.67199999996831
 21
5.135789362790962
 31
0.0
  0
LINE
  5
23D91
330
23D79
100
AcDbEntity
  8
0
  6
CONTINUOUS
100
AcDbLine
 10
33.2711633111245
 20
0.0614334648669672
 30
0.0
 11
34.43247338014423
 21
1.222743533886696
 31
0.0
  0
LINE
  5
23D92
330
23D79
100
AcDbEntity
  8
0
  6
CONTINUOUS
100
AcDbLine
 10
36.23199999996837
 20
3.022270153710834
 30
0.0
 11
37.67199999996831
 21
4.462270153710775
 31
0.0
  0
LINE
  5
23D93
330
23D79
100
AcDbEntity
  8
0
  6
CONTINUOUS
100
AcDbLine
 10
33.76515245874577
 20
-0.1180965965919523
 30
0.0
 11
35.1587445516215
 21
1.27549549628378
 31
0.0
  0
LINE
  5
23D94
330
23D79
100
AcDbEntity
  8
0
  6
CONTINUOUS
100
AcDbLine
 10
36.21639478609585
 20
2.333145730758136
 30
0.0
 11
37.67199999996831
 21
3.788750944630588
 31
0.0
  0
LINE
  5
23D95
330
23D79
100
AcDbEntity
  8
0
  6
CONTINUOUS
100
AcDbLine
 10
34.34060583368432
 20
-0.2161624307335863
 30
0.0
 11
37.67199999996831
 21
3.115231735550401
 31
0.0
  0
LINE
  5
23D96
330
23D79
100
AcDbEntity
  8
0
  6
CONTINUOUS
100
AcDbLine
 10
35.01698193613905
 20
-0.2133055373590427
 30
0.0
 11
37.66876712070525
 21
2.438479647207154
 31
0.0
  0
LINE
  5
23D97
330
23D79
100
AcDbEntity
  8
0
  6
CONTINUOUS
100
AcDbLine
 10
35.90743367693304
 20
0.0036269943547609
 30
0.0
 11
37.51723902192366
 21
1.613432339345381
 31
0.0
  0
LINE
  5
23D98
330
23D79
100
AcDbEntity
  8
0
  6
CONTINUOUS
100
AcDbLine
 10
32.55309425579761
 20
0.5074718966376706
 30
0.0
 11
32.27784730925847
 21
0.7827188431768102
 31
0.0
  0
LINE
  5
23D99
330
23D79
100
AcDbEntity
  8
0
  6
CONTINUOUS
100
AcDbLine
 10
33.87496468909684
 20
-0.1408793275813673
 30
0.0
 11
31.67993083278052
 21
2.054154528734943
 31
0.0
  0
LINE
  5
23D9A
330
23D79
100
AcDbEntity
  8
0
  6
CONTINUOUS
100
AcDbLine
 10
34.64362813207632
 20
-0.2360235614806649
 30
0.0
 11
31.64199999996833
 21
2.765604570627322
 31
0.0
  0
LINE
  5
23D9B
330
23D79
100
AcDbEntity
  8
0
  6
CONTINUOUS
100
AcDbLine
 10
35.25801106796118
 20
-0.1768872882853429
 30
0.0
 11
31.64199999996833
 21
3.439123779707508
 31
0.0
  0
LINE
  5
23D9C
330
23D79
100
AcDbEntity
  8
0
  6
CONTINUOUS
100
AcDbLine
 10
35.79065650332146
 20
-0.0360135145654361
 30
0.0
 11
34.54143210838231
 21
1.213210880373721
 31
0.0
  0
LINE
  5
23D9D
330
23D79
100
AcDbEntity
  8
0
  6
CONTINUOUS
100
AcDbLine
 10
33.08199999996839
 20
2.67264298878764
 30
0.0
 11
31.64199999996833
 21
4.112642988787695
 31
0.0
  0
LINE
  5
23D9E
330
23D79
100
AcDbEntity
  8
0
  6
CONTINUOUS
100
AcDbLine
 10
36.25975597779143
 20
0.1684062200447833
 30
0.0
 11
35.15395110240023
 21
1.274211095435983
 31
0.0
  0
LINE
  5
23D9F
330
23D79
100
AcDbEntity
  8
0
  6
CONTINUOUS
100
AcDbLine
 10
33.08199999996839
 20
3.346162197867826
 30
0.0
 11
31.64199999996833
 21
4.786162197867881
 31
0.0
  0
LINE
  5
23DA0
330
23D79
100
AcDbEntity
  8
0
  6
CONTINUOUS
100
AcDbLine
 10
36.67226329638774
 20
0.4294181105286579
 30
0.0
 11
35.63766478748767
 21
1.464016619428737
 31
0.0
  0
LINE
  5
23DA1
330
23D79
100
AcDbEntity
  8
0
  6
CONTINUOUS
100
AcDbLine
 10
33.08199999996839
 20
4.019681406948012
 30
0.0
 11
31.64199999996833
 21
5.459681406948068
 31
0.0
  0
LINE
  5
23DA2
330
23D79
100
AcDbEntity
  8
0
  6
CONTINUOUS
100
AcDbLine
 10
37.01677749710036
 20
0.7584231188962329
 30
0.0
 11
35.99563422741351
 21
1.779566388583076
 31
0.0
  0
LINE
  5
23DA3
330
23D79
100
AcDbEntity
  8
0
  6
CONTINUOUS
100
AcDbLine
 10
33.08199999996839
 20
4.693200616028199
 30
0.0
 11
31.64199999996833
 21
6.133200616028255
 31
0.0
  0
LINE
  5
23DA4
330
23D79
100
AcDbEntity
  8
0
  6
CONTINUOUS
100
AcDbLine
 10
37.29859977568887
 20
1.1501200493879
 30
0.0
 11
36.20680593341555
 21
2.241913891661226
 31
0.0
  0
LINE
  5
23DA5
330
23D79
100
AcDbEntity
  8
0
  6
CONTINUOUS
100
AcDbLine
 10
33.08199999996839
 20
5.366719825108386
 30
0.0
 11
31.64199999996833
 21
6.80671982510844
 31
0.0
  0
LINE
  5
23DA6
330
23D79
100
AcDbEntity
  8
0
  6
CONTINUOUS
100
AcDbLine
 10
37.5148623517228
 20
1.607376682434161
 30
0.0
 11
36.23199999996837
 21
2.890239034188594
 31
0.0
  0
LINE
  5
23DA7
330
23D79
100
AcDbEntity
  8
0
  6
CONTINUOUS
100
AcDbLine
 10
33.08199999996839
 20
6.040239034188573
 30
0.0
 11
31.64199999996833
 21
7.480239034188627
 31
0.0
  0
LINE
  5
23DA8
330
23D79
100
AcDbEntity
  8
0
  6
CONTINUOUS
100
AcDbLine
 10
37.64705163358367
 20
2.148706609653477
 30
0.0
 11
36.23199999996837
 21
3.56375824326878
 31
0.0
  0
LINE
  5
23DA9
330
23D79
100
AcDbEntity
  8
0
  6
CONTINUOUS
100
AcDbLine
 10
33.08199999996839
 20
6.713758243268758
 30
0.0
 11
31.64199999996833
 21
8.153758243268815
 31
0.0
  0
LINE
  5
23DAA
330
23D79
100
AcDbEntity
  8
0
  6
CONTINUOUS
100
AcDbLine
 10
37.67199999996831
 20
2.797277452349026
 30
0.0
 11
36.23199999996837
 21
4.237277452348967
 31
0.0
  0
LINE
  5
23DAB
330
23D79
100
AcDbEntity
  8
0
  6
CONTINUOUS
100
AcDbLine
 10
37.67199999996831
 20
3.470796661429213
 30
0.0
 11
36.23199999996837
 21
4.910796661429154
 31
0.0
  0
LINE
  5
23DAC
330
23D79
100
AcDbEntity
  8
0
  6
CONTINUOUS
100
AcDbLine
 10
37.67199999996831
 20
4.144315870509399
 30
0.0
 11
36.23199999996837
 21
5.58431587050934
 31
0.0
  0
LINE
  5
23DAD
330
23D79
100
AcDbEntity
  8
0
  6
CONTINUOUS
100
AcDbLine
 10
33.08199999996839
 20
7.387277452348945
 30
0.0
 11
31.70617745232608
 21
8.763099999991255
 31
0.0
  0
LINE
  5
23DAE
330
23D79
100
AcDbEntity
  8
0
  6
CONTINUOUS
100
AcDbLine
 10
33.08199999996839
 20
8.060796661429132
 30
0.0
 11
32.37969666140626
 21
8.763099999991255
 31
0.0
  0
LINE
  5
23DAF
330
23D79
100
AcDbEntity
  8
0
  6
CONTINUOUS
100
AcDbLine
 10
33.08199999996839
 20
8.734315870509318
 30
0.0
 11
33.05321587048645
 21
8.763099999991255
 31
0.0
  0
LINE
  5
23DB0
330
23D79
100
AcDbEntity
  8
0
  6
CONTINUOUS
100
AcDbLine
 10
37.67199999996831
 20
4.817835079589585
 30
0.0
 11
36.23199999996837
 21
6.257835079589526
 31
0.0
  0
LINE
  5
23DB1
330
23D79
100
AcDbEntity
  8
0
  6
CONTINUOUS
100
AcDbLine
 10
37.67199999996831
 20
5.491354288669771
 30
0.0
 11
36.23199999996837
 21
6.931354288669713
 31
0.0
  0
LINE
  5
23DB2
330
23D79
100
AcDbEntity
  8
0
  6
CONTINUOUS
100
AcDbLine
 10
37.67199999996831
 20
6.164873497749958
 30
0.0
 11
36.23199999996837
 21
7.6048734977499
 31
0.0
  0
LINE
  5
23DB3
330
23D79
100
AcDbEntity
  8
0
  6
CONTINUOUS
100
AcDbLine
 10
37.67199999996831
 20
6.838392706830144
 30
0.0
 11
36.23199999996837
 21
8.278392706830086
 31
0.0
  0
LINE
  5
23DB4
330
23D79
100
AcDbEntity
  8
0
  6
CONTINUOUS
100
AcDbLine
 10
37.67199999996831
 20
7.511911915910332
 30
0.0
 11
36.42081191588738
 21
8.763099999991255
 31
0.0
  0
LINE
  5
23DB5
330
23D79
100
AcDbEntity
  8
0
  6
CONTINUOUS
100
AcDbLine
 10
37.67199999996831
 20
8.185431124990519
 30
0.0
 11
37.09433112496757
 21
8.763099999991255
 31
0.0
  0
ENDBLK
  5
23E1D
330
23D79
100
AcDbEntity
  8
0
100
AcDbBlockEnd
  0
BLOCK
  5
23E1E
330
23DB6
100
AcDbEntity
  8
0
100
AcDbBlockBegin
  2
*X52
 70
     1
 10
0.0
 20
0.0
 30
0.0
  3
*X52
  1

  0
LINE
  5
23DB7
330
23DB6
100
AcDbEntity
  8
0
  6
CONTINUOUS
100
AcDbLine
 10
38.60499999996136
 20
8.762866199104765
 30
0.0
 11
38.71672554182345
 21
8.874591740966855
 31
0.0
  0
LINE
  5
23DB8
330
23DB6
100
AcDbEntity
  8
0
  6
CONTINUOUS
100
AcDbLine
 10
38.60499999996136
 20
8.089346990024577
 30
0.0
 11
39.03418785440363
 21
8.518534844466847
 31
0.0
  0
LINE
  5
23DB9
330
23DB6
100
AcDbEntity
  8
0
  6
CONTINUOUS
100
AcDbLine
 10
38.60499999996136
 20
7.41582778094439
 30
0.0
 11
39.35165016698382
 21
8.16247794796684
 31
0.0
  0
LINE
  5
23DBA
330
23DB6
100
AcDbEntity
  8
0
  6
CONTINUOUS
100
AcDbLine
 10
38.60499999996136
 20
6.742308571864204
 30
0.0
 11
39.66911247956399
 21
7.806421051466834
 31
0.0
  0
LINE
  5
23DBB
330
23DB6
100
AcDbEntity
  8
0
  6
CONTINUOUS
100
AcDbLine
 10
38.60499999996136
 20
6.068789362784018
 30
0.0
 11
39.98657479214418
 21
7.450364154966827
 31
0.0
  0
LINE
  5
23DBC
330
23DB6
100
AcDbEntity
  8
0
  6
CONTINUOUS
100
AcDbLine
 10
38.60499999996136
 20
5.395270153703832
 30
0.0
 11
40.30403710472435
 21
7.09430725846682
 31
0.0
  0
LINE
  5
23DBD
330
23DB6
100
AcDbEntity
  8
0
  6
CONTINUOUS
100
AcDbLine
 10
38.60499999996136
 20
4.721750944623645
 30
0.0
 11
40.62149941730453
 21
6.738250361966813
 31
0.0
  0
LINE
  5
23DBE
330
23DB6
100
AcDbEntity
  8
0
  6
CONTINUOUS
100
AcDbLine
 10
38.60499999996136
 20
4.048231735543458
 30
0.0
 11
40.93896172988471
 21
6.382193465466806
 31
0.0
  0
LINE
  5
23DBF
330
23DB6
100
AcDbEntity
  8
0
  6
CONTINUOUS
100
AcDbLine
 10
38.60499999996136
 20
3.374712526463272
 30
0.0
 11
40.02599999995994
 21
4.795712526461843
 31
0.0
  0
LINE
  5
23DC0
330
23DB6
100
AcDbEntity
  8
0
  6
CONTINUOUS
100
AcDbLine
 10
38.60499999996136
 20
2.701193317383085
 30
0.0
 11
40.02599999995994
 21
4.122193317381657
 31
0.0
  0
LINE
  5
23DC1
330
23DB6
100
AcDbEntity
  8
0
  6
CONTINUOUS
100
AcDbLine
 10
40.28339754687704
 20
5.053110073378947
 30
0.0
 11
41.25642404246489
 21
6.026136568966799
 31
0.0
  0
LINE
  5
23DC2
330
23DB6
100
AcDbEntity
  8
0
  6
CONTINUOUS
100
AcDbLine
 10
40.60085985945722
 20
4.697053176878939
 30
0.0
 11
41.57388635504507
 21
5.670079672466793
 31
0.0
  0
LINE
  5
23DC3
330
23DB6
100
AcDbEntity
  8
0
  6
CONTINUOUS
100
AcDbLine
 10
43.57899999995641
 20
8.348712526458318
 30
0.0
 11
43.99338747348935
 21
8.763099999991255
 31
0.0
  0
LINE
  5
23DC4
330
23DB6
100
AcDbEntity
  8
0
  6
CONTINUOUS
100
AcDbLine
 10
43.57899999995641
 20
7.675193317378131
 30
0.0
 11
44.66690668256953
 21
8.763099999991255
 31
0.0
  0
LINE
  5
23DC5
330
23DB6
100
AcDbEntity
  8
0
  6
CONTINUOUS
100
AcDbLine
 10
38.60499999996136
 20
2.027674108302898
 30
0.0
 11
40.02599999995994
 21
3.44867410830147
 31
0.0
  0
LINE
  5
23DC6
330
23DB6
100
AcDbEntity
  8
0
  6
CONTINUOUS
100
AcDbLine
 10
38.60499999996136
 20
1.354154899222712
 30
0.0
 11
40.02599999995994
 21
2.775154899221284
 31
0.0
  0
LINE
  5
23DC7
330
23DB6
100
AcDbEntity
  8
0
  6
CONTINUOUS
100
AcDbLine
 10
38.60499999996136
 20
0.6806356901425255
 30
0.0
 11
40.02599999995994
 21
2.101635690141098
 31
0.0
  0
LINE
  5
23DC8
330
23DB6
100
AcDbEntity
  8
0
  6
CONTINUOUS
100
AcDbLine
 10
38.60499999996136
 20
0.0071164810623383
 30
0.0
 11
40.02599999995994
 21
1.428116481060911
 31
0.0
  0
LINE
  5
23DC9
330
23DB6
100
AcDbEntity
  8
0
  6
CONTINUOUS
100
AcDbLine
 10
40.9183221720374
 20
4.340996280378933
 30
0.0
 11
41.89134866762525
 21
5.314022775966786
 31
0.0
  0
LINE
  5
23DCA
330
23DB6
100
AcDbEntity
  8
0
  6
CONTINUOUS
100
AcDbLine
 10
41.23578448461758
 20
3.984939383878926
 30
0.0
 11
42.20881098020543
 21
4.957965879466778
 31
0.0
  0
LINE
  5
23DCB
330
23DB6
100
AcDbEntity
  8
0
  6
CONTINUOUS
100
AcDbLine
 10
41.55324679719776
 20
3.628882487378919
 30
0.0
 11
42.52627329278561
 21
4.601908982966772
 31
0.0
  0
LINE
  5
23DCC
330
23DB6
100
AcDbEntity
  8
0
  6
CONTINUOUS
100
AcDbLine
 10
41.87070910977793
 20
3.272825590878912
 30
0.0
 11
42.84373560536579
 21
4.245852086466765
 31
0.0
  0
LINE
  5
23DCD
330
23DB6
100
AcDbEntity
  8
0
  6
CONTINUOUS
100
AcDbLine
 10
43.57899999995641
 20
7.001674108297943
 30
0.0
 11
44.99999999995498
 21
8.422674108296516
 31
0.0
  0
LINE
  5
23DCE
330
23DB6
100
AcDbEntity
  8
0
  6
CONTINUOUS
100
AcDbLine
 10
43.57899999995641
 20
6.328154899217758
 30
0.0
 11
44.99999999995498
 21
7.749154899216329
 31
0.0
  0
LINE
  5
23DCF
330
23DB6
100
AcDbEntity
  8
0
  6
CONTINUOUS
100
AcDbLine
 10
43.57899999995641
 20
5.654635690137571
 30
0.0
 11
44.99999999995498
 21
7.075635690136142
 31
0.0
  0
LINE
  5
23DD0
330
23DB6
100
AcDbEntity
  8
0
  6
CONTINUOUS
100
AcDbLine
 10
43.57899999995641
 20
4.981116481057384
 30
0.0
 11
44.99999999995498
 21
6.402116481055955
 31
0.0
  0
LINE
  5
23DD1
330
23DB6
100
AcDbEntity
  8
0
  6
CONTINUOUS
100
AcDbLine
 10
39.27140272797921
 20
-0.0000000000000009
 30
0.0
 11
40.02599999995994
 21
0.7545972719807246
 31
0.0
  0
LINE
  5
23DD2
330
23DB6
100
AcDbEntity
  8
0
  6
CONTINUOUS
100
AcDbLine
 10
39.9449219370594
 20
-0.0000000000000009
 30
0.0
 11
40.02599999995994
 21
0.0810780629005379
 31
0.0
  0
LINE
  5
23DD3
330
23DB6
100
AcDbEntity
  8
0
  6
CONTINUOUS
100
AcDbLine
 10
42.18817142235812
 20
2.916768694378905
 30
0.0
 11
43.16119791794597
 21
3.889795189966758
 31
0.0
  0
LINE
  5
23DD4
330
23DB6
100
AcDbEntity
  8
0
  6
CONTINUOUS
100
AcDbLine
 10
42.50563373493829
 20
2.560711797878898
 30
0.0
 11
43.47866023052615
 21
3.533738293466751
 31
0.0
  0
LINE
  5
23DD5
330
23DB6
100
AcDbEntity
  8
0
  6
CONTINUOUS
100
AcDbLine
 10
43.57899999995641
 20
4.307597271977198
 30
0.0
 11
44.99999999995498
 21
5.728597271975769
 31
0.0
  0
LINE
  5
23DD6
330
23DB6
100
AcDbEntity
  8
0
  6
CONTINUOUS
100
AcDbLine
 10
43.57899999995641
 20
3.634078062897011
 30
0.0
 11
44.99999999995498
 21
5.055078062895582
 31
0.0
  0
LINE
  5
23DD7
330
23DB6
100
AcDbEntity
  8
0
  6
CONTINUOUS
100
AcDbLine
 10
42.82309604751848
 20
2.204654901378891
 30
0.0
 11
44.99999999995498
 21
4.381558853815395
 31
0.0
  0
LINE
  5
23DD8
330
23DB6
100
AcDbEntity
  8
0
  6
CONTINUOUS
100
AcDbLine
 10
43.14055836009865
 20
1.848598004878885
 30
0.0
 11
44.99999999995498
 21
3.70803964473521
 31
0.0
  0
LINE
  5
23DD9
330
23DB6
100
AcDbEntity
  8
0
  6
CONTINUOUS
100
AcDbLine
 10
43.45802067267883
 20
1.492541108378878
 30
0.0
 11
44.99999999995498
 21
3.034520435655023
 31
0.0
  0
LINE
  5
23DDA
330
23DB6
100
AcDbEntity
  8
0
  6
CONTINUOUS
100
AcDbLine
 10
43.77548298525902
 20
1.136484211878871
 30
0.0
 11
44.99999999995498
 21
2.361001226574837
 31
0.0
  0
LINE
  5
23DDB
330
23DB6
100
AcDbEntity
  8
0
  6
CONTINUOUS
100
AcDbLine
 10
44.09294529783919
 20
0.7804273153788639
 30
0.0
 11
44.99999999995498
 21
1.687482017494649
 31
0.0
  0
LINE
  5
23DDC
330
23DB6
100
AcDbEntity
  8
0
  6
CONTINUOUS
100
AcDbLine
 10
44.41040761041938
 20
0.4243704188788566
 30
0.0
 11
44.99999999995498
 21
1.013962808414463
 31
0.0
  0
LINE
  5
23DDD
330
23DB6
100
AcDbEntity
  8
0
  6
CONTINUOUS
100
AcDbLine
 10
44.72786992299955
 20
0.0683135223788494
 30
0.0
 11
44.99999999995498
 21
0.340443599334276
 31
0.0
  0
LINE
  5
23DDE
330
23DB6
100
AcDbEntity
  8
0
  6
CONTINUOUS
100
AcDbLine
 10
39.12223903415696
 20
-0.0000000000000009
 30
0.0
 11
38.60499999996136
 21
0.5172390341955961
 31
0.0
  0
LINE
  5
23DDF
330
23DB6
100
AcDbEntity
  8
0
  6
CONTINUOUS
100
AcDbLine
 10
39.79575824323715
 20
-0.0000000000000009
 30
0.0
 11
38.60499999996136
 21
1.190758243275783
 31
0.0
  0
LINE
  5
23DE0
330
23DB6
100
AcDbEntity
  8
0
  6
CONTINUOUS
100
AcDbLine
 10
40.02599999995994
 20
0.443277452357397
 30
0.0
 11
38.60499999996136
 21
1.864277452355969
 31
0.0
  0
LINE
  5
23DE1
330
23DB6
100
AcDbEntity
  8
0
  6
CONTINUOUS
100
AcDbLine
 10
40.02599999995994
 20
1.116796661437583
 30
0.0
 11
38.60499999996136
 21
2.537796661436155
 31
0.0
  0
LINE
  5
23DE2
330
23DB6
100
AcDbEntity
  8
0
  6
CONTINUOUS
100
AcDbLine
 10
40.02599999995994
 20
1.79031587051777
 30
0.0
 11
38.60499999996136
 21
3.211315870516341
 31
0.0
  0
LINE
  5
23DE3
330
23DB6
100
AcDbEntity
  8
0
  6
CONTINUOUS
100
AcDbLine
 10
40.02599999995994
 20
2.463835079597956
 30
0.0
 11
38.60499999996136
 21
3.884835079596527
 31
0.0
  0
LINE
  5
23DE4
330
23DB6
100
AcDbEntity
  8
0
  6
CONTINUOUS
100
AcDbLine
 10
40.02599999995994
 20
3.137354288678143
 30
0.0
 11
38.60499999996136
 21
4.558354288676714
 31
0.0
  0
LINE
  5
23DE5
330
23DB6
100
AcDbEntity
  8
0
  6
CONTINUOUS
100
AcDbLine
 10
40.02599999995994
 20
3.810873497758329
 30
0.0
 11
38.60499999996136
 21
5.2318734977569
 31
0.0
  0
LINE
  5
23DE6
330
23DB6
100
AcDbEntity
  8
0
  6
CONTINUOUS
100
AcDbLine
 10
40.02599999995994
 20
4.484392706838515
 30
0.0
 11
38.60499999996136
 21
5.905392706837086
 31
0.0
  0
LINE
  5
23DE7
330
23DB6
100
AcDbEntity
  8
0
  6
CONTINUOUS
100
AcDbLine
 10
44.99999999995498
 20
0.183911915923658
 30
0.0
 11
41.53858364506288
 21
3.64532827081576
 31
0.0
  0
LINE
  5
23DE8
330
23DB6
100
AcDbEntity
  8
0
  6
CONTINUOUS
100
AcDbLine
 10
40.02599999995994
 20
5.157911915918703
 30
0.0
 11
38.60499999996136
 21
6.578911915917274
 31
0.0
  0
LINE
  5
23DE9
330
23DB6
100
AcDbEntity
  8
0
  6
CONTINUOUS
100
AcDbLine
 10
44.99999999995498
 20
0.8574311250038447
 30
0.0
 11
38.60499999996136
 21
7.25243112499746
 31
0.0
  0
LINE
  5
23DEA
330
23DB6
100
AcDbEntity
  8
0
  6
CONTINUOUS
100
AcDbLine
 10
44.99999999995498
 20
1.530950334084031
 30
0.0
 11
38.60499999996136
 21
7.925950334077647
 31
0.0
  0
LINE
  5
23DEB
330
23DB6
100
AcDbEntity
  8
0
  6
CONTINUOUS
100
AcDbLine
 10
44.99999999995498
 20
2.204469543164218
 30
0.0
 11
43.57899999995641
 21
3.625469543162789
 31
0.0
  0
LINE
  5
23DEC
330
23DB6
100
AcDbEntity
  8
0
  6
CONTINUOUS
100
AcDbLine
 10
41.89876730984767
 20
5.305702233271528
 30
0.0
 11
38.60499999996136
 21
8.599469543157834
 31
0.0
  0
LINE
  5
23DED
330
23DB6
100
AcDbEntity
  8
0
  6
CONTINUOUS
100
AcDbLine
 10
44.99999999995498
 20
2.877988752244405
 30
0.0
 11
43.57899999995641
 21
4.298988752242975
 31
0.0
  0
LINE
  5
23DEE
330
23DB6
100
AcDbEntity
  8
0
  6
CONTINUOUS
100
AcDbLine
 10
44.99999999995498
 20
3.551507961324591
 30
0.0
 11
43.57899999995641
 21
4.972507961323163
 31
0.0
  0
LINE
  5
23DEF
330
23DB6
100
AcDbEntity
  8
0
  6
CONTINUOUS
100
AcDbLine
 10
44.99999999995498
 20
4.225027170404777
 30
0.0
 11
43.57899999995641
 21
5.646027170403348
 31
0.0
  0
LINE
  5
23DF0
330
23DB6
100
AcDbEntity
  8
0
  6
CONTINUOUS
100
AcDbLine
 10
44.99999999995498
 20
4.898546379484964
 30
0.0
 11
43.57899999995641
 21
6.319546379483535
 31
0.0
  0
LINE
  5
23DF1
330
23DB6
100
AcDbEntity
  8
0
  6
CONTINUOUS
100
AcDbLine
 10
44.99999999995498
 20
5.572065588565151
 30
0.0
 11
43.57899999995641
 21
6.993065588563722
 31
0.0
  0
LINE
  5
23DF2
330
23DB6
100
AcDbEntity
  8
0
  6
CONTINUOUS
100
AcDbLine
 10
44.99999999995498
 20
6.245584797645336
 30
0.0
 11
43.57899999995641
 21
7.666584797643908
 31
0.0
  0
LINE
  5
23DF3
330
23DB6
100
AcDbEntity
  8
0
  6
CONTINUOUS
100
AcDbLine
 10
44.99999999995498
 20
6.919104006725522
 30
0.0
 11
43.57899999995641
 21
8.340104006724093
 31
0.0
  0
LINE
  5
23DF4
330
23DB6
100
AcDbEntity
  8
0
  6
CONTINUOUS
100
AcDbLine
 10
44.99999999995498
 20
7.592623215805709
 30
0.0
 11
43.82952321576943
 21
8.763099999991255
 31
0.0
  0
LINE
  5
23DF5
330
23DB6
100
AcDbEntity
  8
0
  6
CONTINUOUS
100
AcDbLine
 10
44.99999999995498
 20
8.266142424885896
 30
0.0
 11
44.50304242484962
 21
8.763099999991255
 31
0.0
  0
ENDBLK
  5
23E1F
330
23DB6
100
AcDbEntity
  8
0
100
AcDbBlockEnd
  0
BLOCK
  5
23E20
330
23DF6
100
AcDbEntity
  8
0
100
AcDbBlockBegin
  2
*X53
 70
     1
 10
0.0
 20
0.0
 30
0.0
  3
*X53
  1

  0
LINE
  5
23DF7
330
23DF6
100
AcDbEntity
  8
0
  6
CONTINUOUS
100
AcDbLine
 10
0.0
 20
8.548461116714023
 30
0.0
 11
0.2146388832772324
 21
8.763099999991255
 31
0.0
  0
LINE
  5
23DF8
330
23DF6
100
AcDbEntity
  8
0
  6
CONTINUOUS
100
AcDbLine
 10
-0.0000000000000002
 20
7.874941907633837
 30
0.0
 11
0.8881580923574184
 21
8.763099999991255
 31
0.0
  0
LINE
  5
23DF9
330
23DF6
100
AcDbEntity
  8
0
  6
CONTINUOUS
100
AcDbLine
 10
0.0
 20
7.20142269855365
 30
0.0
 11
1.420999999998572
 21
8.622422698552223
 31
0.0
  0
LINE
  5
23DFA
330
23DF6
100
AcDbEntity
  8
0
  6
CONTINUOUS
100
AcDbLine
 10
-0.0000000000000001
 20
6.527903489473465
 30
0.0
 11
1.420999999998571
 21
7.948903489472036
 31
0.0
  0
LINE
  5
23DFB
330
23DF6
100
AcDbEntity
  8
0
  6
CONTINUOUS
100
AcDbLine
 10
-0.0000000000000002
 20
5.854384280393278
 30
0.0
 11
1.420999999998571
 21
7.275384280391849
 31
0.0
  0
LINE
  5
23DFC
330
23DF6
100
AcDbEntity
  8
0
  6
CONTINUOUS
100
AcDbLine
 10
-0.0000000000000002
 20
5.180865071313091
 30
0.0
 11
1.420999999998571
 21
6.601865071311663
 31
0.0
  0
LINE
  5
23DFD
330
23DF6
100
AcDbEntity
  8
0
  6
CONTINUOUS
100
AcDbLine
 10
0.0
 20
4.507345862232905
 30
0.0
 11
1.420999999998571
 21
5.928345862231477
 31
0.0
  0
LINE
  5
23DFE
330
23DF6
100
AcDbEntity
  8
0
  6
CONTINUOUS
100
AcDbLine
 10
-0.0000000000000003
 20
3.833826653152718
 30
0.0
 11
1.420999999998571
 21
5.25482665315129
 31
0.0
  0
LINE
  5
23DFF
330
23DF6
100
AcDbEntity
  8
0
  6
CONTINUOUS
100
AcDbLine
 10
-0.0000000000000002
 20
3.160307444072532
 30
0.0
 11
1.420999999998571
 21
4.581307444071103
 31
0.0
  0
LINE
  5
23E00
330
23DF6
100
AcDbEntity
  8
0
  6
CONTINUOUS
100
AcDbLine
 10
-0.0000000000000001
 20
2.486788234992345
 30
0.0
 11
1.420999999998571
 21
3.907788234990917
 31
0.0
  0
LINE
  5
23E01
330
23DF6
100
AcDbEntity
  8
0
  6
CONTINUOUS
100
AcDbLine
 10
-0.0000000000000006
 20
1.813269025912159
 30
0.0
 11
1.420999999998571
 21
3.234269025910731
 31
0.0
  0
LINE
  5
23E02
330
23DF6
100
AcDbEntity
  8
0
  6
CONTINUOUS
100
AcDbLine
 10
0.0
 20
1.139749816831973
 30
0.0
 11
1.420999999998571
 21
2.560749816830544
 31
0.0
  0
LINE
  5
23E03
330
23DF6
100
AcDbEntity
  8
0
  6
CONTINUOUS
100
AcDbLine
 10
0.0000000000000002
 20
0.466230607751787
 30
0.0
 11
1.420999999998571
 21
1.887230607750358
 31
0.0
  0
LINE
  5
23E04
330
23DF6
100
AcDbEntity
  8
0
  6
CONTINUOUS
100
AcDbLine
 10
0.2072886013284003
 20
-0.0000000000000009
 30
0.0
 11
1.420999999998571
 21
1.213711398670171
 31
0.0
  0
LINE
  5
23E05
330
23DF6
100
AcDbEntity
  8
0
  6
CONTINUOUS
100
AcDbLine
 10
0.8808078104085864
 20
-0.0000000000000009
 30
0.0
 11
1.420999999998571
 21
0.5401921895899839
 31
0.0
  0
LINE
  5
23E06
330
23DF6
100
AcDbEntity
  8
0
  6
CONTINUOUS
100
AcDbLine
 10
0.0581249075061505
 20
-0.0000000000000009
 30
0.0
 11
-0.0000000000000002
 21
0.0581249075061496
 31
0.0
  0
LINE
  5
23E07
330
23DF6
100
AcDbEntity
  8
0
  6
CONTINUOUS
100
AcDbLine
 10
0.7316441165863372
 20
-0.0000000000000009
 30
0.0
 11
-0.0000000000000002
 21
0.7316441165863363
 31
0.0
  0
LINE
  5
23E08
330
23DF6
100
AcDbEntity
  8
0
  6
CONTINUOUS
100
AcDbLine
 10
1.405163325666523
 20
-0.0000000000000009
 30
0.0
 11
-0.0000000000000002
 21
1.405163325666523
 31
0.0
  0
LINE
  5
23E09
330
23DF6
100
AcDbEntity
  8
0
  6
CONTINUOUS
100
AcDbLine
 10
1.420999999998572
 20
0.6576825347481381
 30
0.0
 11
-0.0000000000000001
 21
2.07868253474671
 31
0.0
  0
LINE
  5
23E0A
330
23DF6
100
AcDbEntity
  8
0
  6
CONTINUOUS
100
AcDbLine
 10
1.420999999998571
 20
1.331201743828324
 30
0.0
 11
-0.0000000000000001
 21
2.752201743826896
 31
0.0
  0
LINE
  5
23E0B
330
23DF6
100
AcDbEntity
  8
0
  6
CONTINUOUS
100
AcDbLine
 10
1.420999999998571
 20
2.004720952908511
 30
0.0
 11
-0.0000000000000002
 21
3.425720952907082
 31
0.0
  0
LINE
  5
23E0C
330
23DF6
100
AcDbEntity
  8
0
  6
CONTINUOUS
100
AcDbLine
 10
1.420999999998571
 20
2.678240161988697
 30
0.0
 11
-0.0000000000000001
 21
4.099240161987269
 31
0.0
  0
LINE
  5
23E0D
330
23DF6
100
AcDbEntity
  8
0
  6
CONTINUOUS
100
AcDbLine
 10
1.420999999998572
 20
3.351759371068884
 30
0.0
 11
0.0
 21
4.772759371067455
 31
0.0
  0
LINE
  5
23E0E
330
23DF6
100
AcDbEntity
  8
0
  6
CONTINUOUS
100
AcDbLine
 10
1.420999999998571
 20
4.02527858014907
 30
0.0
 11
-0.0000000000000003
 21
5.446278580147642
 31
0.0
  0
LINE
  5
23E0F
330
23DF6
100
AcDbEntity
  8
0
  6
CONTINUOUS
100
AcDbLine
 10
1.420999999998571
 20
4.698797789229257
 30
0.0
 11
0.0
 21
6.119797789227828
 31
0.0
  0
LINE
  5
23E10
330
23DF6
100
AcDbEntity
  8
0
  6
CONTINUOUS
100
AcDbLine
 10
1.420999999998571
 20
5.372316998309444
 30
0.0
 11
-0.0000000000000001
 21
6.793316998308015
 31
0.0
  0
LINE
  5
23E11
330
23DF6
100
AcDbEntity
  8
0
  6
CONTINUOUS
100
AcDbLine
 10
1.420999999998572
 20
6.045836207389629
 30
0.0
 11
-0.0000000000000004
 21
7.466836207388202
 31
0.0
  0
LINE
  5
23E12
330
23DF6
100
AcDbEntity
  8
0
  6
CONTINUOUS
100
AcDbLine
 10
1.420999999998571
 20
6.719355416469816
 30
0.0
 11
0.0
 21
8.140355416468388
 31
0.0
  0
LINE
  5
23E13
330
23DF6
100
AcDbEntity
  8
0
  6
CONTINUOUS
100
AcDbLine
 10
1.420999999998571
 20
7.392874625550003
 30
0.0
 11
0.0507746255573185
 21
8.763099999991255
 31
0.0
  0
LINE
  5
23E14
330
23DF6
100
AcDbEntity
  8
0
  6
CONTINUOUS
100
AcDbLine
 10
1.420999999998571
 20
8.06639383463019
 30
0.0
 11
0.7242938346375052
 21
8.763099999991255
 31
0.0
  0
LINE
  5
23E15
330
23DF6
100
AcDbEntity
  8
0
  6
CONTINUOUS
100
AcDbLine
 10
1.420999999998571
 20
8.739913043710375
 30
0.0
 11
1.397813043717691
 21
8.763099999991255
 31
0.0
  0
ENDBLK
  5
23E21
330
23DF6
100
AcDbEntity
  8
0
100
AcDbBlockEnd
  0
ENDSEC
  0
SECTION
  2
ENTITIES
  0
SPLINE
  5
230D3
330
18
100
AcDbEntity
  8
01
100
AcDbSpline
210
0.0
220
0.0
230
1.0
 70
     8
 71
     3
 72
    32
 73
    28
 74
     0
 42
0.0000000001
 43
0.0000000001
 40
0.0
 40
0.0
 40
0.0
 40
0.0
 40
0.0087835288535913
 40
0.0709314554707606
 40
0.1281019366083241
 40
0.1801551275366385
 40
0.2270169184404928
 40
0.2686532352928481
 40
0.3050513844860162
 40
0.3362092788991591
 40
0.3621306907527056
 40
0.385329574246179
 40
0.4082163783653978
 40
0.4307882910916371
 40
0.453043345105901
 40
0.4749801361387125
 40
0.503165014773424
 40
0.5308085782219462
 40
0.5597505973209677
 40
0.5949254448191954
 40
0.6366034352160017
 40
0.6847873556255036
 40
0.7361826469999593
 40
0.7933792654853523
 40
0.8563949592029079
 40
0.925256224457182
 40
1.0
 40
1.0
 40
1.0
 40
1.0
 10
467.5501778244911
 20
-647.5023840592539
 30
0.0
 10
466.9310879231748
 20
-647.5095040707092
 30
0.0
 10
461.9316226172018
 20
-647.5670017785119
 30
0.0
 10
452.9013086989294
 20
-647.682122419707
 30
0.0
 10
440.8201358612901
 20
-647.845281487987
 30
0.0
 10
429.8153835901926
 20
-648.0027055308101
 30
0.0
 10
419.90480859231
 20
-648.1471567709464
 30
0.0
 10
411.0970166916199
 20
-648.272959539856
 30
0.0
 10
403.3956176569486
 20
-648.375435469155
 30
0.0
 10
396.801673877157
 20
-648.4534659693627
 30
0.0
 10
391.1380154212479
 20
-648.5044075462934
 30
0.0
 10
386.0578371485757
 20
-648.5396997072635
 30
0.0
 10
381.2139678217067
 20
-648.573966572686
 30
0.0
 10
376.4366745748925
 20
-648.6057498851701
 30
0.0
 10
371.7263974389411
 20
-648.6358086247114
 30
0.0
 10
366.6201081926305
 20
-648.6668234320628
 30
0.0
 10
361.1336405346432
 20
-648.6982886859801
 30
0.0
 10
355.152930074299
 20
-648.7303246774186
 30
0.0
 10
348.6790521045882
 20
-648.76251971375
 30
0.0
 10
341.2150028031196
 20
-648.7963638380184
 30
0.0
 10
332.3933778780487
 20
-648.8317601256645
 30
0.0
 10
322.4273422987794
 20
-648.8656970981738
 30
0.0
 10
311.366408175309
 20
-648.895948905661
 30
0.0
 10
299.2590342238568
 20
-648.9203183979153
 30
0.0
 10
285.9193725649097
 20
-648.9362969519643
 30
0.0
 10
271.3416996019991
 20
-648.9420647341053
 30
0.0
 10
261.2099639226021
 20
-648.9339749899955
 30
0.0
 10
255.9365823388038
 20
-648.9297644273674
 30
0.0
  0
SPLINE
  5
230D4
330
18
100
AcDbEntity
  8
01
100
AcDbSpline
210
0.0
220
0.0
230
1.0
 70
     8
 71
     3
 72
    24
 73
    20
 74
     0
 42
0.0000000001
 43
0.0000000001
 40
0.0
 40
0.0
 40
0.0
 40
0.0
 40
0.0923273388157819
 40
0.1792577604158219
 40
0.2608518891742628
 40
0.3371548441259301
 40
0.4081986860218758
 40
0.4740037786764421
 40
0.5345817787708382
 40
0.5899231555328798
 40
0.6350335283350373
 40
0.6758969335325689
 40
0.7144502044332417
 40
0.7565462370077962
 40
0.8025841450355413
 40
0.8516219101826985
 40
0.9043998455582667
 40
0.960811826146604
 40
1.0
 40
1.0
 40
1.0
 40
1.0
 10
255.9365823388038
 20
-674.6565167830622
 30
0.0
 10
262.6956893446008
 20
-674.6516217666203
 30
0.0
 10
275.8188054206243
 20
-674.6421178678206
 30
0.0
 10
294.915272587485
 20
-674.6578518776928
 30
0.0
 10
312.8385962854285
 20
-674.6918418944692
 30
0.0
 10
329.5988520029954
 20
-674.7423679939247
 30
0.0
 10
345.2031725452347
 20
-674.8053994105694
 30
0.0
 10
359.6562465200081
 20
-674.8776953780757
 30
0.0
 10
372.9597259438328
 20
-674.9561406492035
 30
0.0
 10
384.7481439117004
 20
-675.0351989044452
 30
0.0
 10
395.0932938572118
 20
-675.1121185565812
 30
0.0
 10
404.2093498518211
 20
-675.1843598854362
 30
0.0
 10
413.1049065598913
 20
-675.263086241232
 30
0.0
 10
422.3777636501313
 20
-675.3844061654167
 30
0.0
 10
432.4151852315795
 20
-675.5377244985989
 30
0.0
 10
443.2307510364685
 20
-675.7152410779208
 30
0.0
 10
454.8009703774555
 20
-675.8996608044663
 30
0.0
 10
465.6476588045884
 20
-676.0588482541921
 30
0.0
 10
472.6325894659226
 20
-676.1401726984959
 30
0.0
 10
475.4958346009194
 20
-676.1735090093052
 30
0.0
  0
SPLINE
  5
230D5
330
18
100
AcDbEntity
  8
01
100
AcDbSpline
210
0.0
220
0.0
230
1.0
 70
     8
 71
     3
 72
    34
 73
    30
 74
     0
 42
0.0000000001
 43
0.0000000001
 40
0.0
 40
0.0
 40
0.0
 40
0.0
 40
0.0343039652097947
 40
0.0612464491756664
 40
0.0810949290796666
 40
0.0933241537481132
 40
0.1008770132959175
 40
0.1134734959498879
 40
0.1330790617699858
 40
0.2001992624226692
 40
0.254118456273991
 40
0.3068551363150236
 40
0.3706746366150631
 40
0.4329500639298435
 40
0.4915625942481551
 40
0.5508007127945131
 40
0.6116422069770204
 40
0.6694929678947993
 40
0.7250877300923788
 40
0.7699691803592762
 40
0.8180498508031236
 40
0.8534260478067119
 40
0.8668150423744795
 40
0.8784860037653708
 40
0.8901346086796568
 40
0.906286667468445
 40
0.9303077238686495
 40
0.9615400350901537
 40
1.0
 40
1.0
 40
1.0
 40
1.0
 10
-75.2759978652062
 20
-645.829775281373
 30
0.0
 10
-75.4878411831192
 20
-645.8423214456545
 30
0.0
 10
-75.8660671673311
 20
-645.8647214221085
 30
0.0
 10
-76.37770394867363
 20
-645.9218178995864
 30
0.0
 10
-76.7640244717964
 20
-646.0139221074635
 30
0.0
 10
-77.02349380007541
 20
-646.1145617366467
 30
0.0
 10
-77.35628339310784
 20
-646.2829883790157
 30
0.0
 10
-77.66889634619798
 20
-646.4781554773292
 30
0.0
 10
-78.46075201471791
 20
-647.0836079934732
 30
0.0
 10
-79.44709953400667
 20
-648.2477754040153
 30
0.0
 10
-80.56556022136971
 20
-650.102656707166
 30
0.0
 10
-81.56890613031061
 20
-652.2944440378108
 30
0.0
 10
-82.44715773098648
 20
-654.9826762816449
 30
0.0
 10
-83.05642981841953
 20
-658.1103736024709
 30
0.0
 10
-83.29528072904719
 20
-661.3356489966434
 30
0.0
 10
-83.16290252916548
 20
-664.5614613476912
 30
0.0
 10
-82.67245129553118
 20
-667.6328885371547
 30
0.0
 10
-81.90088787064593
 20
-670.3771327265924
 30
0.0
 10
-81.01695171010903
 20
-672.5618233341118
 30
0.0
 10
-80.07782111302691
 20
-674.3317922841163
 30
0.0
 10
-79.24460550279906
 20
-675.5608859229089
 30
0.0
 10
-78.59878762245495
 20
-676.3055362804796
 30
0.0
 10
-78.15523694084874
 20
-676.7222233817986
 30
0.0
 10
-77.87005235578869
 20
-676.958697938174
 30
0.0
 10
-77.53113941845328
 20
-677.1997441206388
 30
0.0
 10
-77.14932221427767
 20
-677.4199506474645
 30
0.0
 10
-76.66130713524177
 20
-677.597860049698
 30
0.0
 10
-76.0200310410633
 20
-677.702450893122
 30
0.0
 10
-75.54058313463571
 20
-677.7373776657407
 30
0.0
 10
-75.2759978652062
 20
-677.7566521467004
 30
0.0
  0
SPLINE
  5
230D6
330
18
100
AcDbEntity
  8
01
100
AcDbSpline
210
0.0
220
0.0
230
1.0
 70
     8
 71
     3
 72
    29
 73
    25
 74
     0
 42
0.0000000001
 43
0.0000000001
 40
0.0
 40
0.0
 40
0.0
 40
0.0
 40
0.0572251770393548
 40
0.0978434616596174
 40
0.1148877428138729
 40
0.1292538797664856
 40
0.146255178200431
 40
0.2038453028897337
 40
0.2639341376703797
 40
0.325349690315586
 40
0.3876852488579284
 40
0.4489435174568717
 40
0.5059693592799688
 40
0.5597581102786885
 40
0.6159183026992853
 40
0.6751474169403695
 40
0.7334991341037908
 40
0.7906189167903579
 40
0.8516503582698083
 40
0.8702065521259316
 40
0.8850919842050994
 40
0.9021395237646213
 40
0.9427651335116753
 40
0.9999999999999999
 40
0.9999999999999999
 40
0.9999999999999999
 40
0.9999999999999999
 10
587.1491625428137
 20
-677.7566502840555
 30
0.0
 10
587.5103155195268
 20
-677.7369510016224
 30
0.0
 10
588.1278139574263
 20
-677.7032692187927
 30
0.0
 10
588.862818986425
 20
-677.5188352705768
 30
0.0
 10
589.4921849233071
 20
-677.1451018175703
 30
0.0
 10
589.9298581978676
 20
-676.8120442913523
 30
0.0
 10
590.5683754028162
 20
-676.2243962025209
 30
0.0
 10
591.4769869944305
 20
-675.1072128082569
 30
0.0
 10
592.6238674774288
 20
-673.1494331784183
 30
0.0
 10
593.6846992342691
 20
-670.6631669260737
 30
0.0
 10
594.52288332987
 20
-667.7586824037949
 30
0.0
 10
595.0263542273135
 20
-664.6391360207267
 30
0.0
 10
595.1638722145947
 20
-661.5335664269774
 30
0.0
 10
594.9727824086588
 20
-658.5382828172328
 30
0.0
 10
594.4706548188499
 20
-655.6360395636138
 30
0.0
 10
593.6814108842448
 20
-652.9312617458145
 30
0.0
 10
592.6808183886335
 20
-650.5626755621947
 30
0.0
 10
591.5602266290664
 20
-648.5983640322256
 30
0.0
 10
590.6220535055493
 20
-647.4161187288364
 30
0.0
 10
589.9494134503514
 20
-646.7898440518893
 30
0.0
 10
589.4981809106414
 20
-646.4451178653212
 30
0.0
 10
588.8620637310526
 20
-646.0670608243231
 30
0.0
 10
588.1282868032542
 20
-645.8833025254548
 30
0.0
 10
587.5104889716897
 20
-645.8495296266296
 30
0.0
 10
587.1491625428137
 20
-645.8297771440184
 30
0.0
  0
SPLINE
  5
230D7
330
18
100
AcDbEntity
  8
01
100
AcDbSpline
210
0.0
220
0.0
230
1.0
 70
     8
 71
     3
 72
    32
 73
    28
 74
     0
 42
0.0000000001
 43
0.0000000001
 40
0.0
 40
0.0
 40
0.0
 40
0.0
 40
0.0087711309804849
 40
0.0708216608922852
 40
0.1279081392375972
 40
0.1798916193630582
 40
0.2266986713873373
 40
0.2682953678480888
 40
0.3046690261660879
 40
0.335817993378858
 40
0.3617459108034733
 40
0.3849589546117259
 40
0.4078594486796548
 40
0.4304450019349401
 40
0.4527136458910896
 40
0.4746636936019588
 40
0.5028656048306688
 40
0.5305258737654174
 40
0.5594853830595261
 40
0.5946814874070699
 40
0.6363846647710119
 40
0.6845974222254336
 40
0.7360237733282625
 40
0.7932549577975169
 40
0.856308452760925
 40
0.9252110524851582
 40
1.0
 40
1.0
 40
1.0
 40
1.0
 10
44.45098782777171
 20
-676.0825541840229
 30
0.0
 10
45.06882602822628
 20
-676.0754516081704
 30
0.0
 10
50.05750167521222
 20
-676.0181025365853
 30
0.0
 10
59.06864673579224
 20
-675.9031217338663
 30
0.0
 10
71.12476492049831
 20
-675.7401215092925
 30
0.0
 10
82.10814050501398
 20
-675.582791635137
 30
0.0
 10
92.00114447436539
 20
-675.4384044106621
 30
0.0
 10
100.7952290067792
 20
-675.3126532461681
 30
0.0
 10
108.4868243160331
 20
-675.2102192159894
 30
0.0
 10
115.0748880930736
 20
-675.1322206605962
 30
0.0
 10
120.7359540695201
 20
-675.0813016164859
 30
0.0
 10
125.8154864585562
 20
-675.0460232212445
 30
0.0
 10
130.6593558034551
 20
-675.0117627789978
 30
0.0
 10
135.4366490490033
 20
-674.9799882649977
 30
0.0
 10
140.1469361119293
 20
-674.9499380939064
 30
0.0
 10
145.253235313416
 20
-674.9189381626975
 30
0.0
 10
150.7397029565422
 20
-674.8874838091742
 30
0.0
 10
156.7204134211628
 20
-674.8554632919722
 30
0.0
 10
163.1942913900479
 20
-674.8232873347038
 30
0.0
 10
170.6583407033581
 20
-674.789469122049
 30
0.0
 10
179.4799457624289
 20
-674.7541036493271
 30
0.0
 10
189.4459614742067
 20
-674.7202049901962
 30
0.0
 10
200.5068757475169
 20
-674.6900047693293
 30
0.0
 10
212.6142298301515
 20
-674.6656932747578
 30
0.0
 10
225.9538517674122
 20
-674.6497887383025
 30
0.0
 10
240.5314850141589
 20
-674.6441107680553
 30
0.0
 10
250.6632007649864
 20
-674.652270029565
 30
0.0
 10
255.9365823388038
 20
-674.6565167830622
 30
0.0
  0
SPLINE
  5
230D8
330
18
100
AcDbEntity
  8
01
100
AcDbSpline
210
0.0
220
0.0
230
1.0
 70
     8
 71
     3
 72
    32
 73
    28
 74
     0
 42
0.0000000001
 43
0.0000000001
 40
0.0
 40
0.0
 40
0.0
 40
0.0
 40
0.0087835288535913
 40
0.0709314554707606
 40
0.1281019366083241
 40
0.1801551275366385
 40
0.2270169184404928
 40
0.2686532352928481
 40
0.3050513844860162
 40
0.3362092788991591
 40
0.3621306907527056
 40
0.385329574246179
 40
0.4082163783653978
 40
0.4307882910916371
 40
0.453043345105901
 40
0.4749801361387125
 40
0.503165014773424
 40
0.5308085782219462
 40
0.5597505973209677
 40
0.5949254448191954
 40
0.6366034352160017
 40
0.6847873556255036
 40
0.7361826469999593
 40
0.7933792654853523
 40
0.8563949592029079
 40
0.925256224457182
 40
1.0
 40
1.0
 40
1.0
 40
1.0
 10
467.5501778244911
 20
-647.5023840592539
 30
0.0
 10
466.9310879231748
 20
-647.5095040707092
 30
0.0
 10
461.9316226172018
 20
-647.5670017785119
 30
0.0
 10
452.9013086989294
 20
-647.682122419707
 30
0.0
 10
440.8201358612901
 20
-647.845281487987
 30
0.0
 10
429.8153835901926
 20
-648.0027055308101
 30
0.0
 10
419.90480859231
 20
-648.1471567709464
 30
0.0
 10
411.0970166916199
 20
-648.272959539856
 30
0.0
 10
403.3956176569486
 20
-648.375435469155
 30
0.0
 10
396.801673877157
 20
-648.4534659693627
 30
0.0
 10
391.1380154212479
 20
-648.5044075462934
 30
0.0
 10
386.0578371485757
 20
-648.5396997072635
 30
0.0
 10
381.2139678217067
 20
-648.573966572686
 30
0.0
 10
376.4366745748925
 20
-648.6057498851701
 30
0.0
 10
371.7263974389411
 20
-648.6358086247114
 30
0.0
 10
366.6201081926305
 20
-648.6668234320628
 30
0.0
 10
361.1336405346432
 20
-648.6982886859801
 30
0.0
 10
355.152930074299
 20
-648.7303246774186
 30
0.0
 10
348.6790521045882
 20
-648.76251971375
 30
0.0
 10
341.2150028031196
 20
-648.7963638380184
 30
0.0
 10
332.3933778780487
 20
-648.8317601256645
 30
0.0
 10
322.4273422987794
 20
-648.8656970981738
 30
0.0
 10
311.366408175309
 20
-648.895948905661
 30
0.0
 10
299.2590342238568
 20
-648.9203183979153
 30
0.0
 10
285.9193725649097
 20
-648.9362969519643
 30
0.0
 10
271.3416996019991
 20
-648.9420647341053
 30
0.0
 10
261.2099639226021
 20
-648.9339749899955
 30
0.0
 10
255.9365823388038
 20
-648.9297644273674
 30
0.0
  0
SPLINE
  5
230D9
330
18
100
AcDbEntity
  8
01
100
AcDbSpline
210
0.0
220
0.0
230
1.0
 70
     8
 71
     3
 72
    24
 73
    20
 74
     0
 42
0.0000000001
 43
0.0000000001
 40
0.0
 40
0.0
 40
0.0
 40
0.0
 40
0.0923273388157819
 40
0.1792577604158219
 40
0.2608518891742628
 40
0.3371548441259301
 40
0.4081986860218758
 40
0.4740037786764421
 40
0.5345817787708382
 40
0.5899231555328798
 40
0.6350335283350373
 40
0.6758969335325689
 40
0.7144502044332417
 40
0.7565462370077962
 40
0.8025841450355413
 40
0.8516219101826985
 40
0.9043998455582667
 40
0.960811826146604
 40
1.0
 40
1.0
 40
1.0
 40
1.0
 10
255.9365823388038
 20
-674.6565167830622
 30
0.0
 10
262.6956893446008
 20
-674.6516217666203
 30
0.0
 10
275.8188054206243
 20
-674.6421178678206
 30
0.0
 10
294.915272587485
 20
-674.6578518776928
 30
0.0
 10
312.8385962854285
 20
-674.6918418944692
 30
0.0
 10
329.5988520029954
 20
-674.7423679939247
 30
0.0
 10
345.2031725452347
 20
-674.8053994105694
 30
0.0
 10
359.6562465200081
 20
-674.8776953780757
 30
0.0
 10
372.9597259438328
 20
-674.9561406492035
 30
0.0
 10
384.7481439117004
 20
-675.0351989044452
 30
0.0
 10
395.0932938572118
 20
-675.1121185565812
 30
0.0
 10
404.2093498518211
 20
-675.1843598854362
 30
0.0
 10
413.1049065598913
 20
-675.263086241232
 30
0.0
 10
422.3777636501313
 20
-675.3844061654167
 30
0.0
 10
432.4151852315795
 20
-675.5377244985989
 30
0.0
 10
443.2307510364685
 20
-675.7152410779208
 30
0.0
 10
454.8009703774555
 20
-675.8996608044663
 30
0.0
 10
465.6476588045884
 20
-676.0588482541921
 30
0.0
 10
472.6325894659226
 20
-676.1401726984959
 30
0.0
 10
475.4958346009194
 20
-676.1735090093052
 30
0.0
  0
SPLINE
  5
230DA
330
18
100
AcDbEntity
  8
01
100
AcDbSpline
210
0.0
220
0.0
230
1.0
 70
     8
 71
     3
 72
    34
 73
    30
 74
     0
 42
0.0000000001
 43
0.0000000001
 40
0.0
 40
0.0
 40
0.0
 40
0.0
 40
0.0343039652097947
 40
0.0612464491756664
 40
0.0810949290796666
 40
0.0933241537481132
 40
0.1008770132959175
 40
0.1134734959498879
 40
0.1330790617699858
 40
0.2001992624226692
 40
0.254118456273991
 40
0.3068551363150236
 40
0.3706746366150631
 40
0.4329500639298435
 40
0.4915625942481551
 40
0.5508007127945131
 40
0.6116422069770204
 40
0.6694929678947993
 40
0.7250877300923788
 40
0.7699691803592762
 40
0.8180498508031236
 40
0.8534260478067119
 40
0.8668150423744795
 40
0.8784860037653708
 40
0.8901346086796568
 40
0.906286667468445
 40
0.9303077238686495
 40
0.9615400350901537
 40
1.0
 40
1.0
 40
1.0
 40
1.0
 10
-75.2759978652062
 20
-645.829775281373
 30
0.0
 10
-75.4878411831192
 20
-645.8423214456545
 30
0.0
 10
-75.8660671673311
 20
-645.8647214221085
 30
0.0
 10
-76.37770394867363
 20
-645.9218178995864
 30
0.0
 10
-76.7640244717964
 20
-646.0139221074635
 30
0.0
 10
-77.02349380007541
 20
-646.1145617366467
 30
0.0
 10
-77.35628339310784
 20
-646.2829883790157
 30
0.0
 10
-77.66889634619798
 20
-646.4781554773292
 30
0.0
 10
-78.46075201471791
 20
-647.0836079934732
 30
0.0
 10
-79.44709953400667
 20
-648.2477754040153
 30
0.0
 10
-80.56556022136971
 20
-650.102656707166
 30
0.0
 10
-81.56890613031061
 20
-652.2944440378108
 30
0.0
 10
-82.44715773098648
 20
-654.9826762816449
 30
0.0
 10
-83.05642981841953
 20
-658.1103736024709
 30
0.0
 10
-83.29528072904719
 20
-661.3356489966434
 30
0.0
 10
-83.16290252916548
 20
-664.5614613476912
 30
0.0
 10
-82.67245129553118
 20
-667.6328885371547
 30
0.0
 10
-81.90088787064593
 20
-670.3771327265924
 30
0.0
 10
-81.01695171010903
 20
-672.5618233341118
 30
0.0
 10
-80.07782111302691
 20
-674.3317922841163
 30
0.0
 10
-79.24460550279906
 20
-675.5608859229089
 30
0.0
 10
-78.59878762245495
 20
-676.3055362804796
 30
0.0
 10
-78.15523694084874
 20
-676.7222233817986
 30
0.0
 10
-77.87005235578869
 20
-676.958697938174
 30
0.0
 10
-77.53113941845328
 20
-677.1997441206388
 30
0.0
 10
-77.14932221427767
 20
-677.4199506474645
 30
0.0
 10
-76.66130713524177
 20
-677.597860049698
 30
0.0
 10
-76.0200310410633
 20
-677.702450893122
 30
0.0
 10
-75.54058313463571
 20
-677.7373776657407
 30
0.0
 10
-75.2759978652062
 20
-677.7566521467004
 30
0.0
  0
SPLINE
  5
230DB
330
18
100
AcDbEntity
  8
01
100
AcDbSpline
210
0.0
220
0.0
230
1.0
 70
     8
 71
     3
 72
    29
 73
    25
 74
     0
 42
0.0000000001
 43
0.0000000001
 40
0.0
 40
0.0
 40
0.0
 40
0.0
 40
0.0572251770393548
 40
0.0978434616596174
 40
0.1148877428138729
 40
0.1292538797664856
 40
0.146255178200431
 40
0.2038453028897337
 40
0.2639341376703797
 40
0.325349690315586
 40
0.3876852488579284
 40
0.4489435174568717
 40
0.5059693592799688
 40
0.5597581102786885
 40
0.6159183026992853
 40
0.6751474169403695
 40
0.7334991341037908
 40
0.7906189167903579
 40
0.8516503582698083
 40
0.8702065521259316
 40
0.8850919842050994
 40
0.9021395237646213
 40
0.9427651335116753
 40
0.9999999999999999
 40
0.9999999999999999
 40
0.9999999999999999
 40
0.9999999999999999
 10
587.1491625428137
 20
-677.7566502840555
 30
0.0
 10
587.5103155195268
 20
-677.7369510016224
 30
0.0
 10
588.1278139574263
 20
-677.7032692187927
 30
0.0
 10
588.862818986425
 20
-677.5188352705768
 30
0.0
 10
589.4921849233071
 20
-677.1451018175703
 30
0.0
 10
589.9298581978676
 20
-676.8120442913523
 30
0.0
 10
590.5683754028162
 20
-676.2243962025209
 30
0.0
 10
591.4769869944305
 20
-675.1072128082569
 30
0.0
 10
592.6238674774288
 20
-673.1494331784183
 30
0.0
 10
593.6846992342691
 20
-670.6631669260737
 30
0.0
 10
594.52288332987
 20
-667.7586824037949
 30
0.0
 10
595.0263542273135
 20
-664.6391360207267
 30
0.0
 10
595.1638722145947
 20
-661.5335664269774
 30
0.0
 10
594.9727824086588
 20
-658.5382828172328
 30
0.0
 10
594.4706548188499
 20
-655.6360395636138
 30
0.0
 10
593.6814108842448
 20
-652.9312617458145
 30
0.0
 10
592.6808183886335
 20
-650.5626755621947
 30
0.0
 10
591.5602266290664
 20
-648.5983640322256
 30
0.0
 10
590.6220535055493
 20
-647.4161187288364
 30
0.0
 10
589.9494134503514
 20
-646.7898440518893
 30
0.0
 10
589.4981809106414
 20
-646.4451178653212
 30
0.0
 10
588.8620637310526
 20
-646.0670608243231
 30
0.0
 10
588.1282868032542
 20
-645.8833025254548
 30
0.0
 10
587.5104889716897
 20
-645.8495296266296
 30
0.0
 10
587.1491625428137
 20
-645.8297771440184
 30
0.0
  0
SPLINE
  5
230DC
330
18
100
AcDbEntity
  8
01
  6
CONTINUOUS
100
AcDbSpline
210
0.0
220
0.0
230
1.0
 70
     8
 71
     3
 72
    10
 73
     6
 74
     0
 42
0.0000000001
 43
0.0000000001
 40
0.0
 40
0.0
 40
0.0
 40
0.0
 40
0.5
 40
0.5
 40
1.0
 40
1.0
 40
1.0
 40
1.0
 10
-75.06857304696092
 20
-677.7623412707051
 30
0.0
 10
-58.16946994204187
 20
-677.4746391643464
 30
0.0
 10
-41.2318710027717
 20
-677.2080348978282
 30
0.0
 10
-7.531065485698093
 20
-676.7191617494329
 30
0.0
 10
9.241080569482108
 20
-676.4968158712215
 30
0.0
 10
26.32854957274361
 20
-676.2931595581538
 30
0.0
  0
SPLINE
  5
230DD
330
18
100
AcDbEntity
  8
01
  6
CONTINUOUS
100
AcDbSpline
210
0.0
220
0.0
230
1.0
 70
     8
 71
     3
 72
    10
 73
     6
 74
     0
 42
0.0000000001
 43
0.0000000001
 40
0.0
 40
0.0
 40
0.0
 40
0.0
 40
0.5
 40
0.5
 40
1.0
 40
1.0
 40
1.0
 40
1.0
 10
26.32854930341858
 20
-647.2932134863415
 30
0.0
 10
9.241079443676824
 20
-647.0895619461392
 30
0.0
 10
-7.531067316807423
 20
-646.8672228834955
 30
0.0
 10
-41.23187426016153
 20
-646.3783674474873
 30
0.0
 10
-58.16947393021616
 20
-646.111774077862
 30
0.0
 10
-75.0685777338145
 20
-645.8240849099323
 30
0.0
  0
SPLINE
  5
230DE
330
18
100
AcDbEntity
  8
01
100
AcDbSpline
210
0.0
220
0.0
230
1.0
 70
    24
 71
     1
 72
     4
 73
     2
 74
     0
 42
0.0000000001
 43
0.0000000001
 40
0.0
 40
0.0
 40
1.0
 40
1.0
 10
26.32855321168284
 20
-676.2931597457562
 30
0.0
 10
44.45140506028514
 20
-676.128574557725
 30
0.0
  0
SPLINE
  5
230DF
330
18
100
AcDbEntity
  8
01
100
AcDbSpline
210
0.0
220
0.0
230
1.0
 70
    24
 71
     1
 72
     4
 73
     2
 74
     0
 42
0.0000000001
 43
0.0000000001
 40
0.0
 40
0.0
 40
1.0
 40
1.0
 10
479.3739512085854
 20
-647.3492522762454
 30
0.0
 10
467.5497605919777
 20
-647.4566356317437
 30
0.0
  0
SPLINE
  5
230E0
330
18
100
AcDbEntity
  8
01
100
AcDbSpline
210
0.0
220
0.0
230
1.0
 70
     8
 71
     3
 72
    10
 73
     6
 74
     0
 42
0.0000000001
 43
0.0000000001
 40
0.0
 40
0.0
 40
0.0
 40
0.0
 40
0.5
 40
0.5
 40
1.0
 40
1.0
 40
1.0
 40
1.0
 10
586.9417452419532
 20
-645.8240849099325
 30
0.0
 10
570.0426414621945
 20
-646.1117740774566
 30
0.0
 10
553.1050418160632
 20
-646.3783674467354
 30
0.0
 10
519.4042349198103
 20
-646.8672228821788
 30
0.0
 10
502.632088183213
 20
-647.0895619445973
 30
0.0
 10
485.5446183493555
 20
-647.2932134846178
 30
0.0
  0
SPLINE
  5
230E1
330
18
100
AcDbEntity
  8
01
100
AcDbSpline
210
0.0
220
0.0
230
1.0
 70
     8
 71
     3
 72
    10
 73
     6
 74
     0
 42
0.0000000001
 43
0.0000000001
 40
0.0
 40
0.0
 40
0.0
 40
0.0
 40
0.5
 40
0.5
 40
1.0
 40
1.0
 40
1.0
 40
1.0
 10
485.5446182909332
 20
-676.2931595623918
 30
0.0
 10
502.6320872305264
 20
-676.4968158750121
 30
0.0
 10
519.4042332270478
 20
-676.7191617526696
 30
0.0
 10
553.1050386286208
 20
-677.2080348996747
 30
0.0
 10
570.0426375092541
 20
-677.4746391653412
 30
0.0
 10
586.9417405557581
 20
-677.7623412707017
 30
0.0
  0
SPLINE
  5
230E2
330
18
100
AcDbEntity
  8
01
100
AcDbSpline
210
0.0
220
0.0
230
1.0
 70
    24
 71
     1
 72
     4
 73
     2
 74
     0
 42
0.0000000001
 43
0.0000000001
 40
0.0
 40
0.0
 40
1.0
 40
1.0
 10
475.4955961823403
 20
-676.2018975840247
 30
0.0
 10
485.5446412682472
 20
-676.2931597457564
 30
0.0
  0
SPLINE
  5
230E3
330
18
100
AcDbEntity
  8
01
100
AcDbSpline
210
0.0
220
0.0
230
1.0
 70
     8
 71
     3
 72
    10
 73
     6
 74
     0
 42
0.0000000001
 43
0.0000000001
 40
0.0
 40
0.0
 40
0.0
 40
0.0
 40
0.5
 40
0.5
 40
1.0
 40
1.0
 40
1.0
 40
1.0
 10
-75.06857304696092
 20
-677.7623412707051
 30
0.0
 10
-58.16946994204187
 20
-677.4746391643464
 30
0.0
 10
-41.2318710027717
 20
-677.2080348978282
 30
0.0
 10
-7.531065485698093
 20
-676.7191617494329
 30
0.0
 10
9.241080569482108
 20
-676.4968158712215
 30
0.0
 10
26.32854957274361
 20
-676.2931595581538
 30
0.0
  0
SPLINE
  5
230E4
330
18
100
AcDbEntity
  8
01
100
AcDbSpline
210
0.0
220
0.0
230
1.0
 70
     8
 71
     3
 72
    10
 73
     6
 74
     0
 42
0.0000000001
 43
0.0000000001
 40
0.0
 40
0.0
 40
0.0
 40
0.0
 40
0.5
 40
0.5
 40
1.0
 40
1.0
 40
1.0
 40
1.0
 10
26.32854930341858
 20
-647.2932134863415
 30
0.0
 10
9.241079443676824
 20
-647.0895619461392
 30
0.0
 10
-7.531067316807423
 20
-646.8672228834955
 30
0.0
 10
-41.23187426016153
 20
-646.3783674474873
 30
0.0
 10
-58.16947393021616
 20
-646.111774077862
 30
0.0
 10
-75.0685777338145
 20
-645.8240849099323
 30
0.0
  0
SPLINE
  5
230E5
330
18
100
AcDbEntity
  8
01
100
AcDbSpline
210
0.0
220
0.0
230
1.0
 70
    24
 71
     1
 72
     4
 73
     2
 74
     0
 42
0.0000000001
 43
0.0000000001
 40
0.0
 40
0.0
 40
1.0
 40
1.0
 10
26.32855321168284
 20
-676.2931597457562
 30
0.0
 10
44.45140506028514
 20
-676.128574557725
 30
0.0
  0
SPLINE
  5
230E6
330
18
100
AcDbEntity
  8
01
100
AcDbSpline
210
0.0
220
0.0
230
1.0
 70
    24
 71
     1
 72
     4
 73
     2
 74
     0
 42
0.0000000001
 43
0.0000000001
 40
0.0
 40
0.0
 40
1.0
 40
1.0
 10
479.3739512085854
 20
-647.3492522762454
 30
0.0
 10
467.5497605919777
 20
-647.4566356317437
 30
0.0
  0
SPLINE
  5
230E7
330
18
100
AcDbEntity
  8
01
100
AcDbSpline
210
0.0
220
0.0
230
1.0
 70
     8
 71
     3
 72
    10
 73
     6
 74
     0
 42
0.0000000001
 43
0.0000000001
 40
0.0
 40
0.0
 40
0.0
 40
0.0
 40
0.5
 40
0.5
 40
1.0
 40
1.0
 40
1.0
 40
1.0
 10
586.9417452419532
 20
-645.8240849099325
 30
0.0
 10
570.0426414621945
 20
-646.1117740774566
 30
0.0
 10
553.1050418160632
 20
-646.3783674467354
 30
0.0
 10
519.4042349198103
 20
-646.8672228821788
 30
0.0
 10
502.632088183213
 20
-647.0895619445973
 30
0.0
 10
485.5446183493555
 20
-647.2932134846178
 30
0.0
  0
SPLINE
  5
230E8
330
18
100
AcDbEntity
  8
01
100
AcDbSpline
210
0.0
220
0.0
230
1.0
 70
     8
 71
     3
 72
    10
 73
     6
 74
     0
 42
0.0000000001
 43
0.0000000001
 40
0.0
 40
0.0
 40
0.0
 40
0.0
 40
0.5
 40
0.5
 40
1.0
 40
1.0
 40
1.0
 40
1.0
 10
485.5446182909332
 20
-676.2931595623918
 30
0.0
 10
502.6320872305264
 20
-676.4968158750121
 30
0.0
 10
519.4042332270478
 20
-676.7191617526696
 30
0.0
 10
553.1050386286208
 20
-677.2080348996747
 30
0.0
 10
570.0426375092541
 20
-677.4746391653412
 30
0.0
 10
586.9417405557581
 20
-677.7623412707017
 30
0.0
  0
SPLINE
  5
230E9
330
18
100
AcDbEntity
  8
01
100
AcDbSpline
210
0.0
220
0.0
230
1.0
 70
    24
 71
     1
 72
     4
 73
     2
 74
     0
 42
0.0000000001
 43
0.0000000001
 40
0.0
 40
0.0
 40
1.0
 40
1.0
 10
475.4955961823403
 20
-676.2018975840247
 30
0.0
 10
485.5446412682472
 20
-676.2931597457564
 30
0.0
  0
SPLINE
  5
230EA
330
18
100
AcDbEntity
  8
01
100
AcDbSpline
210
0.0
220
0.0
230
1.0
 70
    24
 71
     1
 72
     4
 73
     2
 74
     0
 42
0.0000000001
 43
0.0000000001
 40
0.0
 40
0.0
 40
1.0
 40
1.0
 10
485.5446412682472
 20
-647.2932127342856
 30
0.0
 10
479.3739512085854
 20
-647.3492522762454
 30
0.0
  0
SPLINE
  5
230EB
330
18
100
AcDbEntity
  8
01
100
AcDbSpline
210
0.0
220
0.0
230
1.0
 70
     8
 71
     3
 72
    15
 73
    11
 74
     0
 42
0.0000000001
 43
0.0000000001
 40
0.0
 40
0.0
 40
0.0
 40
0.0
 40
0.0863508521857379
 40
0.1723222619713369
 40
0.2579041525205543
 40
0.3722492990569159
 40
0.515814352159627
 40
0.7221438498069951
 40
0.8951878117014533
 40
1.0
 40
1.0
 40
1.0
 40
1.0
 10
587.6825172098181
 20
-645.8622673946484
 30
0.0
 10
587.6632345581677
 20
-645.8561268394942
 30
0.0
 10
587.6247539865819
 20
-645.8438727119774
 30
0.0
 10
587.5663471369664
 20
-645.8343049363616
 30
0.0
 10
587.5002404405952
 20
-645.8285078515532
 30
0.0
 10
587.4173013233215
 20
-645.8270620460289
 30
0.0
 10
587.3007758953484
 20
-645.8279907180977
 30
0.0
 10
587.1664772097158
 20
-645.8263188226483
 30
0.0
 10
587.0423961664039
 20
-645.8245636778815
 30
0.0
 10
586.9693133540352
 20
-645.8242160436362
 30
0.0
 10
586.9417452419532
 20
-645.8240849099325
 30
0.0
  0
SPLINE
  5
230EC
330
18
100
AcDbEntity
  8
01
100
AcDbSpline
210
0.0
220
0.0
230
1.0
 70
     8
 71
     3
 72
     8
 73
     4
 74
     0
 42
0.0000000001
 43
0.0000000001
 40
0.0
 40
0.0
 40
0.0
 40
0.0
 40
1.0
 40
1.0
 40
1.0
 40
1.0
 10
587.6864682092603
 20
-645.8637080570979
 30
0.0
 10
587.6851490666652
 20
-645.8632214414179
 30
0.0
 10
587.6838320764766
 20
-645.862741248864
 30
0.0
 10
587.6825172098163
 20
-645.8622673946484
 30
0.0
  0
SPLINE
  5
230ED
330
18
100
AcDbEntity
  8
01
100
AcDbSpline
210
0.0
220
0.0
230
1.0
 70
     8
 71
     3
 72
     9
 73
     5
 74
     0
 42
0.0000000001
 43
0.0000000001
 40
0.0
 40
0.0
 40
0.0
 40
0.0
 40
0.385259487536447
 40
1.0
 40
1.0
 40
1.0
 40
1.0
 10
586.9417405557581
 20
-677.7623412707017
 30
0.0
 10
586.9980862333452
 20
-677.7618495392312
 30
0.0
 10
587.1443400685187
 20
-677.760573174895
 30
0.0
 10
587.2852224363689
 20
-677.7595278277868
 30
0.0
 10
587.3718285353773
 20
-677.75888521057
 30
0.0
  0
SPLINE
  5
230EE
330
18
100
AcDbEntity
  8
01
100
AcDbSpline
210
0.0
220
0.0
230
1.0
 70
     8
 71
     3
 72
    10
 73
     6
 74
     0
 42
0.0000000001
 43
0.0000000001
 40
0.0
 40
0.0
 40
0.0
 40
0.0
 40
0.5
 40
0.5
 40
1.0
 40
1.0
 40
1.0
 40
1.0
 10
255.9365837540685
 20
-648.7190791293788
 30
0.0
 10
217.6619958348733
 20
-648.7011699517989
 30
0.0
 10
179.5980555889368
 20
-648.5762128315505
 30
0.0
 10
102.6288697817094
 20
-648.0950751339371
 30
0.0
 10
63.72360603098826
 20
-647.7388945001619
 30
0.0
 10
26.32854930341858
 20
-647.2932134863415
 30
0.0
  0
SPLINE
  5
230EF
330
18
100
AcDbEntity
  8
01
100
AcDbSpline
210
0.0
220
0.0
230
1.0
 70
    24
 71
     1
 72
     4
 73
     2
 74
     0
 42
0.0000000001
 43
0.0000000001
 40
0.0
 40
0.0
 40
1.0
 40
1.0
 10
485.5446412682472
 20
-647.2932127342856
 30
0.0
 10
479.3739512085854
 20
-647.3492522762454
 30
0.0
  0
SPLINE
  5
230F0
330
18
100
AcDbEntity
  8
01
100
AcDbSpline
210
0.0
220
0.0
230
1.0
 70
     8
 71
     3
 72
    15
 73
    11
 74
     0
 42
0.0000000001
 43
0.0000000001
 40
0.0
 40
0.0
 40
0.0
 40
0.0
 40
0.0863508521857379
 40
0.1723222619713369
 40
0.2579041525205543
 40
0.3722492990569159
 40
0.515814352159627
 40
0.7221438498069951
 40
0.8951878117014533
 40
1.0
 40
1.0
 40
1.0
 40
1.0
 10
587.6825172098181
 20
-645.8622673946484
 30
0.0
 10
587.6632345581677
 20
-645.8561268394942
 30
0.0
 10
587.6247539865819
 20
-645.8438727119774
 30
0.0
 10
587.5663471369664
 20
-645.8343049363616
 30
0.0
 10
587.5002404405952
 20
-645.8285078515532
 30
0.0
 10
587.4173013233215
 20
-645.8270620460289
 30
0.0
 10
587.3007758953484
 20
-645.8279907180977
 30
0.0
 10
587.1664772097158
 20
-645.8263188226483
 30
0.0
 10
587.0423961664039
 20
-645.8245636778815
 30
0.0
 10
586.9693133540352
 20
-645.8242160436362
 30
0.0
 10
586.9417452419532
 20
-645.8240849099325
 30
0.0
  0
SPLINE
  5
230F1
330
18
100
AcDbEntity
  8
01
100
AcDbSpline
210
0.0
220
0.0
230
1.0
 70
     8
 71
     3
 72
     8
 73
     4
 74
     0
 42
0.0000000001
 43
0.0000000001
 40
0.0
 40
0.0
 40
0.0
 40
0.0
 40
1.0
 40
1.0
 40
1.0
 40
1.0
 10
587.6864682092603
 20
-645.8637080570979
 30
0.0
 10
587.6851490666652
 20
-645.8632214414179
 30
0.0
 10
587.6838320764766
 20
-645.862741248864
 30
0.0
 10
587.6825172098163
 20
-645.8622673946484
 30
0.0
  0
SPLINE
  5
230F2
330
18
100
AcDbEntity
  8
01
100
AcDbSpline
210
0.0
220
0.0
230
1.0
 70
     8
 71
     3
 72
     9
 73
     5
 74
     0
 42
0.0000000001
 43
0.0000000001
 40
0.0
 40
0.0
 40
0.0
 40
0.0
 40
0.385259487536447
 40
1.0
 40
1.0
 40
1.0
 40
1.0
 10
586.9417405557581
 20
-677.7623412707017
 30
0.0
 10
586.9980862333452
 20
-677.7618495392312
 30
0.0
 10
587.1443400685187
 20
-677.760573174895
 30
0.0
 10
587.2852224363689
 20
-677.7595278277868
 30
0.0
 10
587.3718285353773
 20
-677.75888521057
 30
0.0
  0
SPLINE
  5
230F3
330
18
100
AcDbEntity
  8
01
100
AcDbSpline
210
0.0
220
0.0
230
1.0
 70
    24
 71
     1
 72
     4
 73
     2
 74
     0
 42
0.0000000001
 43
0.0000000001
 40
0.0
 40
0.0
 40
1.0
 40
1.0
 10
586.8928029656347
 20
-677.7615695298946
 30
0.0
 10
586.9417383789953
 20
-677.7621590570843
 30
0.0
  0
SPLINE
  5
230F4
330
18
100
AcDbEntity
  8
01
100
AcDbSpline
210
0.0
220
0.0
230
1.0
 70
     8
 71
     3
 72
    37
 73
    33
 74
     0
 42
0.0000000001
 43
0.0000000001
 40
0.0
 40
0.0
 40
0.0
 40
0.0
 40
0.0562091983970827
 40
0.114919776888264
 40
0.1700998106492216
 40
0.2216911732530008
 40
0.2694779296211529
 40
0.3133152753578022
 40
0.353157173109198
 40
0.386256141935449
 40
0.4161737243029199
 40
0.4429780375925613
 40
0.4671358308679235
 40
0.4898456113470249
 40
0.5111968600034817
 40
0.5364302179035831
 40
0.5595114488372614
 40
0.5804569337064963
 40
0.589739488651682
 40
0.6006090593802857
 40
0.6136588583117095
 40
0.6288932256680901
 40
0.6463192533226462
 40
0.6716848015459442
 40
0.7006388751686387
 40
0.7331929816585885
 40
0.7693543640039993
 40
0.8091242281756088
 40
0.8516893019364296
 40
0.8977118479577765
 40
0.9471632886611613
 40
1.0
 40
1.0
 40
1.0
 40
1.0
 10
-80.00744436979909
 20
-572.9053317925475
 30
0.0
 10
-73.72435928269584
 20
-572.4948817229458
 30
0.0
 10
-60.87858391192418
 20
-571.6557160389027
 30
0.0
 10
-41.8500227178061
 20
-570.6574244496853
 30
0.0
 10
-23.32956932823032
 20
-569.8698304648831
 30
0.0
 10
-6.025170734222741
 20
-569.3089650071913
 30
0.0
 10
10.0122920555645
 20
-568.8973246561079
 30
0.0
 10
24.73561829697286
 20
-568.5887897884461
 30
0.0
 10
37.81471078671387
 20
-568.3515980737482
 30
0.0
 10
49.33522886257418
 20
-568.1681571470697
 30
0.0
 10
59.39575573357655
 20
-568.0257651768259
 30
0.0
 10
68.45498787829496
 20
-567.9107230654924
 30
0.0
 10
76.70700141720266
 20
-567.8157652932894
 30
0.0
 10
84.34829874930114
 20
-567.7354508978208
 30
0.0
 10
92.11013753657102
 20
-567.6604240808472
 30
0.0
 10
99.91364140217996
 20
-567.5912376441518
 30
0.0
 10
107.6717408946155
 20
-567.5279755585523
 30
0.0
 10
113.6431524748172
 20
-567.4825609457328
 30
0.0
 10
118.2466915441823
 20
-567.448990227356
 30
0.0
 10
121.9658023542947
 20
-567.422579218339
 30
0.0
 10
126.3516110608365
 20
-567.3923090130063
 30
0.0
 10
131.4718486779315
 20
-567.3579857961583
 30
0.0
 10
137.971645557684
 20
-567.3156039559437
 30
0.0
 10
146.0082677836767
 20
-567.2643684198586
 30
0.0
 10
155.7394779591818
 20
-567.203782102845
 30
0.0
 10
166.680006042678
 20
-567.1383397805923
 30
0.0
 10
178.8320970147637
 20
-567.0697729114424
 30
0.0
 10
192.1056098624089
 20
-567.0010867072394
 30
0.0
 10
206.4837762799693
 20
-566.9353541357907
 30
0.0
 10
221.9464912185471
 20
-566.8771068007879
 30
0.0
 10
238.5598571718132
 20
-566.8291798356283
 30
0.0
 10
250.0179372444495
 20
-566.8145975486268
 30
0.0
 10
255.9365823388038
 20
-566.8070651015782
 30
0.0
  0
SPLINE
  5
230F5
330
18
100
AcDbEntity
  8
01
  6
CONTINUOUS
100
AcDbSpline
210
0.0
220
0.0
230
1.0
 70
     8
 71
     3
 72
    31
 73
    27
 74
     0
 42
0.0000000001
 43
0.0000000001
 40
0.0
 40
0.0
 40
0.0
 40
0.0
 40
0.0536669254244629
 40
0.1014209167544235
 40
0.1432621830066374
 40
0.1791903752439401
 40
0.2092051108237743
 40
0.2335915384754595
 40
0.2574311425017893
 40
0.2815655515955445
 40
0.3059945058210527
 40
0.3950296002434888
 40
0.4844075288024617
 40
0.5412844956022691
 40
0.5981491736876703
 40
0.652672596323502
 40
0.7031088630255709
 40
0.7208484095636815
 40
0.7422932505931625
 40
0.7677110051432401
 40
0.797101659782353
 40
0.8304649431507495
 40
0.8670997120075952
 40
0.9075666647907498
 40
0.9518665836737323
 40
1.0
 40
1.0
 40
1.0
 40
1.0
 10
485.5446412682472
 20
-538.901365071773
 30
0.0
 10
481.4374944606193
 20
-538.9632754839822
 30
0.0
 10
473.6757195651885
 20
-539.080275120411
 30
0.0
 10
462.7116591574163
 20
-539.2346198445448
 30
0.0
 10
453.105087035085
 20
-539.3637988654755
 30
0.0
 10
444.856071131117
 20
-539.4696967022915
 30
0.0
 10
437.9428778038168
 20
-539.5549814505512
 30
0.0
 10
431.9548323951608
 20
-539.6263538332232
 30
0.0
 10
426.4168054136248
 20
-539.6903189697546
 30
0.0
 10
420.8755005477092
 20
-539.7522862209707
 30
0.0
 10
410.344466567833
 20
-539.8661388452306
 30
0.0
 10
394.8199050821754
 20
-540.0204904133434
 30
0.0
 10
376.8116995452933
 20
-540.1749427817417
 30
0.0
 10
361.2655596508834
 20
-540.2908754516866
 30
0.0
 10
348.3869962345565
 20
-540.3757056097002
 30
0.0
 10
336.0013221446192
 20
-540.4467292269223
 30
0.0
 10
326.6101576609184
 20
-540.4930377600449
 30
0.0
 10
319.7507484337115
 20
-540.5232826180427
 30
0.0
 10
314.8062063028596
 20
-540.5436011140237
 30
0.0
 10
308.9698991833706
 20
-540.5654903054638
 30
0.0
 10
302.2213626337165
 20
-540.5879705548932
 30
0.0
 10
294.6142803168936
 20
-540.6096501552402
 30
0.0
 10
286.1594207755301
 20
-540.629242787611
 30
0.0
 10
276.867473030345
 20
-540.645170919257
 30
0.0
 10
266.6954221160144
 20
-540.6565234126265
 30
0.0
 10
259.6206662955505
 20
-540.6580180625792
 30
0.0
 10
255.9365823388038
 20
-540.6587963814432
 30
0.0
  0
SPLINE
  5
230F6
330
18
100
AcDbEntity
  8
01
  6
CONTINUOUS
100
AcDbSpline
210
0.0
220
0.0
230
1.0
 70
     8
 71
     3
 72
    31
 73
    27
 74
     0
 42
0.0000000001
 43
0.0000000001
 40
0.0
 40
0.0
 40
0.0
 40
0.0
 40
0.0536638375734066
 40
0.1014105119784683
 40
0.1432410721528369
 40
0.1791560335702197
 40
0.2091553833805533
 40
0.2335326941236818
 40
0.2573716582759544
 40
0.2815052860322332
 40
0.3059338416155585
 40
0.3949671263975996
 40
0.4843427651955006
 40
0.541218482383337
 40
0.5980817599096367
 40
0.6525960181136307
 40
0.7030246582873986
 40
0.7207744336285563
 40
0.7422345890648284
 40
0.7676658072031973
 40
0.7970685349639737
 40
0.8304424533069756
 40
0.8670860622639937
 40
0.9075603279053011
 40
0.9518651030516836
 40
1.0
 40
1.0
 40
1.0
 40
1.0
 10
255.9365823388038
 20
-540.6587963814432
 30
0.0
 10
251.8292059318869
 20
-540.6578315084344
 30
0.0
 10
244.0673468634963
 20
-540.6560081527032
 30
0.0
 10
233.1038256647593
 20
-540.6425105362039
 30
0.0
 10
223.4987950711442
 20
-540.6246332199632
 30
0.0
 10
215.2521354067744
 20
-540.6042615512108
 30
0.0
 10
208.3413355322322
 20
-540.5837263945111
 30
0.0
 10
202.3548243215213
 20
-540.5634409786014
 30
0.0
 10
196.8172743349846
 20
-540.5426338595455
 30
0.0
 10
191.2758101456679
 20
-540.5197766076469
 30
0.0
 10
180.7444973949718
 20
-540.4724230377167
 30
0.0
 10
165.2197383245825
 20
-540.3891341512283
 30
0.0
 10
147.2116900462101
 20
-540.2679343571151
 30
0.0
 10
131.6659769308248
 20
-540.1459060285113
 30
0.0
 10
118.7885296815552
 20
-540.0336125030105
 30
0.0
 10
106.404613325551
 20
-539.9150645934758
 30
0.0
 10
97.01434363188531
 20
-539.81762978661
 30
0.0
 10
90.15390468013032
 20
-539.7428642039006
 30
0.0
 10
85.20664607959992
 20
-539.6874642986297
 30
0.0
 10
79.36756192251454
 20
-539.6199799980011
 30
0.0
 10
72.61670441673272
 20
-539.5391273048929
 30
0.0
 10
65.0077679848477
 20
-539.4443335051794
 30
0.0
 10
56.55155002692885
 20
-539.3344804762298
 30
0.0
 10
47.25884041905232
 20
-539.2081541691757
 30
0.0
 10
37.08676414719633
 20
-539.0637882571957
 30
0.0
 10
30.01233028640166
 20
-538.9569812713855
 30
0.0
 10
26.32855321168284
 20
-538.9013650717727
 30
0.0
  0
SPLINE
  5
230F7
330
18
100
AcDbEntity
  8
01
100
AcDbSpline
210
0.0
220
0.0
230
1.0
 70
     8
 71
     3
 72
     8
 73
     4
 74
     0
 42
0.0000000001
 43
0.0000000001
 40
0.5020888363712279
 40
0.5020888363712279
 40
0.5020888363712279
 40
0.5020888363712279
 40
0.9999999999999999
 40
0.9999999999999999
 40
0.9999999999999999
 40
0.9999999999999999
 10
-74.8474645683068
 20
-532.8295092113792
 30
0.0
 10
-80.5022203678123
 20
-557.2085201196044
 30
0.0
 10
-81.86132655711441
 20
-563.3564147538598
 30
0.0
 10
-83.22043274641652
 20
-569.5043093881152
 30
0.0
  0
SPLINE
  5
230F8
330
18
100
AcDbEntity
  8
01
100
AcDbSpline
210
0.0
220
0.0
230
1.0
 70
     8
 71
     3
 72
    20
 73
    16
 74
     0
 42
0.0000000001
 43
0.0000000001
 40
0.0
 40
0.0
 40
0.0
 40
0.0
 40
0.110588347763364
 40
0.2075441293265421
 40
0.2903954898625539
 40
0.3596396876145684
 40
0.4149294442810698
 40
0.4610851693248368
 40
0.5188897825437343
 40
0.5908169885351481
 40
0.6769798601921326
 40
0.7509671891956035
 40
0.8329474730518188
 40
0.9228315902794211
 40
0.9920754567724801
 40
0.9920754567724801
 40
0.9920754567724801
 40
0.9920754567724801
 10
26.32855321168284
 20
-538.9013653046034
 30
0.0
 10
24.54047673199278
 20
-538.8706291743222
 30
0.0
 10
21.1847454668827
 20
-538.812945851196
 30
0.0
 10
16.49097780176857
 20
-538.748855795169
 30
0.0
 10
12.46104435324418
 20
-538.6086546091435
 30
0.0
 10
9.141382424777873
 20
-538.0860319412693
 30
0.0
 10
6.457719165850392
 20
-537.4319078602709
 30
0.0
 10
4.003886128790725
 20
-536.645152096419
 30
0.0
 10
1.361915722329684
 20
-535.5840206203554
 30
0.0
 10
-1.752502146147492
 20
-533.9939530919689
 30
0.0
 10
-4.895320088442134
 20
-531.9268111645495
 30
0.0
 10
-7.915740553325634
 20
-529.4235977386827
 30
0.0
 10
-10.67858409830984
 20
-526.5577018615224
 30
0.0
 10
-13.08785432315705
 20
-523.470035529286
 30
0.0
 10
-14.32844065398928
 20
-521.2132131405335
 30
0.0
 10
-14.86148061210912
 20
-520.2269079041587
 30
0.0
  0
SPLINE
  5
230F9
330
18
100
AcDbEntity
  8
01
100
AcDbSpline
210
0.0
220
0.0
230
1.0
 70
     8
 71
     3
 72
     9
 73
     5
 74
     0
 42
0.0000000001
 43
0.0000000001
 40
0.0
 40
0.0
 40
0.0
 40
0.0
 40
0.5375200070234003
 40
0.9677851961314077
 40
0.9677851961314077
 40
0.9677851961314077
 40
0.9677851961314077
 10
-69.06456803084035
 20
-506.8052671274684
 30
0.0
 10
-70.01506628342173
 20
-511.2143049067606
 30
0.0
 10
-71.72640376998385
 20
-519.1526168509288
 30
0.0
 10
-73.52727032593754
 20
-527.0710671322479
 30
0.0
 10
-74.30157170824856
 20
-530.4713144983809
 30
0.0
  0
SPLINE
  5
230FA
330
18
100
AcDbEntity
  8
01
100
AcDbSpline
210
0.0
220
0.0
230
1.0
 70
     8
 71
     3
 72
    14
 73
    10
 74
     0
 42
0.0000000001
 43
0.0000000001
 40
0.0539147917413395
 40
0.0539147917413395
 40
0.0539147917413395
 40
0.0539147917413395
 40
0.2035384979773602
 40
0.3525362249809617
 40
0.4519439789201402
 40
0.5425897411918343
 40
0.6642928386931399
 40
0.8172082710723119
 40
1.0
 40
1.0
 40
1.0
 40
1.0
 10
-15.88890126933217
 20
-518.2666928784167
 30
0.0
 10
-16.14975757464305
 20
-517.6891449615293
 30
0.0
 10
-16.65943734832177
 20
-516.5319601004419
 30
0.0
 10
-17.22890102670095
 20
-514.9443155269803
 30
0.0
 10
-17.66160472762527
 20
-513.5755344157567
 30
0.0
 10
-18.02213243615148
 20
-512.3052862988823
 30
0.0
 10
-18.38519898130249
 20
-510.8025968019726
 30
0.0
 10
-18.86499336388403
 20
-508.9221169343075
 30
0.0
 10
-18.99344967296526
 20
-507.5039150211408
 30
0.0
 10
-19.06339381933827
 20
-506.7317075452349
 30
0.0
  0
SPLINE
  5
230FB
330
18
100
AcDbEntity
  8
01
100
AcDbSpline
210
0.0
220
0.0
230
1.0
 70
     8
 71
     3
 72
    37
 73
    33
 74
     0
 42
0.0000000001
 43
0.0000000001
 40
0.0
 40
0.0
 40
0.0
 40
0.0
 40
0.0562091983970827
 40
0.114919776888264
 40
0.1700998106492216
 40
0.2216911732530008
 40
0.2694779296211529
 40
0.3133152753578022
 40
0.353157173109198
 40
0.386256141935449
 40
0.4161737243029199
 40
0.4429780375925613
 40
0.4671358308679235
 40
0.4898456113470249
 40
0.5111968600034817
 40
0.5364302179035831
 40
0.5595114488372614
 40
0.5804569337064963
 40
0.589739488651682
 40
0.6006090593802857
 40
0.6136588583117095
 40
0.6288932256680901
 40
0.6463192533226462
 40
0.6716848015459442
 40
0.7006388751686387
 40
0.7331929816585885
 40
0.7693543640039993
 40
0.8091242281756088
 40
0.8516893019364296
 40
0.8977118479577765
 40
0.9471632886611613
 40
1.0
 40
1.0
 40
1.0
 40
1.0
 10
-80.00744436979909
 20
-572.9053317925475
 30
0.0
 10
-73.72435928269584
 20
-572.4948817229458
 30
0.0
 10
-60.87858391192418
 20
-571.6557160389027
 30
0.0
 10
-41.8500227178061
 20
-570.6574244496853
 30
0.0
 10
-23.32956932823032
 20
-569.8698304648831
 30
0.0
 10
-6.025170734222741
 20
-569.3089650071913
 30
0.0
 10
10.0122920555645
 20
-568.8973246561079
 30
0.0
 10
24.73561829697286
 20
-568.5887897884461
 30
0.0
 10
37.81471078671387
 20
-568.3515980737482
 30
0.0
 10
49.33522886257418
 20
-568.1681571470697
 30
0.0
 10
59.39575573357655
 20
-568.0257651768259
 30
0.0
 10
68.45498787829496
 20
-567.9107230654924
 30
0.0
 10
76.70700141720266
 20
-567.8157652932894
 30
0.0
 10
84.34829874930114
 20
-567.7354508978208
 30
0.0
 10
92.11013753657102
 20
-567.6604240808472
 30
0.0
 10
99.91364140217996
 20
-567.5912376441518
 30
0.0
 10
107.6717408946155
 20
-567.5279755585523
 30
0.0
 10
113.6431524748172
 20
-567.4825609457328
 30
0.0
 10
118.2466915441823
 20
-567.448990227356
 30
0.0
 10
121.9658023542947
 20
-567.422579218339
 30
0.0
 10
126.3516110608365
 20
-567.3923090130063
 30
0.0
 10
131.4718486779315
 20
-567.3579857961583
 30
0.0
 10
137.971645557684
 20
-567.3156039559437
 30
0.0
 10
146.0082677836767
 20
-567.2643684198586
 30
0.0
 10
155.7394779591818
 20
-567.203782102845
 30
0.0
 10
166.680006042678
 20
-567.1383397805923
 30
0.0
 10
178.8320970147637
 20
-567.0697729114424
 30
0.0
 10
192.1056098624089
 20
-567.0010867072394
 30
0.0
 10
206.4837762799693
 20
-566.9353541357907
 30
0.0
 10
221.9464912185471
 20
-566.8771068007879
 30
0.0
 10
238.5598571718132
 20
-566.8291798356283
 30
0.0
 10
250.0179372444495
 20
-566.8145975486268
 30
0.0
 10
255.9365823388038
 20
-566.8070651015782
 30
0.0
  0
SPLINE
  5
230FC
330
18
100
AcDbEntity
  8
01
100
AcDbSpline
210
0.0
220
0.0
230
1.0
 70
     8
 71
     3
 72
    29
 73
    25
 74
     0
 42
0.0000000001
 43
0.0000000001
 40
0.0
 40
0.0
 40
0.0
 40
0.0
 40
0.0649131098162873
 40
0.1262148919903059
 40
0.1838303333466818
 40
0.2377083099750268
 40
0.2878175408690506
 40
0.334270412513874
 40
0.3858555995535183
 40
0.4344810589690417
 40
0.4802576207942756
 40
0.5232611647269904
 40
0.5942741304986006
 40
0.6668682435966654
 40
0.7404068801270898
 40
0.7598507452159005
 40
0.779314844366591
 40
0.8011076656098935
 40
0.8266284344066781
 40
0.8558451516014637
 40
0.888102858656965
 40
0.9238904106876042
 40
0.963223894708823
 40
1.0
 40
1.0
 40
1.0
 40
1.0
 10
255.9365823388038
 20
-566.8070651015782
 30
0.0
 10
263.2079966599508
 20
-566.8170152736329
 30
0.0
 10
277.3462928493922
 20
-566.8363620572745
 30
0.0
 10
297.9384483278595
 20
-566.904397885472
 30
0.0
 10
317.2943969649281
 20
-566.9878171382716
 30
0.0
 10
335.3965175387679
 20
-567.0818452750987
 30
0.0
 10
352.2481919846509
 20
-567.1795294899562
 30
0.0
 10
368.8429947438257
 20
-567.2827934291536
 30
0.0
 10
385.2715680648075
 20
-567.3888446616984
 30
0.0
 10
401.6243096685379
 20
-567.5056044211929
 30
0.0
 10
417.0156493909658
 20
-567.6328034639764
 30
0.0
 10
434.9144663537686
 20
-567.8067532902978
 30
0.0
 10
455.8167000671642
 20
-568.0582251543547
 30
0.0
 10
480.1378408017595
 20
-568.4451613273459
 30
0.0
 10
498.6816583005952
 20
-568.8223689470697
 30
0.0
 10
511.2736529306571
 20
-569.1409592129362
 30
0.0
 10
518.0706117672075
 20
-569.3294505188283
 30
0.0
 10
525.5474083643062
 20
-569.5582936938972
 30
0.0
 10
534.1151484139195
 20
-569.8521441671764
 30
0.0
 10
543.8527192101978
 20
-570.233941916124
 30
0.0
 10
554.7367580997727
 20
-570.7257269592242
 30
0.0
 10
566.749138450303
 20
-571.3459822971345
 30
0.0
 10
579.2630022602318
 20
-572.0669319655653
 30
0.0
 10
587.7700424329671
 20
-572.630003706141
 30
0.0
 10
591.8806388497289
 20
-572.9020796141172
 30
0.0
  0
SPLINE
  5
230FD
330
18
100
AcDbEntity
  8
01
100
AcDbSpline
210
0.0
220
0.0
230
1.0
 70
     8
 71
     3
 72
    13
 73
     9
 74
     0
 42
0.0000000001
 43
0.0000000001
 40
0.0
 40
0.0
 40
0.0
 40
0.0
 40
0.1576659835556243
 40
0.2849533819767301
 40
0.4521666768266402
 40
0.6632569036044196
 40
0.8160938885486706
 40
0.9999999999999999
 40
0.9999999999999999
 40
0.9999999999999999
 40
0.9999999999999999
 10
-83.17209337950368
 20
-569.2778918317101
 30
0.0
 10
-83.20913604242338
 20
-569.5679605270905
 30
0.0
 10
-83.27608410463614
 20
-570.0922083952103
 30
0.0
 10
-83.09904366722873
 20
-570.9175505063292
 30
0.0
 10
-82.67557093052307
 20
-571.76134948808
 30
0.0
 10
-81.93929651803916
 20
-572.4412316419255
 30
0.0
 10
-81.00378255434003
 20
-572.8683675487048
 30
0.0
 10
-80.37784137438172
 20
-572.8875622746189
 30
0.0
 10
-80.0359949946465
 20
-572.8980451247237
 30
0.0
  0
SPLINE
  5
230FE
330
18
100
AcDbEntity
  8
01
100
AcDbSpline
210
0.0
220
0.0
230
1.0
 70
     8
 71
     3
 72
    13
 73
     9
 74
     0
 42
0.0000000001
 43
0.0000000001
 40
0.0
 40
0.0
 40
0.0
 40
0.0
 40
0.157661519403005
 40
0.2849490425749508
 40
0.4521629685349675
 40
0.663255330239936
 40
0.8160914830501637
 40
1.0
 40
1.0
 40
1.0
 40
1.0
 10
591.9092490792211
 20
-572.8980488500142
 30
0.0
 10
592.2016235291469
 20
-572.8933581702904
 30
0.0
 10
592.7300455556217
 20
-572.8848804853014
 30
0.0
 10
593.5216921689664
 20
-572.5919699958131
 30
0.0
 10
594.2964955690134
 20
-572.0525470673456
 30
0.0
 10
594.8644910701153
 20
-571.226881136362
 30
0.0
 10
595.1538030829363
 20
-570.2400133698111
 30
0.0
 10
595.0835797642633
 20
-569.6177386812337
 30
0.0
 10
595.0452282547888
 20
-569.2778918317103
 30
0.0
  0
SPLINE
  5
230FF
330
18
100
AcDbEntity
  8
01
100
AcDbSpline
210
0.0
220
0.0
230
1.0
 70
     8
 71
     3
 72
    31
 73
    27
 74
     0
 42
0.0000000001
 43
0.0000000001
 40
0.0
 40
0.0
 40
0.0
 40
0.0
 40
0.0536669254244629
 40
0.1014209167544235
 40
0.1432621830066374
 40
0.1791903752439401
 40
0.2092051108237743
 40
0.2335915384754595
 40
0.2574311425017893
 40
0.2815655515955445
 40
0.3059945058210527
 40
0.3950296002434888
 40
0.4844075288024617
 40
0.5412844956022691
 40
0.5981491736876703
 40
0.652672596323502
 40
0.7031088630255709
 40
0.7208484095636815
 40
0.7422932505931625
 40
0.7677110051432401
 40
0.797101659782353
 40
0.8304649431507495
 40
0.8670997120075952
 40
0.9075666647907498
 40
0.9518665836737323
 40
1.0
 40
1.0
 40
1.0
 40
1.0
 10
485.5446412682472
 20
-538.901365071773
 30
0.0
 10
481.4374944606193
 20
-538.9632754839822
 30
0.0
 10
473.6757195651885
 20
-539.080275120411
 30
0.0
 10
462.7116591574163
 20
-539.2346198445448
 30
0.0
 10
453.105087035085
 20
-539.3637988654755
 30
0.0
 10
444.856071131117
 20
-539.4696967022915
 30
0.0
 10
437.9428778038168
 20
-539.5549814505512
 30
0.0
 10
431.9548323951608
 20
-539.6263538332232
 30
0.0
 10
426.4168054136248
 20
-539.6903189697546
 30
0.0
 10
420.8755005477092
 20
-539.7522862209707
 30
0.0
 10
410.344466567833
 20
-539.8661388452306
 30
0.0
 10
394.8199050821754
 20
-540.0204904133434
 30
0.0
 10
376.8116995452933
 20
-540.1749427817417
 30
0.0
 10
361.2655596508834
 20
-540.2908754516866
 30
0.0
 10
348.3869962345565
 20
-540.3757056097002
 30
0.0
 10
336.0013221446192
 20
-540.4467292269223
 30
0.0
 10
326.6101576609184
 20
-540.4930377600449
 30
0.0
 10
319.7507484337115
 20
-540.5232826180427
 30
0.0
 10
314.8062063028596
 20
-540.5436011140237
 30
0.0
 10
308.9698991833706
 20
-540.5654903054638
 30
0.0
 10
302.2213626337165
 20
-540.5879705548932
 30
0.0
 10
294.6142803168936
 20
-540.6096501552402
 30
0.0
 10
286.1594207755301
 20
-540.629242787611
 30
0.0
 10
276.867473030345
 20
-540.645170919257
 30
0.0
 10
266.6954221160144
 20
-540.6565234126265
 30
0.0
 10
259.6206662955505
 20
-540.6580180625792
 30
0.0
 10
255.9365823388038
 20
-540.6587963814432
 30
0.0
  0
SPLINE
  5
23100
330
18
100
AcDbEntity
  8
01
100
AcDbSpline
210
0.0
220
0.0
230
1.0
 70
     8
 71
     3
 72
    31
 73
    27
 74
     0
 42
0.0000000001
 43
0.0000000001
 40
0.0
 40
0.0
 40
0.0
 40
0.0
 40
0.0536638375734066
 40
0.1014105119784683
 40
0.1432410721528369
 40
0.1791560335702197
 40
0.2091553833805533
 40
0.2335326941236818
 40
0.2573716582759544
 40
0.2815052860322332
 40
0.3059338416155585
 40
0.3949671263975996
 40
0.4843427651955006
 40
0.541218482383337
 40
0.5980817599096367
 40
0.6525960181136307
 40
0.7030246582873986
 40
0.7207744336285563
 40
0.7422345890648284
 40
0.7676658072031973
 40
0.7970685349639737
 40
0.8304424533069756
 40
0.8670860622639937
 40
0.9075603279053011
 40
0.9518651030516836
 40
1.0
 40
1.0
 40
1.0
 40
1.0
 10
255.9365823388038
 20
-540.6587963814432
 30
0.0
 10
251.8292059318869
 20
-540.6578315084344
 30
0.0
 10
244.0673468634963
 20
-540.6560081527032
 30
0.0
 10
233.1038256647593
 20
-540.6425105362039
 30
0.0
 10
223.4987950711442
 20
-540.6246332199632
 30
0.0
 10
215.2521354067744
 20
-540.6042615512108
 30
0.0
 10
208.3413355322322
 20
-540.5837263945111
 30
0.0
 10
202.3548243215213
 20
-540.5634409786014
 30
0.0
 10
196.8172743349846
 20
-540.5426338595455
 30
0.0
 10
191.2758101456679
 20
-540.5197766076469
 30
0.0
 10
180.7444973949718
 20
-540.4724230377167
 30
0.0
 10
165.2197383245825
 20
-540.3891341512283
 30
0.0
 10
147.2116900462101
 20
-540.2679343571151
 30
0.0
 10
131.6659769308248
 20
-540.1459060285113
 30
0.0
 10
118.7885296815552
 20
-540.0336125030105
 30
0.0
 10
106.404613325551
 20
-539.9150645934758
 30
0.0
 10
97.01434363188531
 20
-539.81762978661
 30
0.0
 10
90.15390468013032
 20
-539.7428642039006
 30
0.0
 10
85.20664607959992
 20
-539.6874642986297
 30
0.0
 10
79.36756192251454
 20
-539.6199799980011
 30
0.0
 10
72.61670441673272
 20
-539.5391273048929
 30
0.0
 10
65.0077679848477
 20
-539.4443335051794
 30
0.0
 10
56.55155002692885
 20
-539.3344804762298
 30
0.0
 10
47.25884041905232
 20
-539.2081541691757
 30
0.0
 10
37.08676414719633
 20
-539.0637882571957
 30
0.0
 10
30.01233028640166
 20
-538.9569812713855
 30
0.0
 10
26.32855321168284
 20
-538.9013650717727
 30
0.0
  0
SPLINE
  5
23101
330
18
100
AcDbEntity
  8
01
100
AcDbSpline
210
0.0
220
0.0
230
1.0
 70
     8
 71
     3
 72
    10
 73
     6
 74
     0
 42
0.0000000001
 43
0.0000000001
 40
0.0
 40
0.0
 40
0.0
 40
0.0
 40
0.4285561838857456
 40
0.6491452848870796
 40
0.9915798731692346
 40
0.9915798731692346
 40
0.9915798731692346
 40
0.9915798731692346
 10
595.0936272263464
 20
-569.50430380018
 30
0.0
 10
593.9355887255299
 20
-564.2101151176075
 30
0.0
 10
592.1814774542675
 20
-556.1908687508094
 30
0.0
 10
589.3163310850125
 20
-543.9835690164987
 30
0.0
 10
587.7019896481654
 20
-537.0493928305787
 30
0.0
 10
586.7202479079117
 20
-532.8319577933476
 30
0.0
  0
SPLINE
  5
23102
330
18
100
AcDbEntity
  8
01
100
AcDbSpline
210
0.0
220
0.0
230
1.0
 70
     8
 71
     3
 72
    20
 73
    16
 74
     0
 42
0.0000000001
 43
0.0000000001
 40
0.0079332056229904
 40
0.0079332056229904
 40
0.0079332056229904
 40
0.0079332056229904
 40
0.0639648423289117
 40
0.1408334356491005
 40
0.2097529026579453
 40
0.2709003469467535
 40
0.3400312728001029
 40
0.3951255314231099
 40
0.4413252881978474
 40
0.4993444359190584
 40
0.5714986897793974
 40
0.6575086442809586
 40
0.7576303664942056
 40
0.871808450765162
 40
0.9999999999999999
 40
0.9999999999999999
 40
0.9999999999999999
 40
0.9999999999999999
 10
526.743660546465
 20
-520.2337859212748
 30
0.0
 10
526.3165186907286
 20
-521.033775128145
 30
0.0
 10
525.2902248489813
 20
-522.9232649446326
 30
0.0
 10
523.3493718719824
 20
-525.5606415087414
 30
0.0
 10
521.1363724730986
 20
-528.0745145113224
 30
0.0
 10
518.7883791612062
 20
-530.285903714846
 30
0.0
 10
516.4277325311818
 20
-532.140604708823
 30
0.0
 10
514.1197807937283
 20
-533.6514361131412
 30
0.0
 10
511.8693236139393
 20
-534.9084740255857
 30
0.0
 10
509.2829058494649
 20
-536.1178979497299
 30
0.0
 10
505.989796414086
 20
-537.3062233422597
 30
0.0
 10
501.9216559159072
 20
-538.3014608058093
 30
0.0
 10
497.0746344616678
 20
-538.7783066895558
 30
0.0
 10
491.5352580460353
 20
-538.7782570228555
 30
0.0
 10
487.6169900058599
 20
-538.8587773539602
 30
0.0
 10
485.5445816636025
 20
-538.9013653046036
 30
0.0
  0
SPLINE
  5
23103
330
18
100
AcDbEntity
  8
01
100
AcDbSpline
210
0.0
220
0.0
230
1.0
 70
     8
 71
     3
 72
    20
 73
    16
 74
     0
 42
0.0000000001
 43
0.0000000001
 40
0.0
 40
0.0
 40
0.0
 40
0.0
 40
0.110588347763364
 40
0.2075441293265421
 40
0.2903954898625539
 40
0.3596396876145684
 40
0.4149294442810698
 40
0.4610851693248368
 40
0.5188897825437343
 40
0.5908169885351481
 40
0.6769798601921326
 40
0.7509671891956035
 40
0.8329474730518188
 40
0.9228315902794211
 40
0.9920752603800372
 40
0.9920752603800372
 40
0.9920752603800372
 40
0.9920752603800372
 10
26.32855321168284
 20
-538.9013653046034
 30
0.0
 10
24.54047673199278
 20
-538.8706291743222
 30
0.0
 10
21.1847454668827
 20
-538.812945851196
 30
0.0
 10
16.49097780176857
 20
-538.748855795169
 30
0.0
 10
12.46104435324418
 20
-538.6086546091435
 30
0.0
 10
9.141382424777873
 20
-538.0860319412693
 30
0.0
 10
6.457719165850392
 20
-537.4319078602709
 30
0.0
 10
4.003886128790725
 20
-536.645152096419
 30
0.0
 10
1.361915722329684
 20
-535.5840206203554
 30
0.0
 10
-1.752502146147492
 20
-533.9939530919689
 30
0.0
 10
-4.895320088442134
 20
-531.9268111645495
 30
0.0
 10
-7.915740553325634
 20
-529.4235977386827
 30
0.0
 10
-10.67858409830984
 20
-526.5577018615224
 30
0.0
 10
-13.08785236070941
 20
-523.4700380443153
 30
0.0
 10
-14.328437591777
 20
-521.2132187111795
 30
0.0
 10
-14.86147607661729
 20
-520.2269162963628
 30
0.0
  0
SPLINE
  5
23104
330
18
100
AcDbEntity
  8
01
100
AcDbSpline
210
0.0
220
0.0
230
1.0
 70
     8
 71
     3
 72
     9
 73
     5
 74
     0
 42
0.0000000001
 43
0.0000000001
 40
0.0322144335137325
 40
0.0322144335137325
 40
0.0322144335137325
 40
0.0322144335137325
 40
0.4624802109288965
 40
1.0
 40
1.0
 40
1.0
 40
1.0
 10
586.1747413407904
 20
-530.4713235955555
 30
0.0
 10
585.4004503005274
 20
-527.0710733128535
 30
0.0
 10
583.5995562779228
 20
-519.1526265515031
 30
0.0
 10
581.8882452942055
 20
-511.2143061365236
 30
0.0
 10
580.9377625107702
 20
-506.8052671274686
 30
0.0
  0
SPLINE
  5
23105
330
18
100
AcDbEntity
  8
01
100
AcDbSpline
210
0.0
220
0.0
230
1.0
 70
     8
 71
     3
 72
    13
 73
     9
 74
     0
 42
0.0000000001
 43
0.0000000001
 40
0.0
 40
0.0
 40
0.0
 40
0.0
 40
0.2034757878393989
 40
0.3532121100926456
 40
0.4527521338129911
 40
0.5804525935897423
 40
0.7629875245691258
 40
0.9493018205391917
 40
0.9493018205391917
 40
0.9493018205391917
 40
0.9493018205391917
 10
530.936558496946
 20
-506.7317112705255
 30
0.0
 10
530.850432305941
 20
-507.5903113369577
 30
0.0
 10
530.7009264901303
 20
-509.0807488205055
 30
0.0
 10
530.2274644179238
 20
-510.9414462322006
 30
0.0
 10
529.8473086858089
 20
-512.4910728479554
 30
0.0
 10
529.3646965762114
 20
-514.1578524549041
 30
0.0
 10
528.6920356708747
 20
-516.1519251626951
 30
0.0
 10
528.0662830470069
 20
-517.5829241813017
 30
0.0
 10
527.7591861856604
 20
-518.2699763563292
 30
0.0
  0
SPLINE
  5
23106
330
18
100
AcDbEntity
  8
01
  6
CONTINUOUS
100
AcDbSpline
210
0.0
220
0.0
230
1.0
 70
     8
 71
     3
 72
    16
 73
    12
 74
     0
 42
0.0000000001
 43
0.0000000001
 40
0.0
 40
0.0
 40
0.0
 40
0.0
 40
0.25
 40
0.25
 40
0.5
 40
0.5
 40
0.75
 40
0.75
 40
0.875
 40
0.875
 40
1.0
 40
1.0
 40
1.0
 40
1.0
 10
582.4807123617359
 20
-531.3422194071068
 30
0.0
 10
578.7442752446389
 20
-530.5480151806005
 30
0.0
 10
575.0105848434616
 20
-529.7543947866238
 30
0.0
 10
567.5428137310612
 20
-528.1670710357812
 30
0.0
 10
563.8083513468448
 20
-527.3732865518159
 30
0.0
 10
556.334182887422
 20
-525.7846030030232
 30
0.0
 10
552.5947472132632
 20
-524.9897614137099
 30
0.0
 10
546.9905910144921
 20
-523.7985612413377
 30
0.0
 10
545.1234078291714
 20
-523.4016792035641
 30
0.0
 10
541.3916561431056
 20
-522.6084708963976
 30
0.0
 10
539.5270721049533
 20
-522.2121413244258
 30
0.0
 10
537.6638190338913
 20
-521.816094658252
 30
0.0
  0
SPLINE
  5
23107
330
18
100
AcDbEntity
  8
01
  6
CONTINUOUS
100
AcDbSpline
210
0.0
220
0.0
230
1.0
 70
     8
 71
     3
 72
    16
 73
    12
 74
     0
 42
0.0000000001
 43
0.0000000001
 40
0.0
 40
0.0
 40
0.0
 40
0.0
 40
0.125
 40
0.125
 40
0.25
 40
0.25
 40
0.5
 40
0.5
 40
0.75
 40
0.75
 40
1.0
 40
1.0
 40
1.0
 40
1.0
 10
-25.79065152575782
 20
-521.8160946582527
 30
0.0
 10
-27.65372603770953
 20
-522.2121033705159
 30
0.0
 10
-29.51817576426362
 20
-522.608404393676
 30
0.0
 10
-33.24974385708771
 20
-523.4015736768945
 30
0.0
 10
-35.11687851216226
 20
-523.7984453992447
 30
0.0
 10
-40.72097585790431
 20
-524.9896330620206
 30
0.0
 10
-44.46045805137288
 20
-525.7844845393181
 30
0.0
 10
-51.93470938659772
 20
-527.3731857039063
 30
0.0
 10
-55.66925990718443
 20
-528.1669889218349
 30
0.0
 10
-63.13724722773219
 20
-529.7543586291383
 30
0.0
 10
-66.87105186779405
 20
-530.5480033053398
 30
0.0
 10
-70.60753182925652
 20
-531.342216638697
 30
0.0
  0
SPLINE
  5
23108
330
18
100
AcDbEntity
  8
01
100
AcDbSpline
210
0.0
220
0.0
230
1.0
 70
    24
 71
     3
 72
    18
 73
    14
 74
     0
 42
0.0000000001
 43
0.0000000001
 40
0.0
 40
0.0
 40
0.0
 40
0.0
 40
0.0415542041472602
 40
0.0831692811484393
 40
0.1250266656862212
 40
0.1873055795995884
 40
0.2501540054314634
 40
0.3747817548884546
 40
0.5000542256214159
 40
0.6242217953898647
 40
0.7498746281530291
 40
0.8746836557219858
 40
1.0
 40
1.0
 40
1.0
 40
1.0
 10
-72.30488353428478
 20
-531.7029998810629
 30
0.0
 10
-72.2965245762021
 20
-531.7012231296737
 30
0.0
 10
-72.27979441498024
 20
-531.6976670241281
 30
0.0
 10
-72.2472924305053
 20
-531.6907585140605
 30
0.0
 10
-72.20338828933524
 20
-531.6814264007701
 30
0.0
 10
-72.14399806232683
 20
-531.6688026183208
 30
0.0
 10
-72.04027364878817
 20
-531.6467553136179
 30
0.0
 10
-71.88443014695764
 20
-531.6136297547098
 30
0.0
 10
-71.66498651203398
 20
-531.5669855701901
 30
0.0
 10
-71.41996045829688
 20
-531.5149036746882
 30
0.0
 10
-71.15737627963932
 20
-531.4590896845236
 30
0.0
 10
-70.88355666429521
 20
-531.4008875285683
 30
0.0
 10
-70.69966514428558
 20
-531.361800179355
 30
0.0
 10
-70.60753289532255
 20
-531.3422168652962
 30
0.0
  0
SPLINE
  5
23109
330
18
100
AcDbEntity
  8
01
  6
CONTINUOUS
100
AcDbSpline
210
0.0
220
0.0
230
1.0
 70
    24
 71
     3
 72
    20
 73
    16
 74
     0
 42
0.0000000001
 43
0.0000000001
 40
0.0
 40
0.0
 40
0.0
 40
0.0
 40
0.0503483204470298
 40
0.10034723972105
 40
0.1502010869266154
 40
0.2001159727796744
 40
0.2502972558854754
 40
0.3756807288144705
 40
0.5000693668226592
 40
0.6253176693597315
 40
0.7499213790966421
 40
0.8125162122992007
 40
0.8750245525098086
 40
0.937563744480906
 40
1.0
 40
1.0
 40
1.0
 40
1.0
 10
582.4807125025857
 20
-531.3422194370455
 30
0.0
 10
582.5176144301552
 20
-531.3500631838888
 30
0.0
 10
582.5911621977723
 20
-531.365696244492
 30
0.0
 10
582.7015486288549
 20
-531.3891596047379
 30
0.0
 10
582.8112653079172
 20
-531.4124806047971
 30
0.0
 10
582.9203675251431
 20
-531.4356709969616
 30
0.0
 10
583.0825604593085
 20
-531.4701461693749
 30
0.0
 10
583.2930057444157
 20
-531.5148776955971
 30
0.0
 10
583.5380021555632
 20
-531.5669532903717
 30
0.0
 10
583.7576143412609
 20
-531.6136333014647
 30
0.0
 10
583.9132915049543
 20
-531.6467235041096
 30
0.0
 10
584.0171270466765
 20
-531.6687944298374
 30
0.0
 10
584.0836375771253
 20
-531.6829316795042
 30
0.0
 10
584.1390843880747
 20
-531.6947172629953
 30
0.0
 10
584.1650692917794
 20
-531.7002405247822
 30
0.0
 10
584.1780510423562
 20
-531.7029998810494
 30
0.0
  0
SPLINE
  5
2310A
330
18
100
AcDbEntity
  8
01
100
AcDbSpline
210
0.0
220
0.0
230
1.0
 70
     8
 71
     3
 72
     9
 73
     5
 74
     0
 42
0.0000000001
 43
0.0000000001
 40
0.0
 40
0.0
 40
0.0
 40
0.0
 40
0.3367905341932904
 40
0.6365273173110051
 40
0.6365273173110051
 40
0.6365273173110051
 40
0.6365273173110051
 10
584.1780498146948
 20
-531.7029998994021
 30
0.0
 10
584.5624509866577
 20
-531.7847041070131
 30
0.0
 10
585.2889614491562
 20
-531.9391234116069
 30
0.0
 10
585.7962724125175
 20
-532.0469599289813
 30
0.0
 10
585.9542189772421
 20
-532.0805343702
 30
0.0
  0
SPLINE
  5
2310B
330
18
100
AcDbEntity
  8
01
100
AcDbSpline
210
0.0
220
0.0
230
1.0
 70
    24
 71
     3
 72
    26
 73
    22
 74
     0
 42
0.0000000001
 43
0.0000000001
 40
0.0
 40
0.0
 40
0.0
 40
0.0
 40
0.125000000000003
 40
0.125000000000003
 40
0.2500000000000061
 40
0.2500000000000061
 40
0.3125000000000075
 40
0.3125000000000075
 40
0.3750000000000091
 40
0.3750000000000091
 40
0.500000000000012
 40
0.500000000000012
 40
0.625000000000015
 40
0.625000000000015
 40
0.7500000000000179
 40
0.7500000000000179
 40
0.8125000000000134
 40
0.8125000000000134
 40
0.875000000000009
 40
0.875000000000009
 40
0.9623531228111584
 40
0.9623531228111584
 40
0.9623531228111584
 40
0.9623531228111584
 10
537.663819034226
 20
-521.8160946566768
 30
0.0
 10
537.0659744921381
 20
-521.6890188763973
 30
0.0
 10
536.4838123275517
 20
-521.5652764883584
 30
0.0
 10
535.3472949883367
 20
-521.3237022704561
 30
0.0
 10
534.7916522669989
 20
-521.2055967640918
 30
0.0
 10
533.9799328165086
 20
-521.0330604686551
 30
0.0
 10
533.712442896202
 20
-520.9762037309129
 30
0.0
 10
533.19045717993
 20
-520.8652522418215
 30
0.0
 10
532.9356375515385
 20
-520.8110886577642
 30
0.0
 10
532.1897410180395
 20
-520.6525434552423
 30
0.0
 10
531.7169494256782
 20
-520.5520484999834
 30
0.0
 10
530.8231309898315
 20
-520.3620615265027
 30
0.0
 10
530.4009156563611
 20
-520.2723168869361
 30
0.0
 10
529.6409503696254
 20
-520.1107812785986
 30
0.0
 10
529.2992464994791
 20
-520.0381498788511
 30
0.0
 10
528.845511188993
 20
-519.9417054613455
 30
0.0
 10
528.7042048749431
 20
-519.9116698770886
 30
0.0
 10
528.441905216378
 20
-519.8559163635368
 30
0.0
 10
528.3211962676328
 20
-519.830258884429
 30
0.0
 10
528.0623678014585
 20
-519.7752431955964
 30
0.0
 10
527.9359977970403
 20
-519.7483824219585
 30
0.0
 10
527.8336952084233
 20
-519.7266373354728
 30
0.0
  0
SPLINE
  5
2310C
330
18
100
AcDbEntity
  8
01
100
AcDbSpline
210
0.0
220
0.0
230
1.0
 70
     8
 71
     3
 72
    14
 73
    10
 74
     0
 42
0.0000000001
 43
0.0000000001
 40
0.1323778287131316
 40
0.1323778287131316
 40
0.1323778287131316
 40
0.1323778287131316
 40
0.2261049077673032
 40
0.3548403126294463
 40
0.4837868044064505
 40
0.6129030740431184
 40
0.7415210175141321
 40
0.8707311724823149
 40
0.9999999999999999
 40
0.9999999999999999
 40
0.9999999999999999
 40
0.9999999999999999
 10
-15.94911888653547
 20
-519.7242155743018
 30
0.0
 10
-16.06840613600576
 20
-519.749569897959
 30
0.0
 10
-16.45801943140356
 20
-519.8323810182453
 30
0.0
 10
-17.3233354807449
 20
-520.0163146753482
 30
0.0
 10
-18.60345557604666
 20
-520.2884063136255
 30
0.0
 10
-20.13999517187
 20
-520.615010527976
 30
0.0
 10
-21.87989913617417
 20
-520.9848424733107
 30
0.0
 10
-23.76884736615244
 20
-521.3863456827901
 30
0.0
 10
-25.11660864496258
 20
-521.6728237380737
 30
0.0
 10
-25.79064224959035
 20
-521.8160952797678
 30
0.0
  0
SPLINE
  5
2310D
330
18
100
AcDbEntity
  8
01
100
AcDbSpline
210
0.0
220
0.0
230
1.0
 70
    24
 71
     3
 72
    10
 73
     6
 74
     0
 42
0.0000000001
 43
0.0000000001
 40
0.0
 40
0.0
 40
0.0
 40
0.0
 40
0.3458550791572543
 40
0.6729275592351827
 40
1.0
 40
1.0
 40
1.0
 40
1.0
 10
-65.52238320112843
 20
-506.8070664426825
 30
0.0
 10
-61.30742609969963
 20
-506.8070664426825
 30
0.0
 10
-53.10641658595301
 20
-506.8070664426825
 30
0.0
 10
-40.91926700478649
 20
-506.8070664426825
 30
0.0
 10
-32.94741560346444
 20
-506.8070664426825
 30
0.0
 10
-28.96149014235158
 20
-506.8070664426825
 30
0.0
  0
SPLINE
  5
2310E
330
18
100
AcDbEntity
  8
01
  6
CONTINUOUS
100
AcDbSpline
210
0.0
220
0.0
230
1.0
 70
     9
 71
     3
 72
    70
 73
    66
 74
     0
 42
0.0000000001
 43
0.0000000001
 40
0.0
 40
0.0
 40
0.0
 40
0.0
 40
0.03125
 40
0.03125
 40
0.0625
 40
0.0625
 40
0.09375
 40
0.09375
 40
0.125
 40
0.125
 40
0.15625
 40
0.15625
 40
0.1875
 40
0.1875
 40
0.21875
 40
0.21875
 40
0.25
 40
0.25
 40
0.28125
 40
0.28125
 40
0.3125
 40
0.3125
 40
0.34375
 40
0.34375
 40
0.375
 40
0.375
 40
0.40625
 40
0.40625
 40
0.4375
 40
0.4375
 40
0.46875
 40
0.46875
 40
0.5
 40
0.5
 40
0.53125
 40
0.53125
 40
0.5625
 40
0.5625
 40
0.59375
 40
0.59375
 40
0.625
 40
0.625
 40
0.65625
 40
0.65625
 40
0.6875
 40
0.6875
 40
0.71875
 40
0.71875
 40
0.75
 40
0.75
 40
0.78125
 40
0.78125
 40
0.8125
 40
0.8125
 40
0.84375
 40
0.84375
 40
0.875
 40
0.875
 40
0.90625
 40
0.90625
 40
0.9375
 40
0.9375
 40
0.96875
 40
0.96875
 40
1.0
 40
1.0
 40
1.0
 40
1.0
 10
-43.96341624299527
 20
-520.807065767671
 30
0.0
 10
-43.96341624299708
 20
-521.0122776629421
 30
0.0
 10
-43.98359122964536
 20
-521.2139785960433
 30
0.0
 10
-44.06256297905526
 20
-521.6106700552743
 30
0.0
 10
-44.12232637354242
 20
-521.8077216923909
 30
0.0
 10
-44.2781819591724
 20
-522.1832168800427
 30
0.0
 10
-44.3735173833789
 20
-522.3612472771435
 30
0.0
 10
-44.59864856093515
 20
-522.6980856810553
 30
0.0
 10
-44.72957030228241
 20
-522.857426463607
 30
0.0
 10
-45.01542807188849
 20
-523.1429939149873
 30
0.0
 10
-45.17137434387001
 20
-523.2711341749603
 30
0.0
 10
-45.50991560571998
 20
-523.4974358971951
 30
0.0
 10
-45.68997549453667
 20
-523.5935136453479
 30
0.0
 10
-46.06238244803131
 20
-523.7479096271579
 30
0.0
 10
-46.25742130853683
 20
-523.80737321215
 30
0.0
 10
-46.65685241753232
 20
-523.8870298018107
 30
0.0
 10
-46.85766931162431
 20
-523.9068115283337
 30
0.0
 10
-47.26142922593823
 20
-523.9073151832997
 30
0.0
 10
-47.46652146605226
 20
-523.8874087952124
 30
0.0
 10
-47.8638214807084
 20
-523.8087916784809
 30
0.0
 10
-48.05696586863047
 20
-523.7505380144528
 30
0.0
 10
-48.43216184766385
 20
-523.5959195099601
 30
0.0
 10
-48.61389172929881
 20
-523.4990623195561
 30
0.0
 10
-48.9501868904768
 20
-523.2750439265699
 30
0.0
 10
-49.10694702442885
 20
-523.1471199807809
 30
0.0
 10
-49.39680265508974
 20
-522.858206822503
 30
0.0
 10
-49.52587328652731
 20
-522.7010523961469
 30
0.0
 10
-49.75102449762522
 20
-522.3651549530957
 30
0.0
 10
-49.84830822181499
 20
-522.1839887788117
 30
0.0
 10
-50.00461252271049
 20
-521.8075180436424
 30
0.0
 10
-50.06344772590234
 20
-521.613893704992
 30
0.0
 10
-50.14301417263192
 20
-521.2160117429064
 30
0.0
 10
-50.16353041304461
 20
-521.0105896035955
 30
0.0
 10
-50.16330110570158
 20
-520.6000786736583
 30
0.0
 10
-50.14300413043708
 20
-520.398288932827
 30
0.0
 10
-50.06371560838085
 20
-520.0013587643236
 30
0.0
 10
-50.00374158083247
 20
-519.8041371647294
 30
0.0
 10
-49.84747171131272
 20
-519.4285107182639
 30
0.0
 10
-49.75190338958743
 20
-519.2504199648163
 30
0.0
 10
-49.52624369233996
 20
-518.9135002822225
 30
0.0
 10
-49.39508597486889
 20
-518.7542264648635
 30
0.0
 10
-49.10886141348197
 20
-518.4689068773871
 30
0.0
 10
-48.95274697446035
 20
-518.3409154877593
 30
0.0
 10
-48.61390510050802
 20
-518.1149565353624
 30
0.0
 10
-48.43404034122028
 20
-518.0192450241454
 30
0.0
 10
-48.06183740785633
 20
-517.8653468663795
 30
0.0
 10
-47.86676649911493
 20
-517.8060791899309
 30
0.0
 10
-47.46814724161737
 20
-517.7268896537887
 30
0.0
 10
-47.26770498645379
 20
-517.7072445794436
 30
0.0
 10
-46.8645908182985
 20
-517.7068893629837
 30
0.0
 10
-46.65984448669184
 20
-517.7268118798222
 30
0.0
 10
-46.26338371901653
 20
-517.8052692827862
 30
0.0
 10
-46.07054252959966
 20
-517.8633809458204
 30
0.0
 10
-45.69571592842073
 20
-518.0177155941258
 30
0.0
 10
-45.5142158938084
 20
-518.1143498017843
 30
0.0
 10
-45.17812554287553
 20
-518.3379728227003
 30
0.0
 10
-45.02135465281532
 20
-518.4657284155307
 30
0.0
 10
-44.73130356833241
 20
-518.7544755486322
 30
0.0
 10
-44.60221420948034
 20
-518.9114455980555
 30
0.0
 10
-44.37681233809559
 20
-519.2472418239474
 30
0.0
 10
-44.27935014091378
 20
-519.4284726365702
 30
0.0
 10
-44.12281569241674
 20
-519.8048624530627
 30
0.0
 10
-44.06385243883921
 20
-519.9984850811177
 30
0.0
 10
-43.98403697111604
 20
-520.396445454265
 30
0.0
 10
-43.96341624299527
 20
-520.6018538723999
 30
0.0
 10
-43.96341624299527
 20
-520.807065767671
 30
0.0
  0
SPLINE
  5
2310F
330
18
100
AcDbEntity
  8
01
100
AcDbSpline
 70
     0
 71
     3
 72
    16
 73
    12
 74
     0
 42
0.0000000001
 43
0.0000000001
 40
0.0
 40
0.0
 40
0.0
 40
0.0
 40
0.25
 40
0.25
 40
0.5
 40
0.5
 40
0.75
 40
0.75
 40
0.875
 40
0.875
 40
1.0
 40
1.0
 40
1.0
 40
1.0
 10
-70.13903995600555
 20
-531.0381674985972
 30
0.0
 10
-66.47141493049418
 20
-530.2585897336792
 30
0.0
 10
-62.80628369202128
 20
-529.4795420391322
 30
0.0
 10
-55.47524928563831
 20
-527.9212825704637
 30
0.0
 10
-51.80895210117302
 20
-527.141987045545
 30
0.0
 10
-44.47212639842797
 20
-525.5824965969321
 30
0.0
 10
-40.80184023901307
 20
-524.8023531881884
 30
0.0
 10
-35.30120317715551
 20
-523.633156682961
 30
0.0
 10
-33.46854585751095
 20
-523.2436133427866
 30
0.0
 10
-29.80582504346381
 20
-522.465077996758
 30
0.0
 10
-27.9757616712082
 20
-522.0760860168646
 30
0.0
 10
-26.14700134909032
 20
-521.6873710087191
 30
0.0
  0
SPLINE
  5
23110
330
18
100
AcDbEntity
  8
01
100
AcDbSpline
210
0.0
220
0.0
230
1.0
 70
    24
 71
     3
 72
    14
 73
    10
 74
     0
 42
0.0000000001
 43
0.0000000001
 40
0.0
 40
0.0
 40
0.0
 40
0.0
 40
0.25
 40
0.25
 40
0.5
 40
0.5
 40
0.75
 40
0.75
 40
1.0
 40
1.0
 40
1.0
 40
1.0
 10
-71.81437742391023
 20
-531.3942714704124
 30
0.0
 10
-71.76851541546381
 20
-531.3845231995854
 30
0.0
 10
-71.6868342508838
 20
-531.3671613320892
 30
0.0
 10
-71.46715287203148
 20
-531.3204666135373
 30
0.0
 10
-71.33215086368324
 20
-531.2917710508243
 30
0.0
 10
-71.02431900403423
 20
-531.2263393691653
 30
0.0
 10
-70.85694085247229
 20
-531.1907620447703
 30
0.0
 10
-70.50152234864214
 20
-531.1152155096422
 30
0.0
 10
-70.32140058298461
 20
-531.0769294464524
 30
0.0
 10
-70.13904020598744
 20
-531.0381675517331
 30
0.0
  0
SPLINE
  5
23111
330
18
100
AcDbEntity
  8
01
100
AcDbSpline
210
0.0
220
0.0
230
1.0
 70
    24
 71
     3
 72
    12
 73
     8
 74
     0
 42
0.0000000001
 43
0.0000000001
 40
0.0
 40
0.0
 40
0.0
 40
0.0
 40
0.25
 40
0.25
 40
0.5
 40
0.5
 40
1.0
 40
1.0
 40
1.0
 40
1.0
 10
-67.19999306097776
 20
-506.8070657676706
 30
0.0
 10
-67.15371985066264
 20
-506.807065767671
 30
0.0
 10
-67.07523397764777
 20
-506.807065767671
 30
0.0
 10
-66.86021608485095
 20
-506.807065767671
 30
0.0
 10
-66.72626652834475
 20
-506.807065767671
 30
0.0
 10
-66.26698693133181
 20
-506.807065767671
 30
0.0
 10
-65.89000299200558
 20
-506.807065767671
 30
0.0
 10
-65.52237362191732
 20
-506.807065767671
 30
0.0
  0
SPLINE
  5
23112
330
18
100
AcDbEntity
  8
01
100
AcDbSpline
210
0.0
220
0.0
230
1.0
 70
    24
 71
     3
 72
    10
 73
     6
 74
     0
 42
0.0000000001
 43
0.0000000001
 40
0.0
 40
0.0
 40
0.0
 40
0.0
 40
0.3197642747712233
 40
0.6586262352763387
 40
0.9999999999999999
 40
0.9999999999999999
 40
0.9999999999999999
 40
0.9999999999999999
 10
-69.05631278753896
 20
-506.8070664426825
 30
0.0
 10
-69.02080680959585
 20
-506.8070664426825
 30
0.0
 10
-68.94767428533447
 20
-506.8070664426825
 30
0.0
 10
-68.33639578520484
 20
-506.8070664426825
 30
0.0
 10
-67.57974027973756
 20
-506.8070664426825
 30
0.0
 10
-67.20001553297658
 20
-506.8070664426825
 30
0.0
  0
SPLINE
  5
23113
330
18
100
AcDbEntity
  8
01
100
AcDbSpline
210
0.0
220
0.0
230
1.0
 70
    24
 71
     3
 72
     8
 73
     4
 74
     0
 42
0.0000000001
 43
0.0000000001
 40
0.5819263536750109
 40
0.5819263536750109
 40
0.5819263536750109
 40
0.5819263536750109
 40
1.0
 40
1.0
 40
1.0
 40
1.0
 10
-73.11862131411141
 20
-531.6714970672922
 30
0.0
 10
-72.76637813812846
 20
-531.5966254689336
 30
0.0
 10
-72.31163481489745
 20
-531.4999667917057
 30
0.0
 10
-71.81437869229154
 20
-531.3942717400153
 30
0.0
  0
SPLINE
  5
23114
330
18
100
AcDbEntity
  8
01
100
AcDbSpline
210
0.0
220
0.0
230
1.0
 70
    24
 71
     3
 72
    24
 73
    20
 74
     0
 42
0.0000000001
 43
0.0000000001
 40
0.0
 40
0.0
 40
0.0
 40
0.0
 40
0.0573789285067999
 40
0.1147550701499031
 40
0.1721311833022908
 40
0.2295071466787315
 40
0.2868855300818574
 40
0.3442626593116962
 40
0.4016389855372035
 40
0.459015748224982
 40
0.5163932457189643
 40
0.5737708628875092
 40
0.6311473753412263
 40
0.746195709772631
 40
0.8035734923928796
 40
0.8609506870579684
 40
0.9183274586688922
 40
0.9757049116622427
 40
1.0
 40
1.0
 40
1.0
 40
1.0
 10
-28.96131132841725
 20
-506.8070664426825
 30
0.0
 10
-28.65222886693078
 20
-506.8070664426825
 30
0.0
 10
-28.03407895592642
 20
-506.8070664426825
 30
0.0
 10
-27.12568251042063
 20
-506.8070664426825
 30
0.0
 10
-26.23866769332159
 20
-506.8070664426825
 30
0.0
 10
-25.37985607962179
 20
-506.8070664426825
 30
0.0
 10
-24.55542523072614
 20
-506.8070664426825
 30
0.0
 10
-23.77126158305106
 20
-506.8070664426825
 30
0.0
 10
-23.03239719163463
 20
-506.8070664426825
 30
0.0
 10
-22.34382926699215
 20
-506.8070664426825
 30
0.0
 10
-21.71064523459205
 20
-506.8070664426825
 30
0.0
 10
-21.13735876355673
 20
-506.8070664426825
 30
0.0
 10
-20.45636423452339
 20
-506.8070664426825
 30
0.0
 10
-19.90704140037775
 20
-506.8070664426825
 30
0.0
 10
-19.50613659128027
 20
-506.8070664426825
 30
0.0
 10
-19.27916505621903
 20
-506.8070664426825
 30
0.0
 10
-19.1330062891098
 20
-506.8070664426825
 30
0.0
 10
-19.06306462482422
 20
-506.8070664426825
 30
0.0
 10
-19.07073751794775
 20
-506.8070664426825
 30
0.0
 10
-19.0730199694695
 20
-506.8070664426825
 30
0.0
  0
SPLINE
  5
23115
330
18
100
AcDbEntity
  8
01
100
AcDbSpline
210
0.0
220
0.0
230
1.0
 70
     8
 71
     3
 72
    14
 73
    10
 74
     0
 42
0.0000000001
 43
0.0000000001
 40
0.0
 40
0.0
 40
0.0
 40
0.0
 40
0.1251247289323849
 40
0.2506248195734614
 40
0.3754092716006336
 40
0.5004947161420572
 40
0.6256196974959831
 40
0.7503343286280411
 40
0.7807688495350501
 40
0.7807688495350501
 40
0.7807688495350501
 40
0.7807688495350501
 10
-26.14698861838002
 20
-521.6873715987947
 30
0.0
 10
-25.47527492826481
 20
-521.5445942929971
 30
0.0
 10
-24.12983247394874
 20
-521.2586113637228
 30
0.0
 10
-22.23985687535929
 20
-520.8568797790115
 30
0.0
 10
-20.49717877906875
 20
-520.4864669395622
 30
0.0
 10
-18.95732700848345
 20
-520.1591547324786
 30
0.0
 10
-17.6758828685193
 20
-519.8867780414282
 30
0.0
 10
-16.9589632616258
 20
-519.7343926341766
 30
0.0
 10
-16.64932163751979
 20
-519.668575442505
 30
0.0
 10
-16.59234050742413
 20
-519.6564635485818
 30
0.0
  0
LINE
  5
23116
330
18
100
AcDbEntity
  8
01
100
AcDbLine
 10
559.5387413620886
 20
-518.6696368625908
 30
0.0
 11
559.5387413620886
 21
-519.8917369714527
 31
0.0
  0
LINE
  5
23117
330
18
100
AcDbEntity
  8
01
100
AcDbLine
 10
558.2845404267248
 20
-518.669627549365
 30
0.0
 11
559.5387413620886
 21
-518.6696368625908
 31
0.0
  0
LINE
  5
23118
330
18
100
AcDbEntity
  8
01
100
AcDbLine
 10
558.2845404267248
 20
-519.8917462846784
 30
0.0
 11
558.2845404267248
 21
-518.669627549365
 31
0.0
  0
ELLIPSE
  5
23119
330
18
100
AcDbEntity
  8
01
100
AcDbEllipse
 10
557.9595143957997
 20
-519.8436668457689
 30
0.0
 11
0.2462210020822226
 21
-0.2462210020796079
 31
-1.776356839400250E-15
210
3.607240699203070E-15
220
-3.607240699164762E-15
230
1.0
 40
0.8615513403111313
 41
5.572030107019263
 42
6.994340507337954
  0
LINE
  5
2311A
330
18
100
AcDbEntity
  8
01
100
AcDbLine
 10
556.7854836106237
 20
-520.1686750522404
 30
0.0
 11
558.0076172470983
 21
-520.1686657390146
 31
0.0
  0
LINE
  5
2311B
330
18
100
AcDbEntity
  8
01
100
AcDbLine
 10
556.7854836106237
 20
-521.4229151031523
 30
0.0
 11
556.7854836106237
 21
-520.1686750522404
 31
0.0
  0
LINE
  5
2311C
330
18
100
AcDbEntity
  8
01
100
AcDbLine
 10
558.0075576424535
 20
-521.4229225537329
 30
0.0
 11
556.7854836106237
 21
-521.4229151031523
 31
0.0
  0
ELLIPSE
  5
2311D
330
18
100
AcDbEntity
  8
01
100
AcDbEllipse
 10
557.9595011033582
 20
-521.7479231318162
 30
0.0
 11
-0.2462231637586854
 21
-0.2462197263184862
 31
-1.776356839400250E-15
210
-3.607259389382590E-15
220
-3.607209029626649E-15
230
1.0
 40
0.8615497903417871
 41
2.430431439475981
 42
3.852753867703033
  0
LINE
  5
2311E
330
18
100
AcDbEntity
  8
01
100
AcDbLine
 10
558.28448082208
 20
-522.9219532928018
 30
0.0
 11
558.28448082208
 21
-521.6998475960045
 31
0.0
  0
LINE
  5
2311F
330
18
100
AcDbEntity
  8
01
100
AcDbLine
 10
559.5388009667333
 20
-522.9219626060276
 30
0.0
 11
558.28448082208
 21
-522.9219532928018
 31
0.0
  0
LINE
  5
23120
330
18
100
AcDbEntity
  8
01
100
AcDbLine
 10
559.5388009667333
 20
-521.6998736730366
 30
0.0
 11
559.5388009667333
 21
-522.9219626060276
 31
0.0
  0
ELLIPSE
  5
23121
330
18
100
AcDbEntity
  8
01
100
AcDbEllipse
 10
559.8637794373701
 20
-521.7479528146587
 30
0.0
 11
-0.24622100208245
 21
0.246221002080631
 31
1.776356839400250E-15
210
3.607240699188072E-15
220
-3.607240699161440E-15
230
1.0
 40
0.8615513403106749
 41
5.572030107023885
 42
6.994340507338981
  0
LINE
  5
23122
330
18
100
AcDbEntity
  8
01
100
AcDbLine
 10
561.0377981781896
 20
-521.4229449054747
 30
0.0
 11
559.8157241463598
 21
-521.4229523560552
 31
0.0
  0
LINE
  5
23123
330
18
100
AcDbEntity
  8
01
100
AcDbLine
 10
561.0377981781896
 20
-520.1686657390146
 30
0.0
 11
561.0377981781896
 21
-521.4229449054747
 31
0.0
  0
LINE
  5
23124
330
18
100
AcDbEntity
  8
01
100
AcDbLine
 10
559.815664541715
 20
-520.168658288434
 30
0.0
 11
561.0377981781896
 21
-520.1686657390146
 31
0.0
  0
ELLIPSE
  5
23125
330
18
100
AcDbEntity
  8
01
100
AcDbEllipse
 10
559.8637706818811
 20
-519.8436580905495
 30
0.0
 11
-0.2462210020815974
 21
-0.246221002081711
 31
-1.776356839400250E-15
210
-3.607240699172255E-15
220
-3.607240699173926E-15
230
1.0
 40
0.8615513403114314
 41
5.57203010702248
 42
6.994340507334668
  0
LINE
  5
23126
330
18
100
AcDbEntity
  8
01
100
AcDbLine
 10
558.7845041871008
 20
-520.391741710022
 30
0.0
 11
558.7845041871008
 21
-519.1696322879343
 31
0.0
  0
LINE
  5
23127
330
18
100
AcDbEntity
  8
01
100
AcDbLine
 10
558.2845404267248
 20
-518.669627549365
 30
0.0
 11
558.7845041871008
 21
-519.1696322879343
 31
0.0
  0
ELLIPSE
  5
23128
330
18
100
AcDbEntity
  8
01
100
AcDbEllipse
 10
558.4595109056447
 20
-520.3436633556094
 30
0.0
 11
0.2462210020822227
 21
-0.246221002079551
 31
-1.776356839400250E-15
210
3.607240699203903E-15
220
-3.607240699164763E-15
230
1.0
 40
0.8615513403111731
 41
5.572030107019379
 42
6.994338501432386
  0
LINE
  5
23129
330
18
100
AcDbEntity
  8
01
100
AcDbLine
 10
560.5378344178137
 20
-520.6686630270033
 30
0.0
 11
561.0377981781896
 21
-520.1686657390146
 31
0.0
  0
LINE
  5
2312A
330
18
100
AcDbEntity
  8
01
100
AcDbLine
 10
561.0377981781896
 20
-521.4229449054747
 30
0.0
 11
560.5377748131689
 21
-520.922947617486
 31
0.0
  0
LINE
  5
2312B
330
18
100
AcDbEntity
  8
01
100
AcDbLine
 10
560.5378344178137
 20
-520.6686630270033
 30
0.0
 11
560.5377748131689
 21
-520.922947617486
 31
0.0
  0
LINE
  5
2312C
330
18
100
AcDbEntity
  8
01
100
AcDbLine
 10
559.315700781339
 20
-520.6686537137775
 30
0.0
 11
560.5378344178137
 21
-520.6686630270033
 31
0.0
  0
ELLIPSE
  5
2312D
330
18
100
AcDbEntity
  8
01
100
AcDbEllipse
 10
558.4595045935368
 20
-521.2479266220207
 30
0.0
 11
-0.2462231637586854
 21
-0.2462197263184862
 31
-1.776356839400250E-15
210
-3.607259389382590E-15
220
-3.607209029626649E-15
230
1.0
 40
0.8615497903417871
 41
2.430431439477717
 42
3.852753867701448
  0
LINE
  5
2312E
330
18
100
AcDbEntity
  8
01
100
AcDbLine
 10
559.0387776017126
 20
-519.1696341505794
 30
0.0
 11
559.0387776017126
 21
-520.3917323967962
 31
0.0
  0
LINE
  5
2312F
330
18
100
AcDbEntity
  8
01
100
AcDbLine
 10
559.5387413620886
 20
-518.6696368625908
 30
0.0
 11
559.0387776017126
 21
-519.1696341505794
 31
0.0
  0
LINE
  5
23130
330
18
100
AcDbEntity
  8
01
100
AcDbLine
 10
558.7845041871008
 20
-522.4219560048132
 30
0.0
 11
558.7845041871008
 21
-521.199852170661
 31
0.0
  0
LINE
  5
23131
330
18
100
AcDbEntity
  8
01
100
AcDbLine
 10
558.28448082208
 20
-522.9219532928018
 30
0.0
 11
558.7845041871008
 21
-522.4219560048132
 31
0.0
  0
ELLIPSE
  5
23132
330
18
100
AcDbEntity
  8
01
100
AcDbEllipse
 10
559.3637741720379
 20
-520.3436546003923
 30
0.0
 11
-0.2462210020815974
 21
-0.246221002081711
 31
-1.776356839400250E-15
210
-3.607240699172255E-15
220
-3.607240699173926E-15
230
1.0
 40
0.8615513403113737
 41
5.572030107022029
 42
6.994338501434667
  0
LINE
  5
23133
330
18
100
AcDbEntity
  8
01
100
AcDbLine
 10
559.0387776017126
 20
-521.1998763850479
 30
0.0
 11
559.0387776017126
 21
-522.4219578674583
 31
0.0
  0
LINE
  5
23134
330
18
100
AcDbEntity
  8
01
100
AcDbLine
 10
559.5388009667333
 20
-522.9219626060276
 30
0.0
 11
559.0387776017126
 21
-522.4219578674583
 31
0.0
  0
LINE
  5
23135
330
18
100
AcDbEntity
  8
01
100
AcDbLine
 10
559.0387776017126
 20
-522.4219578674583
 30
0.0
 11
558.7845041871008
 21
-522.4219560048132
 31
0.0
  0
LINE
  5
23136
330
18
100
AcDbEntity
  8
01
100
AcDbLine
 10
558.7845041871008
 20
-519.1696322879343
 30
0.0
 11
559.0387776017126
 21
-519.1696341505794
 31
0.0
  0
LINE
  5
23137
330
18
100
AcDbEntity
  8
01
100
AcDbLine
 10
560.5377748131689
 20
-520.922947617486
 30
0.0
 11
559.315700781339
 21
-520.9229569307117
 31
0.0
  0
LINE
  5
23138
330
18
100
AcDbEntity
  8
01
100
AcDbLine
 10
558.5075810074743
 20
-520.9229271283893
 30
0.0
 11
557.2855069756445
 21
-520.9229178151636
 31
0.0
  0
LINE
  5
23139
330
18
100
AcDbEntity
  8
01
100
AcDbLine
 10
556.7854836106237
 20
-521.4229151031523
 30
0.0
 11
557.2855069756445
 21
-520.9229178151636
 31
0.0
  0
ELLIPSE
  5
2313A
330
18
100
AcDbEntity
  8
01
100
AcDbEllipse
 10
559.3637829275251
 20
-521.247956304816
 30
0.0
 11
-0.24622100208245
 21
0.246221002080631
 31
1.776356839400250E-15
210
3.607240699188072E-15
220
-3.607240699161440E-15
230
1.0
 40
0.8615513403107327
 41
5.572030107019408
 42
6.994338501398895
  0
LINE
  5
2313B
330
18
100
AcDbEntity
  8
01
100
AcDbLine
 10
556.7854836106237
 20
-520.1686750522404
 30
0.0
 11
557.2855069756445
 21
-520.668672340229
 31
0.0
  0
LINE
  5
2313C
330
18
100
AcDbEntity
  8
01
100
AcDbLine
 10
557.2855069756445
 20
-520.9229178151636
 30
0.0
 11
557.2855069756445
 21
-520.668672340229
 31
0.0
  0
LINE
  5
2313D
330
18
100
AcDbEntity
  8
01
100
AcDbLine
 10
557.2855069756445
 20
-520.668672340229
 30
0.0
 11
558.5075810074743
 21
-520.6686630270033
 31
0.0
  0
SPLINE
  5
2313E
330
18
100
AcDbEntity
  8
01
100
AcDbSpline
210
0.0
220
0.0
230
1.0
 70
     8
 71
     3
 72
    16
 73
    12
 74
     0
 42
0.0000000001
 43
0.0000000001
 40
0.0
 40
0.0
 40
0.0
 40
0.0
 40
0.25
 40
0.25
 40
0.5
 40
0.5
 40
0.75
 40
0.75
 40
0.875
 40
0.875
 40
1.0
 40
1.0
 40
1.0
 40
1.0
 10
582.4807123617359
 20
-531.3422194071068
 30
0.0
 10
578.7442752446389
 20
-530.5480151806005
 30
0.0
 10
575.0105848434616
 20
-529.7543947866238
 30
0.0
 10
567.5428137310612
 20
-528.1670710357812
 30
0.0
 10
563.8083513468448
 20
-527.3732865518159
 30
0.0
 10
556.334182887422
 20
-525.7846030030232
 30
0.0
 10
552.5947472132632
 20
-524.9897614137099
 30
0.0
 10
546.9905910144921
 20
-523.7985612413377
 30
0.0
 10
545.1234078291714
 20
-523.4016792035641
 30
0.0
 10
541.3916561431056
 20
-522.6084708963976
 30
0.0
 10
539.5270721049533
 20
-522.2121413244258
 30
0.0
 10
537.6638190338913
 20
-521.816094658252
 30
0.0
  0
SPLINE
  5
2313F
330
18
100
AcDbEntity
  8
01
100
AcDbSpline
210
0.0
220
0.0
230
1.0
 70
     8
 71
     3
 72
    16
 73
    12
 74
     0
 42
0.0000000001
 43
0.0000000001
 40
0.0
 40
0.0
 40
0.0
 40
0.0
 40
0.125
 40
0.125
 40
0.25
 40
0.25
 40
0.5
 40
0.5
 40
0.75
 40
0.75
 40
1.0
 40
1.0
 40
1.0
 40
1.0
 10
-25.79065152575782
 20
-521.8160946582527
 30
0.0
 10
-27.65372603770953
 20
-522.2121033705159
 30
0.0
 10
-29.51817576426362
 20
-522.608404393676
 30
0.0
 10
-33.24974385708771
 20
-523.4015736768945
 30
0.0
 10
-35.11687851216226
 20
-523.7984453992447
 30
0.0
 10
-40.72097585790431
 20
-524.9896330620206
 30
0.0
 10
-44.46045805137288
 20
-525.7844845393181
 30
0.0
 10
-51.93470938659772
 20
-527.3731857039063
 30
0.0
 10
-55.66925990718443
 20
-528.1669889218349
 30
0.0
 10
-63.13724722773219
 20
-529.7543586291383
 30
0.0
 10
-66.87105186779405
 20
-530.5480033053398
 30
0.0
 10
-70.60753182925652
 20
-531.342216638697
 30
0.0
  0
SPLINE
  5
23140
330
18
100
AcDbEntity
  8
01
100
AcDbSpline
210
0.0
220
0.0
230
1.0
 70
    24
 71
     3
 72
    20
 73
    16
 74
     0
 42
0.0000000001
 43
0.0000000001
 40
0.0
 40
0.0
 40
0.0
 40
0.0
 40
0.0503483204470298
 40
0.10034723972105
 40
0.1502010869266154
 40
0.2001159727796744
 40
0.2502972558854754
 40
0.3756807288144705
 40
0.5000693668226592
 40
0.6253176693597315
 40
0.7499213790966421
 40
0.8125162122992007
 40
0.8750245525098086
 40
0.937563744480906
 40
1.0
 40
1.0
 40
1.0
 40
1.0
 10
582.4807125025857
 20
-531.3422194370455
 30
0.0
 10
582.5176144301552
 20
-531.3500631838888
 30
0.0
 10
582.5911621977723
 20
-531.365696244492
 30
0.0
 10
582.7015486288549
 20
-531.3891596047379
 30
0.0
 10
582.8112653079172
 20
-531.4124806047971
 30
0.0
 10
582.9203675251431
 20
-531.4356709969616
 30
0.0
 10
583.0825604593085
 20
-531.4701461693749
 30
0.0
 10
583.2930057444157
 20
-531.5148776955971
 30
0.0
 10
583.5380021555632
 20
-531.5669532903717
 30
0.0
 10
583.7576143412609
 20
-531.6136333014647
 30
0.0
 10
583.9132915049543
 20
-531.6467235041096
 30
0.0
 10
584.0171270466765
 20
-531.6687944298374
 30
0.0
 10
584.0836375771253
 20
-531.6829316795042
 30
0.0
 10
584.1390843880747
 20
-531.6947172629953
 30
0.0
 10
584.1650692917794
 20
-531.7002405247822
 30
0.0
 10
584.1780510423562
 20
-531.7029998810494
 30
0.0
  0
SPLINE
  5
23141
330
18
100
AcDbEntity
  8
01
100
AcDbSpline
210
0.0
220
0.0
230
1.0
 70
     8
 71
     3
 72
     9
 73
     5
 74
     0
 42
0.0000000001
 43
0.0000000001
 40
0.0
 40
0.0
 40
0.0
 40
0.0
 40
0.3367905341932904
 40
0.6365220624886039
 40
0.6365220624886039
 40
0.6365220624886039
 40
0.6365220624886039
 10
584.1780498146948
 20
-531.7029998994021
 30
0.0
 10
584.5624509866577
 20
-531.7847041070131
 30
0.0
 10
585.2889554514825
 20
-531.9391221368055
 30
0.0
 10
585.7962640363369
 20
-532.046958148499
 30
0.0
 10
585.9542106700685
 20
-532.0805326043578
 30
0.0
  0
SPLINE
  5
23142
330
18
100
AcDbEntity
  8
01
100
AcDbSpline
210
0.0
220
0.0
230
1.0
 70
    24
 71
     3
 72
    12
 73
     8
 74
     0
 42
0.0000000001
 43
0.0000000001
 40
0.0
 40
0.0
 40
0.0
 40
0.0
 40
0.2499999999999978
 40
0.2499999999999978
 40
0.4999999999999956
 40
0.4999999999999956
 40
1.0
 40
1.0
 40
1.0
 40
1.0
 10
540.8346844204266
 20
-506.8070657676708
 30
0.0
 10
543.8806105261178
 20
-506.8070657676708
 30
0.0
 10
546.9278699357715
 20
-506.8070657676708
 30
0.0
 10
553.0214743404106
 20
-506.8070657676708
 30
0.0
 10
556.0681234813421
 20
-506.8070657676712
 30
0.0
 10
565.2084826477005
 20
-506.8070657676712
 30
0.0
 10
571.3019930808243
 20
-506.8070657676712
 30
0.0
 10
577.3955184400477
 20
-506.8070657676712
 30
0.0
  0
SPLINE
  5
23143
330
18
100
AcDbEntity
  8
01
100
AcDbSpline
210
0.0
220
0.0
230
1.0
 70
     9
 71
     3
 72
    70
 73
    66
 74
     0
 42
0.0000000001
 43
0.0000000001
 40
0.0
 40
0.0
 40
0.0
 40
0.0
 40
0.03125
 40
0.03125
 40
0.0625
 40
0.0625
 40
0.09375
 40
0.09375
 40
0.125
 40
0.125
 40
0.15625
 40
0.15625
 40
0.1875
 40
0.1875
 40
0.21875
 40
0.21875
 40
0.25
 40
0.25
 40
0.28125
 40
0.28125
 40
0.3125
 40
0.3125
 40
0.34375
 40
0.34375
 40
0.375
 40
0.375
 40
0.40625
 40
0.40625
 40
0.4375
 40
0.4375
 40
0.46875
 40
0.46875
 40
0.5
 40
0.5
 40
0.53125
 40
0.53125
 40
0.5625
 40
0.5625
 40
0.59375
 40
0.59375
 40
0.625
 40
0.625
 40
0.65625
 40
0.65625
 40
0.6875
 40
0.6875
 40
0.71875
 40
0.71875
 40
0.75
 40
0.75
 40
0.78125
 40
0.78125
 40
0.8125
 40
0.8125
 40
0.84375
 40
0.84375
 40
0.875
 40
0.875
 40
0.90625
 40
0.90625
 40
0.9375
 40
0.9375
 40
0.96875
 40
0.96875
 40
1.0
 40
1.0
 40
1.0
 40
1.0
 10
555.8365837540553
 20
-520.8070657676712
 30
0.0
 10
555.8365837540534
 20
-520.6018574612008
 30
0.0
 10
555.8567588637582
 20
-520.4000480880222
 30
0.0
 10
555.9358521788347
 20
-520.0029546062533
 30
0.0
 10
555.9957574978018
 20
-519.8055767498599
 30
0.0
 10
556.1519749579058
 20
-519.4296068119602
 30
0.0
 10
556.2475617316361
 20
-519.25131373979
 30
0.0
 10
556.4733928427888
 20
-518.9139481421753
 30
0.0
 10
556.6046792729833
 20
-518.7544707850557
 30
0.0
 10
556.8912148405836
 20
-518.4688205539901
 30
0.0
 10
557.0475312235433
 20
-518.3406784843546
 30
0.0
 10
557.3869019566903
 20
-518.1144699901251
 30
0.0
 10
557.5668461838015
 20
-518.018796726782
 30
0.0
 10
557.9394296197063
 20
-517.8649051860411
 30
0.0
 10
558.1348574146216
 20
-517.805646181555
 30
0.0
 10
558.5334831779221
 20
-517.7266770615524
 30
0.0
 10
558.7339568186874
 20
-517.7071315169542
 30
0.0
 10
559.1371938676368
 20
-517.70700034642
 30
0.0
 10
559.3419249411056
 20
-517.7270549267205
 30
0.0
 10
559.738024565055
 20
-517.8056559514744
 30
0.0
 10
559.9307413793051
 20
-517.8638178290016
 30
0.0
 10
560.3054085404731
 20
-518.0182709533437
 30
0.0
 10
560.486538518948
 20
-518.1148024242357
 30
0.0
 10
560.8221734000438
 20
-518.3382212260744
 30
0.0
 10
560.9788023667118
 20
-518.465874688116
 30
0.0
 10
561.2686923633794
 20
-518.7544815508372
 30
0.0
 10
561.3974212637988
 20
-518.910995249591
 30
0.0
 10
561.6226699031615
 20
-519.246378144062
 30
0.0
 10
561.7201514474766
 20
-519.4275021486037
 30
0.0
 10
561.8766618790617
 20
-519.8033798099245
 30
0.0
 10
561.9356990708495
 20
-519.9968346631172
 30
0.0
 10
562.0157213836667
 20
-520.3946599188657
 30
0.0
 10
562.036468457429
 20
-520.6000659000574
 30
0.0
 10
562.0366980808597
 20
-521.010597780275
 30
0.0
 10
562.0166198786194
 20
-521.212469943509
 30
0.0
 10
561.9377469319409
 20
-521.6095585427815
 30
0.0
 10
561.877980319696
 20
-521.806875034395
 30
0.0
 10
561.7219928105499
 20
-522.182903226887
 30
0.0
 10
561.6265288181569
 20
-522.3612123677672
 30
0.0
 10
561.4009821208713
 20
-522.6986039756107
 30
0.0
 10
561.2697907835193
 20
-522.8581862633359
 30
0.0
 10
560.9833405993234
 20
-523.1441016566596
 30
0.0
 10
560.8270509851302
 20
-523.2723734532665
 30
0.0
 10
560.48771350638
 20
-523.498831884529
 30
0.0
 10
560.3074298409485
 20
-523.5948083738394
 30
0.0
 10
559.9344246196708
 20
-523.7490109471564
 30
0.0
 10
559.7389264508167
 20
-523.808353092888
 30
0.0
 10
559.3393654268586
 20
-523.8875278004834
 30
0.0
 10
559.138486461716
 20
-523.90706817913
 30
0.0
 10
558.7346070024253
 20
-523.9070633557685
 30
0.0
 10
558.5295478370392
 20
-523.8868785604905
 30
0.0
 10
558.1327402835598
 20
-523.8078591213521
 30
0.0
 10
557.9398120881162
 20
-523.7494402079619
 30
0.0
 10
557.5650013200686
 20
-523.594516704939
 30
0.0
 10
557.3837649335785
 20
-523.4976859091321
 30
0.0
 10
557.0482045046813
 20
-523.2737856231474
 30
0.0
 10
556.8917325193709
 20
-523.1459471676008
 30
0.0
 10
556.6023290277283
 20
-522.857196897025
 30
0.0
 10
556.4737472391482
 20
-522.7005235215529
 30
0.0
 10
556.2490000316577
 20
-522.3651542439807
 30
0.0
 10
556.1518095447011
 20
-522.1841736972951
 30
0.0
 10
555.9957115852942
 20
-521.8083971483497
 30
0.0
 10
555.9368750950855
 20
-521.6150494624426
 30
0.0
 10
555.8572010986829
 20
-521.2175437226424
 30
0.0
 10
555.8365837540553
 20
-521.0122740741413
 30
0.0
 10
555.8365837540553
 20
-520.8070657676712
 30
0.0
  0
SPLINE
  5
23144
330
18
100
AcDbEntity
  8
01
100
AcDbSpline
 70
     0
 71
     3
 72
    16
 73
    12
 74
     0
 42
0.0000000001
 43
0.0000000001
 40
0.0
 40
0.0
 40
0.0
 40
0.0
 40
0.1249999999999973
 40
0.1249999999999973
 40
0.2499999999999947
 40
0.2499999999999947
 40
0.4999999999999964
 40
0.4999999999999964
 40
0.7499999999999982
 40
0.7499999999999982
 40
1.0
 40
1.0
 40
1.0
 40
1.0
 10
538.0201688601505
 20
-521.6873710087193
 30
0.0
 10
539.8489291822666
 20
-522.0760860168648
 30
0.0
 10
541.678992554524
 20
-522.4650779967583
 30
0.0
 10
545.3417133685693
 20
-523.2436133427868
 30
0.0
 10
547.1743706882139
 20
-523.6331566829613
 30
0.0
 10
552.6750077500731
 20
-524.8023531881886
 30
0.0
 10
556.3452939094861
 20
-525.5824965969323
 30
0.0
 10
563.6821196122312
 20
-527.1419870455452
 30
0.0
 10
567.3484167966983
 20
-527.921282570464
 30
0.0
 10
574.6794512030795
 20
-529.4795420391324
 30
0.0
 10
578.3445824415523
 20
-530.2585897336794
 30
0.0
 10
582.0122074670637
 20
-531.0381674985974
 30
0.0
  0
SPLINE
  5
23145
330
18
100
AcDbEntity
  8
01
100
AcDbSpline
210
0.0
220
0.0
230
1.0
 70
    24
 71
     3
 72
    14
 73
    10
 74
     0
 42
0.0000000001
 43
0.0000000001
 40
0.0
 40
0.0
 40
0.0
 40
0.0
 40
0.25
 40
0.25
 40
0.5
 40
0.5
 40
0.75
 40
0.75
 40
1.0
 40
1.0
 40
1.0
 40
1.0
 10
582.0122077170456
 20
-531.0381675517333
 30
0.0
 10
582.1945680940428
 20
-531.0769294464526
 30
0.0
 10
582.3746898597003
 20
-531.1152155096424
 30
0.0
 10
582.7301083635305
 20
-531.1907620447705
 30
0.0
 10
582.8974865150924
 20
-531.2263393691655
 30
0.0
 10
583.2053183747396
 20
-531.2917710508245
 30
0.0
 10
583.3403203830896
 20
-531.3204666135375
 30
0.0
 10
583.560001761942
 20
-531.3671613320894
 30
0.0
 10
583.641682926522
 20
-531.3845231995856
 30
0.0
 10
583.6875449349684
 20
-531.3942714704126
 30
0.0
  0
SPLINE
  5
23146
330
18
100
AcDbEntity
  8
01
100
AcDbSpline
210
0.0
220
0.0
230
1.0
 70
    24
 71
     3
 72
    12
 73
     8
 74
     0
 42
0.0000000001
 43
0.0000000001
 40
0.0
 40
0.0
 40
0.0
 40
0.0
 40
0.237489436481882
 40
0.4750059439344269
 40
0.7118142170160242
 40
0.9451518674910896
 40
1.0
 40
1.0
 40
1.0
 40
1.0
 10
577.3955180764135
 20
-506.8070664426828
 30
0.0
 10
577.5707705833213
 20
-506.8070664426828
 30
0.0
 10
577.9212955738387
 20
-506.8070664426828
 30
0.0
 10
578.4155738102056
 20
-506.8070664426828
 30
0.0
 10
578.8108791961552
 20
-506.8070664426828
 30
0.0
 10
579.0043628216301
 20
-506.8070664426828
 30
0.0
 10
579.0621518728515
 20
-506.8070664426828
 30
0.0
 10
579.0731504082617
 20
-506.8070664426828
 30
0.0
  0
SPLINE
  5
23147
330
18
100
AcDbEntity
  8
01
100
AcDbSpline
210
0.0
220
0.0
230
1.0
 70
    24
 71
     3
 72
    11
 73
     7
 74
     0
 42
0.0000000001
 43
0.0000000001
 40
0.0
 40
0.0
 40
0.0
 40
0.0
 40
0.3282573493408846
 40
0.6588009041046594
 40
0.988137564821079
 40
1.0
 40
1.0
 40
1.0
 40
1.0
 10
579.0731504082617
 20
-506.8070664426828
 30
0.0
 10
579.4439185619724
 20
-506.8070664426828
 30
0.0
 10
580.1880371487134
 20
-506.8070664426828
 30
0.0
 10
580.7512558761157
 20
-506.8070664426828
 30
0.0
 10
580.999810316702
 20
-506.8070664426828
 30
0.0
 10
580.9318405628476
 20
-506.8070664426828
 30
0.0
 10
580.9294774651464
 20
-506.8070664426828
 30
0.0
  0
SPLINE
  5
23148
330
18
100
AcDbEntity
  8
01
100
AcDbSpline
210
0.0
220
0.0
230
1.0
 70
     8
 71
     3
 72
     9
 73
     5
 74
     0
 42
0.0000000001
 43
0.0000000001
 40
0.0
 40
0.0
 40
0.0
 40
0.0
 40
0.3373564450052993
 40
0.4168477866666826
 40
0.4168477866666826
 40
0.4168477866666826
 40
0.4168477866666826
 10
583.6875631928381
 20
-531.3942720538525
 30
0.0
 10
584.0703809020927
 20
-531.4756468415926
 30
0.0
 10
584.5434019964325
 20
-531.5761959808251
 30
0.0
 10
584.9233407250088
 20
-531.6569539824286
 30
0.0
 10
584.9917932300034
 20
-531.6715037945414
 30
0.0
  0
SPLINE
  5
23149
330
18
100
AcDbEntity
  8
01
100
AcDbSpline
210
0.0
220
0.0
230
1.0
 70
    24
 71
     3
 72
    24
 73
    20
 74
     0
 42
0.0000000001
 43
0.0000000001
 40
0.0
 40
0.0
 40
0.0
 40
0.0
 40
0.0359479005928969
 40
0.0933271116304565
 40
0.1507055382822908
 40
0.2080850360948323
 40
0.2654635222174579
 40
0.3228428444497858
 40
0.3802213067794534
 40
0.4952738109307237
 40
0.5526522459663387
 40
0.6100306364037644
 40
0.6674085159939366
 40
0.7247880784539849
 40
0.7821685353656647
 40
0.839546013135729
 40
0.8969245302489951
 40
0.9483166893370976
 40
1.0
 40
1.0
 40
1.0
 40
1.0
 10
530.9457972168861
 20
-506.8070664426828
 30
0.0
 10
530.9289977587564
 20
-506.8070664426828
 30
0.0
 10
530.9435427885987
 20
-506.8070664426828
 30
0.0
 10
531.0295017092053
 20
-506.8070664426828
 30
0.0
 10
531.1922946176514
 20
-506.8070664426828
 30
0.0
 10
531.4342943973229
 20
-506.8070664426828
 30
0.0
 10
531.7497343902546
 20
-506.8070664426828
 30
0.0
 10
532.1382002927171
 20
-506.8070664426828
 30
0.0
 10
532.7483771537995
 20
-506.8070664426828
 30
0.0
 10
533.4918887138106
 20
-506.8070664426828
 30
0.0
 10
534.352651573327
 20
-506.8070664426828
 30
0.0
 10
535.0519169113636
 20
-506.8070664426828
 30
0.0
 10
535.800435070551
 20
-506.8070664426828
 30
0.0
 10
536.5932436196458
 20
-506.8070664426828
 30
0.0
 10
537.4252610178924
 20
-506.8070664426828
 30
0.0
 10
538.2903144677643
 20
-506.8070664426828
 30
0.0
 10
539.1513489858376
 20
-506.8070664426828
 30
0.0
 10
540.0006322884351
 20
-506.8070664426828
 30
0.0
 10
540.5560250393214
 20
-506.8070664426828
 30
0.0
 10
540.8345058083473
 20
-506.8070664426828
 30
0.0
  0
SPLINE
  5
2314A
330
18
100
AcDbEntity
  8
01
100
AcDbSpline
210
0.0
220
0.0
230
1.0
 70
    24
 71
     3
 72
    26
 73
    22
 74
     0
 42
0.0000000001
 43
0.0000000001
 40
0.2188373421074957
 40
0.2188373421074957
 40
0.2188373421074957
 40
0.2188373421074957
 40
0.2500000000000038
 40
0.2500000000000038
 40
0.3750000000000061
 40
0.3750000000000061
 40
0.4375000000000073
 40
0.4375000000000073
 40
0.5000000000000085
 40
0.5000000000000085
 40
0.5625000000000098
 40
0.5625000000000098
 40
0.6250000000000111
 40
0.6250000000000111
 40
0.7500000000000138
 40
0.7500000000000138
 40
0.812500000000015
 40
0.812500000000015
 40
0.8750000000000161
 40
0.8750000000000161
 40
1.0
 40
1.0
 40
1.0
 40
1.0
 10
528.4642257358341
 20
-519.6561926174354
 30
0.0
 10
528.5215067139038
 20
-519.6683680651831
 30
0.0
 10
528.5825780705404
 20
-519.6813491827661
 30
0.0
 10
528.9070328756393
 20
-519.750314180555
 30
0.0
 10
529.225676645076
 20
-519.8180440045835
 30
0.0
 10
529.7894530231356
 20
-519.9378783730549
 30
0.0
 10
529.9913368749299
 20
-519.9807901104496
 30
0.0
 10
530.4162269879894
 20
-520.0711032919689
 30
0.0
 10
530.6395392449999
 20
-520.1185697774981
 30
0.0
 10
531.1078541199408
 20
-520.2181131770944
 30
0.0
 10
531.3527181855302
 20
-520.2701606409528
 30
0.0
 10
531.8634297847389
 20
-520.3787157424858
 30
0.0
 10
532.1303815625383
 20
-520.4354580945064
 30
0.0
 10
532.9547186888399
 20
-520.61067635973
 30
0.0
 10
533.531651461059
 20
-520.7333072061083
 30
0.0
 10
534.4352944200969
 20
-520.9253824464586
 30
0.0
 10
534.7429146562831
 20
-520.9907691461622
 30
0.0
 10
535.3720567211335
 20
-521.1244974202682
 30
0.0
 10
535.6945636018158
 20
-521.1930483739416
 30
0.0
 10
536.6733146687461
 20
-521.4010883354586
 30
0.0
 10
537.3391564777526
 20
-521.5426173809974
 30
0.0
 10
538.0201687579979
 20
-521.6873710097416
 30
0.0
  0
SPLINE
  5
2314B
330
18
100
AcDbEntity
  8
01
  6
CONTINUOUS
100
AcDbSpline
210
0.0
220
0.0
230
1.0
 70
     8
 71
     3
 72
    10
 73
     6
 74
     0
 42
0.0000000001
 43
0.0000000001
 40
0.0
 40
0.0
 40
0.0
 40
0.0
 40
0.5
 40
0.5
 40
1.0
 40
1.0
 40
1.0
 40
1.0
 10
-47.94253341157815
 20
-521.4229531502576
 30
0.0
 10
-47.86902717128174
 20
-521.42295366336
 30
0.0
 10
-47.79602507958367
 20
-521.450178523746
 30
0.0
 10
-47.69304372804214
 20
-521.5529983788908
 30
0.0
 10
-47.66561278112164
 20
-521.6263210597774
 30
0.0
 10
-47.66561226769005
 20
-521.6998742941726
 30
0.0
  0
SPLINE
  5
2314C
330
18
100
AcDbEntity
  8
01
  6
CONTINUOUS
100
AcDbSpline
210
0.0
220
0.0
230
1.0
 70
     8
 71
     3
 72
    10
 73
     6
 74
     0
 42
0.0000000001
 43
0.0000000001
 40
0.0
 40
0.0
 40
0.0
 40
0.0
 40
0.5
 40
0.5
 40
1.0
 40
1.0
 40
1.0
 40
1.0
 10
-47.44253690173133
 20
-520.9229566404154
 30
0.0
 10
-47.36903081280758
 20
-520.9229571535159
 30
0.0
 10
-47.2960288782611
 20
-520.950181884685
 30
0.0
 10
-47.19304754588262
 20
-521.0530013630562
 30
0.0
 10
-47.16561639062598
 20
-521.1263241849608
 30
0.0
 10
-47.16561575784868
 20
-521.1998772684954
 30
0.0
  0
CIRCLE
  5
2314D
330
18
100
AcDbEntity
  8
01
  6
CONTINUOUS
100
AcDbCircle
 10
-47.0384750335175
 20
-520.7958057570065
 30
0.0
 40
2.999999999999659
  0
LINE
  5
2314E
330
18
100
AcDbEntity
  8
01
  6
CONTINUOUS
100
AcDbLine
 10
-47.66560648680348
 20
-522.9219626060274
 30
0.0
 11
-47.66560648680348
 21
-521.6998736730363
 31
0.0
  0
LINE
  5
2314F
330
18
100
AcDbEntity
  8
01
  6
CONTINUOUS
100
AcDbLine
 10
-46.41131614447255
 20
-522.9219532928016
 30
0.0
 11
-47.66560648680348
 21
-522.9219626060274
 31
0.0
  0
LINE
  5
23150
330
18
100
AcDbEntity
  8
01
  6
CONTINUOUS
100
AcDbLine
 10
-46.41134594679494
 20
-521.6998475960042
 30
0.0
 11
-46.41131614447255
 21
-522.9219532928016
 31
0.0
  0
ELLIPSE
  5
23151
330
18
100
AcDbEntity
  8
01
  6
CONTINUOUS
100
AcDbEllipse
 10
-46.08633359808078
 20
-521.7479231318155
 30
0.0
 11
-0.2462231637584864
 21
0.246219726318202
 31
1.776356839400250E-15
210
3.607259389386753E-15
220
-3.607209029629563E-15
230
1.0
 40
0.8615497903415937
 41
5.572024093066304
 42
6.994346521293568
  0
LINE
  5
23152
330
18
100
AcDbEntity
  8
01
  6
CONTINUOUS
100
AcDbLine
 10
-44.91231893301625
 20
-521.422915103152
 30
0.0
 11
-46.13442276716847
 21
-521.4229225537326
 31
0.0
  0
LINE
  5
23153
330
18
100
AcDbEntity
  8
01
  6
CONTINUOUS
100
AcDbLine
 10
-44.91231893301625
 20
-520.1686750522401
 30
0.0
 11
-44.91231893301625
 21
-521.422915103152
 31
0.0
  0
LINE
  5
23154
330
18
100
AcDbEntity
  8
01
  6
CONTINUOUS
100
AcDbLine
 10
-46.13442276716847
 20
-520.1686657390144
 30
0.0
 11
-44.91231893301625
 21
-520.1686750522401
 31
0.0
  0
ELLIPSE
  5
23155
330
18
100
AcDbEntity
  8
01
  6
CONTINUOUS
100
AcDbEllipse
 10
-46.08634689052229
 20
-519.8436668457687
 30
0.0
 11
-0.2462210020826206
 21
-0.2462210020808584
 31
-1.776356839400250E-15
210
-3.607240699184749E-15
220
-3.607240699158932E-15
230
1.0
 40
0.8615513403118258
 41
5.572030106973733
 42
6.99434050733527
  0
LINE
  5
23156
330
18
100
AcDbEntity
  8
01
  6
CONTINUOUS
100
AcDbLine
 10
-46.41134594679494
 20
-518.6696275493648
 30
0.0
 11
-46.41134594679494
 21
-519.8917462846782
 31
0.0
  0
LINE
  5
23157
330
18
100
AcDbEntity
  8
01
  6
CONTINUOUS
100
AcDbLine
 10
-47.66560648680348
 20
-518.6696368625906
 30
0.0
 11
-46.41134594679494
 21
-518.6696275493648
 31
0.0
  0
LINE
  5
23158
330
18
100
AcDbEntity
  8
01
  6
CONTINUOUS
100
AcDbLine
 10
-47.66560648680348
 20
-519.8917369714525
 30
0.0
 11
-47.66560648680348
 21
-518.6696368625906
 31
0.0
  0
ELLIPSE
  5
23159
330
18
100
AcDbEntity
  8
01
  6
CONTINUOUS
100
AcDbEllipse
 10
-47.99060317660366
 20
-519.8436580905507
 30
0.0
 11
0.2462210020810858
 21
-0.2462210020811995
 31
-1.776356839400250E-15
210
3.607240699179751E-15
220
-3.607240699181418E-15
230
1.0
 40
0.86155134031149
 41
5.572030106977272
 42
6.994340507339236
  0
LINE
  5
2315A
330
18
100
AcDbEntity
  8
01
  6
CONTINUOUS
100
AcDbLine
 10
-49.16463350058217
 20
-520.1686657390144
 30
0.0
 11
-47.94252966642995
 21
-520.1686582884338
 31
0.0
  0
LINE
  5
2315B
330
18
100
AcDbEntity
  8
01
  6
CONTINUOUS
100
AcDbLine
 10
-49.16463350058217
 20
-521.4229449054744
 30
0.0
 11
-49.16463350058217
 21
-520.1686657390144
 31
0.0
  0
LINE
  5
2315C
330
18
100
AcDbEntity
  8
01
  6
CONTINUOUS
100
AcDbLine
 10
-47.94252966642995
 20
-521.422952356055
 30
0.0
 11
-49.16463350058217
 21
-521.4229449054744
 31
0.0
  0
LINE
  5
2315D
330
18
100
AcDbEntity
  8
01
  6
CONTINUOUS
100
AcDbLine
 10
-48.66463993788381
 20
-520.668663027003
 30
0.0
 11
-49.16463350058217
 21
-520.1686657390144
 31
0.0
  0
LINE
  5
2315E
330
18
100
AcDbEntity
  8
01
  6
CONTINUOUS
100
AcDbLine
 10
-48.66463993788381
 20
-520.668663027003
 30
0.0
 11
-47.44253610373158
 21
-520.6686537137773
 31
0.0
  0
LINE
  5
2315F
330
18
100
AcDbEntity
  8
01
  6
CONTINUOUS
100
AcDbLine
 10
-48.66463993788381
 20
-520.9229476174858
 30
0.0
 11
-48.66463993788381
 21
-520.668663027003
 31
0.0
  0
LINE
  5
23160
330
18
100
AcDbEntity
  8
01
  6
CONTINUOUS
100
AcDbLine
 10
-49.16463350058217
 20
-521.4229449054744
 30
0.0
 11
-48.66463993788381
 21
-520.9229476174858
 31
0.0
  0
LINE
  5
23161
330
18
100
AcDbEntity
  8
01
  6
CONTINUOUS
100
AcDbLine
 10
-47.66560648680348
 20
-518.6696368625906
 30
0.0
 11
-47.16561292410512
 21
-519.1696341505792
 31
0.0
  0
LINE
  5
23162
330
18
100
AcDbEntity
  8
01
  6
CONTINUOUS
100
AcDbLine
 10
-47.16561292410512
 20
-520.391732396796
 30
0.0
 11
-47.16561292410512
 21
-519.1696341505792
 31
0.0
  0
LINE
  5
23163
330
18
100
AcDbEntity
  8
01
  6
CONTINUOUS
100
AcDbLine
 10
-46.41134594679494
 20
-518.6696275493648
 30
0.0
 11
-46.9113395094933
 21
-519.1696322879341
 31
0.0
  0
LINE
  5
23164
330
18
100
AcDbEntity
  8
01
  6
CONTINUOUS
100
AcDbLine
 10
-46.9113395094933
 20
-519.1696322879341
 30
0.0
 11
-46.9113395094933
 21
-520.3917417100217
 31
0.0
  0
ELLIPSE
  5
23165
330
18
100
AcDbEntity
  8
01
  6
CONTINUOUS
100
AcDbEllipse
 10
-46.5863434003673
 20
-520.3436633556091
 30
0.0
 11
-0.2462210020826774
 21
-0.2462210020808585
 31
-1.776356839400251E-15
210
-3.607240699184750E-15
220
-3.607240699158100E-15
230
1.0
 40
0.8615513403118419
 41
5.572032112924887
 42
6.994340507336918
  0
ELLIPSE
  5
23166
330
18
100
AcDbEntity
  8
01
  6
CONTINUOUS
100
AcDbEllipse
 10
-47.49060666676229
 20
-520.3436546003934
 30
0.0
 11
0.2462210020810858
 21
-0.2462210020811995
 31
-1.776356839400250E-15
210
3.607240699179751E-15
220
-3.607240699181418E-15
230
1.0
 40
0.8615513403113745
 41
5.572032112926987
 42
6.994340507339177
  0
LINE
  5
23167
330
18
100
AcDbEntity
  8
01
  6
CONTINUOUS
100
AcDbLine
 10
-47.16561292410512
 20
-519.1696341505792
 30
0.0
 11
-46.9113395094933
 21
-519.1696322879341
 31
0.0
  0
LINE
  5
23168
330
18
100
AcDbEntity
  8
01
  6
CONTINUOUS
100
AcDbLine
 10
-44.91231893301625
 20
-520.1686750522401
 30
0.0
 11
-45.41231249571462
 21
-520.6686723402288
 31
0.0
  0
LINE
  5
23169
330
18
100
AcDbEntity
  8
01
  6
CONTINUOUS
100
AcDbLine
 10
-46.63441632986684
 20
-520.668663027003
 30
0.0
 11
-45.41231249571462
 21
-520.6686723402288
 31
0.0
  0
LINE
  5
2316A
330
18
100
AcDbEntity
  8
01
  6
CONTINUOUS
100
AcDbLine
 10
-44.91231893301625
 20
-521.422915103152
 30
0.0
 11
-45.41231249571462
 21
-520.9229178151634
 31
0.0
  0
LINE
  5
2316B
330
18
100
AcDbEntity
  8
01
  6
CONTINUOUS
100
AcDbLine
 10
-45.41231249571462
 20
-520.9229178151634
 30
0.0
 11
-46.63441632986684
 21
-520.9229271283891
 31
0.0
  0
ELLIPSE
  5
2316C
330
18
100
AcDbEntity
  8
01
  6
CONTINUOUS
100
AcDbEllipse
 10
-46.58633708825943
 20
-521.2479266220205
 30
0.0
 11
-0.2462231637584864
 21
0.246219726318202
 31
1.776356839400250E-15
210
3.607259389386753E-15
220
-3.607209029629563E-15
230
1.0
 40
0.8615497903417091
 41
5.572024093067878
 42
6.994346521291543
  0
LINE
  5
2316D
330
18
100
AcDbEntity
  8
01
  6
CONTINUOUS
100
AcDbLine
 10
-46.41131614447255
 20
-522.9219532928016
 30
0.0
 11
-46.9113395094933
 21
-522.421956004813
 31
0.0
  0
LINE
  5
2316E
330
18
100
AcDbEntity
  8
01
  6
CONTINUOUS
100
AcDbLine
 10
-46.9113395094933
 20
-521.1998521706607
 30
0.0
 11
-46.9113395094933
 21
-522.421956004813
 31
0.0
  0
LINE
  5
2316F
330
18
100
AcDbEntity
  8
01
  6
CONTINUOUS
100
AcDbLine
 10
-47.66560648680348
 20
-522.9219626060274
 30
0.0
 11
-47.16561292410512
 21
-522.4219578674581
 31
0.0
  0
LINE
  5
23170
330
18
100
AcDbEntity
  8
01
  6
CONTINUOUS
100
AcDbLine
 10
-47.16561292410512
 20
-522.4219578674581
 30
0.0
 11
-47.16561292410512
 21
-521.1998763850477
 31
0.0
  0
LINE
  5
23171
330
18
100
AcDbEntity
  8
01
  6
CONTINUOUS
100
AcDbLine
 10
-47.44253610373158
 20
-520.9229569307115
 30
0.0
 11
-48.66463993788381
 21
-520.9229476174858
 31
0.0
  0
LINE
  5
23172
330
18
100
AcDbEntity
  8
01
  6
CONTINUOUS
100
AcDbLine
 10
-45.41231249571462
 20
-520.6686723402288
 30
0.0
 11
-45.41231249571462
 21
-520.9229178151634
 31
0.0
  0
LINE
  5
23173
330
18
100
AcDbEntity
  8
01
  6
CONTINUOUS
100
AcDbLine
 10
-46.9113395094933
 20
-522.421956004813
 30
0.0
 11
-47.16561292410512
 21
-522.4219578674581
 31
0.0
  0
SPLINE
  5
23174
330
18
100
AcDbEntity
  8
1DIM
100
AcDbSpline
210
0.0
220
0.0
230
1.0
 70
     8
 71
     3
 72
     8
 73
     4
 74
     0
 42
0.0000000001
 43
0.0000000001
 40
0.0
 40
0.0
 40
0.0
 40
0.0
 40
1.0
 40
1.0
 40
1.0
 40
1.0
 10
-75.48788016016584
 20
-556.022978597575
 30
0.0
 10
-75.49260693275534
 20
-556.0493654947111
 30
0.0
 10
-75.49733276335752
 20
-556.0757538982978
 30
0.0
 10
-75.50205856376994
 20
-556.1021433797139
 30
0.0
  0
SPLINE
  5
23175
330
18
100
AcDbEntity
  8
1DIM
100
AcDbSpline
210
0.0
220
0.0
230
1.0
 70
     8
 71
     3
 72
     8
 73
     4
 74
     0
 42
0.0000000001
 43
0.0000000001
 40
0.0
 40
0.0
 40
0.0
 40
0.0
 40
1.0
 40
1.0
 40
1.0
 40
1.0
 10
587.6864682092603
 20
-557.9742081593272
 30
0.0
 10
587.6851490666652
 20
-557.9659060365511
 30
0.0
 10
587.6838320764766
 20
-557.9576029704708
 30
0.0
 10
587.6825172098163
 20
-557.9492989747105
 30
0.0
  0
SPLINE
  5
23176
330
18
100
AcDbEntity
  8
1DIM
100
AcDbSpline
210
0.0
220
0.0
230
1.0
 70
     8
 71
     3
 72
     8
 73
     4
 74
     0
 42
0.0000000001
 43
0.0000000001
 40
0.0
 40
0.0
 40
0.0
 40
0.0
 40
1.0
 40
1.0
 40
1.0
 40
1.0
 10
-75.48788016016584
 20
-556.022978597575
 30
0.0
 10
-75.49260693275534
 20
-556.0493654947111
 30
0.0
 10
-75.49733276335752
 20
-556.0757538982978
 30
0.0
 10
-75.50205856376994
 20
-556.1021433797139
 30
0.0
  0
SPLINE
  5
23177
330
18
100
AcDbEntity
  8
1DIM
100
AcDbSpline
210
0.0
220
0.0
230
1.0
 70
     8
 71
     3
 72
     8
 73
     4
 74
     0
 42
0.0000000001
 43
0.0000000001
 40
0.0
 40
0.0
 40
0.0
 40
0.0
 40
1.0
 40
1.0
 40
1.0
 40
1.0
 10
587.6864682092603
 20
-557.9742081593272
 30
0.0
 10
587.6851490666652
 20
-557.9659060365511
 30
0.0
 10
587.6838320764766
 20
-557.9576029704708
 30
0.0
 10
587.6825172098163
 20
-557.9492989747105
 30
0.0
  0
LINE
  5
23178
330
18
100
AcDbEntity
  8
01
100
AcDbLine
 10
-72.3183283256563
 20
-531.705857659689
 30
0.0
 11
-74.08203847529472
 21
-532.0807433531938
 31
0.0
  0
LINE
  5
23179
330
18
100
AcDbEntity
  8
1CENTER
100
AcDbLine
 10
-47.0384750335175
 20
-515.7958057570065
 30
0.0
 11
-47.0384750335175
 21
-525.7958057570065
 31
0.0
  0
LINE
  5
2317A
330
18
100
AcDbEntity
  8
1CENTER
100
AcDbLine
 10
-52.0384750335175
 20
-520.7958057570065
 30
0.0
 11
-42.0384750335175
 21
-520.7958057570065
 31
0.0
  0
ARC
  5
2317B
330
18
100
AcDbEntity
  8
01
100
AcDbCircle
 10
585.1997019542398
 20
-530.693355563245
 30
0.0
 40
1.0
100
AcDbArc
 50
258.0001737699304
 51
12.82840832105651
  0
ARC
  5
2317C
330
18
100
AcDbEntity
  8
01
100
AcDbCircle
 10
585.7462879438119
 20
-533.0586778593733
 30
0.0
 40
1.0
100
AcDbArc
 50
13.1040448730946
 51
77.99935358955136
  0
ARC
  5
2317D
330
18
100
AcDbEntity
  8
01
100
AcDbCircle
 10
528.6721374266494
 20
-518.6780450166993
 30
0.0
 40
1.0
100
AcDbArc
 50
155.9164313236806
 51
258.0000000002498
  0
ARC
  5
2317E
330
18
100
AcDbEntity
  8
01
100
AcDbCircle
 10
527.6257931851401
 20
-520.7047869911034
 30
0.0
 40
1.0
100
AcDbArc
 50
77.99999999993074
 51
151.9007022175255
  0
ARC
  5
2317F
330
18
100
AcDbEntity
  8
01
100
AcDbCircle
 10
-16.80025516821075
 20
-518.6783165791396
 30
0.0
 40
1.0
100
AcDbArc
 50
282.0001739683653
 51
24.30687402785526
  0
ARC
  5
23180
330
18
100
AcDbEntity
  8
01
100
AcDbCircle
 10
-15.74121913688538
 20
-520.702365713146
 30
0.0
 40
1.0
100
AcDbArc
 50
28.38861554172534
 51
101.9995570123423
  0
ARC
  5
23181
330
18
100
AcDbEntity
  8
01
100
AcDbCircle
 10
-73.32653300494673
 20
-530.6933494665598
 30
0.0
 40
1.0
100
AcDbArc
 50
167.1714153627515
 51
282.0000000010265
  0
ARC
  5
23182
330
18
100
AcDbEntity
  8
01
100
AcDbCircle
 10
-73.87412809601443
 20
-533.0588912327005
 30
0.0
 40
1.0
100
AcDbArc
 50
101.9999231757576
 51
166.739308500372
  0
SPLINE
  5
23183
330
18
100
AcDbEntity
  8
01
100
AcDbSpline
210
0.0
220
0.0
230
1.0
 70
     8
 71
     3
 72
    13
 73
     9
 74
     0
 42
0.0000000001
 43
0.0000000001
 40
0.0
 40
0.0
 40
0.0
 40
0.0
 40
0.2522952425726158
 40
0.5048218927464546
 40
0.6327507596733575
 40
0.759612685192199
 40
0.883203906071776
 40
1.0
 40
1.0
 40
1.0
 40
1.0
 10
667.3765484940576
 20
-675.0294546419598
 30
0.0
 10
667.3985248100133
 20
-675.2315010828202
 30
0.0
 10
667.4424975988117
 20
-675.6357792834619
 30
0.0
 10
667.6288494976246
 20
-676.0858852810193
 30
0.0
 10
667.8609191201093
 20
-676.3796784377098
 30
0.0
 10
668.0785064465871
 20
-676.5498297145537
 30
0.0
 10
668.3236209311602
 20
-676.6626375275421
 30
0.0
 10
668.5031784199231
 20
-676.6792689977253
 30
0.0
 10
668.5904193516661
 20
-676.687349668518
 30
0.0
  0
SPLINE
  5
23184
330
18
100
AcDbEntity
  8
01
100
AcDbSpline
210
0.0
220
0.0
230
1.0
 70
     8
 71
     3
 72
    14
 73
    10
 74
     0
 42
0.0000000001
 43
0.0000000001
 40
0.0
 40
0.0
 40
0.0
 40
0.0
 40
0.0971309423060831
 40
0.2029960496747337
 40
0.318295752078145
 40
0.4422053321095174
 40
0.710360949026224
 40
0.8532166355460967
 40
1.0
 40
1.0
 40
1.0
 40
1.0
 10
668.5819019296836
 20
-645.0216884523711
 30
0.0
 10
668.5056805301286
 20
-645.0270643843342
 30
0.0
 10
668.3463837844882
 20
-645.0382996604051
 30
0.0
 10
668.1263810687122
 20
-645.1262323584692
 30
0.0
 10
667.9242641898471
 20
-645.2649790368714
 30
0.0
 10
667.6835423903216
 20
-645.5298209277298
 30
0.0
 10
667.5168156400526
 20
-645.8913037312966
 30
0.0
 10
667.414278152435
 20
-646.3165201796569
 30
0.0
 10
667.3895393389256
 20
-646.5502114286983
 30
0.0
 10
667.3770021956528
 20
-646.6686415494378
 30
0.0
  0
SPLINE
  5
23185
330
18
100
AcDbEntity
  8
01
100
AcDbSpline
210
0.0
220
0.0
230
1.0
 70
     8
 71
     3
 72
     9
 73
     5
 74
     0
 42
0.0000000001
 43
0.0000000001
 40
0.0
 40
0.0
 40
0.0
 40
0.0
 40
0.4894085861315034
 40
1.0
 40
1.0
 40
1.0
 40
1.0
 10
668.5825658225025
 20
-676.6888739172402
 30
0.0
 10
672.3829402406426
 20
-676.6837037226544
 30
0.0
 10
680.1481787873958
 20
-676.6731395545289
 30
0.0
 10
687.9221274672003
 20
-676.6849712135227
 30
0.0
 10
691.891438914963
 20
-676.6910123570165
 30
0.0
  0
SPLINE
  5
23186
330
18
100
AcDbEntity
  8
01
100
AcDbSpline
210
0.0
220
0.0
230
1.0
 70
     8
 71
     3
 72
     9
 73
     5
 74
     0
 42
0.0000000001
 43
0.0000000001
 40
0.0
 40
0.0
 40
0.0
 40
0.0
 40
0.5105914977305568
 40
1.0
 40
1.0
 40
1.0
 40
1.0
 10
691.891438877626
 20
-645.0181826365397
 30
0.0
 10
687.9221275040071
 20
-645.0242238726869
 30
0.0
 10
680.1481802462457
 20
-645.036055711199
 30
0.0
 10
672.382943027861
 20
-645.025491694485
 30
0.0
 10
668.5825699110445
 20
-645.020321574887
 30
0.0
  0
SPLINE
  5
23187
330
18
100
AcDbEntity
  8
01
100
AcDbSpline
210
0.0
220
0.0
230
1.0
 70
     8
 71
     3
 72
     9
 73
     5
 74
     0
 42
0.0000000001
 43
0.0000000001
 40
0.0
 40
0.0
 40
0.0
 40
0.0
 40
0.526412300390782
 40
1.0
 40
1.0
 40
1.0
 40
1.0
 10
666.2331355332689
 20
-645.0141705659171
 30
0.0
 10
662.5029363971965
 20
-644.9930186729694
 30
0.0
 10
655.416857418223
 20
-644.952837444431
 30
0.0
 10
648.3333106919038
 20
-644.9254462238773
 30
0.0
 10
640.6472404043386
 20
-644.9254585752844
 30
0.0
  0
SPLINE
  5
23188
330
18
100
AcDbEntity
  8
01
100
AcDbSpline
210
0.0
220
0.0
230
1.0
 70
    24
 71
     1
 72
     4
 73
     2
 74
     0
 42
0.0000000001
 43
0.0000000001
 40
0.0
 40
0.0
 40
1.0
 40
1.0
 10
666.2246721332248
 20
-676.6972751298249
 30
0.0
 10
666.6160832975119
 20
-676.6377904367869
 30
0.0
  0
SPLINE
  5
23189
330
18
100
AcDbEntity
  8
01
100
AcDbSpline
210
0.0
220
0.0
230
1.0
 70
    24
 71
     1
 72
     4
 73
     2
 74
     0
 42
0.0000000001
 43
0.0000000001
 40
0.0
 40
0.0
 40
1.0
 40
1.0
 10
666.6158780929344
 20
-645.071304066174
 30
0.0
 10
666.2324736218815
 20
-645.0130806279199
 30
0.0
  0
SPLINE
  5
2318A
330
18
100
AcDbEntity
  8
01
100
AcDbSpline
210
0.0
220
0.0
230
1.0
 70
     8
 71
     3
 72
     9
 73
     5
 74
     0
 42
0.0000000001
 43
0.0000000001
 40
0.0
 40
0.0
 40
0.0
 40
0.0
 40
0.9519769054689112
 40
1.0
 40
1.0
 40
1.0
 40
1.0
 10
666.6211006012512
 20
-676.6349995941891
 30
0.0
 10
666.9700153717298
 20
-676.494822950013
 30
0.0
 10
667.3365313748749
 20
-676.3475750037965
 30
0.0
 10
667.7002674438103
 20
-676.1909059375962
 30
0.0
 10
667.717735175433
 20
-676.1833822042199
 30
0.0
  0
SPLINE
  5
2318B
330
18
100
AcDbEntity
  8
01
100
AcDbSpline
210
0.0
220
0.0
230
1.0
 70
     8
 71
     3
 72
     9
 73
     5
 74
     0
 42
0.0000000001
 43
0.0000000001
 40
0.0
 40
0.0
 40
0.0
 40
0.0
 40
0.1314016610959693
 40
1.0
 40
1.0
 40
1.0
 40
1.0
 10
667.7248774681024
 20
-645.5293329767974
 30
0.0
 10
667.6766787945047
 20
-645.5085863527083
 30
0.0
 10
667.3098746521836
 20
-645.3506992764264
 30
0.0
 10
666.9412072687431
 20
-645.202667432749
 30
0.0
 10
666.6209833918787
 20
-645.0740872192259
 30
0.0
  0
SPLINE
  5
2318C
330
18
100
AcDbEntity
  8
01
100
AcDbSpline
210
0.0
220
0.0
230
1.0
 70
     8
 71
     3
 72
     9
 73
     5
 74
     0
 42
0.0000000001
 43
0.0000000001
 40
0.0
 40
0.0
 40
0.0
 40
0.0
 40
0.310096558841049
 40
1.0
 40
1.0
 40
1.0
 40
1.0
 10
667.3842729319753
 20
-675.040532896573
 30
0.0
 10
667.378525404103
 20
-675.0328077411591
 30
0.0
 10
667.359990764783
 20
-675.0078956446082
 30
0.0
 10
667.3782859585066
 20
-674.9809095765031
 30
0.0
 10
667.3909078756132
 20
-674.9622917952543
 30
0.0
  0
SPLINE
  5
2318D
330
18
100
AcDbEntity
  8
01
100
AcDbSpline
210
0.0
220
0.0
230
1.0
 70
     8
 71
     3
 72
    20
 73
    16
 74
     0
 42
0.0000000001
 43
0.0000000001
 40
0.0
 40
0.0
 40
0.0
 40
0.0
 40
0.1249999999999999
 40
0.1249999999999999
 40
0.2499999999999999
 40
0.2499999999999999
 40
0.3749999999999997
 40
0.3749999999999997
 40
0.4999999999999997
 40
0.4999999999999997
 40
0.6249999999999996
 40
0.6249999999999996
 40
0.7499999999999993
 40
0.7499999999999993
 40
1.0
 40
1.0
 40
1.0
 40
1.0
 10
667.3909063851314
 20
-646.7469488351944
 30
0.0
 10
667.3286095846714
 20
-647.9048838346521
 30
0.0
 10
667.2693555594
 20
-649.0662705076872
 30
0.0
 10
667.1625209889966
 20
-651.4022800381415
 30
0.0
 10
667.1150693329477
 20
-652.5761718428328
 30
0.0
 10
667.0374608987285
 20
-654.9251017575591
 30
0.0
 10
667.0072172178978
 20
-656.1017825934762
 30
0.0
 10
666.9665153243021
 20
-658.4602656976754
 30
0.0
 10
666.9560240028703
 20
-659.6420593953535
 30
0.0
 10
666.9556985330786
 20
-662.010993861391
 30
0.0
 10
666.9658681821473
 20
-663.1981356067504
 30
0.0
 10
667.0064796154714
 20
-665.577666526854
 30
0.0
 10
667.0370506381995
 20
-666.7707505061526
 30
0.0
 10
667.154029335556
 20
-670.3142391809217
 30
0.0
 10
667.266191683097
 20
-672.6441698901613
 30
0.0
 10
667.3909077876864
 20
-674.9622919046876
 30
0.0
  0
SPLINE
  5
2318E
330
18
100
AcDbEntity
  8
01
100
AcDbSpline
210
0.0
220
0.0
230
1.0
 70
     8
 71
     3
 72
     9
 73
     5
 74
     0
 42
0.0000000001
 43
0.0000000001
 40
0.0
 40
0.0
 40
0.0
 40
0.0
 40
0.3054745635775361
 40
1.0
 40
1.0
 40
1.0
 40
1.0
 10
667.3839768548186
 20
-646.6692199525642
 30
0.0
 10
667.3783699099298
 20
-646.6767794713965
 30
0.0
 10
667.3600150432484
 20
-646.7015262743503
 30
0.0
 10
667.3782451296323
 20
-646.7283317151778
 30
0.0
 10
667.3909063883337
 20
-646.7469487756671
 30
0.0
  0
SPLINE
  5
2318F
330
18
100
AcDbEntity
  8
01
100
AcDbSpline
210
0.0
220
0.0
230
1.0
 70
    24
 71
     3
 72
    17
 73
    13
 74
     0
 42
0.0000000001
 43
0.0000000001
 40
0.0
 40
0.0
 40
0.0
 40
0.0
 40
0.2500000000000001
 40
0.2500000000000001
 40
0.3750000000000001
 40
0.3750000000000001
 40
0.5000000000000001
 40
0.6250000000000001
 40
0.6250000000000001
 40
0.75
 40
0.75
 40
1.0
 40
1.0
 40
1.0
 40
1.0
 10
691.8199472739028
 20
-646.1447081311235
 30
0.0
 10
691.8199472739028
 20
-648.5497554486517
 30
0.0
 10
691.8199472739028
 20
-650.9813331970036
 30
0.0
 10
691.8199472739028
 20
-654.6679954417059
 30
0.0
 10
691.8199472739028
 20
-655.9055767928025
 30
0.0
 10
691.8199472739028
 20
-658.3802257639998
 30
0.0
 10
691.8199472739028
 20
-660.8550861615358
 30
0.0
 10
691.8199472739028
 20
-663.3303675805264
 30
0.0
 10
691.8199472739028
 20
-665.8058606423697
 30
0.0
 10
691.8199472739028
 20
-667.0428988968288
 30
0.0
 10
691.8199472739028
 20
-670.7282800752496
 30
0.0
 10
691.8199472739028
 20
-673.1594408616977
 30
0.0
 10
691.8199472739028
 20
-675.5644870697438
 30
0.0
  0
SPLINE
  5
23190
330
18
100
AcDbEntity
  8
01
100
AcDbSpline
210
0.0
220
0.0
230
1.0
 70
    24
 71
     3
 72
    11
 73
     7
 74
     0
 42
0.0000000001
 43
0.0000000001
 40
0.0
 40
0.0
 40
0.0
 40
0.0
 40
0.272584070154918
 40
0.5450227354969719
 40
0.8209184814168339
 40
1.0
 40
1.0
 40
1.0
 40
1.0
 10
691.8199472739028
 20
-675.5644837322543
 30
0.0
 10
691.8199472739028
 20
-675.723682846548
 30
0.0
 10
691.8199472739028
 20
-676.0419961533808
 30
0.0
 10
691.8199472739028
 20
-676.40696147885
 30
0.0
 10
691.8199472739024
 20
-676.6354721494035
 30
0.0
 10
691.8199472739028
 20
-676.6610698061618
 30
0.0
 10
691.8199472739028
 20
-676.6711451826741
 30
0.0
  0
SPLINE
  5
23191
330
18
100
AcDbEntity
  8
01
100
AcDbSpline
210
0.0
220
0.0
230
1.0
 70
    24
 71
     3
 72
    12
 73
     8
 74
     0
 42
0.0000000001
 43
0.0000000001
 40
0.0
 40
0.0
 40
0.0
 40
0.0
 40
0.0927235411771832
 40
0.3753221762028706
 40
0.6570931767949271
 40
0.9347353863347343
 40
0.9999999999999999
 40
0.9999999999999999
 40
0.9999999999999999
 40
0.9999999999999999
 10
691.8199472739028
 20
-645.0376356762138
 30
0.0
 10
691.8199472739028
 20
-645.0380294153751
 30
0.0
 10
691.8199472739024
 20
-645.0396231750292
 30
0.0
 10
691.8199472739028
 20
-645.2206252459982
 30
0.0
 10
691.8199472739024
 20
-645.5587576143746
 30
0.0
 10
691.8199472739028
 20
-645.9035126092999
 30
0.0
 10
691.8199472739028
 20
-646.10614495244
 30
0.0
 10
691.8199472739028
 20
-646.1447114687535
 30
0.0
  0
SPLINE
  5
23192
330
18
100
AcDbEntity
  8
01
100
AcDbSpline
210
0.0
220
0.0
230
1.0
 70
     8
 71
     3
 72
     9
 73
     5
 74
     0
 42
0.0000000001
 43
0.0000000001
 40
0.0
 40
0.0
 40
0.0
 40
0.0
 40
0.3748186112805558
 40
1.0
 40
1.0
 40
1.0
 40
1.0
 10
644.8940820095256
 20
-676.8237264215306
 30
0.0
 10
644.6081554482914
 20
-676.8232746731892
 30
0.0
 10
643.8453156302319
 20
-676.8220694279646
 30
0.0
 10
643.0815355409143
 20
-676.8209553599554
 30
0.0
 10
642.6040344439982
 20
-676.8202588653703
 30
0.0
  0
SPLINE
  5
23193
330
18
100
AcDbEntity
  8
01
100
AcDbSpline
210
0.0
220
0.0
230
1.0
 70
     8
 71
     3
 72
     8
 73
     4
 74
     0
 42
0.0000000001
 43
0.0000000001
 40
0.0
 40
0.0
 40
0.0
 40
0.0
 40
1.0
 40
1.0
 40
1.0
 40
1.0
 10
642.6040344439982
 20
-676.8202588653703
 30
0.0
 10
642.5776475468622
 20
-676.8202720070312
 30
0.0
 10
642.5512591432755
 20
-676.8202872698675
 30
0.0
 10
642.5248696618594
 20
-676.8203019836437
 30
0.0
  0
SPLINE
  5
23194
330
18
100
AcDbEntity
  8
01
100
AcDbSpline
210
0.0
220
0.0
230
1.0
 70
     8
 71
     3
 72
    36
 73
    32
 74
     0
 42
0.0000000001
 43
0.0000000001
 40
0.0
 40
0.0
 40
0.0
 40
0.0
 40
0.0123944711116087
 40
0.0243216733705554
 40
0.0357744949594062
 40
0.0497259996765635
 40
0.0715496895022566
 40
0.0987631048979105
 40
0.1252000016874767
 40
0.1516449877966977
 40
0.1877470744480597
 40
0.2190381155743239
 40
0.2502975605969457
 40
0.2815298070272054
 40
0.3128037058294351
 40
0.3752760027430043
 40
0.4396339550734576
 40
0.5001984662088829
 40
0.5616592374462251
 40
0.6250456568253441
 40
0.6835314838350804
 40
0.7499820019905228
 40
0.8124150857050653
 40
0.8748925275770215
 40
0.9068239521295864
 40
0.9374379999486863
 40
0.9520889705068745
 40
0.9687194293387643
 40
0.9820110991906543
 40
0.9924413819531457
 40
1.0
 40
1.0
 40
1.0
 40
1.0
 10
642.5248696618594
 20
-676.8203019836437
 30
0.0
 10
642.318236532017
 20
-676.8203889678446
 30
0.0
 10
641.9127602961764
 20
-676.820559656961
 30
0.0
 10
641.3152658393108
 20
-676.8130373224863
 30
0.0
 10
640.6915845809028
 20
-676.790572200817
 30
0.0
 10
639.9039921555393
 20
-676.7306436325209
 30
0.0
 10
638.8629642802864
 20
-676.586621618967
 30
0.0
 10
637.6363635644072
 20
-676.3205894139419
 30
0.0
 10
636.3664114382279
 20
-675.9335726116158
 30
0.0
 10
635.000074324578
 20
-675.3894377452159
 30
0.0
 10
633.6239235110695
 20
-674.6798586845532
 30
0.0
 10
632.266112005889
 20
-673.7883660352202
 30
0.0
 10
631.0625490110431
 20
-672.8186536135645
 30
0.0
 10
629.9578332804269
 20
-671.7358120448957
 30
0.0
 10
628.6285919038421
 20
-670.1519813695904
 30
0.0
 10
627.2402644472561
 20
-667.8991315228923
 30
0.0
 10
626.1457825836912
 20
-664.9265479966714
 30
0.0
 10
625.656033366148
 20
-661.793559771686
 30
0.0
 10
625.7768265677721
 20
-658.6348698533702
 30
0.0
 10
626.5066790709923
 20
-655.607674921612
 30
0.0
 10
627.822306114552
 20
-652.7266236394362
 30
0.0
 10
629.650842119386
 20
-650.1899830188731
 30
0.0
 10
631.9783888999862
 20
-648.0411570688407
 30
0.0
 10
634.1894253275166
 20
-646.6813891731038
 30
0.0
 10
636.088097855202
 20
-645.8684467991784
 30
0.0
 10
637.308232668631
 20
-645.4824971628336
 30
0.0
 10
638.3070089409232
 20
-645.2418303975503
 30
0.0
 10
639.0353329425545
 20
-645.1023615261265
 30
0.0
 10
639.7014174405069
 20
-645.0078419564356
 30
0.0
 10
640.2210642427883
 20
-644.9536865147984
 30
0.0
 10
640.5211497712733
 20
-644.9338102361339
 30
0.0
 10
640.6472404043386
 20
-644.9254585752844
 30
0.0
  0
SPLINE
  5
23195
330
18
100
AcDbEntity
  8
01
100
AcDbSpline
210
0.0
220
0.0
230
1.0
 70
     8
 71
     3
 72
     8
 73
     4
 74
     0
 42
0.0000000001
 43
0.0000000001
 40
0.0
 40
0.0
 40
0.0
 40
0.0
 40
1.0
 40
1.0
 40
1.0
 40
1.0
 10
640.6528048822463
 20
-676.7841032743677
 30
0.0
 10
640.6611070050228
 20
-676.7845898900478
 30
0.0
 10
640.6694100711031
 20
-676.7850700826016
 30
0.0
 10
640.677714066863
 20
-676.7855439368172
 30
0.0
  0
SPLINE
  5
23196
330
18
100
AcDbEntity
  8
01
100
AcDbSpline
210
0.0
220
0.0
230
1.0
 70
    24
 71
     1
 72
     4
 73
     2
 74
     0
 42
0.0000000001
 43
0.0000000001
 40
0.0
 40
0.0
 40
1.0
 40
1.0
 10
639.6593371909369
 20
-676.6872801927993
 30
0.0
 10
640.6528048822463
 20
-676.7841032743677
 30
0.0
  0
SPLINE
  5
23197
330
18
100
AcDbEntity
  8
01
100
AcDbSpline
210
0.0
220
0.0
230
1.0
 70
     8
 71
     3
 72
     9
 73
     5
 74
     0
 42
0.0000000001
 43
0.0000000001
 40
0.0
 40
0.0
 40
0.0
 40
0.0
 40
0.5328961150735962
 40
1.0
 40
1.0
 40
1.0
 40
1.0
 10
656.1903760465437
 20
-676.7673612105241
 30
0.0
 10
657.9743697763655
 20
-676.7545758854358
 30
0.0
 10
661.3221024382468
 20
-676.7305837325061
 30
0.0
 10
664.6732321962708
 20
-676.7116537677912
 30
0.0
 10
666.2385579251358
 20
-676.702811507731
 30
0.0
  0
SPLINE
  5
23198
330
18
100
AcDbEntity
  8
01
100
AcDbSpline
210
0.0
220
0.0
230
1.0
 70
     8
 71
     3
 72
     8
 73
     4
 74
     0
 42
0.0000000001
 43
0.0000000001
 40
0.0
 40
0.0
 40
0.0
 40
0.0
 40
1.0
 40
1.0
 40
1.0
 40
1.0
 10
650.5000145733823
 20
-676.8015853448671
 30
0.0
 10
652.3967753430272
 20
-676.7922289788794
 30
0.0
 10
654.2935826420493
 20
-676.7802900658235
 30
0.0
 10
656.1903760465437
 20
-676.7673612105241
 30
0.0
  0
SPLINE
  5
23199
330
18
100
AcDbEntity
  8
01
100
AcDbSpline
210
0.0
220
0.0
230
1.0
 70
     8
 71
     3
 72
     8
 73
     4
 74
     0
 42
0.0000000001
 43
0.0000000001
 40
0.0
 40
0.0
 40
0.0
 40
0.0
 40
1.0
 40
1.0
 40
1.0
 40
1.0
 10
647.7136639714697
 20
-676.814260216119
 30
0.0
 10
648.642344678962
 20
-676.8103692737832
 30
0.0
 10
649.5713851744706
 20
-676.8061795542044
 30
0.0
 10
650.5000145734859
 20
-676.8015853448815
 30
0.0
  0
SPLINE
  5
2319A
330
18
100
AcDbEntity
  8
01
100
AcDbSpline
210
0.0
220
0.0
230
1.0
 70
     8
 71
     3
 72
    10
 73
     6
 74
     0
 42
0.0000000001
 43
0.0000000001
 40
0.0
 40
0.0
 40
0.0
 40
0.0
 40
0.2503916937367426
 40
0.5000538251259109
 40
1.0
 40
1.0
 40
1.0
 40
1.0
 10
644.8940824781523
 20
-676.8235427855734
 30
0.0
 10
645.1294403960862
 20
-676.8230032137765
 30
0.0
 10
645.5994704732832
 20
-676.8219256423249
 30
0.0
 10
646.5398040037678
 20
-676.8189554034248
 30
0.0
 10
647.2440031367084
 20
-676.8161387584069
 30
0.0
 10
647.7136639714697
 20
-676.8142602161188
 30
0.0
  0
CIRCLE
  5
2319B
330
18
100
AcDbEntity
  8
1PHANTOM
100
AcDbCircle
 10
543.4365823389057
 20
-660.8123483455684
 30
0.0
 40
3.0
  0
CIRCLE
  5
2319C
330
18
100
AcDbEntity
  8
1PHANTOM
100
AcDbCircle
 10
568.4365823388036
 20
-660.8123483455684
 30
0.0
 40
3.0
  0
LINE
  5
2319D
330
18
100
AcDbEntity
  8
1CENTER
100
AcDbLine
 10
568.4365823389057
 20
-652.1126217277422
 30
0.0
 11
568.4365823389057
 21
-669.512074963395
 31
0.0
  0
LINE
  5
2319E
330
18
100
AcDbEntity
  8
1CENTER
100
AcDbLine
 10
577.1363089567321
 20
-660.8123483455686
 30
0.0
 11
534.7368557210793
 21
-660.8123483455684
 31
0.0
  0
LINE
  5
2319F
330
18
100
AcDbEntity
  8
1CENTER
100
AcDbLine
 10
543.4365823389057
 20
-652.112621727742
 30
0.0
 11
543.4365823389057
 21
-669.5120749633948
 31
0.0
  0
CIRCLE
  5
231A6
330
18
100
AcDbEntity
  8
1PHANTOM
100
AcDbCircle
 10
-31.56343931936976
 20
-660.8123483455684
 30
0.0
 40
3.0
  0
CIRCLE
  5
231A7
330
18
100
AcDbEntity
  8
1PHANTOM
100
AcDbCircle
 10
-56.56343931926767
 20
-660.8123483455684
 30
0.0
 40
3.0
  0
LINE
  5
231A8
330
18
100
AcDbEntity
  8
1CENTER
100
AcDbLine
 10
-56.56343931936976
 20
-652.1126217277422
 30
0.0
 11
-56.56343931936976
 21
-669.512074963395
 31
0.0
  0
LINE
  5
231A9
330
18
100
AcDbEntity
  8
1CENTER
100
AcDbLine
 10
-65.26316593719616
 20
-660.8123483455686
 30
0.0
 11
-22.86371270154336
 21
-660.8123483455684
 31
0.0
  0
LINE
  5
231AA
330
18
100
AcDbEntity
  8
1CENTER
100
AcDbLine
 10
-31.56343931936976
 20
-652.112621727742
 30
0.0
 11
-31.56343931936976
 21
-669.5120749633948
 31
0.0
  0
LINE
  5
231B1
330
18
100
AcDbEntity
  8
01
100
AcDbLine
 10
700.8199472739028
 20
-620.8545976475534
 30
0.0
 11
700.8199472739028
 21
-700.854597647553
 31
0.0
  0
LINE
  5
231B2
330
18
100
AcDbEntity
  8
01
100
AcDbLine
 10
712.8199472739028
 20
-620.8545976475534
 30
0.0
 11
712.8199472739028
 21
-700.854597647553
 31
0.0
  0
LINE
  5
231B3
330
18
100
AcDbEntity
  8
01
100
AcDbLine
 10
691.8199472739028
 20
-620.8545976475534
 30
0.0
 11
691.8199472739028
 21
-700.854597647553
 31
0.0
  0
SPLINE
  5
231B7
330
18
100
AcDbEntity
  8
1PHANTOM
100
AcDbSpline
210
0.0
220
0.0
230
1.0
 70
     8
 71
     3
 72
    10
 73
     6
 74
     0
 42
0.0000000001
 43
0.0000000001
 40
0.0
 40
0.0
 40
0.0
 40
0.0
 40
0.5
 40
0.5
 40
1.0
 40
1.0
 40
1.0
 40
1.0
 10
673.0053231915637
 20
-647.1195707475645
 30
0.0
 10
682.7365781525484
 20
-647.2769825745108
 30
0.0
 10
684.5532362921061
 20
-647.2867332026508
 30
0.0
 10
688.1865730756462
 20
-647.3012761535047
 30
0.0
 10
690.0032426383353
 20
-647.3082644814967
 30
0.0
 10
691.8199472739028
 20
-647.3067716137648
 30
0.0
  0
SPLINE
  5
231B8
330
18
100
AcDbEntity
  8
1PHANTOM
100
AcDbSpline
210
0.0
220
0.0
230
1.0
 70
     8
 71
     3
 72
    10
 73
     6
 74
     0
 42
0.0000000001
 43
0.0000000001
 40
0.0
 40
0.0
 40
0.0
 40
0.0
 40
0.5
 40
0.5
 40
1.0
 40
1.0
 40
1.0
 40
1.0
 10
691.8199472739028
 20
-674.3179250773719
 30
0.0
 10
690.003250323004
 20
-674.3164322159555
 30
0.0
 10
688.18657407138
 20
-674.3234205275439
 30
0.0
 10
684.5532229504901
 20
-674.3379635479887
 30
0.0
 10
682.7365582640434
 20
-674.3477142955453
 30
0.0
 10
673.0113026587335
 20
-674.5049836420712
 30
0.0
  0
LINE
  5
231B9
330
18
100
AcDbEntity
  8
1PHANTOM
100
AcDbLine
 10
672.4937207778032
 20
-649.1217475406102
 30
0.0
 11
672.4937207778032
 21
-647.612393022624
 31
0.0
  0
LINE
  5
231BA
330
18
100
AcDbEntity
  8
1PHANTOM
100
AcDbLine
 10
672.4937207778078
 20
-674.0123036685109
 30
0.0
 11
672.4937207778032
 21
-672.5028653477038
 31
0.0
  0
SPLINE
  5
231BB
330
18
100
AcDbEntity
  8
1PHANTOM
100
AcDbSpline
210
0.0
220
0.0
230
1.0
 70
     8
 71
     3
 72
    10
 73
     6
 74
     0
 42
0.0000000001
 43
0.0000000001
 40
0.0
 40
0.0
 40
0.0
 40
0.0
 40
0.5
 40
0.5
 40
1.0
 40
1.0
 40
1.0
 40
1.0
 10
673.0113026587335
 20
-674.5049836420712
 30
0.0
 10
672.8772802340648
 20
-674.508974805809
 30
0.0
 10
672.744061744577
 20
-674.4592921947406
 30
0.0
 10
672.5512090308891
 20
-674.2776794407328
 30
0.0
 10
672.4937207778032
 20
-674.1464672738348
 30
0.0
 10
672.4937207778032
 20
-674.0123036685127
 30
0.0
  0
SPLINE
  5
231BC
330
18
100
AcDbEntity
  8
1PHANTOM
100
AcDbSpline
210
0.0
220
0.0
230
1.0
 70
     8
 71
     3
 72
    10
 73
     6
 74
     0
 42
0.0000000001
 43
0.0000000001
 40
0.0
 40
0.0
 40
0.0
 40
0.0
 40
0.5
 40
0.5
 40
1.0
 40
1.0
 40
1.0
 40
1.0
 10
672.4937207778032
 20
-647.612393022624
 30
0.0
 10
672.4937207778032
 20
-647.4782735852259
 30
0.0
 10
672.5511077408567
 20
-647.3472524814406
 30
0.0
 10
672.7436108050354
 20
-647.1656897100074
 30
0.0
 10
672.8773055612558
 20
-647.1157226395662
 30
0.0
 10
673.0113026587303
 20
-647.1197130490636
 30
0.0
  0
SPLINE
  5
231BD
330
18
100
AcDbEntity
  8
1PHANTOM
100
AcDbSpline
210
0.0
220
0.0
230
1.0
 70
     8
 71
     3
 72
    12
 73
     8
 74
     0
 42
0.0000000001
 43
0.0000000001
 40
0.0
 40
0.0
 40
0.0
 40
0.0
 40
0.25
 40
0.25
 40
0.5
 40
0.5
 40
1.0
 40
1.0
 40
1.0
 40
1.0
 10
687.9476033848199
 20
-651.2261641039058
 30
0.0
 10
688.0684171423376
 20
-651.2418029669607
 30
0.0
 10
688.1836235400964
 20
-651.2789487261925
 30
0.0
 10
688.3973980232103
 20
-651.3937293515028
 30
0.0
 10
688.4925302748173
 20
-651.4698531179602
 30
0.0
 10
688.7307277320045
 20
-651.7434128353761
 30
0.0
 10
688.8201512079689
 20
-651.9817150801409
 30
0.0
 10
688.8201512079694
 20
-652.2253085262073
 30
0.0
  0
SPLINE
  5
231BE
330
18
100
AcDbEntity
  8
1PHANTOM
100
AcDbSpline
210
0.0
220
0.0
230
1.0
 70
     8
 71
     3
 72
    12
 73
     8
 74
     0
 42
0.0000000001
 43
0.0000000001
 40
0.0
 40
0.0
 40
0.0
 40
0.0
 40
0.2500000000000007
 40
0.2500000000000007
 40
0.5000000000000013
 40
0.5000000000000013
 40
1.0
 40
1.0
 40
1.0
 40
1.0
 10
688.8201512079694
 20
-669.4001616627011
 30
0.0
 10
688.8201512079694
 20
-669.521926489444
 30
0.0
 10
688.7986603142202
 20
-669.6407966603219
 30
0.0
 10
688.7138119668815
 20
-669.868238939589
 30
0.0
 10
688.6517505443084
 20
-669.9726394148856
 30
0.0
 10
688.4134583387307
 20
-670.2466300721062
 30
0.0
 10
688.1898162895349
 20
-670.3677674291939
 30
0.0
 10
687.9482734208744
 20
-670.3992007363468
 30
0.0
  0
LINE
  5
231BF
330
18
100
AcDbEntity
  8
1PHANTOM
100
AcDbLine
 10
688.8201512079694
 20
-669.4001616627011
 30
0.0
 11
688.8201512079694
 21
-652.2253085262073
 31
0.0
  0
LINE
  5
231C0
330
18
100
AcDbEntity
  8
1PHANTOM
100
AcDbLine
 10
691.8199472739028
 20
-647.3067716137648
 30
0.0
 11
691.8199472739028
 21
-674.3179250773719
 31
0.0
  0
SPLINE
  5
231C1
330
18
100
AcDbEntity
  8
1PHANTOM
100
AcDbSpline
210
0.0
220
0.0
230
1.0
 70
     8
 71
     3
 72
     8
 73
     4
 74
     0
 42
0.0000000001
 43
0.0000000001
 40
0.0
 40
0.0
 40
0.0
 40
0.0
 40
1.0
 40
1.0
 40
1.0
 40
1.0
 10
687.9476033848199
 20
-651.2261641039058
 30
0.0
 10
685.3037501191601
 20
-650.8839277559073
 30
0.0
 10
682.6613126783202
 20
-650.5308678438341
 30
0.0
 10
672.4937207778032
 20
-649.1217475406102
 30
0.0
  0
SPLINE
  5
231C2
330
18
100
AcDbEntity
  8
1PHANTOM
100
AcDbSpline
210
0.0
220
0.0
230
1.0
 70
     8
 71
     3
 72
     8
 73
     4
 74
     0
 42
0.0000000001
 43
0.0000000001
 40
0.0
 40
0.0
 40
0.0
 40
0.0
 40
1.0
 40
1.0
 40
1.0
 40
1.0
 10
672.4937207778032
 20
-672.5028653477038
 30
0.0
 10
682.6616672870857
 20
-671.0970853162871
 30
0.0
 10
685.3043310286897
 20
-670.7432715581035
 30
0.0
 10
687.9482734208744
 20
-670.3992007363468
 30
0.0
  0
ARC
  5
231CE
330
18
100
AcDbEntity
  8
1PHANTOM
100
AcDbCircle
 10
535.6965848182961
 20
-511.2413548762797
 30
0.0
 40
0.9999355723443305
100
AcDbArc
 50
89.96533244852566
 51
147.3446267282556
  0
SPLINE
  5
231CF
330
18
100
AcDbEntity
  8
1PHANTOM
100
AcDbSpline
210
0.0
220
0.0
230
1.0
 70
     8
 71
     3
 72
     9
 73
     5
 74
     0
 42
0.0000000001
 43
0.0000000001
 40
0.0
 40
0.0
 40
0.0
 40
0.0
 40
0.4619475013982982
 40
1.0
 40
1.0
 40
1.0
 40
1.0
 10
534.8547077511223
 20
-510.7018049225157
 30
0.0
 10
534.0359377999528
 20
-512.0736899660001
 30
0.0
 10
532.1650690841714
 20
-515.2114197200767
 30
0.0
 10
530.2864297659041
 20
-518.3463629115358
 30
0.0
 10
529.2756231867468
 20
-520.0331269286748
 30
0.0
  0
LINE
  5
231D0
330
18
100
AcDbEntity
  8
1PHANTOM
100
AcDbLine
 10
576.3670948487932
 20
-510.9029814344108
 30
0.0
 11
583.8207551123276
 21
-531.6270526266171
 31
0.0
  0
SPLINE
  5
231D1
330
18
100
AcDbEntity
  8
1PHANTOM
100
AcDbSpline
210
0.0
220
0.0
230
1.0
 70
     8
 71
     3
 72
    10
 73
     6
 74
     0
 42
0.0000000001
 43
0.0000000001
 40
0.0
 40
0.0
 40
0.0
 40
0.0
 40
0.5
 40
0.5
 40
1.0
 40
1.0
 40
1.0
 40
1.0
 10
535.6971898421932
 20
-510.2414194869741
 30
0.0
 10
551.12360728817
 20
-510.2414192986494
 30
0.0
 10
555.794900705271
 20
-510.2414192986494
 30
0.0
 10
565.1352806997681
 20
-510.2414192986494
 30
0.0
 10
569.8045644243036
 20
-510.2414192986494
 30
0.0
 10
574.4739745477789
 20
-510.2414192986494
 30
0.0
  0
SPLINE
  5
231D2
330
18
100
AcDbEntity
  8
1PHANTOM
100
AcDbSpline
210
0.0
220
0.0
230
1.0
 70
    24
 71
     3
 72
    10
 73
     6
 74
     0
 42
0.0000000001
 43
0.0000000001
 40
0.0
 40
0.0
 40
0.0
 40
0.0
 40
0.5
 40
0.5
 40
1.0
 40
1.0
 40
1.0
 40
1.0
 10
574.4739745477789
 20
-510.2414192986494
 30
0.0
 10
574.788099367878
 20
-510.2414192986494
 30
0.0
 10
575.0278909318665
 20
-510.2414192986494
 30
0.0
 10
575.3466011701173
 20
-510.2414192986494
 30
0.0
 10
575.426106107069
 20
-510.2414192986489
 30
0.0
 10
575.426106107069
 20
-510.2414192986489
 30
0.0
  0
ARC
  5
231D3
330
18
100
AcDbEntity
  8
1PHANTOM
100
AcDbCircle
 10
575.426106107069
 20
-511.2414192986489
 30
0.0
 40
1.000000000000019
100
AcDbArc
 50
19.78172886846339
 51
90.0
  0
ARC
  5
231E7
330
18
100
AcDbEntity
  8
1PHANTOM
100
AcDbCircle
 10
-23.82344179876003
 20
-511.2413548762797
 30
0.0
 40
0.9999355723443303
100
AcDbArc
 50
32.65537327174437
 51
90.03466755147434
  0
SPLINE
  5
231E8
330
18
100
AcDbEntity
  8
1PHANTOM
100
AcDbSpline
210
0.0
220
0.0
230
1.0
 70
     8
 71
     3
 72
     9
 73
     5
 74
     0
 42
0.0000000001
 43
0.0000000001
 40
0.0
 40
0.0
 40
0.0
 40
0.0
 40
0.4619475013982982
 40
1.0
 40
1.0
 40
1.0
 40
1.0
 10
-22.98156473158639
 20
-510.7018049225157
 30
0.0
 10
-22.16279478041673
 20
-512.0736899660001
 30
0.0
 10
-20.29192606463533
 20
-515.2114197200767
 30
0.0
 10
-18.4132867463681
 20
-518.3463629115358
 30
0.0
 10
-17.40248016721074
 20
-520.0331269286748
 30
0.0
  0
LINE
  5
231E9
330
18
100
AcDbEntity
  8
1PHANTOM
100
AcDbLine
 10
-64.49395182925713
 20
-510.9029814344108
 30
0.0
 11
-71.94761209279153
 21
-531.6270526266171
 31
0.0
  0
SPLINE
  5
231EA
330
18
100
AcDbEntity
  8
1PHANTOM
100
AcDbSpline
210
0.0
220
0.0
230
1.0
 70
     8
 71
     3
 72
    10
 73
     6
 74
     0
 42
0.0000000001
 43
0.0000000001
 40
0.0
 40
0.0
 40
0.0
 40
0.0
 40
0.5
 40
0.5
 40
1.0
 40
1.0
 40
1.0
 40
1.0
 10
-23.82404682265718
 20
-510.2414194869741
 30
0.0
 10
-39.25046426863395
 20
-510.2414192986494
 30
0.0
 10
-43.92175768573492
 20
-510.2414192986494
 30
0.0
 10
-53.26213768023212
 20
-510.2414192986494
 30
0.0
 10
-57.9314214047676
 20
-510.2414192986494
 30
0.0
 10
-62.60083152824285
 20
-510.2414192986494
 30
0.0
  0
SPLINE
  5
231EB
330
18
100
AcDbEntity
  8
1PHANTOM
100
AcDbSpline
210
0.0
220
0.0
230
1.0
 70
    24
 71
     3
 72
    10
 73
     6
 74
     0
 42
0.0000000001
 43
0.0000000001
 40
0.0
 40
0.0
 40
0.0
 40
0.0
 40
0.5
 40
0.5
 40
1.0
 40
1.0
 40
1.0
 40
1.0
 10
-62.60083152824285
 20
-510.2414192986494
 30
0.0
 10
-62.91495634834195
 20
-510.2414192986494
 30
0.0
 10
-63.15474791233049
 20
-510.2414192986494
 30
0.0
 10
-63.47345815058128
 20
-510.2414192986494
 30
0.0
 10
-63.55296308753299
 20
-510.2414192986489
 30
0.0
 10
-63.55296308753299
 20
-510.2414192986489
 30
0.0
  0
ARC
  5
231EC
330
18
100
AcDbEntity
  8
1PHANTOM
100
AcDbCircle
 10
-63.55296308753299
 20
-511.2414192986489
 30
0.0
 40
1.000000000000019
100
AcDbArc
 50
90.0
 51
160.2182711315366
  0
LINE
  5
238DC
330
18
100
AcDbEntity
  8
1DIM1
100
AcDbLine
 10
-31.56343931936976
 20
-669.5120749633948
 30
0.0
 11
-31.56343931936977
 21
-699.7855439368174
 31
0.0
  0
LINE
  5
238DD
330
18
100
AcDbEntity
  8
1DIM1
100
AcDbLine
 10
543.4365823389057
 20
-669.5120749633948
 30
0.0
 11
543.4365823389057
 21
-699.7855439368174
 31
0.0
  0
LINE
  5
238DE
330
18
100
AcDbEntity
  8
1DIM1
100
AcDbLine
 10
-25.56343931936976
 20
-696.7855439368174
 30
0.0
 11
537.4365823389057
 21
-696.7855439368174
 31
0.0
  0
LINE
  5
238E2
330
18
100
AcDbEntity
  8
1DIM
100
AcDbLine
 10
640.6472404043386
 20
-644.9254585752843
 30
0.0
 11
611.1800883423571
 21
-644.9254585752843
 31
0.0
  0
LINE
  5
238E3
330
18
100
AcDbEntity
  8
1DIM
100
AcDbLine
 10
640.677714066863
 20
-676.7855439368174
 30
0.0
 11
611.1800883423571
 21
-676.7855439368174
 31
0.0
  0
LINE
  5
238E4
330
18
100
AcDbEntity
  8
1DIM
100
AcDbLine
 10
612.1800883423571
 20
-646.9254585752843
 30
0.0
 11
612.1800883423571
 21
-674.7855439368174
 31
0.0
  0
TEXT
  5
238E8
330
18
100
AcDbEntity
  8
1DIM
100
AcDbText
 10
521.1203505818733
 20
-583.2840825083267
 30
0.0
 40
3.5
  1
材質：アルミダイキャスト
100
AcDbText
  0
SOLID
  5
238E9
330
18
100
AcDbEntity
  8
1DIM
100
AcDbTrace
 10
498.2964325800799
 20
-562.4582154553775
 30
0.0
 11
497.1932671540885
 21
-560.7569990805421
 31
0.0
 12
498.7885478678108
 22
-562.0084744320919
 32
0.0
 13
498.7885478678108
 23
-562.0084744320919
 33
0.0
  0
TEXT
  5
238EB
330
18
100
AcDbEntity
  8
1DIM
100
AcDbText
 10
466.8854819855588
 20
-496.2551826529984
 30
0.0
 40
3.5
  1
材質：亜鉛ダイキャスト
100
AcDbText
  0
SOLID
  5
238EC
330
18
100
AcDbEntity
  8
1DIM
100
AcDbTrace
 10
529.2924642891317
 20
-512.2517093579247
 30
0.0
 11
530.3961880237989
 21
-513.9525635635059
 31
0.0
 12
528.8004966405467
 22
-512.701611877578
 32
0.0
 13
528.8004966405467
 23
-512.701611877578
 33
0.0
  0
LINE
  5
238EE
330
18
100
AcDbEntity
  8
1DIM
100
AcDbLine
 10
691.8199472739028
 20
-620.8545976475534
 30
0.0
 11
691.8199472739028
 21
-619.8545976475534
 31
0.0
  0
LINE
  5
238EF
330
18
100
AcDbEntity
  8
1DIM
100
AcDbLine
 10
625.7290767592895
 20
-660.8123483455681
 30
0.0
 11
625.7290767592895
 21
-619.8545976475534
 31
0.0
  0
LINE
  5
238F0
330
18
100
AcDbEntity
  8
1DIM
100
AcDbLine
 10
689.8199472739028
 20
-620.8545976475534
 30
0.0
 11
627.7290767592895
 21
-620.8545976475534
 31
0.0
  0
LINE
  5
238F4
330
18
100
AcDbEntity
  8
1DIM
100
AcDbLine
 10
677.8199472739027
 20
-678.2375170714777
 30
0.0
 11
677.8199472739027
 21
-692.8532827541137
 31
0.0
  0
LINE
  5
238F5
330
18
100
AcDbEntity
  8
1DIM
100
AcDbLine
 10
691.8151873545153
 20
-676.6908963065268
 30
0.0
 11
691.8151873545153
 21
-692.8532827541137
 31
0.0
  0
LINE
  5
238F6
330
18
100
AcDbEntity
  8
1DIM
100
AcDbLine
 10
679.8199472739027
 20
-691.8532827541137
 30
0.0
 11
689.8151873545153
 21
-691.8532827541137
 31
0.0
  0
LINE
  5
238FA
330
18
100
AcDbEntity
  8
1DIM
100
AcDbLine
 10
691.8199472739028
 20
-645.0376356762138
 30
0.0
 11
741.0688777126021
 21
-645.0376356762138
 31
0.0
  0
LINE
  5
238FB
330
18
100
AcDbEntity
  8
1DIM
100
AcDbLine
 10
691.8151873545153
 20
-676.6908963065268
 30
0.0
 11
741.0688777126021
 21
-676.6908963065268
 31
0.0
  0
LINE
  5
238FC
330
18
100
AcDbEntity
  8
1DIM
100
AcDbLine
 10
740.0688777126021
 20
-674.6908963065268
 30
0.0
 11
740.0688777126021
 21
-647.0376356762138
 31
0.0
  0
LINE
  5
238FD
330
18
100
AcDbEntity
  8
1DIM
100
AcDbLine
 10
740.0688777126021
 20
-645.0376356762138
 30
0.0
 11
740.0688777126021
 21
-635.7518463835399
 31
0.0
  0
TEXT
  5
23901
330
18
100
AcDbEntity
  8
1DIM
100
AcDbText
 10
715.697358473255
 20
-590.4733991785097
 30
0.0
 40
3.5
  1
PB
100
AcDbText
  0
SOLID
  5
23902
330
18
100
AcDbEntity
  8
1DIM
100
AcDbTrace
 10
697.7178538670221
 20
-620.8496416653719
 30
0.0
 11
696.4617514026098
 21
-622.4412816089548
 31
0.0
 12
697.1337488872431
 22
-620.5282916738643
 32
0.0
 13
697.1337488872431
 23
-620.5282916738643
 33
0.0
  0
TEXT
  5
23904
330
18
100
AcDbEntity
  8
1DIM
100
AcDbText
 10
718.3754930334522
 20
-598.7916252585807
 30
0.0
 40
3.5
  1
合板12mm以上
100
AcDbText
  0
TEXT
  5
23905
330
18
100
AcDbEntity
  8
1DIM
100
AcDbText
 10
718.3754930334522
 20
-604.624958591914
 30
0.0
 40
3.5
  1
（15mm以上推奨）
100
AcDbText
  0
SOLID
  5
23906
330
18
100
AcDbEntity
  8
1DIM
100
AcDbTrace
 10
708.5683635559215
 20
-620.5875892932794
 30
0.0
 11
707.38903466217
 21
-622.2369208158891
 31
0.0
 12
707.9696977164939
 22
-620.2942573019335
 32
0.0
 13
707.9696977164939
 23
-620.2942573019335
 33
0.0
  0
LINE
  5
23908
330
18
100
AcDbEntity
  8
01
100
AcDbLine
 10
714.9378128599486
 20
-663.3123483455684
 30
0.0
 11
715.9378128599486
 21
-658.3123483455684
 31
0.0
  0
LINE
  5
23909
330
18
100
AcDbEntity
  8
1CENTER
100
AcDbLine
 10
740.2663005044509
 20
-660.8123483455684
 30
0.0
 11
683.8369945237567
 21
-660.8123483455684
 31
0.0
  0
LINE
  5
2390B
330
18
100
AcDbEntity
  8
01
100
AcDbLine
 10
732.9745594717415
 20
-663.1286152866041
 30
0.0
 11
732.8245594717414
 21
-662.3786152866041
 31
0.0
  0
LINE
  5
2390C
330
18
100
AcDbEntity
  8
01
100
AcDbLine
 10
732.9745594717415
 20
-663.1286152866043
 30
0.0
 11
733.8539403679597
 21
-658.7317108055136
 31
0.0
  0
LINE
  5
2390D
330
18
100
AcDbEntity
  8
01
100
AcDbLine
 10
737.2010567798452
 20
-661.9961287460856
 30
0.0
 11
737.0510567798452
 21
-661.2461287460856
 31
0.0
  0
LINE
  5
2390E
330
18
100
AcDbEntity
  8
01
100
AcDbLine
 10
737.8004841973374
 20
-660.4989916586246
 30
0.0
 11
737.6504841973374
 21
-659.7489916586246
 31
0.0
  0
LINE
  5
2390F
330
18
100
AcDbEntity
  8
01
100
AcDbLine
 10
737.2010567798452
 20
-661.9961287460856
 30
0.0
 11
737.6504841973374
 21
-659.7489916586246
 31
0.0
  0
LINE
  5
23910
330
18
100
AcDbEntity
  8
01
100
AcDbLine
 10
735.0878081257933
 20
-662.5623720163449
 30
0.0
 11
734.9378081257934
 21
-661.8123720163449
 31
0.0
  0
LINE
  5
23911
330
18
100
AcDbEntity
  8
01
100
AcDbLine
 10
735.9022122826485
 20
-659.9903512320691
 30
0.0
 11
735.7522122826485
 21
-659.2403512320691
 31
0.0
  0
LINE
  5
23912
330
18
100
AcDbEntity
  8
01
100
AcDbLine
 10
734.0039403679597
 20
-659.4817108055136
 30
0.0
 11
733.8539403679597
 21
-658.7317108055136
 31
0.0
  0
LINE
  5
23913
330
18
100
AcDbEntity
  8
01
100
AcDbLine
 10
735.0878081257933
 20
-662.5623720163449
 30
0.0
 11
735.7522122826485
 21
-659.2403512320691
 31
0.0
  0
LINE
  5
23914
330
18
100
AcDbEntity
  8
01
100
AcDbLine
 10
718.9378128599486
 20
-663.3123483455684
 30
0.0
 11
718.7878128599486
 21
-662.5623483455684
 31
0.0
  0
LINE
  5
23915
330
18
100
AcDbEntity
  8
01
100
AcDbLine
 10
716.9378128599486
 20
-663.3123483455684
 30
0.0
 11
716.7878128599486
 21
-662.5623483455684
 31
0.0
  0
LINE
  5
23916
330
18
100
AcDbEntity
  8
01
100
AcDbLine
 10
722.9378128599486
 20
-663.3123483455684
 30
0.0
 11
722.7878128599486
 21
-662.5623483455684
 31
0.0
  0
LINE
  5
23917
330
18
100
AcDbEntity
  8
01
100
AcDbLine
 10
720.9378128599486
 20
-663.3123483455684
 30
0.0
 11
720.7878128599486
 21
-662.5623483455684
 31
0.0
  0
LINE
  5
23918
330
18
100
AcDbEntity
  8
01
100
AcDbLine
 10
724.9378128599486
 20
-663.3123483455684
 30
0.0
 11
724.7878128599486
 21
-662.5623483455684
 31
0.0
  0
LINE
  5
23919
330
18
100
AcDbEntity
  8
01
100
AcDbLine
 10
726.9378128599486
 20
-663.3123483455684
 30
0.0
 11
726.7878128599486
 21
-662.5623483455684
 31
0.0
  0
LINE
  5
2391A
330
18
100
AcDbEntity
  8
01
100
AcDbLine
 10
716.9378128599486
 20
-663.3123483455684
 30
0.0
 11
717.9378128599486
 21
-658.3123483455684
 31
0.0
  0
LINE
  5
2391B
330
18
100
AcDbEntity
  8
01
100
AcDbLine
 10
718.9378128599486
 20
-663.3123483455684
 30
0.0
 11
719.9378128599486
 21
-658.3123483455684
 31
0.0
  0
LINE
  5
2391C
330
18
100
AcDbEntity
  8
01
100
AcDbLine
 10
720.9378128599486
 20
-663.3123483455684
 30
0.0
 11
721.9378128599486
 21
-658.3123483455684
 31
0.0
  0
LINE
  5
2391D
330
18
100
AcDbEntity
  8
01
100
AcDbLine
 10
722.9378128599486
 20
-663.3123483455684
 30
0.0
 11
723.9378128599486
 21
-658.3123483455684
 31
0.0
  0
LINE
  5
2391E
330
18
100
AcDbEntity
  8
01
100
AcDbLine
 10
724.9378128599486
 20
-663.3123483455684
 30
0.0
 11
725.9378128599486
 21
-658.3123483455684
 31
0.0
  0
LINE
  5
2391F
330
18
100
AcDbEntity
  8
01
100
AcDbLine
 10
730.9378128599486
 20
-663.3123483455684
 30
0.0
 11
730.7878128599486
 21
-662.5623483455684
 31
0.0
  0
LINE
  5
23920
330
18
100
AcDbEntity
  8
01
100
AcDbLine
 10
728.9378128599486
 20
-663.3123483455684
 30
0.0
 11
728.7878128599486
 21
-662.5623483455684
 31
0.0
  0
LINE
  5
23921
330
18
100
AcDbEntity
  8
01
100
AcDbLine
 10
728.9378128599486
 20
-663.3123483455684
 30
0.0
 11
729.9378128599486
 21
-658.3123483455684
 31
0.0
  0
LINE
  5
23922
330
18
100
AcDbEntity
  8
01
100
AcDbLine
 10
730.9378128599486
 20
-663.3123483455684
 30
0.0
 11
731.9378128599486
 21
-658.3123483455684
 31
0.0
  0
LINE
  5
23923
330
18
100
AcDbEntity
  8
01
100
AcDbLine
 10
726.9378128599486
 20
-663.3123483455684
 30
0.0
 11
727.9378128599486
 21
-658.3123483455684
 31
0.0
  0
LINE
  5
23924
330
18
100
AcDbEntity
  8
01
100
AcDbLine
 10
724.0878128599486
 20
-659.0623483455684
 30
0.0
 11
723.9378128599486
 21
-658.3123483455684
 31
0.0
  0
LINE
  5
23925
330
18
100
AcDbEntity
  8
01
100
AcDbLine
 10
730.0878128599486
 20
-659.0623483455684
 30
0.0
 11
729.9378128599486
 21
-658.3123483455684
 31
0.0
  0
LINE
  5
23926
330
18
100
AcDbEntity
  8
01
100
AcDbLine
 10
732.0878128599486
 20
-659.0623483455684
 30
0.0
 11
731.9378128599486
 21
-658.3123483455684
 31
0.0
  0
LINE
  5
23927
330
18
100
AcDbEntity
  8
01
100
AcDbLine
 10
726.0878128599486
 20
-659.0623483455684
 30
0.0
 11
725.9378128599486
 21
-658.3123483455684
 31
0.0
  0
LINE
  5
23928
330
18
100
AcDbEntity
  8
01
100
AcDbLine
 10
728.0878128599486
 20
-659.0623483455684
 30
0.0
 11
727.9378128599486
 21
-658.3123483455684
 31
0.0
  0
LINE
  5
23929
330
18
100
AcDbEntity
  8
01
100
AcDbLine
 10
720.0878128599486
 20
-659.0623483455684
 30
0.0
 11
719.9378128599486
 21
-658.3123483455684
 31
0.0
  0
LINE
  5
2392A
330
18
100
AcDbEntity
  8
01
100
AcDbLine
 10
722.0878128599486
 20
-659.0623483455684
 30
0.0
 11
721.9378128599486
 21
-658.3123483455684
 31
0.0
  0
LINE
  5
2392B
330
18
100
AcDbEntity
  8
01
100
AcDbLine
 10
718.0878128599486
 20
-659.0623483455684
 30
0.0
 11
717.9378128599486
 21
-658.3123483455684
 31
0.0
  0
LINE
  5
2392C
330
18
100
AcDbEntity
  8
01
100
AcDbLine
 10
716.0878128599486
 20
-659.0623483455684
 30
0.0
 11
715.9378128599486
 21
-658.3123483455684
 31
0.0
  0
LINE
  5
2392D
330
18
100
AcDbEntity
  8
01
100
AcDbLine
 10
698.9378128599486
 20
-663.3123483455684
 30
0.0
 11
699.9378128599486
 21
-658.3123483455684
 31
0.0
  0
LINE
  5
2392E
330
18
100
AcDbEntity
  8
01
100
AcDbLine
 10
710.9378128599486
 20
-663.3123483455684
 30
0.0
 11
710.7878128599486
 21
-662.5623483455684
 31
0.0
  0
LINE
  5
2392F
330
18
100
AcDbEntity
  8
01
100
AcDbLine
 10
712.9378128599486
 20
-663.3123483455684
 30
0.0
 11
712.7878128599486
 21
-662.5623483455684
 31
0.0
  0
LINE
  5
23930
330
18
100
AcDbEntity
  8
01
100
AcDbLine
 10
714.9378128599486
 20
-663.3123483455684
 30
0.0
 11
714.7878128599486
 21
-662.5623483455684
 31
0.0
  0
LINE
  5
23931
330
18
100
AcDbEntity
  8
01
100
AcDbLine
 10
708.9378128599486
 20
-663.3123483455684
 30
0.0
 11
708.7878128599486
 21
-662.5623483455684
 31
0.0
  0
LINE
  5
23932
330
18
100
AcDbEntity
  8
01
100
AcDbLine
 10
706.9378128599486
 20
-663.3123483455684
 30
0.0
 11
706.7878128599486
 21
-662.5623483455684
 31
0.0
  0
LINE
  5
23933
330
18
100
AcDbEntity
  8
01
100
AcDbLine
 10
702.9378128599486
 20
-663.3123483455684
 30
0.0
 11
702.7878128599486
 21
-662.5623483455684
 31
0.0
  0
LINE
  5
23934
330
18
100
AcDbEntity
  8
01
100
AcDbLine
 10
704.9378128599486
 20
-663.3123483455684
 30
0.0
 11
704.7878128599486
 21
-662.5623483455684
 31
0.0
  0
LINE
  5
23935
330
18
100
AcDbEntity
  8
01
100
AcDbLine
 10
700.9378128599486
 20
-663.3123483455684
 30
0.0
 11
700.7878128599486
 21
-662.5623483455684
 31
0.0
  0
LINE
  5
23936
330
18
100
AcDbEntity
  8
01
100
AcDbLine
 10
710.9378128599486
 20
-663.3123483455684
 30
0.0
 11
711.9378128599486
 21
-658.3123483455684
 31
0.0
  0
LINE
  5
23937
330
18
100
AcDbEntity
  8
01
100
AcDbLine
 10
712.9378128599486
 20
-663.3123483455684
 30
0.0
 11
713.9378128599486
 21
-658.3123483455684
 31
0.0
  0
LINE
  5
23938
330
18
100
AcDbEntity
  8
01
100
AcDbLine
 10
708.9378128599486
 20
-663.3123483455684
 30
0.0
 11
709.9378128599486
 21
-658.3123483455684
 31
0.0
  0
LINE
  5
23939
330
18
100
AcDbEntity
  8
01
100
AcDbLine
 10
706.9378128599486
 20
-663.3123483455684
 30
0.0
 11
707.9378128599486
 21
-658.3123483455684
 31
0.0
  0
LINE
  5
2393A
330
18
100
AcDbEntity
  8
01
100
AcDbLine
 10
704.9378128599486
 20
-663.3123483455684
 30
0.0
 11
705.9378128599486
 21
-658.3123483455684
 31
0.0
  0
LINE
  5
2393B
330
18
100
AcDbEntity
  8
01
100
AcDbLine
 10
702.9378128599486
 20
-663.3123483455684
 30
0.0
 11
703.9378128599486
 21
-658.3123483455684
 31
0.0
  0
LINE
  5
2393C
330
18
100
AcDbEntity
  8
01
100
AcDbLine
 10
700.9378128599486
 20
-663.3123483455684
 30
0.0
 11
701.9378128599486
 21
-658.3123483455684
 31
0.0
  0
LINE
  5
2393D
330
18
100
AcDbEntity
  8
01
100
AcDbLine
 10
712.0878128599486
 20
-659.0623483455684
 30
0.0
 11
711.9378128599486
 21
-658.3123483455684
 31
0.0
  0
LINE
  5
2393E
330
18
100
AcDbEntity
  8
01
100
AcDbLine
 10
714.0878128599486
 20
-659.0623483455684
 30
0.0
 11
713.9378128599486
 21
-658.3123483455684
 31
0.0
  0
LINE
  5
2393F
330
18
100
AcDbEntity
  8
01
100
AcDbLine
 10
710.0878128599486
 20
-659.0623483455684
 30
0.0
 11
709.9378128599486
 21
-658.3123483455684
 31
0.0
  0
LINE
  5
23940
330
18
100
AcDbEntity
  8
01
100
AcDbLine
 10
708.0878128599486
 20
-659.0623483455684
 30
0.0
 11
707.9378128599486
 21
-658.3123483455684
 31
0.0
  0
LINE
  5
23941
330
18
100
AcDbEntity
  8
01
100
AcDbLine
 10
706.0878128599486
 20
-659.0623483455684
 30
0.0
 11
705.9378128599486
 21
-658.3123483455684
 31
0.0
  0
LINE
  5
23942
330
18
100
AcDbEntity
  8
01
100
AcDbLine
 10
704.0878128599486
 20
-659.0623483455684
 30
0.0
 11
703.9378128599486
 21
-658.3123483455684
 31
0.0
  0
LINE
  5
23943
330
18
100
AcDbEntity
  8
01
100
AcDbLine
 10
702.0878128599486
 20
-659.0623483455684
 30
0.0
 11
701.9378128599486
 21
-658.3123483455684
 31
0.0
  0
LINE
  5
23944
330
18
100
AcDbEntity
  8
01
100
AcDbLine
 10
700.0878128599486
 20
-659.0623483455684
 30
0.0
 11
699.9378128599486
 21
-658.3123483455684
 31
0.0
  0
LINE
  5
23945
330
18
100
AcDbEntity
  8
01
100
AcDbLine
 10
696.9378128599486
 20
-663.3123483455684
 30
0.0
 11
696.7878128599486
 21
-662.5623483455684
 31
0.0
  0
LINE
  5
23946
330
18
100
AcDbEntity
  8
01
100
AcDbLine
 10
694.9378128599486
 20
-663.3123483455684
 30
0.0
 11
694.7878128599486
 21
-662.5623483455684
 31
0.0
  0
LINE
  5
23947
330
18
100
AcDbEntity
  8
01
100
AcDbLine
 10
698.9378128599486
 20
-663.3123483455684
 30
0.0
 11
698.7878128599486
 21
-662.5623483455684
 31
0.0
  0
LINE
  5
23948
330
18
100
AcDbEntity
  8
01
100
AcDbLine
 10
692.9378128599486
 20
-663.3123483455684
 30
0.0
 11
692.7878128599486
 21
-662.5623483455684
 31
0.0
  0
LINE
  5
23949
330
18
100
AcDbEntity
  8
01
100
AcDbLine
 10
690.9378128599486
 20
-663.3123483455684
 30
0.0
 11
690.7878128599486
 21
-662.5623483455684
 31
0.0
  0
LINE
  5
2394A
330
18
100
AcDbEntity
  8
01
100
AcDbLine
 10
688.9378128599486
 20
-663.3123483455684
 30
0.0
 11
688.7878128599486
 21
-662.5623483455684
 31
0.0
  0
LINE
  5
2394B
330
18
100
AcDbEntity
  8
01
100
AcDbLine
 10
694.9378128599486
 20
-663.3123483455684
 30
0.0
 11
695.9378128599486
 21
-658.3123483455684
 31
0.0
  0
LINE
  5
2394C
330
18
100
AcDbEntity
  8
01
100
AcDbLine
 10
696.9378128599486
 20
-663.3123483455684
 30
0.0
 11
697.9378128599486
 21
-658.3123483455684
 31
0.0
  0
LINE
  5
2394D
330
18
100
AcDbEntity
  8
01
100
AcDbLine
 10
692.9378128599486
 20
-663.3123483455684
 30
0.0
 11
693.9378128599486
 21
-658.3123483455684
 31
0.0
  0
LINE
  5
2394E
330
18
100
AcDbEntity
  8
01
100
AcDbLine
 10
688.9378128599486
 20
-663.3123483455684
 30
0.0
 11
689.9378128599486
 21
-658.3123483455684
 31
0.0
  0
LINE
  5
2394F
330
18
100
AcDbEntity
  8
01
100
AcDbLine
 10
690.9378128599486
 20
-663.3123483455684
 30
0.0
 11
691.9378128599486
 21
-658.3123483455684
 31
0.0
  0
LINE
  5
23950
330
18
100
AcDbEntity
  8
01
100
AcDbLine
 10
696.0878128599486
 20
-659.0623483455684
 30
0.0
 11
695.9378128599486
 21
-658.3123483455684
 31
0.0
  0
LINE
  5
23951
330
18
100
AcDbEntity
  8
01
100
AcDbLine
 10
698.0878128599486
 20
-659.0623483455684
 30
0.0
 11
697.9378128599486
 21
-658.3123483455684
 31
0.0
  0
LINE
  5
23952
330
18
100
AcDbEntity
  8
01
100
AcDbLine
 10
694.0878128599486
 20
-659.0623483455684
 30
0.0
 11
693.9378128599486
 21
-658.3123483455684
 31
0.0
  0
LINE
  5
23953
330
18
100
AcDbEntity
  8
01
100
AcDbLine
 10
692.0878128599486
 20
-659.0623483455684
 30
0.0
 11
691.9378128599486
 21
-658.3123483455684
 31
0.0
  0
LINE
  5
23954
330
18
100
AcDbEntity
  8
01
100
AcDbLine
 10
690.0878128599486
 20
-659.0623483455684
 30
0.0
 11
689.9378128599486
 21
-658.3123483455684
 31
0.0
  0
LINE
  5
23955
330
18
100
AcDbEntity
  8
01
100
AcDbLine
 10
688.8199472739028
 20
-659.0623483455684
 30
0.0
 11
688.8199472739028
 21
-662.5623483455684
 31
0.0
  0
LINE
  5
23956
330
18
100
AcDbEntity
  8
1HATCH
100
AcDbLine
 10
676.1699472739028
 20
-646.6784333858255
 30
0.0
 11
675.8199472739028
 21
-646.3284335598996
 31
0.0
  0
LINE
  5
23957
330
18
100
AcDbEntity
  8
1HATCH
100
AcDbLine
 10
679.8199472739028
 20
-646.3284335598996
 30
0.0
 11
679.4699472739028
 21
-646.6784333858255
 31
0.0
  0
LINE
  5
23958
330
18
100
AcDbEntity
  8
1HATCH
100
AcDbLine
 10
674.8199472739028
 20
-645.3284333958255
 30
0.0
 11
680.8199472739028
 21
-645.3284333958256
 31
0.0
  0
LINE
  5
23959
330
18
100
AcDbEntity
  8
1HATCH
100
AcDbLine
 10
675.8199472739028
 20
-652.6784333858255
 30
0.0
 11
679.8199472739028
 21
-652.6784333858255
 31
0.0
  0
LINE
  5
2395B
330
18
100
AcDbEntity
  8
1HATCH
100
AcDbLine
 10
679.4699472739028
 20
-653.0284333858256
 30
0.0
 11
679.4699472739028
 21
-646.6784333858255
 31
0.0
  0
LINE
  5
2395C
330
18
100
AcDbEntity
  8
1HATCH
100
AcDbLine
 10
676.1699472739028
 20
-653.0284333858256
 30
0.0
 11
676.1699472739028
 21
-646.6784333858255
 31
0.0
  0
LINE
  5
2395D
330
18
100
AcDbEntity
  8
1CENTER
100
AcDbLine
 10
677.8199472739028
 20
-654.6301083858256
 30
0.0
 11
677.8199472739028
 21
-643.4696644858255
 31
0.0
  0
LINE
  5
2395E
330
18
100
AcDbEntity
  8
1HATCH
100
AcDbLine
 10
676.1699472739027
 20
-675.0287481714778
 30
0.0
 11
675.8199472739027
 21
-675.3787479974037
 31
0.0
  0
LINE
  5
2395F
330
18
100
AcDbEntity
  8
1HATCH
100
AcDbLine
 10
679.8199472739027
 20
-675.3787479974037
 30
0.0
 11
679.4699472739027
 21
-675.0287481714778
 31
0.0
  0
LINE
  5
23960
330
18
100
AcDbEntity
  8
1HATCH
100
AcDbLine
 10
674.8199472739027
 20
-676.3787481614777
 30
0.0
 11
680.8199472739027
 21
-676.3787481614778
 31
0.0
  0
LINE
  5
23961
330
18
100
AcDbEntity
  8
1HATCH
100
AcDbLine
 10
675.8199472739027
 20
-669.0287481714778
 30
0.0
 11
679.8199472739027
 21
-669.0287481714778
 31
0.0
  0
LINE
  5
23963
330
18
100
AcDbEntity
  8
1HATCH
100
AcDbLine
 10
679.4699472739027
 20
-668.6787481714778
 30
0.0
 11
679.4699472739027
 21
-675.0287481714778
 31
0.0
  0
LINE
  5
23964
330
18
100
AcDbEntity
  8
1HATCH
100
AcDbLine
 10
676.1699472739027
 20
-668.6787481714778
 30
0.0
 11
676.1699472739027
 21
-675.0287481714778
 31
0.0
  0
LINE
  5
23965
330
18
100
AcDbEntity
  8
1CENTER
100
AcDbLine
 10
677.8199472739027
 20
-667.0770731714778
 30
0.0
 11
677.8199472739027
 21
-678.2375170714778
 31
0.0
  0
LINE
  5
23966
330
18
100
AcDbEntity
  8
1DIM
100
AcDbLine
 10
580.9377625107702
 20
-506.8052671274686
 30
0.0
 11
580.9377625107702
 21
-490.6722138809218
 31
0.0
  0
LINE
  5
23967
330
18
100
AcDbEntity
  8
1DIM
100
AcDbLine
 10
530.9457972168863
 20
-506.8070664426828
 30
0.0
 11
530.9457972168863
 21
-490.6722138809218
 31
0.0
  0
LINE
  5
23968
330
18
100
AcDbEntity
  8
1DIM
100
AcDbLine
 10
578.9377625107702
 20
-491.6722138809218
 30
0.0
 11
532.9457972168863
 21
-491.6722138809218
 31
0.0
  0
LINE
  5
2396C
330
18
100
AcDbEntity
  8
1DIM1
100
AcDbLine
 10
-44.06343931936976
 20
-660.8123483455685
 30
0.0
 11
-44.06343931936976
 21
-621.9254585752843
 31
0.0
  0
LINE
  5
2396D
330
18
100
AcDbEntity
  8
1DIM1
100
AcDbLine
 10
555.9365823389057
 20
-660.8123483455685
 30
0.0
 11
555.9365823389057
 21
-621.9254585752843
 31
0.0
  0
LINE
  5
2396E
330
18
100
AcDbEntity
  8
1DIM1
100
AcDbLine
 10
-38.06343931936976
 20
-624.9254585752843
 30
0.0
 11
549.9365823389057
 21
-624.9254585752843
 31
0.0
  0
LINE
  5
23972
330
18
100
AcDbEntity
  8
1DIM1
100
AcDbLine
 10
595.1111521877972
 20
-661.7931180583206
 30
0.0
 11
595.1111521877972
 21
-596.9254585752843
 31
0.0
  0
LINE
  5
23973
330
18
100
AcDbEntity
  8
1DIM1
100
AcDbLine
 10
-83.23800916826127
 20
-661.7885135653854
 30
0.0
 11
-83.23800916826127
 21
-596.9254585752843
 31
0.0
  0
LINE
  5
23974
330
18
100
AcDbEntity
  8
1DIM1
100
AcDbLine
 10
589.1111521877972
 20
-599.9254585752843
 30
0.0
 11
-77.23800916826127
 21
-599.9254585752843
 31
0.0
  0
LINE
  5
23978
330
18
100
AcDbEntity
  8
1DIM
100
AcDbLine
 10
543.4365823389057
 20
-669.5120749633948
 30
0.0
 11
543.4365823389057
 21
-691.8724172722214
 31
0.0
  0
LINE
  5
23979
330
18
100
AcDbEntity
  8
1DIM
100
AcDbLine
 10
568.4365823389057
 20
-669.512074963395
 30
0.0
 11
568.4365823389057
 21
-691.8724172722214
 31
0.0
  0
LINE
  5
2397A
330
18
100
AcDbEntity
  8
1DIM
100
AcDbLine
 10
545.4365823389057
 20
-690.8724172722214
 30
0.0
 11
566.4365823389057
 21
-690.8724172722214
 31
0.0
  0
TEXT
  5
239AF
330
18
100
AcDbEntity
  8
1DIM
100
AcDbText
 10
466.8854819855588
 20
-501.8020879014907
 30
0.0
 40
3.5
  1
仕上げ：クローム
100
AcDbText
  0
TEXT
  5
239B1
330
18
100
AcDbEntity
  8
1DIM
100
AcDbText
 10
521.1203505818733
 20
-588.8400926692727
 30
0.0
 40
3.5
  1
仕上げ：白塗装
100
AcDbText
  0
TEXT
  5
23ADD
330
18
100
AcDbEntity
  8
1TEXT
100
AcDbText
 10
627.6532158065545
 20
-561.5180183131904
 30
0.0
 40
8.0
  1
KH50-
100
AcDbText
  0
LINE
  5
23ADE
330
18
100
AcDbEntity
  8
1DIM
100
AcDbLine
 10
623.958727609594
 20
-572.1258557869248
 30
0.0
 11
728.9587276095945
 21
-572.1258557869244
 31
0.0
  0
TEXT
  5
23ADF
330
18
100
AcDbEntity
  8
1TEXT
100
AcDbText
 10
627.2920609429274
 20
-570.6258557869248
 30
0.0
 40
4.0
  1
仕上げ：脚部
 72
     1
 11
641.3587276095941
 21
-570.6258557869248
 31
0.0
100
AcDbText
  0
LINE
  5
23AE0
330
18
100
AcDbEntity
  8
1DIM
100
AcDbLine
 10
623.958727609594
 20
-565.1258557869248
 30
0.0
 11
728.9587276095945
 21
-565.1258557869244
 31
0.0
  0
TEXT
  5
23AE1
330
18
100
AcDbEntity
  8
1TEXT
100
AcDbText
 10
704.4920609429274
 20
-570.6258557869248
 30
0.0
 40
4.0
  1
コード
 72
     1
 11
711.3587276095941
 21
-570.6258557869248
 31
0.0
100
AcDbText
  0
TEXT
  5
23AE2
330
18
100
AcDbEntity
  8
1TEXT
100
AcDbText
 10
662.8253942762608
 20
-570.6258557869248
 30
0.0
 40
4.0
  1
仕上げ：握り
 72
     1
 11
676.3587276095941
 21
-570.6258557869248
 31
0.0
100
AcDbText
  0
LINE
  5
23AE3
330
18
100
AcDbEntity
  8
1DIM
100
AcDbLine
 10
623.9587276095938
 20
-579.1258557869246
 30
0.0
 11
728.9587276095945
 21
-579.1258557869248
 31
0.0
  0
TEXT
  5
23AE4
330
18
100
AcDbEntity
  8
1TEXT
100
AcDbText
 10
669.2920609429283
 20
-577.8402127705742
 30
0.0
 40
4.0
  1
白塗装
 72
     1
 11
676.358727609595
 21
-577.8402127705742
 31
0.0
100
AcDbText
  0
LINE
  5
23AE5
330
18
100
AcDbEntity
  8
1DIM
100
AcDbLine
 10
658.958727609594
 20
-565.1258557869248
 30
0.0
 11
658.9587276095938
 21
-579.1258557869246
 31
0.0
  0
LINE
  5
23AE6
330
18
100
AcDbEntity
  8
1DIM
100
AcDbLine
 10
693.958727609594
 20
-565.1258557869244
 30
0.0
 11
693.958727609594
 21
-579.1258557869248
 31
0.0
  0
LINE
  5
23AE7
330
18
100
AcDbEntity
  8
1DIM
100
AcDbLine
 10
728.9587276095945
 20
-565.1258557869244
 30
0.0
 11
728.9587276095942
 21
-579.1258557869248
 31
0.0
  0
LINE
  5
23AE8
330
18
100
AcDbEntity
  8
1DIM
100
AcDbLine
 10
623.958727609594
 20
-565.1258557869248
 30
0.0
 11
623.9587276095938
 21
-579.1258557869246
 31
0.0
  0
TEXT
  5
23AE9
330
18
100
AcDbEntity
  8
1TEXT
100
AcDbText
 10
700.3448387207061
 20
-577.8402127705742
 30
0.0
 40
4.0
  1
KH50SC
 72
     1
 11
711.358727609595
 21
-577.8402127705742
 31
0.0
100
AcDbText
  0
TEXT
  5
23AEA
330
18
100
AcDbEntity
  8
1TEXT
100
AcDbText
 10
631.8920609429281
 20
-577.8402127705742
 30
0.0
 40
4.0
  1
クローム
 72
     1
 11
641.3587276095948
 21
-577.8402127705742
 31
0.0
100
AcDbText
  0
LINE
  5
23C1E
330
18
100
AcDbEntity
  8
01
100
AcDbLine
 10
732.2888583606574
 20
-662.5623483455684
 30
0.0
 11
688.8199472739028
 21
-662.5623483455684
 31
0.0
  0
LINE
  5
23C1F
330
18
100
AcDbEntity
  8
01
100
AcDbLine
 10
738.8199472739028
 20
-660.8123483455684
 30
0.0
 11
732.2888583606572
 21
-662.5623483455685
 31
0.0
  0
LINE
  5
23C20
330
18
100
AcDbEntity
  8
01
100
AcDbLine
 10
738.8199472739028
 20
-660.8123483455684
 30
0.0
 11
732.2888583606572
 21
-659.0623483455682
 31
0.0
  0
LINE
  5
23C21
330
18
100
AcDbEntity
  8
01
100
AcDbLine
 10
732.2888583606573
 20
-659.0623483455684
 30
0.0
 11
688.8199472739027
 21
-659.0623483455684
 31
0.0
  0
LINE
  5
23C22
330
18
100
AcDbEntity
  8
01
100
AcDbLine
 10
688.8199472739028
 20
-656.3123483455684
 30
0.0
 11
688.8199472739028
 21
-659.0623483455684
 31
0.0
  0
LINE
  5
23C23
330
18
100
AcDbEntity
  8
01
100
AcDbLine
 10
688.8199472739028
 20
-656.3123483455684
 30
0.0
 11
688.0199472739027
 21
-656.3123483455684
 31
0.0
  0
ARC
  5
23C24
330
18
100
AcDbEntity
  8
01
100
AcDbCircle
 10
-688.0199472739027
 20
-658.8123483455684
 30
0.0
 40
2.5
210
0.0
220
0.0
230
-1.0
100
AcDbArc
 50
0.0
 51
90.0
  0
LINE
  5
23C25
330
18
100
AcDbEntity
  8
01
100
AcDbLine
 10
685.5199472739027
 20
-658.8123483455684
 30
0.0
 11
685.5199472739027
 21
-662.8123483455684
 31
0.0
  0
ARC
  5
23C26
330
18
100
AcDbEntity
  8
01
100
AcDbCircle
 10
-688.0199472739027
 20
-662.8123483455684
 30
0.0
 40
2.5
210
0.0
220
0.0
230
-1.0
100
AcDbArc
 50
269.9999999999948
 51
0.0
  0
LINE
  5
23C27
330
18
100
AcDbEntity
  8
01
100
AcDbLine
 10
688.8199472739028
 20
-665.3123483455684
 30
0.0
 11
688.019947273903
 21
-665.3123483455684
 31
0.0
  0
LINE
  5
23C28
330
18
100
AcDbEntity
  8
01
100
AcDbLine
 10
688.8199472739028
 20
-662.5623483455684
 30
0.0
 11
688.8199472739028
 21
-665.3123483455684
 31
0.0
  0
LINE
  5
23C29
330
18
100
AcDbEntity
  8
01
100
AcDbLine
 10
675.8199472739028
 20
-652.6784333858257
 30
0.0
 11
675.8199472739028
 21
-646.3284335598996
 31
0.0
  0
LINE
  5
23C2A
330
18
100
AcDbEntity
  8
01
100
AcDbLine
 10
675.8199472739028
 20
-652.6784333858257
 30
0.0
 11
676.1699472739028
 21
-653.0284333858257
 31
0.0
  0
LINE
  5
23C2B
330
18
100
AcDbEntity
  8
01
100
AcDbLine
 10
676.1699472739028
 20
-653.0284333858256
 30
0.0
 11
679.4699472739027
 21
-653.0284333858256
 31
0.0
  0
LINE
  5
23C2C
330
18
100
AcDbEntity
  8
01
100
AcDbLine
 10
679.4699472739027
 20
-653.0284333858256
 30
0.0
 11
679.8199472739028
 21
-652.6784333858255
 31
0.0
  0
LINE
  5
23C2D
330
18
100
AcDbEntity
  8
01
100
AcDbLine
 10
679.8199472739028
 20
-652.6784333858257
 30
0.0
 11
679.8199472739028
 21
-646.3284335598996
 31
0.0
  0
LINE
  5
23C2E
330
18
100
AcDbEntity
  8
01
100
AcDbLine
 10
679.8199472739028
 20
-646.3284335598996
 30
0.0
 11
680.8199473189028
 21
-645.3284334408256
 31
0.0
  0
LINE
  5
23C2F
330
18
100
AcDbEntity
  8
01
100
AcDbLine
 10
680.8199472739028
 20
-645.3284333958256
 30
0.0
 11
680.8199472739028
 21
-645.0284333858256
 31
0.0
  0
LINE
  5
23C30
330
18
100
AcDbEntity
  8
01
100
AcDbLine
 10
674.8199472739028
 20
-645.0284333858256
 30
0.0
 11
680.8199472739028
 21
-645.0284333858256
 31
0.0
  0
LINE
  5
23C31
330
18
100
AcDbEntity
  8
01
100
AcDbLine
 10
674.8199472739028
 20
-645.3284334858255
 30
0.0
 11
674.8199472739028
 21
-645.0284333858256
 31
0.0
  0
LINE
  5
23C32
330
18
100
AcDbEntity
  8
01
100
AcDbLine
 10
675.8199472739028
 20
-646.3284335598996
 30
0.0
 11
674.8199472739028
 21
-645.3284334858256
 31
0.0
  0
LINE
  5
23C33
330
18
100
AcDbEntity
  8
01
100
AcDbLine
 10
675.8199472739027
 20
-669.0287481714777
 30
0.0
 11
675.8199472739027
 21
-675.3787479974037
 31
0.0
  0
LINE
  5
23C34
330
18
100
AcDbEntity
  8
01
100
AcDbLine
 10
675.8199472739027
 20
-675.3787479974037
 30
0.0
 11
674.8199472739027
 21
-676.3787480714777
 31
0.0
  0
LINE
  5
23C35
330
18
100
AcDbEntity
  8
01
100
AcDbLine
 10
674.8199472739027
 20
-676.3787480714777
 30
0.0
 11
674.8199472739027
 21
-676.6787481714778
 31
0.0
  0
LINE
  5
23C36
330
18
100
AcDbEntity
  8
01
100
AcDbLine
 10
674.8199472739027
 20
-676.6787481714778
 30
0.0
 11
680.8199472739027
 21
-676.6787481714778
 31
0.0
  0
LINE
  5
23C37
330
18
100
AcDbEntity
  8
01
100
AcDbLine
 10
680.8199472739027
 20
-676.3787481614778
 30
0.0
 11
680.8199472739027
 21
-676.6787481714778
 31
0.0
  0
LINE
  5
23C38
330
18
100
AcDbEntity
  8
01
100
AcDbLine
 10
679.8199472739027
 20
-675.3787479974037
 30
0.0
 11
680.8199473189027
 21
-676.3787481164777
 31
0.0
  0
LINE
  5
23C39
330
18
100
AcDbEntity
  8
01
100
AcDbLine
 10
679.8199472739027
 20
-669.0287481714777
 30
0.0
 11
679.8199472739027
 21
-675.3787479974037
 31
0.0
  0
LINE
  5
23C3A
330
18
100
AcDbEntity
  8
01
100
AcDbLine
 10
679.4699472739026
 20
-668.6787481714778
 30
0.0
 11
679.8199472739027
 21
-669.0287481714778
 31
0.0
  0
LINE
  5
23C3B
330
18
100
AcDbEntity
  8
01
100
AcDbLine
 10
676.1699472739027
 20
-668.6787481714778
 30
0.0
 11
679.4699472739026
 21
-668.6787481714778
 31
0.0
  0
LINE
  5
23C3C
330
18
100
AcDbEntity
  8
01
100
AcDbLine
 10
675.8199472739027
 20
-669.0287481714777
 30
0.0
 11
676.1699472739027
 21
-668.6787481714777
 31
0.0
  0
LINE
  5
23C3D
330
18
100
AcDbEntity
  8
0
  6
BYBLOCK
100
AcDbLine
 10
-25.56343931936976
 20
-698.3932390768174
 30
0.0
 11
-31.56343931936976
 21
-696.7855439368174
 31
0.0
  0
LINE
  5
23C3E
330
18
100
AcDbEntity
  8
0
  6
BYBLOCK
100
AcDbLine
 10
-31.56343931936976
 20
-696.7855439368174
 30
0.0
 11
-25.56343931936976
 21
-695.1778487968173
 31
0.0
  0
LINE
  5
23C3F
330
18
100
AcDbEntity
  8
0
  6
BYBLOCK
100
AcDbLine
 10
-31.56343931936976
 20
-696.7855439368174
 30
0.0
 11
-25.56343931936976
 21
-696.7855439368174
 31
0.0
  0
LINE
  5
23C40
330
18
100
AcDbEntity
  8
0
  6
BYBLOCK
100
AcDbLine
 10
537.4365823389057
 20
-695.1778487968173
 30
0.0
 11
543.4365823389057
 21
-696.7855439368174
 31
0.0
  0
LINE
  5
23C41
330
18
100
AcDbEntity
  8
0
  6
BYBLOCK
100
AcDbLine
 10
543.4365823389057
 20
-696.7855439368174
 30
0.0
 11
537.4365823389057
 21
-698.3932390768174
 31
0.0
  0
LINE
  5
23C42
330
18
100
AcDbEntity
  8
0
  6
BYBLOCK
100
AcDbLine
 10
543.4365823389057
 20
-696.7855439368174
 30
0.0
 11
537.4365823389057
 21
-696.7855439368174
 31
0.0
  0
TEXT
  5
23C43
330
18
100
AcDbEntity
  8
1DIM1
  6
CONTINUOUS
100
AcDbText
 10
241.9001131764346
 20
-694.6855439368173
 30
0.0
 40
10.5
  1
575
100
AcDbText
  0
LINE
  5
23C44
330
18
100
AcDbEntity
  8
0
  6
BYBLOCK
100
AcDbLine
 10
611.644189962357
 20
-646.9254585752843
 30
0.0
 11
612.1800883423571
 21
-644.9254585752843
 31
0.0
  0
LINE
  5
23C45
330
18
100
AcDbEntity
  8
0
  6
BYBLOCK
100
AcDbLine
 10
612.1800883423571
 20
-644.9254585752843
 30
0.0
 11
612.7159867223571
 21
-646.9254585752843
 31
0.0
  0
LINE
  5
23C46
330
18
100
AcDbEntity
  8
0
  6
BYBLOCK
100
AcDbLine
 10
612.1800883423571
 20
-644.9254585752843
 30
0.0
 11
612.1800883423571
 21
-646.9254585752843
 31
0.0
  0
LINE
  5
23C47
330
18
100
AcDbEntity
  8
0
  6
BYBLOCK
100
AcDbLine
 10
612.7159867223571
 20
-674.7855439368174
 30
0.0
 11
612.1800883423571
 21
-676.7855439368174
 31
0.0
  0
LINE
  5
23C48
330
18
100
AcDbEntity
  8
0
  6
BYBLOCK
100
AcDbLine
 10
612.1800883423571
 20
-676.7855439368174
 30
0.0
 11
611.644189962357
 21
-674.7855439368174
 31
0.0
  0
LINE
  5
23C49
330
18
100
AcDbEntity
  8
0
  6
BYBLOCK
100
AcDbLine
 10
612.1800883423571
 20
-676.7855439368174
 30
0.0
 11
612.1800883423571
 21
-674.7855439368174
 31
0.0
  0
TEXT
  5
23C4A
330
18
100
AcDbEntity
  8
1DIM
  6
CONTINUOUS
100
AcDbText
 10
611.4800883423571
 20
-663.7721679227172
 30
0.0
 40
3.5
  1
32
 50
90.0
100
AcDbText
  0
LINE
  5
23C4B
330
18
100
AcDbEntity
  8
1DIM
100
AcDbLine
 10
498.5424902239453
 20
-562.2333449437348
 30
0.0
 11
518.4203505818732
 21
-583.9840825083268
 31
0.0
  0
LINE
  5
23C4C
330
18
100
AcDbEntity
  8
1DIM
100
AcDbLine
 10
518.4203505818732
 20
-583.9840825083268
 30
0.0
 11
579.1078273067119
 21
-583.9840825083268
 31
0.0
  0
LINE
  5
23C4D
330
18
100
AcDbEntity
  8
1DIM
100
AcDbLine
 10
529.0464804648393
 20
-512.4766606177513
 30
0.0
 11
514.8521486522254
 21
-496.9551826529984
 31
0.0
  0
LINE
  5
23C4E
330
18
100
AcDbEntity
  8
1DIM
100
AcDbLine
 10
514.8521486522254
 20
-496.9551826529984
 30
0.0
 11
461.2539340239605
 21
-496.9551826529984
 31
0.0
  0
LINE
  5
23C4F
330
18
100
AcDbEntity
  8
0
  6
BYBLOCK
100
AcDbLine
 10
689.8199472739028
 20
-620.3186992675534
 30
0.0
 11
691.8199472739028
 21
-620.8545976475534
 31
0.0
  0
LINE
  5
23C50
330
18
100
AcDbEntity
  8
0
  6
BYBLOCK
100
AcDbLine
 10
691.8199472739028
 20
-620.8545976475534
 30
0.0
 11
689.8199472739028
 21
-621.3904960275535
 31
0.0
  0
LINE
  5
23C51
330
18
100
AcDbEntity
  8
0
  6
BYBLOCK
100
AcDbLine
 10
691.8199472739028
 20
-620.8545976475534
 30
0.0
 11
689.8199472739028
 21
-620.8545976475534
 31
0.0
  0
LINE
  5
23C52
330
18
100
AcDbEntity
  8
0
  6
BYBLOCK
100
AcDbLine
 10
627.7290767592895
 20
-621.3904960275535
 30
0.0
 11
625.7290767592895
 21
-620.8545976475534
 31
0.0
  0
LINE
  5
23C53
330
18
100
AcDbEntity
  8
0
  6
BYBLOCK
100
AcDbLine
 10
625.7290767592895
 20
-620.8545976475534
 30
0.0
 11
627.7290767592895
 21
-620.3186992675534
 31
0.0
  0
LINE
  5
23C54
330
18
100
AcDbEntity
  8
0
  6
BYBLOCK
100
AcDbLine
 10
625.7290767592895
 20
-620.8545976475534
 30
0.0
 11
627.7290767592895
 21
-620.8545976475534
 31
0.0
  0
TEXT
  5
23C55
330
18
100
AcDbEntity
  8
1DIM
  6
CONTINUOUS
100
AcDbText
 10
655.8456925721516
 20
-620.1545976475534
 30
0.0
 40
3.5
  1
66
100
AcDbText
  0
LINE
  5
23C56
330
18
100
AcDbEntity
  8
0
  6
BYBLOCK
100
AcDbLine
 10
679.8199472739027
 20
-692.3891811341138
 30
0.0
 11
677.8199472739027
 21
-691.8532827541137
 31
0.0
  0
LINE
  5
23C57
330
18
100
AcDbEntity
  8
0
  6
BYBLOCK
100
AcDbLine
 10
677.8199472739027
 20
-691.8532827541137
 30
0.0
 11
679.8199472739027
 21
-691.3173843741137
 31
0.0
  0
LINE
  5
23C58
330
18
100
AcDbEntity
  8
0
  6
BYBLOCK
100
AcDbLine
 10
677.8199472739027
 20
-691.8532827541137
 30
0.0
 11
679.8199472739027
 21
-691.8532827541137
 31
0.0
  0
LINE
  5
23C59
330
18
100
AcDbEntity
  8
0
  6
BYBLOCK
100
AcDbLine
 10
689.8151873545153
 20
-691.3173843741137
 30
0.0
 11
691.8151873545153
 21
-691.8532827541137
 31
0.0
  0
LINE
  5
23C5A
330
18
100
AcDbEntity
  8
0
  6
BYBLOCK
100
AcDbLine
 10
691.8151873545153
 20
-691.8532827541137
 30
0.0
 11
689.8151873545153
 21
-692.3891811341138
 31
0.0
  0
LINE
  5
23C5B
330
18
100
AcDbEntity
  8
0
  6
BYBLOCK
100
AcDbLine
 10
691.8151873545153
 20
-691.8532827541137
 30
0.0
 11
689.8151873545153
 21
-691.8532827541137
 31
0.0
  0
TEXT
  5
23C5C
330
18
100
AcDbEntity
  8
1DIM
  6
CONTINUOUS
100
AcDbText
 10
682.4842339808756
 20
-691.1532827541137
 30
0.0
 40
3.5
  1
14
100
AcDbText
  0
LINE
  5
23C5D
330
18
100
AcDbEntity
  8
0
  6
BYBLOCK
100
AcDbLine
 10
740.6047760926022
 20
-674.6908963065268
 30
0.0
 11
740.0688777126021
 21
-676.6908963065268
 31
0.0
  0
LINE
  5
23C5E
330
18
100
AcDbEntity
  8
0
  6
BYBLOCK
100
AcDbLine
 10
740.0688777126021
 20
-676.6908963065268
 30
0.0
 11
739.532979332602
 21
-674.6908963065268
 31
0.0
  0
LINE
  5
23C5F
330
18
100
AcDbEntity
  8
0
  6
BYBLOCK
100
AcDbLine
 10
740.0688777126021
 20
-676.6908963065268
 30
0.0
 11
740.0688777126021
 21
-674.6908963065268
 31
0.0
  0
LINE
  5
23C60
330
18
100
AcDbEntity
  8
0
  6
BYBLOCK
100
AcDbLine
 10
739.532979332602
 20
-647.0376356762138
 30
0.0
 11
740.0688777126021
 21
-645.0376356762138
 31
0.0
  0
LINE
  5
23C61
330
18
100
AcDbEntity
  8
0
  6
BYBLOCK
100
AcDbLine
 10
740.0688777126021
 20
-645.0376356762138
 30
0.0
 11
740.6047760926022
 21
-647.0376356762138
 31
0.0
  0
LINE
  5
23C62
330
18
100
AcDbEntity
  8
0
  6
BYBLOCK
100
AcDbLine
 10
740.0688777126021
 20
-645.0376356762138
 30
0.0
 11
740.0688777126021
 21
-647.0376356762138
 31
0.0
  0
TEXT
  5
23C63
330
18
100
AcDbEntity
  8
1DIM
  6
CONTINUOUS
100
AcDbText
 10
739.3688777126022
 20
-642.2018463835399
 30
0.0
 40
3.5
  1
32
 50
90.0
100
AcDbText
  0
LINE
  5
23C64
330
18
100
AcDbEntity
  8
1DIM
100
AcDbLine
 10
697.4258013771325
 20
-620.688966669618
 30
0.0
 11
713.6640251399216
 21
-591.1733991785097
 31
0.0
  0
LINE
  5
23C65
330
18
100
AcDbEntity
  8
1DIM
100
AcDbLine
 10
713.6640251399216
 20
-591.1733991785097
 30
0.0
 11
725.0987798888125
 21
-591.1733991785097
 31
0.0
  0
LINE
  5
23C66
330
18
100
AcDbEntity
  8
1DIM
100
AcDbLine
 10
708.2690306362077
 20
-620.4409232976064
 30
0.0
 11
715.6754930334522
 21
-605.3249585919141
 31
0.0
  0
LINE
  5
23C67
330
18
100
AcDbEntity
  8
1DIM
100
AcDbLine
 10
715.6754930334522
 20
-605.3249585919141
 30
0.0
 11
762.8127355312274
 21
-605.3249585919141
 31
0.0
  0
LINE
  5
23C68
330
18
100
AcDbEntity
  8
0
  6
BYBLOCK
100
AcDbLine
 10
578.9377625107702
 20
-491.1363155009219
 30
0.0
 11
580.9377625107702
 21
-491.6722138809218
 31
0.0
  0
LINE
  5
23C69
330
18
100
AcDbEntity
  8
0
  6
BYBLOCK
100
AcDbLine
 10
580.9377625107702
 20
-491.6722138809218
 30
0.0
 11
578.9377625107702
 21
-492.2081122609218
 31
0.0
  0
LINE
  5
23C6A
330
18
100
AcDbEntity
  8
0
  6
BYBLOCK
100
AcDbLine
 10
580.9377625107702
 20
-491.6722138809218
 30
0.0
 11
578.9377625107702
 21
-491.6722138809218
 31
0.0
  0
LINE
  5
23C6B
330
18
100
AcDbEntity
  8
0
  6
BYBLOCK
100
AcDbLine
 10
532.9457972168863
 20
-492.2081122609218
 30
0.0
 11
530.9457972168863
 21
-491.6722138809218
 31
0.0
  0
LINE
  5
23C6C
330
18
100
AcDbEntity
  8
0
  6
BYBLOCK
100
AcDbLine
 10
530.9457972168863
 20
-491.6722138809218
 30
0.0
 11
532.9457972168863
 21
-491.1363155009219
 31
0.0
  0
LINE
  5
23C6D
330
18
100
AcDbEntity
  8
0
  6
BYBLOCK
100
AcDbLine
 10
530.9457972168863
 20
-491.6722138809218
 30
0.0
 11
532.9457972168863
 21
-491.6722138809218
 31
0.0
  0
TEXT
  5
23C6E
330
18
100
AcDbEntity
  8
1DIM
  6
CONTINUOUS
100
AcDbText
 10
553.2317104193838
 20
-490.9722138809218
 30
0.0
 40
3.5
  1
50
100
AcDbText
  0
LINE
  5
23C6F
330
18
100
AcDbEntity
  8
0
  6
BYBLOCK
100
AcDbLine
 10
-38.06343931936976
 20
-626.5331537152844
 30
0.0
 11
-44.06343931936976
 21
-624.9254585752843
 31
0.0
  0
LINE
  5
23C70
330
18
100
AcDbEntity
  8
0
  6
BYBLOCK
100
AcDbLine
 10
-44.06343931936976
 20
-624.9254585752843
 30
0.0
 11
-38.06343931936976
 21
-623.3177634352843
 31
0.0
  0
LINE
  5
23C71
330
18
100
AcDbEntity
  8
0
  6
BYBLOCK
100
AcDbLine
 10
-44.06343931936976
 20
-624.9254585752843
 30
0.0
 11
-38.06343931936976
 21
-624.9254585752843
 31
0.0
  0
LINE
  5
23C72
330
18
100
AcDbEntity
  8
0
  6
BYBLOCK
100
AcDbLine
 10
549.9365823389057
 20
-623.3177634352843
 30
0.0
 11
555.9365823389057
 21
-624.9254585752843
 31
0.0
  0
LINE
  5
23C73
330
18
100
AcDbEntity
  8
0
  6
BYBLOCK
100
AcDbLine
 10
555.9365823389057
 20
-624.9254585752843
 30
0.0
 11
549.9365823389057
 21
-626.5331537152844
 31
0.0
  0
LINE
  5
23C74
330
18
100
AcDbEntity
  8
0
  6
BYBLOCK
100
AcDbLine
 10
555.9365823389057
 20
-624.9254585752843
 30
0.0
 11
549.9365823389057
 21
-624.9254585752843
 31
0.0
  0
TEXT
  5
23C75
330
18
100
AcDbEntity
  8
1DIM1
  6
CONTINUOUS
100
AcDbText
 10
238.1813631764346
 20
-622.8254585752843
 30
0.0
 40
10.5
  1
P600
100
AcDbText
  0
LINE
  5
23C76
330
18
100
AcDbEntity
  8
0
  6
BYBLOCK
100
AcDbLine
 10
589.1111521877972
 20
-598.3177634352843
 30
0.0
 11
595.1111521877972
 21
-599.9254585752843
 31
0.0
  0
LINE
  5
23C77
330
18
100
AcDbEntity
  8
0
  6
BYBLOCK
100
AcDbLine
 10
595.1111521877972
 20
-599.9254585752843
 30
0.0
 11
589.1111521877972
 21
-601.5331537152844
 31
0.0
  0
LINE
  5
23C78
330
18
100
AcDbEntity
  8
0
  6
BYBLOCK
100
AcDbLine
 10
595.1111521877972
 20
-599.9254585752843
 30
0.0
 11
589.1111521877972
 21
-599.9254585752843
 31
0.0
  0
LINE
  5
23C79
330
18
100
AcDbEntity
  8
0
  6
BYBLOCK
100
AcDbLine
 10
-77.23800916826127
 20
-601.5331537152844
 30
0.0
 11
-83.23800916826127
 21
-599.9254585752843
 31
0.0
  0
LINE
  5
23C7A
330
18
100
AcDbEntity
  8
0
  6
BYBLOCK
100
AcDbLine
 10
-83.23800916826127
 20
-599.9254585752843
 30
0.0
 11
-77.23800916826127
 21
-598.3177634352843
 31
0.0
  0
LINE
  5
23C7B
330
18
100
AcDbEntity
  8
0
  6
BYBLOCK
100
AcDbLine
 10
-83.23800916826127
 20
-599.9254585752843
 30
0.0
 11
-77.23800916826127
 21
-599.9254585752843
 31
0.0
  0
TEXT
  5
23C7C
330
18
100
AcDbEntity
  8
1DIM1
  6
CONTINUOUS
100
AcDbText
 10
234.9001131764346
 20
-597.8254585752843
 30
0.0
 40
10.5
  1
678.5
100
AcDbText
  0
LINE
  5
23C7D
330
18
100
AcDbEntity
  8
0
  6
BYBLOCK
100
AcDbLine
 10
545.4365823389057
 20
-691.4083156522214
 30
0.0
 11
543.4365823389057
 21
-690.8724172722214
 31
0.0
  0
LINE
  5
23C7E
330
18
100
AcDbEntity
  8
0
  6
BYBLOCK
100
AcDbLine
 10
543.4365823389057
 20
-690.8724172722214
 30
0.0
 11
545.4365823389057
 21
-690.3365188922213
 31
0.0
  0
LINE
  5
23C7F
330
18
100
AcDbEntity
  8
0
  6
BYBLOCK
100
AcDbLine
 10
543.4365823389057
 20
-690.8724172722214
 30
0.0
 11
545.4365823389057
 21
-690.8724172722214
 31
0.0
  0
LINE
  5
23C80
330
18
100
AcDbEntity
  8
0
  6
BYBLOCK
100
AcDbLine
 10
566.4365823389057
 20
-690.3365188922213
 30
0.0
 11
568.4365823389057
 21
-690.8724172722214
 31
0.0
  0
LINE
  5
23C81
330
18
100
AcDbEntity
  8
0
  6
BYBLOCK
100
AcDbLine
 10
568.4365823389057
 20
-690.8724172722214
 30
0.0
 11
566.4365823389057
 21
-691.4083156522214
 31
0.0
  0
LINE
  5
23C82
330
18
100
AcDbEntity
  8
0
  6
BYBLOCK
100
AcDbLine
 10
568.4365823389057
 20
-690.8724172722214
 30
0.0
 11
566.4365823389057
 21
-690.8724172722214
 31
0.0
  0
TEXT
  5
23C83
330
18
100
AcDbEntity
  8
1DIM
  6
CONTINUOUS
100
AcDbText
 10
551.2699156722391
 20
-690.1724172722214
 30
0.0
 40
3.5
  1
P25
100
AcDbText
  0
VIEWPORT
  5
57
330
15
100
AcDbEntity
 67
     1
  8
0
100
AcDbViewport
 68
     1
 10
0.0
 20
0.0
 30
0.0
 40
663.4332925336597
 41
297.0
 68
     1
 69
     1
1001
ACAD
1000
MVIEW
1002
{
1070
    16
1010
0.0
1020
0.0
1030
0.0
1010
0.0
1020
0.0
1030
1.0
1040
0.0
1040
297.0
1040
-4.171999999925333
1040
12.83903210976956
1040
50.0
1040
0.0
1040
0.0
1070
    16
1070
   100
1070
     0
1070
     1
1070
     0
1070
     0
1070
     0
1070
     0
1040
0.0
1040
0.0
1040
0.0
1040
10.0
1040
10.0
1040
10.0
1040
10.0
1070
     0
1002
{
1002
}
1002
}
  0
ENDSEC
  0
SECTION
  2
OBJECTS
  0
DICTIONARY
  5
C
330
0
100
AcDbDictionary
  3
ACAD_CIP_PREVIOUS_PRODUCT_INFO
350
20B28
  3
ACAD_COLOR
350
2D0
  3
ACAD_GROUP
350
D
  3
ACAD_IMAGE_VARS
350
23A9A
  3
ACAD_LAYOUT
350
2D1
  3
ACAD_MATERIAL
350
2CF
  3
ACAD_MLEADERSTYLE
350
19E18
  3
ACAD_MLINESTYLE
350
1B
  3
ACAD_PLOTSETTINGS
350
2D2
  3
ACAD_SCALELIST
350
19DF6
  3
ACAD_VISUALSTYLE
350
19DE5
  3
ACDBHEADERROUNDTRIPXREC
350
23C84
  3
ACDBVARIABLEDICTIONARY
350
37
  3
AEC_PROPERTY_SET_DEFS
350
22A67
  3
CONTENTDICTIONARY
350
D8
  3
DRAWINGVARIABLESDICT
350
20
  3
DWGPROPS
350
23C87
1001
ACAD
1000
TREAT_AS_HARD
1070
     0
  0
DICTIONARY
  5
18FE8
330
2
100
AcDbDictionary
  3
ACAD_LAYERSTATES
360
18FE9
1001
ACAD
1000
TREAT_AS_HARD
1070
     1
  0
DICTIONARY
  5
1A20A
330
E
100
AcDbDictionary
  3
ADSK_XREC_LAYER_RECONCILED
360
1A20B
1001
ACAD
1000
TREAT_AS_HARD
1070
     1
  0
DICTIONARY
  5
1A20C
330
29
100
AcDbDictionary
  3
ADSK_XREC_LAYER_RECONCILED
360
1A20D
1001
ACAD
1000
TREAT_AS_HARD
1070
     1
  0
DICTIONARY
  5
1A20E
330
31
100
AcDbDictionary
  3
ADSK_XREC_LAYER_RECONCILED
360
1A20F
1001
ACAD
1000
TREAT_AS_HARD
1070
     1
  0
DICTIONARY
  5
1A218
330
101
100
AcDbDictionary
  3
ADSK_XREC_LAYER_RECONCILED
360
1A219
1001
ACAD
1000
TREAT_AS_HARD
1070
     1
  0
DICTIONARY
  5
1A21C
330
103
100
AcDbDictionary
  3
ADSK_XREC_LAYER_RECONCILED
360
1A21D
1001
ACAD
1000
TREAT_AS_HARD
1070
     1
  0
DICTIONARY
  5
1A220
330
25F
100
AcDbDictionary
  3
ADSK_XREC_LAYER_RECONCILED
360
1A221
1001
ACAD
1000
TREAT_AS_HARD
1070
     1
  0
DICTIONARY
  5
1A236
330
26A
100
AcDbDictionary
  3
ADSK_XREC_LAYER_RECONCILED
360
1A237
1001
ACAD
1000
TREAT_AS_HARD
1070
     1
  0
DICTIONARY
  5
1A23C
330
26D
100
AcDbDictionary
  3
ADSK_XREC_LAYER_RECONCILED
360
1A23D
1001
ACAD
1000
TREAT_AS_HARD
1070
     1
  0
DICTIONARY
  5
6E9
330
18
100
AcDbDictionary
  3
ACAD_SORTENTS
360
6EA
1001
ACAD
1000
TREAT_AS_HARD
1070
     1
  0
DICTIONARY
  5
59B
330
15
100
AcDbDictionary
  3
ACAD_SORTENTS
360
59C
1001
ACAD
1000
TREAT_AS_HARD
1070
     1
  0
XRECORD
  5
20B28
102
{ACAD_REACTORS
330
C
102
}
330
C
100
AcDbXrecord
300
ACDLT
300
2012
300
ACDLT_F_S
  0
DICTIONARY
  5
2D0
102
{ACAD_REACTORS
330
C
102
}
330
C
100
AcDbDictionary
1001
ACAD
1000
TREAT_AS_HARD
1070
     0
  0
DICTIONARY
  5
D
102
{ACAD_REACTORS
330
C
102
}
330
C
100
AcDbDictionary
  3
*A1
350
227E6
1001
ACAD
1000
TREAT_AS_HARD
1070
     0
  0
RASTERVARIABLES
  5
23A9A
102
{ACAD_REACTORS
330
C
102
}
330
C
100
AcDbRasterVariables
 90
        0
 70
     1
 71
     1
 72
     0
  0
DICTIONARY
  5
2D1
102
{ACAD_REACTORS
330
C
102
}
330
C
100
AcDbDictionary
1001
ACAD
1000
TREAT_AS_HARD
1070
     0
  0
DICTIONARY
  5
2CF
102
{ACAD_REACTORS
330
C
102
}
330
C
100
AcDbDictionary
  3
BYBLOCK
350
19DD5
  3
BYLAYER
350
19DCD
  3
GLOBAL
350
19DDD
1001
ACAD
1000
TREAT_AS_HARD
1070
     0
  0
DICTIONARY
  5
19E18
102
{ACAD_REACTORS
330
C
102
}
330
C
100
AcDbDictionary
  3
STANDARD
350
19E19
1001
ACAD
1000
TREAT_AS_HARD
1070
     0
  0
DICTIONARY
  5
1B
102
{ACAD_REACTORS
330
C
102
}
330
C
100
AcDbDictionary
  3
STANDARD
350
1C
1001
ACAD
1000
TREAT_AS_HARD
1070
     0
  0
DICTIONARY
  5
2D2
102
{ACAD_REACTORS
330
C
102
}
330
C
100
AcDbDictionary
1001
ACAD
1000
TREAT_AS_HARD
1070
     0
  0
DICTIONARY
  5
19DF6
102
{ACAD_REACTORS
330
C
102
}
330
C
100
AcDbDictionary
  3
A0
350
19DF7
  3
A1
350
19DF8
  3
A2
350
19DF9
  3
A3
350
19DFA
  3
A4
350
19DFB
  3
A5
350
19DFC
  3
A6
350
19DFD
  3
A7
350
19DFE
  3
A8
350
19DFF
  3
A9
350
19E00
  3
B0
350
19E01
  3
B1
350
19E02
  3
B2
350
19E03
  3
B3
350
19E04
  3
B4
350
19E05
  3
B5
350
19E06
  3
B6
350
19E07
  3
B7
350
19E08
  3
B8
350
19E09
  3
B9
350
19E0A
  3
C0
350
19E0B
  3
C1
350
19E0C
  3
C2
350
19E0D
  3
C3
350
19E0E
  3
C4
350
19E0F
  3
C5
350
19E10
  3
C6
350
19E11
  3
C7
350
19E12
  3
C8
350
19E13
  3
C9
350
19E14
  3
D0
350
19E15
  3
D1
350
19E16
  3
D2
350
19E17
1001
ACAD
1000
TREAT_AS_HARD
1070
     0
  0
DICTIONARY
  5
19DE5
102
{ACAD_REACTORS
330
C
102
}
330
C
100
AcDbDictionary
  3
2DWIREFRAME
350
19DEB
  3
3D_HIDDEN
350
19DED
  3
3DWIREFRAME
350
19DEC
  3
BASIC
350
19DEA
  3
BRIGHTEN
350
19DF1
  3
COLORCHANGE
350
19DF5
  3
CONCEPTUAL
350
19DEE
  3
DIM
350
19DF0
  3
EDGECOLOROFF
350
1E02A
  3
FACEPATTERN
350
19DF4
  3
FLAT
350
19DE6
  3
FLATWITHEDGES
350
19DE7
  3
GOURAUD
350
19DE8
  3
GOURAUDWITHEDGES
350
19DE9
  3
HIDDEN
350
1F381
  3
JITTEROFF
350
1E028
  3
LINEPATTERN
350
19DF3
  3
MODELING
350
1F387
  3
OVERHANGOFF
350
1E029
  3
REALISTIC
350
19DEF
  3
SHADED
350
1F386
  3
SHADED_WITH_EDGES
350
1F385
  3
SHADES_OF_GRAY
350
1F382
  3
SKETCHY
350
1F383
  3
THICKEN
350
19DF2
  3
WIREFRAME
350
1F380
  3
X-RAY
350
1F384
1001
ACAD
1000
TREAT_AS_HARD
1070
     0
  0
DICTIONARY
  5
23C84
102
{ACAD_REACTORS
330
C
102
}
330
C
100
AcDbDictionary
  3
COLORDICT
350
23C85
  3
MATERIALDICT
350
23C86
1001
ACAD
1000
TREAT_AS_HARD
1070
     0
  0
DICTIONARY
  5
37
102
{ACAD_REACTORS
330
C
102
}
330
C
100
AcDbDictionary
  3
CANNOSCALE
350
20A45
  3
CMLEADERSTYLE
350
1AC19
  3
CTABLESTYLE
350
4F1
  3
DIMADEC
350
38
  3
DIMASSOC
350
408
  3
HIDETEXT
350
1891
  3
INDEXCTL
350
1AC1C
  3
INTERSECTIONCOLOR
350
1895
  3
INTERSECTIONDISPLAY
350
1894
  3
MSLTSCALE
350
20A9B
  3
OBSCOLOR
350
1892
  3
OBSLTYPE
350
1893
  3
PROJECTNAME
350
409
  3
SORTENTS
350
1AC1B
  3
XCLIPFRAME
350
23A99
1001
ACAD
1000
TREAT_AS_HARD
1070
     0
  0
DICTIONARY
  5
22A67
102
{ACAD_REACTORS
330
C
102
}
330
C
100
AcDbDictionary
1001
ACAD
1000
TREAT_AS_HARD
1070
     0
  0
DICTIONARY
  5
D8
102
{ACAD_REACTORS
330
C
102
}
330
C
100
AcDbDictionary
1001
CONTENTTABDATA
1070
    11
1000
Child
1000
D:\ACLT\TABset\CHILDREN.dwg
1070
     0
1070
     0
1070
     1
1000
PK
1000
D:\ACLT\TABset\PK.dwg
1070
     0
1070
     0
1070
     1
1000
Lev1
1000
D:\ACLT\TABset\Lever01.dwg
1070
     0
1070
     0
1070
     1
1000
Lev2
1000
D:\ACLT\TABset\Lever02.dwg
1070
     0
1070
     0
1070
     1
1000
L3
1000
D:\Aclt\TABset\Lever03.dwg
1070
     0
1070
     0
1070
     1
1000
Form
1000
D:\ACLT\FORMAT
1070
     1
1070
     0
1070
     1
1000
Jnt
1000
D:\ACLT\TABset\JOINTPARTS.dwg
1070
     0
1070
     0
1070
     1
1000
ISO
1000
D:\ACLT\TABset\Isome01.dwg
1070
     0
1070
     0
1070
     1
1000
R
1000
D:\ACLT\TABset\REGION.dwg
1070
     0
1070
     0
1070
     1
1000
std
1000
D:\ACLT\TABset\std_sym_all.dwg
1070
     0
1070
     0
1070
     1
1000
丸
1000
D:\Aclt\TABset\MARU.dwg
1070
     0
1070
     0
1070
     1
1001
CONTENTCURRENTTAB
1070
     0
1001
ACAD
1000
TREAT_AS_HARD
1070
     0
  0
DICTIONARY
  5
20
102
{ACAD_REACTORS
330
C
102
}
330
C
100
AcDbDictionary
1001
DRAWINGVARIABLESXDATA
1000
POLARANG
1000
0.261799387799149410000000
1000
POLARMODE
1000
1
1000
POLARSTYLE
1000
1
1001
ACAD
1000
TREAT_AS_HARD
1070
     0
  0
XRECORD
  5
23C87
102
{ACAD_REACTORS
330
C
102
}
330
C
100
AcDbXrecord
  1
DWGPROPS COOKIE
  2

  3

  4

  6

  7

  8
3684
  9

300
=
301
=
302
=
303
=
304
=
305
=
306
=
307
=
308
=
309
=
 40
0.0
 41
2453033.357663484
 42
2458095.018570798
  1

 90
        0
  0
DICTIONARY
  5
18FE9
102
{ACAD_REACTORS
330
18FE8
102
}
330
18FE8
100
AcDbDictionary
1001
ACAD
1000
TREAT_AS_HARD
1070
     0
  0
ACAD_PROXY_OBJECT
  5
1A20B
102
{ACAD_REACTORS
330
1A20A
102
}
330
1A20A
100
AcDbZombieObject
 90
      499
 91
      518
 93
       34
310
40C8804040
  0
ACAD_PROXY_OBJECT
  5
1A20D
102
{ACAD_REACTORS
330
1A20C
102
}
330
1A20C
100
AcDbZombieObject
 90
      499
 91
      518
 93
       34
310
40C8804040
  0
ACAD_PROXY_OBJECT
  5
1A20F
102
{ACAD_REACTORS
330
1A20E
102
}
330
1A20E
100
AcDbZombieObject
 90
      499
 91
      518
 93
       34
310
40C8804040
  0
ACAD_PROXY_OBJECT
  5
1A219
102
{ACAD_REACTORS
330
1A218
102
}
330
1A218
100
AcDbZombieObject
 90
      499
 91
      518
 93
       34
310
40C8804040
  0
ACAD_PROXY_OBJECT
  5
1A21D
102
{ACAD_REACTORS
330
1A21C
102
}
330
1A21C
100
AcDbZombieObject
 90
      499
 91
      518
 93
       34
310
40C8804040
  0
ACAD_PROXY_OBJECT
  5
1A221
102
{ACAD_REACTORS
330
1A220
102
}
330
1A220
100
AcDbZombieObject
 90
      499
 91
      518
 93
       34
310
40C8804040
  0
ACAD_PROXY_OBJECT
  5
1A237
102
{ACAD_REACTORS
330
1A236
102
}
330
1A236
100
AcDbZombieObject
 90
      499
 91
      518
 93
       34
310
40C8804040
  0
ACAD_PROXY_OBJECT
  5
1A23D
102
{ACAD_REACTORS
330
1A23C
102
}
330
1A23C
100
AcDbZombieObject
 90
      499
 91
      518
 93
       34
310
40C8804040
  0
SORTENTSTABLE
  5
6EA
102
{ACAD_REACTORS
330
6E9
102
}
330
6E9
100
AcDbSortentsTable
330
18
331
0
  5
99AB
331
0
  5
AB53
331
0
  5
AB54
331
0
  5
ECB5
331
231A6
  5
231DE
331
231A7
  5
231DF
331
231A8
  5
231E1
331
231A9
  5
231E2
331
231AA
  5
231E4
331
231B1
  5
238E7
331
231B2
  5
238E8
331
231B3
  5
238E9
331
231B7
  5
23906
331
231B8
  5
23915
331
231B9
  5
23916
331
231BA
  5
23917
331
231BB
  5
23918
331
231BC
  5
23919
331
231BD
  5
2391B
331
231BE
  5
2391C
331
231BF
  5
2391E
331
231C0
  5
2391F
331
231C1
  5
23920
331
231C2
  5
23922
331
231CE
  5
23952
331
231CF
  5
23953
331
231D0
  5
23954
331
231D1
  5
23955
331
231D2
  5
23956
331
231D3
  5
23957
331
0
  5
23908
331
0
  5
23909
331
0
  5
2390A
331
0
  5
2390B
331
0
  5
2390C
331
0
  5
2390D
331
0
  5
2390E
331
0
  5
2390F
331
0
  5
23910
331
0
  5
23911
331
0
  5
23912
331
0
  5
23913
331
0
  5
23914
331
231E7
  5
23960
331
231E8
  5
23961
331
231E9
  5
23962
331
231EA
  5
23963
331
231EB
  5
23964
331
231EC
  5
23965
331
238DC
  5
23970
331
238DD
  5
23971
331
238DE
  5
23972
331
0
  5
23930
331
0
  5
23931
331
0
  5
23932
331
238E2
  5
23966
331
238E3
  5
23967
331
238E4
  5
23968
331
0
  5
23929
331
0
  5
2392B
331
0
  5
2392C
331
238E8
  5
2395F
331
238E9
  5
2395C
331
0
  5
2391D
331
238EB
  5
2395B
331
238EC
  5
23958
331
0
  5
2391A
331
238EE
  5
23948
331
238EF
  5
23949
331
238F0
  5
2394A
331
0
  5
23902
331
0
  5
23903
331
0
  5
23904
331
238F4
  5
2393E
331
238F5
  5
2393F
331
238F6
  5
23940
331
0
  5
238FC
331
0
  5
238FD
331
0
  5
238FE
331
238FA
  5
23933
331
238FB
  5
23934
331
238FC
  5
23935
331
238FD
  5
23936
331
0
  5
238F6
331
0
  5
238F7
331
0
  5
238F8
331
23901
  5
2392F
331
23902
  5
23928
331
0
  5
238F0
331
23904
  5
23926
331
23905
  5
23927
331
23906
  5
23923
331
0
  5
238EC
331
23908
  5
2397B
331
23909
  5
2397C
331
0
  5
2392A
331
2390B
  5
23AE5
331
2390C
  5
23AE6
331
2390D
  5
23AE7
331
2390E
  5
23AE8
331
2390F
  5
23AE9
331
23910
  5
23AEA
331
23911
  5
23C1E
331
23912
  5
23C1F
331
23913
  5
23C20
331
23914
  5
23C21
331
23915
  5
23C22
331
23916
  5
23C23
331
23917
  5
23C24
331
23918
  5
23C25
331
23919
  5
23C26
331
2391A
  5
23C27
331
2391B
  5
23C28
331
2391C
  5
23C29
331
2391D
  5
23C2A
331
2391E
  5
23C2B
331
2391F
  5
23C2C
331
23920
  5
23C2D
331
23921
  5
23C2E
331
23922
  5
23C2F
331
23923
  5
23C30
331
23924
  5
23C31
331
23925
  5
23C32
331
23926
  5
23C33
331
23927
  5
23C34
331
23928
  5
23C35
331
23929
  5
23C36
331
2392A
  5
23C37
331
2392B
  5
23C38
331
2392C
  5
23C39
331
2392D
  5
23C3A
331
2392E
  5
23C3B
331
2392F
  5
23C3C
331
23930
  5
23C3D
331
23931
  5
23C3E
331
23932
  5
23C3F
331
23933
  5
23C40
331
23934
  5
23C41
331
23935
  5
23C42
331
23936
  5
23C43
331
23937
  5
23C44
331
23938
  5
23C45
331
23939
  5
23C46
331
2393A
  5
23C47
331
2393B
  5
23C48
331
2393C
  5
23C49
331
2393D
  5
23C4A
331
2393E
  5
23C4B
331
2393F
  5
23C4C
331
23940
  5
23C4D
331
23941
  5
23C4E
331
23942
  5
23C4F
331
23943
  5
23C50
331
23944
  5
23C51
331
23945
  5
23C52
331
23946
  5
23C53
331
23947
  5
23C54
331
23948
  5
23C55
331
23949
  5
23C56
331
2394A
  5
23C57
331
2394B
  5
23C58
331
2394C
  5
23C59
331
2394D
  5
23C5A
331
2394E
  5
23C5B
331
2394F
  5
23C5C
331
23950
  5
23C5D
331
23951
  5
23C5E
331
23952
  5
23C5F
331
23953
  5
23C60
331
23954
  5
23C61
331
23955
  5
23C62
331
23956
  5
238EA
331
23957
  5
238EB
331
23958
  5
238ED
331
23959
  5
238EE
331
0
  5
231E3
331
2395B
  5
23900
331
2395C
  5
23901
331
2395D
  5
23905
331
2395E
  5
23C63
331
2395F
  5
23C64
331
23960
  5
23C65
331
23961
  5
23C66
331
0
  5
2397A
331
23963
  5
23C71
331
23964
  5
23C72
331
23965
  5
23C73
331
23966
  5
238DD
331
23967
  5
238DE
331
23968
  5
238DF
331
0
  5
231D8
331
0
  5
231D9
331
0
  5
231DA
331
2396C
  5
231E5
331
2396D
  5
231E6
331
2396E
  5
231E7
331
0
  5
231CE
331
0
  5
231CF
331
0
  5
231D0
331
23972
  5
231BF
331
23973
  5
231C0
331
23974
  5
231C1
331
0
  5
231B8
331
0
  5
231B9
331
0
  5
231BA
331
23978
  5
231A6
331
23979
  5
231A7
331
2397A
  5
231A8
331
0
  5
231A9
331
0
  5
231AA
331
0
  5
231B1
331
239AF
  5
23C74
331
239B1
  5
23C75
331
23ADD
  5
23C76
331
23ADE
  5
23C77
331
23ADF
  5
23C78
331
23AE0
  5
23C79
331
23AE1
  5
23C7A
331
23AE2
  5
23C7B
331
23AE3
  5
23C7C
331
23AE4
  5
23C7D
331
23AE5
  5
23C7E
331
23AE6
  5
23C7F
331
23AE7
  5
23C80
331
23AE8
  5
23C81
331
23AE9
  5
23C82
331
23AEA
  5
23C83
331
23C1E
  5
2397D
331
23C1F
  5
239AF
331
23C20
  5
239B1
331
23C21
  5
23ADD
331
23C22
  5
23ADE
331
23C23
  5
23ADF
331
23C24
  5
23AE0
331
23C25
  5
23AE1
331
23C26
  5
23AE2
331
23C27
  5
23AE3
331
23C28
  5
23AE4
331
23C29
  5
238EF
331
23C2A
  5
238F1
331
23C2B
  5
238F2
331
23C2C
  5
238F3
331
23C2D
  5
238F4
331
23C2E
  5
238F5
331
23C2F
  5
238F9
331
23C30
  5
238FA
331
23C31
  5
238FB
331
23C32
  5
238FF
331
23C33
  5
23C67
331
23C34
  5
23C68
331
23C35
  5
23C69
331
23C36
  5
23C6A
331
23C37
  5
23C6B
331
23C38
  5
23C6C
331
23C39
  5
23C6D
331
23C3A
  5
23C6E
331
23C3B
  5
23C6F
331
23C3C
  5
23C70
331
23C3D
  5
23973
331
23C3E
  5
23974
331
23C3F
  5
23975
331
23C40
  5
23976
331
23C41
  5
23977
331
23C42
  5
23978
331
23C43
  5
23979
331
23C44
  5
23969
331
23C45
  5
2396A
331
23C46
  5
2396B
331
23C47
  5
2396C
331
23C48
  5
2396D
331
23C49
  5
2396E
331
23C4A
  5
2396F
331
23C4B
  5
2395D
331
23C4C
  5
2395E
331
23C4D
  5
23959
331
23C4E
  5
2395A
331
23C4F
  5
2394B
331
23C50
  5
2394C
331
23C51
  5
2394D
331
23C52
  5
2394E
331
23C53
  5
2394F
331
23C54
  5
23950
331
23C55
  5
23951
331
23C56
  5
23941
331
23C57
  5
23942
331
23C58
  5
23943
331
23C59
  5
23944
331
23C5A
  5
23945
331
23C5B
  5
23946
331
23C5C
  5
23947
331
23C5D
  5
23937
331
23C5E
  5
23938
331
23C5F
  5
23939
331
23C60
  5
2393A
331
23C61
  5
2393B
331
23C62
  5
2393C
331
23C63
  5
2393D
331
23C64
  5
2392D
331
23C65
  5
2392E
331
23C66
  5
23924
331
23C67
  5
23925
331
23C68
  5
238E0
331
23C69
  5
238E1
331
23C6A
  5
238E2
331
23C6B
  5
238E3
331
23C6C
  5
238E4
331
23C6D
  5
238E5
331
23C6E
  5
238E6
331
23C6F
  5
231E8
331
23C70
  5
231E9
331
23C71
  5
231EA
331
23C72
  5
231EB
331
23C73
  5
231EC
331
23C74
  5
231F0
331
23C75
  5
238DC
331
23C76
  5
231C2
331
23C77
  5
231D1
331
23C78
  5
231D2
331
23C79
  5
231D3
331
23C7A
  5
231DB
331
23C7B
  5
231DC
331
23C7C
  5
231DD
331
23C7D
  5
231B2
331
23C7E
  5
231B3
331
23C7F
  5
231B7
331
23C80
  5
231BB
331
23C81
  5
231BC
331
23C82
  5
231BD
331
23C83
  5
231BE
  0
SORTENTSTABLE
  5
59C
102
{ACAD_REACTORS
330
59B
102
}
330
59B
100
AcDbSortentsTable
330
15
331
57
  5
57
331
0
  5
70
  0
GROUP
  5
227E6
102
{ACAD_REACTORS
330
D
102
}
330
D
100
AcDbGroup
300

 70
     3
 71
     1
340
227FD
340
227FC
340
227FB
340
227FA
340
227F9
340
227F8
340
227F7
  0
MATERIAL
  5
19DD5
102
{ACAD_REACTORS
330
2CF
102
}
102
{ACAD_XDICTIONARY
360
23E22
102
}
330
2CF
100
AcDbMaterial
  1
BYBLOCK
 72
     0
 73
     2
 43
0.0208333333333333
 43
0.0
 43
0.0
 43
0.0
 43
0.0
 43
0.0208333333333333
 43
0.0
 43
0.0
 43
0.0
 43
0.0
 43
1.0
 43
0.0
 43
0.0
 43
0.0
 43
0.0
 43
1.0
 77
     0
 78
     2
 47
0.0208333333333333
 47
0.0
 47
0.0
 47
0.0
 47
0.0
 47
0.0208333333333333
 47
0.0
 47
0.0
 47
0.0
 47
0.0
 47
1.0
 47
0.0
 47
0.0
 47
0.0
 47
0.0
 47
1.0
171
     0
172
     2
 49
0.0208333333333333
 49
0.0
 49
0.0
 49
0.0
 49
0.0
 49
0.0208333333333333
 49
0.0
 49
0.0
 49
0.0
 49
0.0
 49
1.0
 49
0.0
 49
0.0
 49
0.0
 49
0.0
 49
1.0
175
     0
176
     2
142
0.0208333333333333
142
0.0
142
0.0
142
0.0
142
0.0
142
0.0208333333333333
142
0.0
142
0.0
142
0.0
142
0.0
142
1.0
142
0.0
142
0.0
142
0.0
142
0.0
142
1.0
179
     0
270
     2
144
0.0208333333333333
144
0.0
144
0.0
144
0.0
144
0.0
144
0.0208333333333333
144
0.0
144
0.0
144
0.0
144
0.0
144
1.0
144
0.0
144
0.0
144
0.0
144
0.0
144
1.0
274
     2
147
0.0208333333333333
147
0.0
147
0.0
147
0.0
147
0.0
147
0.0208333333333333
147
0.0
147
0.0
147
0.0
147
0.0
147
1.0
147
0.0
147
0.0
147
0.0
147
0.0
147
1.0
  0
MATERIAL
  5
19DCD
102
{ACAD_REACTORS
330
2CF
102
}
102
{ACAD_XDICTIONARY
360
23E24
102
}
330
2CF
100
AcDbMaterial
  1
BYLAYER
 72
     0
 73
     2
 43
0.0208333333333333
 43
0.0
 43
0.0
 43
0.0
 43
0.0
 43
0.0208333333333333
 43
0.0
 43
0.0
 43
0.0
 43
0.0
 43
1.0
 43
0.0
 43
0.0
 43
0.0
 43
0.0
 43
1.0
 77
     0
 78
     2
 47
0.0208333333333333
 47
0.0
 47
0.0
 47
0.0
 47
0.0
 47
0.0208333333333333
 47
0.0
 47
0.0
 47
0.0
 47
0.0
 47
1.0
 47
0.0
 47
0.0
 47
0.0
 47
0.0
 47
1.0
171
     0
172
     2
 49
0.0208333333333333
 49
0.0
 49
0.0
 49
0.0
 49
0.0
 49
0.0208333333333333
 49
0.0
 49
0.0
 49
0.0
 49
0.0
 49
1.0
 49
0.0
 49
0.0
 49
0.0
 49
0.0
 49
1.0
175
     0
176
     2
142
0.0208333333333333
142
0.0
142
0.0
142
0.0
142
0.0
142
0.0208333333333333
142
0.0
142
0.0
142
0.0
142
0.0
142
1.0
142
0.0
142
0.0
142
0.0
142
0.0
142
1.0
179
     0
270
     2
144
0.0208333333333333
144
0.0
144
0.0
144
0.0
144
0.0
144
0.0208333333333333
144
0.0
144
0.0
144
0.0
144
0.0
144
1.0
144
0.0
144
0.0
144
0.0
144
0.0
144
1.0
274
     2
147
0.0208333333333333
147
0.0
147
0.0
147
0.0
147
0.0
147
0.0208333333333333
147
0.0
147
0.0
147
0.0
147
0.0
147
1.0
147
0.0
147
0.0
147
0.0
147
0.0
147
1.0
  0
MATERIAL
  5
19DDD
102
{ACAD_REACTORS
330
2CF
102
}
102
{ACAD_XDICTIONARY
360
23E26
102
}
330
2CF
100
AcDbMaterial
  1
GLOBAL
 72
     0
 73
     2
 43
0.0208333333333333
 43
0.0
 43
0.0
 43
0.0
 43
0.0
 43
0.0208333333333333
 43
0.0
 43
0.0
 43
0.0
 43
0.0
 43
1.0
 43
0.0
 43
0.0
 43
0.0
 43
0.0
 43
1.0
 77
     0
 78
     2
 47
0.0208333333333333
 47
0.0
 47
0.0
 47
0.0
 47
0.0
 47
0.0208333333333333
 47
0.0
 47
0.0
 47
0.0
 47
0.0
 47
1.0
 47
0.0
 47
0.0
 47
0.0
 47
0.0
 47
1.0
171
     0
172
     2
 49
0.0208333333333333
 49
0.0
 49
0.0
 49
0.0
 49
0.0
 49
0.0208333333333333
 49
0.0
 49
0.0
 49
0.0
 49
0.0
 49
1.0
 49
0.0
 49
0.0
 49
0.0
 49
0.0
 49
1.0
175
     0
176
     2
142
0.0208333333333333
142
0.0
142
0.0
142
0.0
142
0.0
142
0.0208333333333333
142
0.0
142
0.0
142
0.0
142
0.0
142
1.0
142
0.0
142
0.0
142
0.0
142
0.0
142
1.0
179
     0
270
     2
144
0.0208333333333333
144
0.0
144
0.0
144
0.0
144
0.0
144
0.0208333333333333
144
0.0
144
0.0
144
0.0
144
0.0
144
1.0
144
0.0
144
0.0
144
0.0
144
0.0
144
1.0
274
     2
147
0.0208333333333333
147
0.0
147
0.0
147
0.0
147
0.0
147
0.0208333333333333
147
0.0
147
0.0
147
0.0
147
0.0
147
1.0
147
0.0
147
0.0
147
0.0
147
0.0
147
1.0
  0
ACAD_PROXY_OBJECT
  5
19E19
102
{ACAD_REACTORS
330
19E18
102
}
330
19E18
100
AcDbZombieObject
 90
      499
 91
      512
 93
      610
310
40901902A4063FBFFFFFE000000000000002040AD7A3703D0AD73F4214DD185B99185C990000000000000104090141901A00000000000004100000000000000041025764000000000000300FC0
340
12
340
0
340
F
340
0
 94
        0
1001
ACAD_MLEADERVER
1070
     2
  0
MLINESTYLE
  5
1C
102
{ACAD_REACTORS
330
1B
102
}
330
1B
100
AcDbMlineStyle
  2
STANDARD
 70
     0
  3

 62
   256
 51
90.0
 52
90.0
 71
     2
 49
0.5
 62
   256
  6
BYLAYER
 49
-0.5
 62
   256
  6
BYLAYER
  0
ACAD_PROXY_OBJECT
  5
19DF7
102
{ACAD_REACTORS
330
19DF6
102
}
330
19DF6
100
AcDbZombieObject
 90
      499
 91
      511
 93
       41
310
903313A31580
  0
ACAD_PROXY_OBJECT
  5
19DF8
102
{ACAD_REACTORS
330
19DF6
102
}
330
19DF6
100
AcDbZombieObject
 90
      499
 91
      511
 93
      105
310
903313A324000000000000004000
  0
ACAD_PROXY_OBJECT
  5
19DF9
102
{ACAD_REACTORS
330
19DF6
102
}
330
19DF6
100
AcDbZombieObject
 90
      499
 91
      511
 93
      105
310
903313A344000000000000104000
  0
ACAD_PROXY_OBJECT
  5
19DFA
102
{ACAD_REACTORS
330
19DF6
102
}
330
19DF6
100
AcDbZombieObject
 90
      499
 91
      511
 93
      105
310
903313A354000000000000144000
  0
ACAD_PROXY_OBJECT
  5
19DFB
102
{ACAD_REACTORS
330
19DF6
102
}
330
19DF6
100
AcDbZombieObject
 90
      499
 91
      511
 93
      105
310
903313A384000000000000204000
  0
ACAD_PROXY_OBJECT
  5
19DFC
102
{ACAD_REACTORS
330
19DF6
102
}
330
19DF6
100
AcDbZombieObject
 90
      499
 91
      511
 93
      113
310
904313A31304000000000000244000
  0
ACAD_PROXY_OBJECT
  5
19DFD
102
{ACAD_REACTORS
330
19DF6
102
}
330
19DF6
100
AcDbZombieObject
 90
      499
 91
      511
 93
      113
310
904313A31364000000000000304000
  0
ACAD_PROXY_OBJECT
  5
19DFE
102
{ACAD_REACTORS
330
19DF6
102
}
330
19DF6
100
AcDbZombieObject
 90
      499
 91
      511
 93
      113
310
904313A32304000000000000344000
  0
ACAD_PROXY_OBJECT
  5
19DFF
102
{ACAD_REACTORS
330
19DF6
102
}
330
19DF6
100
AcDbZombieObject
 90
      499
 91
      511
 93
      113
310
904313A333040000000000003E4000
  0
ACAD_PROXY_OBJECT
  5
19E00
102
{ACAD_REACTORS
330
19DF6
102
}
330
19DF6
100
AcDbZombieObject
 90
      499
 91
      511
 93
      113
310
904313A34304000000000000444000
  0
ACAD_PROXY_OBJECT
  5
19E01
102
{ACAD_REACTORS
330
19DF6
102
}
330
19DF6
100
AcDbZombieObject
 90
      499
 91
      511
 93
      113
310
904313A35304000000000000494000
  0
ACAD_PROXY_OBJECT
  5
19E02
102
{ACAD_REACTORS
330
19DF6
102
}
330
19DF6
100
AcDbZombieObject
 90
      499
 91
      511
 93
      121
310
905313A3130304000000000000594000
  0
ACAD_PROXY_OBJECT
  5
19E03
102
{ACAD_REACTORS
330
19DF6
102
}
330
19DF6
100
AcDbZombieObject
 90
      499
 91
      511
 93
      105
310
903323A310000000000000010100
  0
ACAD_PROXY_OBJECT
  5
19E04
102
{ACAD_REACTORS
330
19DF6
102
}
330
19DF6
100
AcDbZombieObject
 90
      499
 91
      511
 93
      105
310
903343A310000000000000410100
  0
ACAD_PROXY_OBJECT
  5
19E05
102
{ACAD_REACTORS
330
19DF6
102
}
330
19DF6
100
AcDbZombieObject
 90
      499
 91
      511
 93
      105
310
903383A310000000000000810100
  0
ACAD_PROXY_OBJECT
  5
19E06
102
{ACAD_REACTORS
330
19DF6
102
}
330
19DF6
100
AcDbZombieObject
 90
      499
 91
      511
 93
      113
310
90431303A310000000000000910100
  0
ACAD_PROXY_OBJECT
  5
19E07
102
{ACAD_REACTORS
330
19DF6
102
}
330
19DF6
100
AcDbZombieObject
 90
      499
 91
      511
 93
      121
310
9053130303A310000000000001650100
  0
ACAD_PROXY_OBJECT
  5
19E08
102
{ACAD_REACTORS
330
19DF6
102
}
330
19DF6
100
AcDbZombieObject
 90
      499
 91
      511
 93
      257
310
90E312F31323822203D2031272D3022000000000000200FC000000000000284000
  0
ACAD_PROXY_OBJECT
  5
19E09
102
{ACAD_REACTORS
330
19DF6
102
}
330
19DF6
100
AcDbZombieObject
 90
      499
 91
      511
 93
      249
310
90D312F363422203D2031272D3022000000000000240FC000000000000284000
  0
ACAD_PROXY_OBJECT
  5
19E0A
102
{ACAD_REACTORS
330
19DF6
102
}
330
19DF6
100
AcDbZombieObject
 90
      499
 91
      511
 93
      249
310
90D312F333222203D2031272D3022000000000000280FC000000000000284000
  0
ACAD_PROXY_OBJECT
  5
19E0B
102
{ACAD_REACTORS
330
19DF6
102
}
330
19DF6
100
AcDbZombieObject
 90
      499
 91
      511
 93
      249
310
90D312F313622203D2031272D30220000000000002C0FC000000000000284000
  0
ACAD_PROXY_OBJECT
  5
19E0C
102
{ACAD_REACTORS
330
19DF6
102
}
330
19DF6
100
AcDbZombieObject
 90
      499
 91
      511
 93
      249
310
90D332F333222203D2031272D30220000000000002E0FC000000000000284000
  0
ACAD_PROXY_OBJECT
  5
19E0D
102
{ACAD_REACTORS
330
19DF6
102
}
330
19DF6
100
AcDbZombieObject
 90
      499
 91
      511
 93
      241
310
90C312F3822203D2031272D3022000000000000300FC000000000000284000
  0
ACAD_PROXY_OBJECT
  5
19E0E
102
{ACAD_REACTORS
330
19DF6
102
}
330
19DF6
100
AcDbZombieObject
 90
      499
 91
      511
 93
      249
310
90D332F313622203D2031272D3022000000000000320FC000000000000284000
  0
ACAD_PROXY_OBJECT
  5
19E0F
102
{ACAD_REACTORS
330
19DF6
102
}
330
19DF6
100
AcDbZombieObject
 90
      499
 91
      511
 93
      241
310
90C312F3422203D2031272D3022000000000000340FC000000000000284000
  0
ACAD_PROXY_OBJECT
  5
19E10
102
{ACAD_REACTORS
330
19DF6
102
}
330
19DF6
100
AcDbZombieObject
 90
      499
 91
      511
 93
      241
310
90C332F3822203D2031272D3022000000000000360FC000000000000284000
  0
ACAD_PROXY_OBJECT
  5
19E11
102
{ACAD_REACTORS
330
19DF6
102
}
330
19DF6
100
AcDbZombieObject
 90
      499
 91
      511
 93
      241
310
90C312F3222203D2031272D3022000000000000380FC000000000000284000
  0
ACAD_PROXY_OBJECT
  5
19E12
102
{ACAD_REACTORS
330
19DF6
102
}
330
19DF6
100
AcDbZombieObject
 90
      499
 91
      511
 93
      241
310
90C332F3422203D2031272D30220000000000003A0FC000000000000284000
  0
ACAD_PROXY_OBJECT
  5
19E13
102
{ACAD_REACTORS
330
19DF6
102
}
330
19DF6
100
AcDbZombieObject
 90
      499
 91
      511
 93
      161
310
90A3122203D2031272D30224000000000000284000
  0
ACAD_PROXY_OBJECT
  5
19E14
102
{ACAD_REACTORS
330
19DF6
102
}
330
19DF6
100
AcDbZombieObject
 90
      499
 91
      511
 93
      257
310
90E312D312F3222203D2031272D30220000000000003E0FC000000000000284000
  0
ACAD_PROXY_OBJECT
  5
19E15
102
{ACAD_REACTORS
330
19DF6
102
}
330
19DF6
100
AcDbZombieObject
 90
      499
 91
      511
 93
      225
310
90A3322203D2031272D302200000000000002100000000000000284000
  0
ACAD_PROXY_OBJECT
  5
19E16
102
{ACAD_REACTORS
330
19DF6
102
}
330
19DF6
100
AcDbZombieObject
 90
      499
 91
      511
 93
      225
310
90A3622203D2031272D302200000000000006100000000000000284000
  0
ACAD_PROXY_OBJECT
  5
19E17
102
{ACAD_REACTORS
330
19DF6
102
}
330
19DF6
100
AcDbZombieObject
 90
      499
 91
      511
 93
      249
310
90D31272D3022203D2031272D30220000000000000A100000000000000284000
  0
ACAD_PROXY_OBJECT
  5
19DEB
102
{ACAD_REACTORS
330
19DE5
102
}
330
19DE5
100
AcDbZombieObject
 90
      499
 91
      510
 93
      436
310
42CC9915DA5C99599C985B595049028333333333333E3BF0000000000000FB0107901411070040501600405405064090741402480A0340
1001
ACAD
1000
AcDbSavedByObjectVersion
1070
     0
  0
ACAD_PROXY_OBJECT
  5
19DED
102
{ACAD_REACTORS
330
19DE5
102
}
330
19DE5
100
AcDbZombieObject
 90
      499
 91
      510
 93
      500
310
424CD108121A5919195B90640502408333333333333E3BF0000000000000FB01079024090700405020000000000001110200405405064090740C02480A0340
1001
ACAD
1000
AcDbSavedByObjectVersion
1070
     0
  0
ACAD_PROXY_OBJECT
  5
19DEC
102
{ACAD_REACTORS
330
19DE5
102
}
330
19DE5
100
AcDbZombieObject
 90
      499
 91
      510
 93
      436
310
42CCD915DA5C99599C985B595059028333333333333E3BF0000000000000FB0107901411070040501600405405064090741402480A0340
1001
ACAD
1000
AcDbSavedByObjectVersion
1070
     0
  0
ACAD_PROXY_OBJECT
  5
19DEA
102
{ACAD_REACTORS
330
19DE5
102
}
330
19DE5
100
AcDbZombieObject
 90
      499
 91
      510
 93
      388
310
4150985CDA58D07406404333333333333E3BF0000000000000FB0107A41107004050150841D405064090741402480A0350
1001
ACAD
1000
AcDbSavedByObjectVersion
1070
     0
  0
ACAD_PROXY_OBJECT
  5
19DF1
102
{ACAD_REACTORS
330
19DE5
102
}
330
19DE5
100
AcDbZombieObject
 90
      499
 91
      510
 93
      428
310
42109C9A59DA1D195B90C409028333333333333E3BF0000000000000FB010790141107004050150841D405064090741402480A029950
1001
ACAD
1000
AcDbSavedByObjectVersion
1070
     0
  0
ACAD_PROXY_OBJECT
  5
19DF5
102
{ACAD_REACTORS
330
19DE5
102
}
330
19DE5
100
AcDbZombieObject
 90
      499
 91
      510
 93
      452
310
42D0DBDB1BDC90DA185B99D95104090240C333333333333E3BF0000000000000FB0108901411070040501508421405064090741402480A0350
1001
ACAD
1000
AcDbSavedByObjectVersion
1070
     0
  0
ACAD_PROXY_OBJECT
  5
19DEE
102
{ACAD_REACTORS
330
19DE5
102
}
330
19DE5
100
AcDbZombieObject
 90
      499
 91
      510
 93
      500
310
4290DBDB98D95C1D1D585B10940D028333333333333E3BF0000000000000FB0107902409070040501000000000000111010841D405064090740C02480A0340
1001
ACAD
1000
AcDbSavedByObjectVersion
1070
     0
  0
ACAD_PROXY_OBJECT
  5
19DF0
102
{ACAD_REACTORS
330
19DE5
102
}
330
19DE5
100
AcDbZombieObject
 90
      499
 91
      510
 93
      412
310
40D11A5B50B409028333333333333E3BF0000000000000FB010790141107004050150841D405064090741402480A02677FFFFFD0
1001
ACAD
1000
AcDbSavedByObjectVersion
1070
     0
  0
ACAD_PROXY_OBJECT
  5
1E02A
102
{ACAD_REACTORS
330
19DE5
102
}
330
19DE5
100
AcDbZombieObject
 90
      499
 91
      510
 93
      452
310
43115919D950DBDB1BDC93D999916409028333333333333E3BF0000000000000FB010790141107004050150841D405064090741402480A0350
1001
ACAD
1000
AcDbSavedByObjectVersion
1070
     0
  0
ACAD_PROXY_OBJECT
  5
19DF4
102
{ACAD_REACTORS
330
19DE5
102
}
330
19DE5
100
AcDbZombieObject
 90
      499
 91
      510
 93
      444
310
42D19858D95C185D1D195C9B90F409028333333333333E3BF0000000000000FB010790141107004050150841D405064090741402480A0350
1001
ACAD
1000
AcDbSavedByObjectVersion
1070
     0
  0
ACAD_PROXY_OBJECT
  5
19DE6
102
{ACAD_REACTORS
330
19DE5
102
}
330
19DE5
100
AcDbZombieObject
 90
      499
 91
      510
 93
      388
310
41119B185D240901404333333333333E3BF0000000000000F9010740A41107004050150841D405064090741402480A1B50
1001
ACAD
1000
AcDbSavedByObjectVersion
1070
     0
  0
ACAD_PROXY_OBJECT
  5
19DE7
102
{ACAD_REACTORS
330
19DE5
102
}
330
19DE5
100
AcDbZombieObject
 90
      499
 91
      510
 93
      476
310
43519B185D15DA5D1A115919D95CD0140901404333333333333E3BF0000000000000F9010740901411070040501600405405064090741402480A1B50
1001
ACAD
1000
AcDbSavedByObjectVersion
1070
     0
  0
ACAD_PROXY_OBJECT
  5
19DE8
102
{ACAD_REACTORS
330
19DE5
102
}
330
19DE5
100
AcDbZombieObject
 90
      499
 91
      510
 93
      412
310
41D1DBDD5C985D5910240902404333333333333E3BF0000000000000F9010740A411070040501641D405064090741402480A1B50
1001
ACAD
1000
AcDbSavedByObjectVersion
1070
     0
  0
ACAD_PROXY_OBJECT
  5
19DE9
102
{ACAD_REACTORS
330
19DE5
102
}
330
19DE5
100
AcDbZombieObject
 90
      499
 91
      510
 93
      500
310
4411DBDD5C985D5915DA5D1A115919D95CD0340902404333333333333E3BF0000000000000F9010740901411070040501600405405064090741402480A1B50
1001
ACAD
1000
AcDbSavedByObjectVersion
1070
     0
  0
ACAD_PROXY_OBJECT
  5
1F381
102
{ACAD_REACTORS
330
19DE5
102
}
330
19DE5
100
AcDbZombieObject
 90
      499
 91
      510
 93
      476
310
41921A5919195B90640502408333333333333E3BF0000000000000FB01079024090700405020000000000001110200405405064090740C02480A0340
1001
ACAD
1000
AcDbSavedByObjectVersion
1070
     0
  0
ACAD_PROXY_OBJECT
  5
1E028
102
{ACAD_REACTORS
330
19DE5
102
}
330
19DE5
100
AcDbZombieObject
 90
      499
 91
      510
 93
      428
310
42529A5D1D195C93D999914409028333333333333E3BF0000000000000FB010790141107004050150A41D405064090741402480A0350
1001
ACAD
1000
AcDbSavedByObjectVersion
1070
     0
  0
ACAD_PROXY_OBJECT
  5
19DF3
102
{ACAD_REACTORS
330
19DE5
102
}
330
19DE5
100
AcDbZombieObject
 90
      499
 91
      510
 93
      444
310
42D31A5B995C185D1D195C9B90E409028333333333333E3BF0000000000000FB010790141107004050750841D405064090741402483A0350
1001
ACAD
1000
AcDbSavedByObjectVersion
1070
     0
  0
ACAD_PROXY_OBJECT
  5
1F387
102
{ACAD_REACTORS
330
19DE5
102
}
330
19DE5
100
AcDbZombieObject
 90
      499
 91
      510
 93
      484
310
42135BD9195B1A5B99D0A409028333333333333E3BF0000000000000F901074090290700405010000000000201990108421405064090741402480A1B40
1001
ACAD
1000
AcDbSavedByObjectVersion
1070
     0
  0
ACAD_PROXY_OBJECT
  5
1E029
102
{ACAD_REACTORS
330
19DE5
102
}
330
19DE5
100
AcDbZombieObject
 90
      499
 91
      510
 93
      444
310
42D3DD995C9A185B99D3D999915409028333333333333E3BF0000000000000FB010790141107004050150941D405064090741402480A0350
1001
ACAD
1000
AcDbSavedByObjectVersion
1070
     0
  0
ACAD_PROXY_OBJECT
  5
19DEF
102
{ACAD_REACTORS
330
19DE5
102
}
330
19DE5
100
AcDbZombieObject
 90
      499
 91
      510
 93
      420
310
425499585B1A5CDD1A58D08409028333333333333E3BF0000000000000FB01079019070040501508421405064090741402480A1B40
1001
ACAD
1000
AcDbSavedByObjectVersion
1070
     0
  0
ACAD_PROXY_OBJECT
  5
1F386
102
{ACAD_REACTORS
330
19DE5
102
}
330
19DE5
100
AcDbZombieObject
 90
      499
 91
      510
 93
      420
310
4194DA1859195911B40902404333333333333E3BF0000000000000F9010740A41107004050150800405405064090840C02480A0B40
1001
ACAD
1000
AcDbSavedByObjectVersion
1070
     0
  0
ACAD_PROXY_OBJECT
  5
1F385
102
{ACAD_REACTORS
330
19DE5
102
}
330
19DE5
100
AcDbZombieObject
 90
      499
 91
      510
 93
      516
310
4454DA18591959081DDA5D1A08195919D95CD1A40902404333333333333E3BF0000000000000F901074090142907004050250800405405064090740C02480A0B40
1001
ACAD
1000
AcDbSavedByObjectVersion
1070
     0
  0
ACAD_PROXY_OBJECT
  5
1F382
102
{ACAD_REACTORS
330
19DE5
102
}
330
19DE5
100
AcDbZombieObject
 90
      499
 91
      510
 93
      532
310
4394DA1859195CC81BD98811DC985E5174090240C333333333333E3BF0000000000000FB01079024090741D01000000000000111010841D405064090740C02480A0340
1001
ACAD
1000
AcDbSavedByObjectVersion
1070
     0
  0
ACAD_PROXY_OBJECT
  5
1F383
102
{ACAD_REACTORS
330
19DE5
102
}
330
19DE5
100
AcDbZombieObject
 90
      499
 91
      510
 93
      476
310
41D4DAD95D18DA1E51840502408333333333333E3BF0000000000000FB01079024090741D01000000000000111010B41D405064090741802480A0340
1001
ACAD
1000
AcDbSavedByObjectVersion
1070
     0
  0
ACAD_PROXY_OBJECT
  5
19DF2
102
{ACAD_REACTORS
330
19DE5
102
}
330
19DE5
100
AcDbZombieObject
 90
      499
 91
      510
 93
      412
310
41D51A1A58DAD95B90D409028333333333333E3BF0000000000000FB010790141107004050150C41D405064090741402480A0350
1001
ACAD
1000
AcDbSavedByObjectVersion
1070
     0
  0
ACAD_PROXY_OBJECT
  5
1F380
102
{ACAD_REACTORS
330
19DE5
102
}
330
19DE5
100
AcDbZombieObject
 90
      499
 91
      510
 93
      420
310
4255DA5C99599C985B595059028333333333333E3BF0000000000000FB0107901411070040501600405405064090740C02480A0340
1001
ACAD
1000
AcDbSavedByObjectVersion
1070
     0
  0
ACAD_PROXY_OBJECT
  5
1F384
102
{ACAD_REACTORS
330
19DE5
102
}
330
19DE5
100
AcDbZombieObject
 90
      499
 91
      510
 93
      404
310
41560B54985E51940902404000000000000E03F0000000000000FB010740501907004050150841D405064090740C02480A1B40
1001
ACAD
1000
AcDbSavedByObjectVersion
1070
     0
  0
XRECORD
  5
23C85
102
{ACAD_REACTORS
330
23C84
102
}
330
23C84
100
AcDbXrecord
340
2D0
  0
XRECORD
  5
23C86
102
{ACAD_REACTORS
330
23C84
102
}
330
23C84
100
AcDbXrecord
340
2CF
  0
DICTIONARYVAR
  5
20A45
102
{ACAD_REACTORS
330
37
102
}
330
37
100
DictionaryVariables
280
     0
  1
1:1
  0
DICTIONARYVAR
  5
1AC19
102
{ACAD_REACTORS
330
37
102
}
330
37
100
DictionaryVariables
280
     0
  1
Standard
  0
DICTIONARYVAR
  5
4F1
102
{ACAD_REACTORS
330
37
102
}
330
37
100
DictionaryVariables
280
     0
  1
Standard
  0
DICTIONARYVAR
  5
38
102
{ACAD_REACTORS
330
37
102
}
330
37
100
DictionaryVariables
280
     0
  1
-1
  0
DICTIONARYVAR
  5
408
102
{ACAD_REACTORS
330
37
102
}
330
37
100
DictionaryVariables
280
     0
  1
2
  0
DICTIONARYVAR
  5
1891
102
{ACAD_REACTORS
330
37
102
}
330
37
100
DictionaryVariables
280
     0
  1
1
  0
DICTIONARYVAR
  5
1AC1C
102
{ACAD_REACTORS
330
37
102
}
330
37
100
DictionaryVariables
280
     0
  1
0
  0
DICTIONARYVAR
  5
1895
102
{ACAD_REACTORS
330
37
102
}
330
37
100
DictionaryVariables
280
     0
  1
8
  0
DICTIONARYVAR
  5
1894
102
{ACAD_REACTORS
330
37
102
}
330
37
100
DictionaryVariables
280
     0
  1
1
  0
DICTIONARYVAR
  5
20A9B
102
{ACAD_REACTORS
330
37
102
}
330
37
100
DictionaryVariables
280
     0
  1
0
  0
DICTIONARYVAR
  5
1892
102
{ACAD_REACTORS
330
37
102
}
330
37
100
DictionaryVariables
280
     0
  1
8
  0
DICTIONARYVAR
  5
1893
102
{ACAD_REACTORS
330
37
102
}
330
37
100
DictionaryVariables
280
     0
  1
2
  0
DICTIONARYVAR
  5
409
102
{ACAD_REACTORS
330
37
102
}
330
37
100
DictionaryVariables
280
     0
  1

  0
DICTIONARYVAR
  5
1AC1B
102
{ACAD_REACTORS
330
37
102
}
330
37
100
DictionaryVariables
280
     0
  1
127
  0
DICTIONARYVAR
  5
23A99
102
{ACAD_REACTORS
330
37
102
}
330
37
100
DictionaryVariables
280
     0
  1
2
  0
DICTIONARY
  5
23E22
330
19DD5
100
AcDbDictionary
  3
ACAD_XREC_ROUNDTRIP
360
23E23
1001
ACAD
1000
TREAT_AS_HARD
1070
     1
  0
DICTIONARY
  5
23E24
330
19DCD
100
AcDbDictionary
  3
ACAD_XREC_ROUNDTRIP
360
23E25
1001
ACAD
1000
TREAT_AS_HARD
1070
     1
  0
DICTIONARY
  5
23E26
330
19DDD
100
AcDbDictionary
  3
ACAD_XREC_ROUNDTRIP
360
23E27
1001
ACAD
1000
TREAT_AS_HARD
1070
     1
  0
XRECORD
  5
23E23
102
{ACAD_REACTORS
330
23E22
102
}
330
23E22
100
AcDbXrecord
102
MATERIAL
148
0.0
149
0.0
149
0.0
 93
        0
 94
      127
282
     0
 72
     0
 77
     0
171
     0
175
     0
179
     0
273
     0
  0
XRECORD
  5
23E25
102
{ACAD_REACTORS
330
23E24
102
}
330
23E24
100
AcDbXrecord
102
MATERIAL
148
0.0
149
0.0
149
0.0
 93
        0
 94
      127
282
     0
 72
     0
 77
     0
171
     0
175
     0
179
     0
273
     0
  0
XRECORD
  5
23E27
102
{ACAD_REACTORS
330
23E26
102
}
330
23E26
100
AcDbXrecord
102
MATERIAL
148
0.0
149
0.0
149
0.0
 93
        0
 94
      127
282
     0
 72
     0
 77
     0
171
     0
175
     0
179
     0
273
     0
  0
ENDSEC
  0
EOF
