  0
SECTION
  2
HEADER
  9
$ACADVER
  1
AC1009
  9
$INSBASE
 10
0.0
 20
0.0
 30
0.0
  9
$EXTMIN
 10
-952.69543649460434
 20
-1913.6007750392071
 30
0.0
  9
$EXTMAX
 10
-663.78601402521213
 20
-1706.580374034741
 30
0.0
  9
$LIMMIN
 10
0.0
 20
0.0
  9
$LIMMAX
 10
420.0
 20
297.0
  9
$ORTHOMODE
 70
     0
  9
$REGENMODE
 70
     1
  9
$FILLMODE
 70
     1
  9
$QTEXTMODE
 70
     0
  9
$MIRRTEXT
 70
     0
  9
$DRAGMODE
 70
     2
  9
$LTSCALE
 40
0.5
  9
$OSMODE
 70
  2079
  9
$ATTMODE
 70
     1
  9
$TEXTSIZE
 40
4.0
  9
$TRACEWID
 40
1.0
  9
$TEXTSTYLE
  7
STANDARD
  9
$CLAYER
  8
1TEXT
  9
$CELTYPE
  6
BYLAYER
  9
$CECOLOR
 62
   256
  9
$DIMSCALE
 40
1.0
  9
$DIMASZ
 40
2.0
  9
$DIMEXO
 40
0.0
  9
$DIMDLI
 40
7.0
  9
$DIMRND
 40
0.0
  9
$DIMDLE
 40
0.0
  9
$DIMEXE
 40
1.0
  9
$DIMTP
 40
0.0
  9
$DIMTM
 40
0.0
  9
$DIMTXT
 40
3.5
  9
$DIMCEN
 40
0.0
  9
$DIMTSZ
 40
0.0
  9
$DIMTOL
 70
     0
  9
$DIMLIM
 70
     0
  9
$DIMTIH
 70
     0
  9
$DIMTOH
 70
     0
  9
$DIMSE1
 70
     0
  9
$DIMSE2
 70
     0
  9
$DIMTAD
 70
     1
  9
$DIMZIN
 70
     8
  9
$DIMBLK
  1

  9
$DIMASO
 70
     1
  9
$DIMSHO
 70
     1
  9
$DIMPOST
  1
 
  9
$DIMAPOST
  1

  9
$DIMALT
 70
     0
  9
$DIMALTD
 70
     2
  9
$DIMALTF
 40
25.399999999999999
  9
$DIMLFAC
 40
1.0
  9
$DIMTOFL
 70
     1
  9
$DIMTVP
 40
0.0
  9
$DIMTIX
 70
     0
  9
$DIMSOXD
 70
     0
  9
$DIMSAH
 70
     1
  9
$DIMBLK1
  1
OPEN30
  9
$DIMBLK2
  1
OPEN30
  9
$DIMSTYLE
  2
NEWX10
  9
$DIMCLRD
 70
   256
  9
$DIMCLRE
 70
   256
  9
$DIMCLRT
 70
   201
  9
$DIMTFAC
 40
0.7
  9
$DIMGAP
 40
0.7
  9
$LUNITS
 70
     2
  9
$LUPREC
 70
     4
  9
$SKETCHINC
 40
1.0
  9
$FILLETRAD
 40
0.0
  9
$AUNITS
 70
     0
  9
$AUPREC
 70
     2
  9
$MENU
  1
acad
  9
$ELEVATION
 40
0.0
  9
$PELEVATION
 40
0.0
  9
$THICKNESS
 40
0.0
  9
$LIMCHECK
 70
     0
  9
$BLIPMODE
 70
     0
  9
$CHAMFERA
 40
10.0
  9
$CHAMFERB
 40
10.0
  9
$SKPOLY
 70
     0
  9
$TDCREATE
 40
2453033.7326634838
  9
$TDUPDATE
 40
2457136.7564002778
  9
$TDINDWG
 40
1.6405752546000001
  9
$TDUSRTIMER
 40
1.6405752546000001
  9
$USRTIMER
 70
     1
  9
$ANGBASE
 50
0.0
  9
$ANGDIR
 70
     0
  9
$PDMODE
 70
     0
  9
$PDSIZE
 40
0.0
  9
$PLINEWID
 40
0.0
  9
$COORDS
 70
     0
  9
$SPLFRAME
 70
     0
  9
$SPLINETYPE
 70
     6
  9
$SPLINESEGS
 70
     8
  9
$ATTDIA
 70
     0
  9
$ATTREQ
 70
     1
  9
$HANDLING
 70
     1
  9
$HANDSEED
  5
1754F
  9
$SURFTAB1
 70
     6
  9
$SURFTAB2
 70
     6
  9
$SURFTYPE
 70
     6
  9
$SURFU
 70
     6
  9
$SURFV
 70
     6
  9
$UCSNAME
  2

  9
$UCSORG
 10
0.0
 20
0.0
 30
0.0
  9
$UCSXDIR
 10
1.0
 20
0.0
 30
0.0
  9
$UCSYDIR
 10
0.0
 20
1.0
 30
0.0
  9
$PUCSNAME
  2

  9
$PUCSORG
 10
0.0
 20
0.0
 30
0.0
  9
$PUCSXDIR
 10
1.0
 20
0.0
 30
0.0
  9
$PUCSYDIR
 10
0.0
 20
1.0
 30
0.0
  9
$USERI1
 70
     0
  9
$USERI2
 70
     0
  9
$USERI3
 70
     0
  9
$USERI4
 70
     0
  9
$USERI5
 70
     0
  9
$USERR1
 40
0.0
  9
$USERR2
 40
0.0
  9
$USERR3
 40
0.0
  9
$USERR4
 40
0.0
  9
$USERR5
 40
0.0
  9
$WORLDVIEW
 70
     1
  9
$SHADEDGE
 70
     3
  9
$SHADEDIF
 70
    70
  9
$TILEMODE
 70
     1
  9
$MAXACTVP
 70
    48
  9
$PLIMCHECK
 70
     0
  9
$PEXTMIN
 10
1.0000000000000000E+020
 20
1.0000000000000000E+020
 30
1.0000000000000000E+020
  9
$PEXTMAX
 10
-1.0000000000000000E+020
 20
-1.0000000000000000E+020
 30
-1.0000000000000000E+020
  9
$PLIMMIN
 10
0.0
 20
0.0
  9
$PLIMMAX
 10
420.0
 20
297.0
  9
$UNITMODE
 70
     0
  9
$VISRETAIN
 70
     1
  9
$PLINEGEN
 70
     0
  9
$PSLTSCALE
 70
     1
  0
ENDSEC
  0
SECTION
  2
TABLES
  0
TABLE
  2
VPORT
 70
     1
  0
VPORT
  2
*ACTIVE
 70
     0
 10
0.0
 20
0.0
 11
1.0
 21
1.0
 12
-808.21220149314706
 22
-1810.113784092264
 13
0.0
 23
0.0
 14
10.0
 24
10.0
 15
10.0
 25
10.0
 16
0.0
 26
0.0
 36
1.0
 17
0.0
 27
0.0
 37
0.0
 40
219.64035692188719
 41
2.2234706616729079
 42
50.0
 43
0.0
 44
0.0
 50
0.0
 51
0.0
 71
     0
 72
   100
 73
     1
 74
     1
 75
     0
 76
     0
 77
     0
 78
     0
  0
ENDTAB
  0
TABLE
  2
LTYPE
 70
    16
  0
LTYPE
  2
CONTINUOUS
 70
     0
  3
Solid line
 72
    65
 73
     0
 40
0.0
  0
LTYPE
  2
CENTER2
 70
     0
  3
Center (.5x) ___ _ ___ _ ___ _ ___ _ ___ _ ___
 72
    65
 73
     4
 40
28.574999999999999
 49
19.050000000000001
 49
-3.1749999999999989
 49
3.1749999999999989
 49
-3.1749999999999989
  0
LTYPE
  2
XREF1|CENTER2
 70
    48
  3
Center (.5x) ___ _ ___ _ ___ _ ___ _ ___ _ ___
 72
    65
 73
     4
 40
28.574999999999999
 49
19.050000000000001
 49
-3.1749999999999989
 49
3.1749999999999989
 49
-3.1749999999999989
  0
LTYPE
  2
PHANTOM2
 70
     0
  3
Phantom (.5x) ___ _ _ ___ _ _ ___ _ _ ___ _ _
 72
    65
 73
     6
 40
31.75
 49
15.875
 49
-3.1749999999999989
 49
3.1749999999999989
 49
-3.1749999999999989
 49
3.1749999999999989
 49
-3.1749999999999989
  0
LTYPE
  2
A3WAKUDAKE|CENTER2
 70
    48
  3
Center (.5x) ___ _ ___ _ ___ _ ___ _ ___ _ ___
 72
    65
 73
     4
 40
28.574999999999999
 49
19.050000000000001
 49
-3.1749999999999989
 49
3.1749999999999989
 49
-3.1749999999999989
  0
ENDTAB
  0
TABLE
  2
LAYER
 70
    46
  0
LAYER
  2
0
 70
     0
 62
     7
  6
CONTINUOUS
  0
LAYER
  2
1CENTER
 70
     0
 62
     7
  6
CENTER2
  0
LAYER
  2
1TEXT
 70
     0
 62
     7
  6
CONTINUOUS
  0
LAYER
  2
1DIM
 70
     0
 62
     7
  6
CONTINUOUS
  0
LAYER
  2
1PHANTOM
 70
     0
 62
     7
  6
PHANTOM2
  0
LAYER
  2
01
 70
     0
 62
     1
  6
CONTINUOUS
  0
LAYER
  2
XREF1|1CENTER
 70
    48
 62
     7
  6
XREF1|CENTER2
  0
LAYER
  2
A3WAKUDAKE|THICK
 70
    48
 62
     7
  6
CONTINUOUS
  0
LAYER
  2
A3WAKUDAKE|POINT
 70
    48
 62
     7
  6
CONTINUOUS
  0
LAYER
  2
A3WAKUDAKE|1CENTER
 70
    48
 62
     7
  6
A3WAKUDAKE|CENTER2
  0
LAYER
  2
A3WAKUDAKE|0-6
 70
    48
 62
     7
  6
CONTINUOUS
  0
LAYER
  2
A3WAKUDAKE|1DIM
 70
    48
 62
     7
  6
CONTINUOUS
  0
ENDTAB
  0
TABLE
  2
STYLE
 70
    23
  0
STYLE
  2
STANDARD
 70
     0
 40
0.0
 41
1.0
 50
0.0
 71
     0
 42
4.0
  3
txt.shx
  4
extfont.shx
  0
ENDTAB
  0
TABLE
  2
VIEW
 70
     5
  0
ENDTAB
  0
TABLE
  2
UCS
 70
     0
  0
ENDTAB
  0
TABLE
  2
APPID
 70
    12
  0
APPID
  2
ACAD
 70
     0
  0
APPID
  2
DRAWINGVARIABLESXDATA
 70
     0
  0
APPID
  2
CONTENTTABDATA
 70
     0
  0
APPID
  2
CONTENTCURRENTTAB
 70
     0
  0
APPID
  2
CONTENTBLOCKDESCRIPTION
 70
     0
  0
APPID
  2
CONTENTBLOCKICON
 70
     0
  0
APPID
  2
CONTENTLONGBLOCKNAME
 70
     0
  0
APPID
  2
ACAD_PSEXT
 70
     0
  0
APPID
  2
ACAD_DSTYLE_DIMTEXT_FILL
 70
     0
  0
APPID
  2
ACAD_MLEADERVER
 70
     0
  0
APPID
  2
ACAD_EXEMPT_FROM_CAD_STANDARDS
 70
     0
  0
APPID
  2
ACLAYERTOOLS
 70
     0
  0
ENDTAB
  0
TABLE
  2
DIMSTYLE
 70
     9
  0
DIMSTYLE
  2
NEWX10
 70
     0
  3
 
  4

  5

  6
OPEN30
  7
OPEN30
 40
1.0
 41
2.0
 42
0.0
 43
7.0
 44
1.0
 45
0.0
 46
0.0
 47
0.0
 48
0.0
140
3.5
141
0.0
142
0.0
143
25.399999999999999
144
1.0
145
0.0
146
0.7
147
0.7
 71
     0
 72
     0
 73
     0
 74
     0
 75
     0
 76
     0
 77
     1
 78
     8
170
     0
171
     2
172
     1
173
     1
174
     0
175
     0
176
   256
177
   256
178
   201
  0
ENDTAB
  0
ENDSEC
  0
SECTION
  2
BLOCKS
  0
BLOCK
  8
0
  2
$MODEL_SPACE
 70
     0
 10
0.0
 20
0.0
 30
0.0
  3
$MODEL_SPACE
  1

  0
ENDBLK
  5
1A
  8
0
  0
BLOCK
 67
     1
  8
0
  2
$PAPER_SPACE
 70
     0
 10
0.0
 20
0.0
 30
0.0
  3
$PAPER_SPACE
  1

  0
ENDBLK
  5
17
 67
     1
  8
0
  0
BLOCK
  8
0
  2
_OPEN30
 70
     0
 10
0.0
 20
0.0
 30
0.0
  3
_OPEN30
  1

  0
LINE
  5
44
  8
0
  6
BYBLOCK
 62
     0
 10
-1.0
 20
0.26794919
 30
0.0
 11
0.0
 21
0.0
 31
0.0
  0
LINE
  5
45
  8
0
  6
BYBLOCK
 62
     0
 10
0.0
 20
0.0
 30
0.0
 11
-1.0
 21
-0.26794919
 31
0.0
  0
LINE
  5
46
  8
0
  6
BYBLOCK
 62
     0
 10
0.0
 20
0.0
 30
0.0
 11
-1.0
 21
0.0
 31
0.0
  0
ENDBLK
  5
47
  8
0
  0
BLOCK
  8
0
  2
XREF1
 70
    36
 10
0.0
 20
0.0
 30
0.0
  3
XREF1
  1
D:\ACLT\FORMAT\KAWAJUN(9)図面用.dwg
  0
ENDBLK
  5
5D
  8
0
  0
BLOCK
  8
0
  2
A3WAKUDAKE
 70
    36
 10
0.0
 20
0.0
 30
0.0
  3
A3WAKUDAKE
  1
D:\ACLT\FORMAT\A3WAKUdake.dwg
  0
ENDBLK
  5
6DC
  8
0
  0
ENDSEC
  0
SECTION
  2
ENTITIES
  0
LINE
  5
16A41
  8
01
 10
-716.43027181198863
 20
-1823.6181813849071
 30
0.0
 11
-716.43027181198863
 21
-1903.6181813849071
 31
0.0
  0
LINE
  5
16A42
  8
01
 10
-704.43027181198863
 20
-1823.6181813849071
 30
0.0
 11
-704.43027181198863
 21
-1903.6181813849071
 31
0.0
  0
LINE
  5
16A43
  8
01
 10
-725.43027181198863
 20
-1823.6181813849071
 30
0.0
 11
-725.43027181198863
 21
-1903.6181813849071
 31
0.0
  0
ARC
  5
16CAA
  8
01
 10
-777.93027179387059
 20
-1863.604720308583
 30
0.0
 40
20.750000175841169
 50
57.43106955030904
 51
302.43477636269569
  0
LINE
  5
16CAB
  8
01
 10
-729.43027181198863
 20
-1882.136598121268
 30
0.0
 11
-729.43027181198863
 21
-1845.0997649143501
 31
0.0
  0
LINE
  5
16CAC
  8
01
 10
-725.43027181198863
 20
-1842.716257729162
 30
0.0
 11
-725.43027181198863
 21
-1884.5201053064559
 31
0.0
  0
LINE
  5
16CAD
  8
01
 10
-895.5094502605449
 20
-1844.868181517814
 30
0.0
 11
-895.01004040358805
 21
-1844.368771660857
 31
0.0
  0
LINE
  5
16CAE
  8
01
 10
-895.01004040358805
 20
-1882.867591374772
 30
0.0
 11
-895.5094502605449
 21
-1882.3681815178149
 31
0.0
  0
LINE
  5
16CAF
  8
01
 10
-895.5094502605449
 20
-1844.868181517814
 30
0.0
 11
-895.5094502605449
 21
-1882.3681815178149
 31
0.0
  0
LINE
  5
16CB0
  8
01
 10
-882.00945026048225
 20
-1846.6131385928841
 30
0.0
 11
-882.0094502605449
 21
-1880.622044156662
 31
0.0
  0
ARC
  5
16CB1
  8
01
 10
-881.50945026052034
 20
-1867.1181813849121
 30
0.0
 40
0.5
 50
120.0001126468746
 51
179.99999999989569
  0
LINE
  5
16CE9
  8
01
 10
-895.01004040358805
 20
-1882.867591374772
 30
0.0
 11
-895.01004040358805
 21
-1844.3675913747711
 31
0.0
  0
LINE
  5
16CEA
  8
01
 10
-895.01004040358805
 20
-1882.867591374772
 30
0.0
 11
-894.21581176952873
 21
-1882.867591374772
 31
0.0
  0
ARC
  5
16CEB
  8
01
 10
-894.21581176952873
 20
-1887.867591374772
 30
0.0
 40
5.0
 50
60.000000000002721
 51
90.0
  0
ARC
  5
16CEC
  8
01
 10
-890.01004040358816
 20
-1883.367591374772
 30
0.0
 40
1.0
 50
240.0000000000027
 51
314.99999999998619
  0
LINE
  5
16CED
  8
01
 10
-890.51004040358805
 20
-1884.2336167785561
 30
0.0
 11
-891.71581176952861
 21
-1883.5374643558489
 31
0.0
  0
LINE
  5
16CEE
  8
01
 10
-889.30293362240241
 20
-1884.0746981559589
 30
0.0
 11
-889.27475902934987
 21
-1884.046523562906
 31
0.0
  0
ARC
  5
16CEF
  8
01
 10
-882.20369121748422
 20
-1891.117591374772
 30
0.0
 40
10.0
 50
91.668683766376134
 51
135.00000000000921
  0
ARC
  5
16CF0
  8
01
 10
-882.50945026054501
 20
-1880.6220441566611
 30
0.0
 40
0.5
 50
271.66868376635
 51
359.99999999989581
  0
LINE
  5
16CF1
  8
01
 10
-895.01004040358805
 20
-1844.3675913747711
 30
0.0
 11
-894.21581176952873
 21
-1844.3675913747711
 31
0.0
  0
ARC
  5
16CF2
  8
01
 10
-894.21581176952873
 20
-1839.3675913747711
 30
0.0
 40
5.0
 50
270.0
 51
300.00000000000949
  0
ARC
  5
16CF3
  8
01
 10
-890.01004040358816
 20
-1843.8675913747711
 30
0.0
 40
1.0
 50
45.000000000013813
 51
120.00000000000939
  0
LINE
  5
16CF4
  8
01
 10
-890.51004040358805
 20
-1843.0015659709859
 30
0.0
 11
-891.71581176952861
 21
-1843.6977183936931
 31
0.0
  0
LINE
  5
16CF5
  8
01
 10
-889.30293362240241
 20
-1843.160484593584
 30
0.0
 11
-889.27475902934987
 21
-1843.188659186636
 31
0.0
  0
ARC
  5
16CF6
  8
01
 10
-882.20369121748422
 20
-1836.1175913747711
 30
0.0
 40
10.0
 50
224.9999999999954
 51
268.33131623396281
  0
ARC
  5
16CF7
  8
1DIM
 10
-882.20369121748422
 20
-1836.1175913747711
 30
0.0
 40
10.0
 50
268.33131623396281
 51
270.00000000013029
  0
ARC
  5
16CF8
  8
01
 10
-882.50945026048225
 20
-1846.6131385928829
 30
0.0
 40
0.5
 50
359.99999999989581
 51
88.331316233962809
  0
ARC
  5
16CFD
  8
01
 10
-727.43027181198818
 20
-1845.0997649143501
 30
0.0
 40
2.0
 50
100.00000000000389
 51
180.0
  0
LINE
  5
16CFE
  8
01
 10
-727.77756816732165
 20
-1843.130149408327
 30
0.0
 11
-725.43027181198806
 21
-1842.716257729162
 31
0.0
  0
ARC
  5
16CFF
  8
01
 10
-727.43027181198818
 20
-1882.136598121268
 30
0.0
 40
2.0
 50
180.0
 51
259.9999999999938
  0
LINE
  5
16D00
  8
01
 10
-727.77756816732165
 20
-1884.106213627291
 30
0.0
 11
-725.43027181198863
 21
-1884.5201053064559
 31
0.0
  0
ARC
  5
16D02
  8
1DIM
 10
-882.20369121748422
 20
-1891.117591374775
 30
0.0
 40
10.0
 50
89.999999999869729
 51
91.668683766037191
  0
ARC
  5
16D03
  8
01
 10
-881.50945026052034
 20
-1860.1181813849121
 30
0.0
 40
0.5
 50
180.00000000010419
 51
239.99988735312539
  0
LINE
  5
16D07
  8
1CENTER
 10
-777.93027181199079
 20
-1886.6931813849069
 30
0.0
 11
-777.93027181199079
 21
-1840.543181384907
 31
0.0
  0
LINE
  5
16D08
  8
1CENTER
 10
-722.41366505431938
 20
-1863.6181813849071
 30
0.0
 11
-801.00527181199107
 21
-1863.6181813849071
 31
0.0
  0
ARC
  5
16D09
  8
01
 10
-848.50945026054592
 20
-1863.6181813849121
 30
0.0
 40
17.701923788647001
 50
0.0
 51
98.662332201506317
  0
ARC
  5
16D0A
  8
01
 10
-848.50945026054592
 20
-1863.6181813849121
 30
0.0
 40
17.701923788646919
 50
261.33766779849373
 51
0.0
  0
CIRCLE
  5
16D0B
  8
1PHANTOM
 10
-848.50945026054501
 20
-1874.118181517814
 30
0.0
 40
2.75
  0
CIRCLE
  5
16D0C
  8
1PHANTOM
 10
-848.50945026054501
 20
-1853.118181517814
 30
0.0
 40
2.75
  0
ARC
  5
16D0D
  8
01
 10
-848.50945026054592
 20
-1863.6181813849121
 30
0.0
 40
20.901923788646901
 50
236.85017543124181
 51
0.0
  0
ARC
  5
16D0E
  8
01
 10
-848.50945026054592
 20
-1863.6181813849121
 30
0.0
 40
20.901923788646911
 50
0.0
 51
123.14982456875811
  0
LINE
  5
16D0F
  8
1CENTER
 10
-897.29472475434761
 20
-1863.6181813849071
 30
0.0
 11
-825.49694933614921
 21
-1863.6181813849071
 31
0.0
  0
LINE
  5
16D10
  8
1CENTER
 10
-848.50945026054956
 20
-1886.6306823093071
 30
0.0
 11
-848.50945026054956
 21
-1840.6056804605171
 31
0.0
  0
LINE
  5
16D11
  8
1CENTER
 10
-853.0381205519077
 20
-1853.118181517814
 30
0.0
 11
-843.98077996919142
 21
-1853.118181517814
 31
0.0
  0
LINE
  5
16D12
  8
1CENTER
 10
-853.0381205519077
 20
-1874.118181517814
 30
0.0
 11
-843.98077996919142
 21
-1874.118181517814
 31
0.0
  0
LINE
  5
16D13
  8
01
 10
-744.42980289685124
 20
-1846.117773234118
 30
0.0
 11
-729.43027181198875
 21
-1846.117773234118
 31
0.0
  0
LINE
  5
16D14
  8
01
 10
-729.4302718119884
 20
-1881.117773234118
 30
0.0
 11
-744.42980289685124
 21
-1881.117773234118
 31
0.0
  0
LINE
  5
16D15
  8
01
 10
-777.92888641290733
 20
-1846.117773234118
 30
0.0
 11
-744.42980289685124
 21
-1846.117773234118
 31
0.0
  0
LINE
  5
16D16
  8
01
 10
-744.42980289685124
 20
-1881.117773234118
 30
0.0
 11
-777.9288865355245
 21
-1881.117773234118
 31
0.0
  0
LINE
  5
16D17
  8
01
 10
-730.18027181199716
 20
-1867.6177732341171
 30
0.0
 11
-729.43027181198863
 21
-1867.6177732341171
 31
0.0
  0
LINE
  5
16D18
  8
01
 10
-730.18027181199454
 20
-1859.6177732341141
 30
0.0
 11
-729.43027181198863
 21
-1859.6177732341159
 31
0.0
  0
ARC
  5
16D19
  8
01
 10
-730.18027181199591
 20
-1860.1177732341141
 30
0.0
 40
0.5
 50
89.999999999817618
 51
180.0
  0
LINE
  5
16D1A
  8
01
 10
-730.68027181199591
 20
-1860.1177732341141
 30
0.0
 11
-730.68027181199591
 21
-1867.1177732341171
 31
0.0
  0
ARC
  5
16D1B
  8
01
 10
-730.18027181199591
 20
-1867.1177732341171
 30
0.0
 40
0.5
 50
180.0
 51
269.99999999984368
  0
ARC
  5
16D1C
  8
01
 10
-777.92920696993656
 20
-1863.617774494109
 30
0.0
 40
17.500001800435211
 50
89.998950495514464
 51
270.00104911459698
  0
ARC
  5
16D1D
  8
01
 10
-848.50945026054592
 20
-1863.6181813849121
 30
0.0
 40
17.499999999999979
 50
269.99999757453043
 51
90.000002432504488
  0
LINE
  5
16D1E
  8
01
 10
-881.45945111184642
 20
-1846.1181813849121
 30
0.0
 11
-848.50945111184842
 21
-1846.1181813849121
 31
0.0
  0
LINE
  5
16D1F
  8
01
 10
-848.50945111184842
 20
-1881.1181813849121
 30
0.0
 11
-881.45945111184915
 21
-1881.1181813849121
 31
0.0
  0
ARC
  5
16D20
  8
01
 10
-881.45945111184915
 20
-1880.8181813849119
 30
0.0
 40
0.3
 50
179.99999999998701
 51
270.0
  0
LINE
  5
16D21
  8
01
 10
-881.7594511118466
 20
-1846.418181384912
 30
0.0
 11
-881.75945111184933
 21
-1880.8181813849119
 31
0.0
  0
ARC
  5
16D22
  8
01
 10
-881.45945111184642
 20
-1846.418181384912
 30
0.0
 40
0.3
 50
90.0
 51
179.99999999998701
  0
LINE
  5
16DC4
  8
01
 10
-866.0094502605458
 20
-1765.0267272652879
 30
0.0
 11
-866.0094502605458
 21
-1750.0267272652891
 31
0.0
  0
ARC
  5
16DC5
  8
01
 10
-882.00943015146254
 20
-1765.026747374372
 30
0.0
 40
15.99997989092914
 50
269.99992798958112
 51
0.0000720104709761
  0
LINE
  5
16DC6
  8
01
 10
-895.01004040358805
 20
-1817.7761371222471
 30
0.0
 11
-895.5094502605449
 21
-1817.27672726529
 31
0.0
  0
LINE
  5
16DC7
  8
01
 10
-895.5094502605449
 20
-1779.7767272652891
 30
0.0
 11
-895.5094502605449
 21
-1817.27672726529
 31
0.0
  0
LINE
  5
16DC8
  8
01
 10
-895.01004040358805
 20
-1779.277317408332
 30
0.0
 11
-895.5094502605449
 21
-1779.7767272652891
 31
0.0
  0
LINE
  5
16DC9
  8
01
 10
-895.00945026054501
 20
-1779.2767272652891
 30
0.0
 11
-895.00945026054501
 21
-1817.77672726529
 31
0.0
  0
LINE
  5
16DCF
  8
01
 10
-882.0094502605449
 20
-1781.0267272652891
 30
0.0
 11
-882.0094502605449
 21
-1815.7272763163089
 31
0.0
  0
LINE
  5
16DD0
  8
01
 10
-827.60752647189895
 20
-1746.0267272652891
 30
0.0
 11
-869.41137404919266
 21
-1746.0267272652891
 31
0.0
  0
LINE
  5
16DD3
  8
01
 10
-829.99103365708766
 20
-1750.0267272652979
 30
0.0
 11
-867.02786686400373
 21
-1750.0267272652891
 31
0.0
  0
LINE
  5
16DD4
  8
01
 10
-895.00945026054501
 20
-1779.2767272652891
 30
0.0
 11
-894.21522162648557
 21
-1779.2767272652891
 31
0.0
  0
ARC
  5
16DD5
  8
01
 10
-894.21522162648557
 20
-1774.2767272652891
 30
0.0
 40
5.0
 50
270.0
 51
299.99999999999523
  0
ARC
  5
16DD6
  8
01
 10
-890.0094502605449
 20
-1778.7767272652891
 30
0.0
 40
1.0
 50
45.000000000011752
 51
119.9999999999952
  0
LINE
  5
16DD7
  8
01
 10
-890.50945026054501
 20
-1777.910701861505
 30
0.0
 11
-891.71522162648557
 21
-1778.6068542842111
 31
0.0
  0
LINE
  5
16DD8
  8
01
 10
-889.30234347935925
 20
-1778.0696204841031
 30
0.0
 11
-889.27416888630682
 21
-1778.0977950771551
 31
0.0
  0
ARC
  5
16DD9
  8
01
 10
-882.20310107444095
 20
-1771.0267272652891
 30
0.0
 40
10.0
 50
224.99999999998181
 51
270.0
  0
LINE
  5
16DDA
  8
01
 10
-882.20310107444095
 20
-1781.0267272652891
 30
0.0
 11
-882.00945026053955
 21
-1781.0267272652891
 31
0.0
  0
LINE
  5
16DDB
  8
01
 10
-895.00945026054501
 20
-1817.77672726529
 30
0.0
 11
-894.21522162648557
 21
-1817.77672726529
 31
0.0
  0
ARC
  5
16DDC
  8
01
 10
-894.21522162648557
 20
-1822.77672726529
 30
0.0
 40
5.0
 50
59.999999999995659
 51
90.000000000000028
  0
ARC
  5
16DDD
  8
01
 10
-890.0094502605449
 20
-1818.27672726529
 30
0.0
 40
1.0
 50
239.99999999999559
 51
314.99999999998818
  0
LINE
  5
16DDE
  8
01
 10
-890.50945026054501
 20
-1819.142752669075
 30
0.0
 11
-891.71522162648557
 21
-1818.446600246368
 31
0.0
  0
LINE
  5
16DDF
  8
01
 10
-889.30234347935925
 20
-1818.9838340464771
 30
0.0
 11
-889.27416888630682
 21
-1818.9556594534249
 31
0.0
  0
ARC
  5
16DE0
  8
01
 10
-882.20310107444095
 20
-1826.02672726529
 30
0.0
 40
10.0
 50
90.591598814692176
 51
134.99999999999741
  0
ARC
  5
16DE1
  8
1DIM
 10
-882.20310107444095
 20
-1826.02672726529
 30
0.0
 40
10.0
 50
89.999999999869729
 51
90.591598814692176
  0
ARC
  5
16DE2
  8
01
 10
-882.30945026054417
 20
-1815.7272763163089
 30
0.0
 40
0.3
 50
270.59159881474432
 51
0.0
  0
LINE
  5
16DE3
  8
1DIM
 10
-882.20310107444095
 20
-1816.02672726529
 30
0.0
 11
-882.00945026053955
 21
-1816.02672726529
 31
0.0
  0
ARC
  5
16DE4
  8
01
 10
-829.99103365708709
 20
-1748.0267272652891
 30
0.0
 40
2.0
 50
269.99999999998698
 51
349.99999999999523
  0
LINE
  5
16DE5
  8
01
 10
-828.02141815106427
 20
-1748.3740236206229
 30
0.0
 11
-827.60752647189895
 21
-1746.0267272652891
 31
0.0
  0
ARC
  5
16DE6
  8
01
 10
-867.02786686400464
 20
-1748.0267272652891
 30
0.0
 40
2.0
 50
190.00000000000509
 51
270.0
  0
LINE
  5
16DE7
  8
01
 10
-868.99748237002837
 20
-1748.374023620622
 30
0.0
 11
-869.41137404919266
 21
-1746.0267272652891
 31
0.0
  0
LINE
  5
16DE8
  8
1DIM
 10
-882.00945026054399
 20
-1815.7272763163089
 30
0.0
 11
-882.00945026054399
 21
-1816.02672726529
 31
0.0
  0
LINE
  5
16DF1
  8
01
 10
-831.00945026054956
 20
-1750.026727265297
 30
0.0
 11
-831.00945026054956
 21
-1765.026258350144
 31
0.0
  0
ARC
  5
16DFA
  8
01
 10
-882.00948439067599
 20
-1765.026242220448
 30
0.0
 40
51.000034130129279
 50
270.62160219435901
 51
359.99998187914417
  0
ARC
  5
16DFB
  8
01
 10
-881.45945026054846
 20
-1815.7232926598231
 30
0.0
 40
0.3
 50
180.0
 51
270.62160219438499
  0
LINE
  5
16E02
  8
01
 10
-881.75945026054956
 20
-1811.5767272652849
 30
0.0
 11
-881.75945026054956
 21
-1798.5257944164771
 31
0.0
  0
LINE
  5
16E03
  8
01
 10
-881.75945026054956
 20
-1798.5257944164771
 30
0.0
 11
-881.75945026054956
 21
-1782.8152232441189
 31
0.0
  0
LINE
  5
16E04
  8
01
 10
-881.75945026054956
 20
-1781.024774332853
 30
0.0
 11
-881.75945026054956
 21
-1782.8152232441189
 31
0.0
  0
LINE
  5
16E05
  8
01
 10
-881.75945026054853
 20
-1811.5767272652849
 30
0.0
 11
-881.75945026054853
 21
-1815.7232926598231
 31
0.0
  0
TEXT
  5
170D5
  8
1TEXT
 10
-784.43547626412715
 20
-1720.563594580176
 30
0.0
 40
8.0
  1
KH-633-X
  0
LINE
  5
170D6
  8
1DIM
 10
-784.43547626412715
 20
-1725.563594580176
 30
0.0
 11
-679.43547626412726
 21
-1725.563594580176
 31
0.0
  0
LINE
  5
170D7
  8
1DIM
 10
-784.43547626412715
 20
-1739.563594580176
 30
0.0
 11
-679.43547626412737
 21
-1739.563594580176
 31
0.0
  0
LINE
  5
170D8
  8
1DIM
 10
-784.43547626412715
 20
-1732.563594580176
 30
0.0
 11
-679.43547626412726
 21
-1732.563594580176
 31
0.0
  0
LINE
  5
170D9
  8
1DIM
 10
-784.43547626412715
 20
-1746.563594580176
 30
0.0
 11
-679.43547626412737
 21
-1746.563594580176
 31
0.0
  0
LINE
  5
170DA
  8
1DIM
 10
-784.43547626412715
 20
-1746.563594580176
 30
0.0
 11
-679.43547626412737
 21
-1746.563594580176
 31
0.0
  0
TEXT
  5
170DB
  8
1TEXT
 10
-703.83547626412769
 20
-1731.063594580176
 30
0.0
 40
4.0
  1
コード
 72
     1
 11
-697.03547626412774
 21
-1731.063594580176
 31
0.0
  0
LINE
  5
170DC
  8
1DIM
 10
-714.43547626412726
 20
-1746.563594580176
 30
0.0
 11
-714.43547626412715
 21
-1725.563594580176
 31
0.0
  0
LINE
  5
170DD
  8
1DIM
 10
-679.43547626412737
 20
-1746.563594580176
 30
0.0
 11
-679.43547626412726
 21
-1725.563594580176
 31
0.0
  0
TEXT
  5
170DE
  8
1TEXT
 10
-783.30214293079439
 20
-1731.063594580176
 30
0.0
 40
4.0
  1
表面処理：脚部
 72
     1
 11
-767.03547626412774
 21
-1731.063594580176
 31
0.0
  0
TEXT
  5
170DF
  8
1TEXT
 10
-781.96880959746102
 20
-1737.8988832396999
 30
0.0
 40
4.0
  1
アイアンブラック
 41
0.8
 72
     1
 11
-767.03547626412774
 21
-1737.8988832396999
 31
0.0
  0
LINE
  5
170E0
  8
1DIM
 10
-784.43547626412726
 20
-1746.563594580176
 30
0.0
 11
-784.43547626412715
 21
-1725.563594580176
 31
0.0
  0
TEXT
  5
170E1
  8
1TEXT
 10
-712.23547626412676
 20
-1738.2779515638249
 30
0.0
 40
4.0
  1
KH-633-038
 41
0.8
 72
     1
 11
-697.03547626412683
 21
-1738.2779515638249
 31
0.0
  0
TEXT
  5
170E2
  8
1TEXT
 10
-712.23547626412676
 20
-1745.2779515638249
 30
0.0
 40
4.0
  1
KH-633-039
 41
0.8
 72
     1
 11
-697.03547626412683
 21
-1745.2779515638249
 31
0.0
  0
TEXT
  5
170E3
  8
1TEXT
 10
-779.94214293079426
 20
-1744.8988832396999
 30
0.0
 40
4.0
  1
シェルホワイト
 41
0.8
 72
     1
 11
-767.03547626412774
 21
-1744.8988832396999
 31
0.0
  0
TEXT
  5
170E7
  8
1TEXT
 10
-748.59547626412757
 20
-1731.063594580176
 30
0.0
 40
4.0
  1
表面処理：カバー
 41
0.9
 72
     1
 11
-732.03547626412762
 21
-1731.063594580176
 31
0.0
  0
LINE
  5
170E8
  8
1DIM
 10
-749.43547626412737
 20
-1746.563594580176
 30
0.0
 11
-749.43547626412715
 21
-1725.563594580176
 31
0.0
  0
TEXT
  5
170E9
  8
1TEXT
 10
-744.94214293079426
 20
-1744.8988832396999
 30
0.0
 40
4.0
  1
シェルホワイト
 41
0.8
 72
     1
 11
-732.03547626412762
 21
-1744.8988832396999
 31
0.0
  0
TEXT
  5
170EA
  8
1TEXT
 10
-746.9688095974609
 20
-1737.8988832396999
 30
0.0
 40
4.0
  1
アイアンブラック
 41
0.8
 72
     1
 11
-732.03547626412762
 21
-1737.8988832396999
 31
0.0
  0
LINE
  5
1724E
  8
1PHANTOM
 10
-895.5094502605449
 20
-1816.026773801188
 30
0.0
 11
-941.8766100576629
 21
-1816.026773801188
 31
0.0
  0
LINE
  5
1724F
  8
1PHANTOM
 10
-895.5094502605449
 20
-1781.026773801188
 30
0.0
 11
-941.8766100576629
 21
-1781.026773801188
 31
0.0
  0
LINE
  5
17383
  8
0
 10
-711.31240622594282
 20
-1850.618181517814
 30
0.0
 11
-710.31240622594282
 21
-1855.618181517814
 31
0.0
  0
LINE
  5
17384
  8
1CENTER
 10
-685.98391858144055
 20
-1853.118181517814
 30
0.0
 11
-732.41322456213459
 21
-1853.118181517814
 31
0.0
  0
LINE
  5
17386
  8
0
 10
-693.27565961414996
 20
-1850.801914576778
 30
0.0
 11
-693.42565961414994
 21
-1851.551914576778
 31
0.0
  0
LINE
  5
17387
  8
0
 10
-693.27565961414996
 20
-1850.801914576778
 30
0.0
 11
-692.39627871793175
 21
-1855.1988190578691
 31
0.0
  0
LINE
  5
17388
  8
0
 10
-688.44973488855396
 20
-1853.4315382047571
 30
0.0
 11
-688.59973488855405
 21
-1854.1815382047571
 31
0.0
  0
LINE
  5
17389
  8
0
 10
-689.04916230604624
 20
-1851.9344011172971
 30
0.0
 11
-689.19916230604622
 21
-1852.6844011172971
 31
0.0
  0
LINE
  5
1738A
  8
0
 10
-689.04916230604624
 20
-1851.9344011172971
 30
0.0
 11
-688.59973488855394
 21
-1854.1815382047571
 31
0.0
  0
LINE
  5
1738B
  8
0
 10
-692.24627871793166
 20
-1854.4488190578691
 30
0.0
 11
-692.39627871793175
 21
-1855.1988190578691
 31
0.0
  0
LINE
  5
1738C
  8
0
 10
-690.34800680324292
 20
-1853.9401786313131
 30
0.0
 11
-690.4980068032429
 21
-1854.6901786313131
 31
0.0
  0
LINE
  5
1738D
  8
0
 10
-691.1624109600981
 20
-1851.3681578470371
 30
0.0
 11
-691.31241096009796
 21
-1852.1181578470371
 31
0.0
  0
LINE
  5
1738E
  8
0
 10
-691.1624109600981
 20
-1851.3681578470371
 30
0.0
 11
-690.4980068032429
 21
-1854.6901786313131
 31
0.0
  0
LINE
  5
1738F
  8
0
 10
-702.16240622594273
 20
-1854.868181517814
 30
0.0
 11
-702.31240622594271
 21
-1855.618181517814
 31
0.0
  0
LINE
  5
17390
  8
0
 10
-699.31240622594282
 20
-1850.618181517814
 30
0.0
 11
-699.46240622594269
 21
-1851.368181517814
 31
0.0
  0
LINE
  5
17391
  8
0
 10
-701.31240622594282
 20
-1850.618181517814
 30
0.0
 11
-701.4624062259428
 21
-1851.368181517814
 31
0.0
  0
LINE
  5
17392
  8
0
 10
-701.31240622594282
 20
-1850.618181517814
 30
0.0
 11
-700.31240622594282
 21
-1855.618181517814
 31
0.0
  0
LINE
  5
17393
  8
0
 10
-697.31240622594282
 20
-1850.618181517814
 30
0.0
 11
-697.4624062259428
 21
-1851.368181517814
 31
0.0
  0
LINE
  5
17394
  8
0
 10
-695.31240622594282
 20
-1850.618181517814
 30
0.0
 11
-695.46240622594269
 21
-1851.368181517814
 31
0.0
  0
LINE
  5
17395
  8
0
 10
-695.31240622594282
 20
-1850.618181517814
 30
0.0
 11
-694.31240622594282
 21
-1855.618181517814
 31
0.0
  0
LINE
  5
17396
  8
0
 10
-697.31240622594282
 20
-1850.618181517814
 30
0.0
 11
-696.31240622594282
 21
-1855.618181517814
 31
0.0
  0
LINE
  5
17397
  8
0
 10
-699.31240622594282
 20
-1850.618181517814
 30
0.0
 11
-698.31240622594271
 21
-1855.618181517814
 31
0.0
  0
LINE
  5
17398
  8
0
 10
-694.16240622594273
 20
-1854.868181517814
 30
0.0
 11
-694.31240622594282
 21
-1855.618181517814
 31
0.0
  0
LINE
  5
17399
  8
0
 10
-696.16240622594273
 20
-1854.868181517814
 30
0.0
 11
-696.31240622594282
 21
-1855.618181517814
 31
0.0
  0
LINE
  5
1739A
  8
0
 10
-700.16240622594273
 20
-1854.868181517814
 30
0.0
 11
-700.31240622594282
 21
-1855.618181517814
 31
0.0
  0
LINE
  5
1739B
  8
0
 10
-698.16240622594273
 20
-1854.868181517814
 30
0.0
 11
-698.31240622594271
 21
-1855.618181517814
 31
0.0
  0
LINE
  5
1739C
  8
0
 10
-705.31240622594282
 20
-1850.618181517814
 30
0.0
 11
-705.4624062259428
 21
-1851.368181517814
 31
0.0
  0
LINE
  5
1739D
  8
0
 10
-703.31240622594282
 20
-1850.618181517814
 30
0.0
 11
-703.46240622594269
 21
-1851.368181517814
 31
0.0
  0
LINE
  5
1739E
  8
0
 10
-709.31240622594282
 20
-1850.618181517814
 30
0.0
 11
-709.4624062259428
 21
-1851.368181517814
 31
0.0
  0
LINE
  5
1739F
  8
0
 10
-707.31240622594282
 20
-1850.618181517814
 30
0.0
 11
-707.46240622594269
 21
-1851.368181517814
 31
0.0
  0
LINE
  5
173A0
  8
0
 10
-703.31240622594282
 20
-1850.618181517814
 30
0.0
 11
-702.31240622594271
 21
-1855.618181517814
 31
0.0
  0
LINE
  5
173A1
  8
0
 10
-705.31240622594282
 20
-1850.618181517814
 30
0.0
 11
-704.31240622594282
 21
-1855.618181517814
 31
0.0
  0
LINE
  5
173A2
  8
0
 10
-707.31240622594282
 20
-1850.618181517814
 30
0.0
 11
-706.31240622594282
 21
-1855.618181517814
 31
0.0
  0
LINE
  5
173A3
  8
0
 10
-709.31240622594282
 20
-1850.618181517814
 30
0.0
 11
-708.31240622594282
 21
-1855.618181517814
 31
0.0
  0
LINE
  5
173A4
  8
0
 10
-706.16240622594273
 20
-1854.868181517814
 30
0.0
 11
-706.31240622594282
 21
-1855.618181517814
 31
0.0
  0
LINE
  5
173A5
  8
0
 10
-704.16240622594273
 20
-1854.868181517814
 30
0.0
 11
-704.31240622594282
 21
-1855.618181517814
 31
0.0
  0
LINE
  5
173A6
  8
0
 10
-710.16240622594273
 20
-1854.868181517814
 30
0.0
 11
-710.31240622594282
 21
-1855.618181517814
 31
0.0
  0
LINE
  5
173A7
  8
0
 10
-708.16240622594273
 20
-1854.868181517814
 30
0.0
 11
-708.31240622594282
 21
-1855.618181517814
 31
0.0
  0
LINE
  5
173A8
  8
0
 10
-727.31240622594271
 20
-1850.618181517814
 30
0.0
 11
-726.31240622594282
 21
-1855.618181517814
 31
0.0
  0
LINE
  5
173A9
  8
0
 10
-719.31240622594271
 20
-1850.618181517814
 30
0.0
 11
-718.31240622594282
 21
-1855.618181517814
 31
0.0
  0
LINE
  5
173AA
  8
0
 10
-711.31240622594282
 20
-1850.618181517814
 30
0.0
 11
-711.46240622594269
 21
-1851.368181517814
 31
0.0
  0
LINE
  5
173AB
  8
0
 10
-713.31240622594271
 20
-1850.618181517814
 30
0.0
 11
-713.4624062259428
 21
-1851.368181517814
 31
0.0
  0
LINE
  5
173AC
  8
0
 10
-715.3124062259426
 20
-1850.618181517814
 30
0.0
 11
-715.46240622594269
 21
-1851.368181517814
 31
0.0
  0
LINE
  5
173AD
  8
0
 10
-717.31240622594271
 20
-1850.618181517814
 30
0.0
 11
-717.4624062259428
 21
-1851.368181517814
 31
0.0
  0
LINE
  5
173AE
  8
0
 10
-713.31240622594271
 20
-1850.618181517814
 30
0.0
 11
-712.31240622594282
 21
-1855.618181517814
 31
0.0
  0
LINE
  5
173AF
  8
0
 10
-715.3124062259426
 20
-1850.618181517814
 30
0.0
 11
-714.31240622594282
 21
-1855.618181517814
 31
0.0
  0
LINE
  5
173B0
  8
0
 10
-717.31240622594271
 20
-1850.618181517814
 30
0.0
 11
-716.31240622594282
 21
-1855.618181517814
 31
0.0
  0
LINE
  5
173B1
  8
0
 10
-712.16240622594273
 20
-1854.868181517814
 30
0.0
 11
-712.31240622594282
 21
-1855.618181517814
 31
0.0
  0
LINE
  5
173B2
  8
0
 10
-714.16240622594273
 20
-1854.868181517814
 30
0.0
 11
-714.31240622594282
 21
-1855.618181517814
 31
0.0
  0
LINE
  5
173B3
  8
0
 10
-716.16240622594273
 20
-1854.868181517814
 30
0.0
 11
-716.31240622594282
 21
-1855.618181517814
 31
0.0
  0
LINE
  5
173B4
  8
0
 10
-718.16240622594273
 20
-1854.868181517814
 30
0.0
 11
-718.31240622594282
 21
-1855.618181517814
 31
0.0
  0
LINE
  5
173B5
  8
0
 10
-723.31240622594271
 20
-1850.618181517814
 30
0.0
 11
-723.4624062259428
 21
-1851.368181517814
 31
0.0
  0
LINE
  5
173B6
  8
0
 10
-721.31240622594271
 20
-1850.618181517814
 30
0.0
 11
-721.4624062259428
 21
-1851.368181517814
 31
0.0
  0
LINE
  5
173B7
  8
0
 10
-719.31240622594271
 20
-1850.618181517814
 30
0.0
 11
-719.46240622594269
 21
-1851.368181517814
 31
0.0
  0
LINE
  5
173B8
  8
0
 10
-725.31240622594271
 20
-1850.618181517814
 30
0.0
 11
-725.4624062259428
 21
-1851.368181517814
 31
0.0
  0
LINE
  5
173B9
  8
0
 10
-721.31240622594271
 20
-1850.618181517814
 30
0.0
 11
-720.31240622594282
 21
-1855.618181517814
 31
0.0
  0
LINE
  5
173BA
  8
0
 10
-723.31240622594271
 20
-1850.618181517814
 30
0.0
 11
-722.31240622594282
 21
-1855.618181517814
 31
0.0
  0
LINE
  5
173BB
  8
0
 10
-725.31240622594271
 20
-1850.618181517814
 30
0.0
 11
-724.31240622594282
 21
-1855.618181517814
 31
0.0
  0
LINE
  5
173BC
  8
0
 10
-722.16240622594273
 20
-1854.868181517814
 30
0.0
 11
-722.31240622594282
 21
-1855.618181517814
 31
0.0
  0
LINE
  5
173BD
  8
0
 10
-720.16240622594273
 20
-1854.868181517814
 30
0.0
 11
-720.31240622594282
 21
-1855.618181517814
 31
0.0
  0
LINE
  5
173BE
  8
0
 10
-724.16240622594273
 20
-1854.868181517814
 30
0.0
 11
-724.31240622594282
 21
-1855.618181517814
 31
0.0
  0
LINE
  5
173BF
  8
0
 10
-726.16240622594273
 20
-1854.868181517814
 30
0.0
 11
-726.31240622594282
 21
-1855.618181517814
 31
0.0
  0
LINE
  5
173C0
  8
0
 10
-727.31240622594271
 20
-1850.618181517814
 30
0.0
 11
-727.4624062259428
 21
-1851.368181517814
 31
0.0
  0
LINE
  5
173C1
  8
0
 10
-727.43027181198863
 20
-1854.868181517814
 30
0.0
 11
-727.43027181198863
 21
-1851.368181517814
 31
0.0
  0
LINE
  5
173C4
  8
1DIM
 10
-941.8766100576629
 20
-1816.026773801188
 30
0.0
 11
-949.49543649460441
 21
-1816.026773801188
 31
0.0
  0
LINE
  5
173C5
  8
1DIM
 10
-941.8766100576629
 20
-1781.026773801188
 30
0.0
 11
-949.49543649460441
 21
-1781.026773801188
 31
0.0
  0
LINE
  5
173C6
  8
1DIM
 10
-948.49543649460452
 20
-1814.026773801188
 30
0.0
 11
-948.49543649460452
 21
-1783.026773801188
 31
0.0
  0
LINE
  5
173CA
  8
1DIM
 10
-798.68026760343241
 20
-1863.6181813849071
 30
0.0
 11
-798.68026760343241
 21
-1801.5955954329399
 31
0.0
  0
LINE
  5
173CB
  8
1DIM
 10
-725.43027181198863
 20
-1823.6181813849071
 30
0.0
 11
-725.43027181198863
 21
-1801.5955954329399
 31
0.0
  0
LINE
  5
173CC
  8
1DIM
 10
-796.68026760343241
 20
-1802.5955954329399
 30
0.0
 11
-727.43027181198863
 21
-1802.5955954329399
 31
0.0
  0
LINE
  5
173D0
  8
1DIM
 10
-777.93027181199079
 20
-1840.543181384907
 30
0.0
 11
-777.93027181199079
 21
-1812.9353532671009
 31
0.0
  0
LINE
  5
173D1
  8
1DIM
 10
-725.43027181198863
 20
-1823.6181813849071
 30
0.0
 11
-725.43027181198863
 21
-1812.9353532671009
 31
0.0
  0
LINE
  5
173D2
  8
1DIM
 10
-775.93027181199091
 20
-1813.9353532671009
 30
0.0
 11
-727.43027181198863
 21
-1813.9353532671009
 31
0.0
  0
LINE
  5
173D6
  8
1DIM
 10
-725.43027181198863
 20
-1884.5201053064559
 30
0.0
 11
-663.78601402521213
 21
-1884.5201053064559
 31
0.0
  0
LINE
  5
173D7
  8
1DIM
 10
-725.43027181198806
 20
-1842.716257729162
 30
0.0
 11
-663.78601402521213
 21
-1842.716257729162
 31
0.0
  0
LINE
  5
173D8
  8
1DIM
 10
-664.78601402521213
 20
-1882.5201053064559
 30
0.0
 11
-664.78601402521213
 21
-1844.716257729162
 31
0.0
  0
LINE
  5
173DC
  8
1DIM
 10
-685.98391858144055
 20
-1853.118181517814
 30
0.0
 11
-674.39843594345643
 21
-1853.118181517814
 31
0.0
  0
LINE
  5
173DD
  8
1DIM
 10
-725.43027181198806
 20
-1842.716257729162
 30
0.0
 11
-674.39843594345643
 21
-1842.716257729162
 31
0.0
  0
LINE
  5
173DE
  8
1DIM
 10
-675.39843594345643
 20
-1851.118181517814
 30
0.0
 11
-675.39843594345643
 21
-1844.716257729162
 31
0.0
  0
LINE
  5
173DF
  8
1DIM
 10
-675.39843594345643
 20
-1842.716257729162
 30
0.0
 11
-675.39843594345643
 21
-1828.9829243958291
 31
0.0
  0
LINE
  5
173E3
  8
1DIM
 10
-685.98391858144055
 20
-1874.118181517814
 30
0.0
 11
-674.39843594345643
 21
-1874.118181517814
 31
0.0
  0
LINE
  5
173E4
  8
1DIM
 10
-685.98391858144055
 20
-1853.118181517814
 30
0.0
 11
-674.39843594345643
 21
-1853.118181517814
 31
0.0
  0
LINE
  5
173E5
  8
1DIM
 10
-675.39843594345643
 20
-1872.118181517814
 30
0.0
 11
-675.39843594345643
 21
-1855.118181517814
 31
0.0
  0
LINE
  5
173E9
  8
1CENTER
 10
-917.14470671411709
 20
-1798.526773801188
 30
0.0
 11
-888.39420975708208
 21
-1798.526773801188
 31
0.0
  0
LINE
  5
173EB
  8
0
 10
-905.31807402901677
 20
-1800.52672726529
 30
0.0
 11
-906.11806472183923
 21
-1796.52672726529
 31
0.0
  0
LINE
  5
173EC
  8
0
 10
-906.11806472183923
 20
-1796.52672726529
 30
0.0
 11
-906.21806588523668
 21
-1797.02672726529
 31
0.0
  0
LINE
  5
173ED
  8
0
 10
-911.60530346305654
 20
-1799.6058126680809
 30
0.0
 11
-911.71807297540659
 21
-1800.073911123231
 31
0.0
  0
LINE
  5
173EE
  8
0
 10
-914.11806735585333
 20
-1797.6587625263071
 30
0.0
 11
-914.42983721210544
 21
-1798.2470391013501
 31
0.0
  0
LINE
  5
173EF
  8
0
 10
-913.16663612536195
 20
-1799.1639257745519
 30
0.0
 11
-913.31807192180224
 21
-1799.6210976151831
 31
0.0
  0
LINE
  5
173F0
  8
0
 10
-912.51806630224758
 20
-1797.205948421901
 30
0.0
 11
-912.70083044487569
 21
-1797.7576978857039
 31
0.0
  0
LINE
  5
173F1
  8
0
 10
-913.31807192180224
 20
-1799.6210976151831
 30
0.0
 11
-914.11806735585333
 21
-1797.6587625263071
 31
0.0
  0
LINE
  5
173F2
  8
0
 10
-911.71807297540659
 20
-1800.073911123231
 30
0.0
 11
-912.51806630224758
 21
-1797.205948421901
 31
0.0
  0
LINE
  5
173F3
  8
0
 10
-906.91807402901691
 20
-1800.52672726529
 30
0.0
 11
-907.71806472183937
 21
-1796.52672726529
 31
0.0
  0
LINE
  5
173F4
  8
0
 10
-908.51807402901682
 20
-1800.52672726529
 30
0.0
 11
-909.31806472183939
 21
-1796.52672726529
 31
0.0
  0
LINE
  5
173F5
  8
0
 10
-908.41807286561959
 20
-1800.02672726529
 30
0.0
 11
-908.51807402901682
 21
-1800.52672726529
 31
0.0
  0
LINE
  5
173F6
  8
0
 10
-909.31806472183939
 20
-1796.52672726529
 30
0.0
 11
-909.41806588523639
 21
-1797.02672726529
 31
0.0
  0
LINE
  5
173F7
  8
0
 10
-907.71806472183937
 20
-1796.52672726529
 30
0.0
 11
-907.81806588523636
 21
-1797.02672726529
 31
0.0
  0
LINE
  5
173F8
  8
0
 10
-910.91806524864205
 20
-1796.753134317494
 30
0.0
 11
-911.04733594627191
 21
-1797.289728052765
 31
0.0
  0
LINE
  5
173F9
  8
0
 10
-910.11807402901684
 20
-1800.52672726529
 30
0.0
 11
-910.91806524864205
 21
-1796.753134317494
 31
0.0
  0
LINE
  5
173FA
  8
0
 10
-910.01807286561962
 20
-1800.02672726529
 30
0.0
 11
-910.11807402901684
 21
-1800.52672726529
 31
0.0
  0
LINE
  5
173FB
  8
0
 10
-906.81807286561957
 20
-1800.02672726529
 30
0.0
 11
-906.91807402901691
 21
-1800.52672726529
 31
0.0
  0
LINE
  5
173FC
  8
0
 10
-894.11807402901229
 20
-1800.52672726529
 30
0.0
 11
-894.91806472183066
 21
-1796.52672726529
 31
0.0
  0
LINE
  5
173FD
  8
0
 10
-902.11807402901684
 20
-1800.52672726529
 30
0.0
 11
-902.91806472183919
 21
-1796.52672726529
 31
0.0
  0
LINE
  5
173FE
  8
0
 10
-903.71807402901675
 20
-1800.52672726529
 30
0.0
 11
-904.51806472183944
 21
-1796.52672726529
 31
0.0
  0
LINE
  5
173FF
  8
0
 10
-905.21807286561955
 20
-1800.02672726529
 30
0.0
 11
-905.31807402901677
 21
-1800.52672726529
 31
0.0
  0
LINE
  5
17400
  8
0
 10
-903.61807286561975
 20
-1800.02672726529
 30
0.0
 11
-903.71807402901675
 21
-1800.52672726529
 31
0.0
  0
LINE
  5
17401
  8
0
 10
-904.51806472183944
 20
-1796.52672726529
 30
0.0
 11
-904.61806588523655
 21
-1797.02672726529
 31
0.0
  0
LINE
  5
17402
  8
0
 10
-902.91806472183919
 20
-1796.52672726529
 30
0.0
 11
-903.01806588523664
 21
-1797.02672726529
 31
0.0
  0
LINE
  5
17403
  8
0
 10
-895.71807402901675
 20
-1800.52672726529
 30
0.0
 11
-896.51806472183512
 21
-1796.52672726529
 31
0.0
  0
LINE
  5
17404
  8
0
 10
-898.91807402901691
 20
-1800.52672726529
 30
0.0
 11
-899.71806472183505
 21
-1796.52672726529
 31
0.0
  0
LINE
  5
17405
  8
0
 10
-900.51807402901682
 20
-1800.52672726529
 30
0.0
 11
-901.31806472183939
 21
-1796.52672726529
 31
0.0
  0
LINE
  5
17406
  8
0
 10
-902.01807286561962
 20
-1800.02672726529
 30
0.0
 11
-902.11807402901684
 21
-1800.52672726529
 31
0.0
  0
LINE
  5
17407
  8
0
 10
-900.41807286561914
 20
-1800.02672726529
 30
0.0
 11
-900.51807402901682
 21
-1800.52672726529
 31
0.0
  0
LINE
  5
17408
  8
0
 10
-899.71806472183505
 20
-1796.52672726529
 30
0.0
 11
-899.81806588523261
 21
-1797.02672726529
 31
0.0
  0
LINE
  5
17409
  8
0
 10
-901.31806472183939
 20
-1796.52672726529
 30
0.0
 11
-901.41806588523662
 21
-1797.02672726529
 31
0.0
  0
LINE
  5
1740A
  8
0
 10
-896.51806472183512
 20
-1796.52672726529
 30
0.0
 11
-896.61806588523257
 21
-1797.02672726529
 31
0.0
  0
LINE
  5
1740B
  8
0
 10
-897.21807286561886
 20
-1800.02672726529
 30
0.0
 11
-897.31807402901666
 21
-1800.52672726529
 31
0.0
  0
LINE
  5
1740C
  8
0
 10
-898.11806472183503
 20
-1796.52672726529
 30
0.0
 11
-898.21806588523259
 21
-1797.02672726529
 31
0.0
  0
LINE
  5
1740D
  8
0
 10
-897.31807402901666
 20
-1800.52672726529
 30
0.0
 11
-898.11806472183503
 21
-1796.52672726529
 31
0.0
  0
LINE
  5
1740E
  8
0
 10
-898.81807286561911
 20
-1800.02672726529
 30
0.0
 11
-898.91807402901691
 21
-1800.52672726529
 31
0.0
  0
LINE
  5
1740F
  8
0
 10
-894.91806472183066
 20
-1796.52672726529
 30
0.0
 11
-895.01806588522845
 21
-1797.02672726529
 31
0.0
  0
LINE
  5
17410
  8
0
 10
-895.61807286561907
 20
-1800.02672726529
 30
0.0
 11
-895.71807402901675
 21
-1800.52672726529
 31
0.0
  0
LINE
  5
17411
  8
0
 10
-890.71807868282326
 20
-1802.526773801188
 30
0.0
 11
-890.71806006846407
 21
-1794.526773801188
 31
0.0
  0
LINE
  5
17412
  8
0
 10
-893.21806588522827
 20
-1797.02672726529
 30
0.0
 11
-893.31806472183052
 21
-1796.52672726529
 31
0.0
  0
LINE
  5
17413
  8
0
 10
-893.31806472183052
 20
-1796.52672726529
 30
0.0
 11
-893.4180658852282
 21
-1797.02672726529
 31
0.0
  0
LINE
  5
17414
  8
0
 10
-894.01807286561484
 20
-1800.02672726529
 30
0.0
 11
-894.11807402901229
 21
-1800.52672726529
 31
0.0
  0
TEXT
  5
17415
  8
1DIM
 10
-850.01800300967545
 20
-1900.4235901906991
 30
0.0
 40
3.5
  1
材質：亜鉛ダイキャスト
  0
TEXT
  5
17416
  8
1DIM
 10
-842.31800300967552
 20
-1906.256923524033
 30
0.0
 40
3.5
  1
仕上げ：各種仕上げ
  0
SOLID
  5
17417
  8
1DIM
 10
-786.73429862411808
 20
-1878.3087444164901
 30
0.0
 11
-785.45133634300885
 21
-1876.738674705821
 31
0.0
 12
-786.15573751357067
 22
-1878.6399716584349
 32
0.0
 13
-786.15573751357067
 23
-1878.6399716584349
 33
0.0
  0
TEXT
  5
17419
  8
1DIM
 10
-792.39968813506721
 20
-1907.067441705874
 30
0.0
 40
3.5
  1
材質：亜鉛ダイキャスト
  0
TEXT
  5
1741A
  8
1DIM
 10
-784.69968813506705
 20
-1912.900775039207
 30
0.0
 40
3.5
  1
仕上げ：各種仕上げ
  0
SOLID
  5
1741B
  8
1DIM
 10
-729.11598374950972
 20
-1884.952595931665
 30
0.0
 11
-727.83302146840049
 21
-1883.382526220995
 31
0.0
 12
-728.53742263896231
 22
-1885.28382317361
 32
0.0
 13
-728.53742263896231
 23
-1885.28382317361
 33
0.0
  0
TEXT
  5
1741D
  8
1DIM
 10
-701.74052531623477
 20
-1793.007199751436
 30
0.0
 40
3.5
  1
PB
  0
SOLID
  5
1741E
  8
1DIM
 10
-720.3866965891342
 20
-1823.3834422382979
 30
0.0
 11
-721.64279905354636
 21
-1824.9750821818809
 31
0.0
 12
-720.97080156891298
 22
-1823.0620922467899
 32
0.0
 13
-720.97080156891298
 23
-1823.0620922467899
 33
0.0
  0
TEXT
  5
17420
  8
1DIM
 10
-699.00246592259839
 20
-1801.3254258315069
 30
0.0
 40
3.5
  1
合板12mm以上
  0
TEXT
  5
17421
  8
1DIM
 10
-701.1024659225983
 20
-1807.1587591648399
 30
0.0
 40
3.5
  1
（15mm以上推奨）
  0
SOLID
  5
17422
  8
1DIM
 10
-708.8095954001285
 20
-1823.1213898662049
 30
0.0
 11
-709.98892429387979
 21
-1824.770721388815
 31
0.0
 12
-709.40826123955605
 22
-1822.828057874859
 32
0.0
 13
-709.40826123955605
 23
-1822.828057874859
 33
0.0
  0
LINE
  5
17424
  8
0
 10
-711.31240622594282
 20
-1871.618181517814
 30
0.0
 11
-710.31240622594282
 21
-1876.618181517814
 31
0.0
  0
LINE
  5
17425
  8
1CENTER
 10
-685.98391858144055
 20
-1874.118181517814
 30
0.0
 11
-732.41322456213459
 21
-1874.118181517814
 31
0.0
  0
LINE
  5
17427
  8
0
 10
-693.27565961414996
 20
-1871.801914576778
 30
0.0
 11
-693.42565961414994
 21
-1872.551914576778
 31
0.0
  0
LINE
  5
17428
  8
0
 10
-693.27565961414996
 20
-1871.801914576778
 30
0.0
 11
-692.39627871793175
 21
-1876.1988190578691
 31
0.0
  0
LINE
  5
17429
  8
0
 10
-688.44973488855396
 20
-1874.431538204758
 30
0.0
 11
-688.59973488855405
 21
-1875.181538204758
 31
0.0
  0
LINE
  5
1742A
  8
0
 10
-689.04916230604624
 20
-1872.9344011172971
 30
0.0
 11
-689.19916230604622
 21
-1873.6844011172971
 31
0.0
  0
LINE
  5
1742B
  8
0
 10
-689.04916230604624
 20
-1872.9344011172971
 30
0.0
 11
-688.59973488855394
 21
-1875.181538204758
 31
0.0
  0
LINE
  5
1742C
  8
0
 10
-692.24627871793166
 20
-1875.4488190578691
 30
0.0
 11
-692.39627871793175
 21
-1876.1988190578691
 31
0.0
  0
LINE
  5
1742D
  8
0
 10
-690.34800680324292
 20
-1874.9401786313131
 30
0.0
 11
-690.4980068032429
 21
-1875.6901786313131
 31
0.0
  0
LINE
  5
1742E
  8
0
 10
-691.1624109600981
 20
-1872.368157847038
 30
0.0
 11
-691.31241096009796
 21
-1873.118157847038
 31
0.0
  0
LINE
  5
1742F
  8
0
 10
-691.1624109600981
 20
-1872.368157847038
 30
0.0
 11
-690.4980068032429
 21
-1875.6901786313131
 31
0.0
  0
LINE
  5
17430
  8
0
 10
-702.16240622594273
 20
-1875.868181517814
 30
0.0
 11
-702.31240622594271
 21
-1876.618181517814
 31
0.0
  0
LINE
  5
17431
  8
0
 10
-699.31240622594282
 20
-1871.618181517814
 30
0.0
 11
-699.46240622594269
 21
-1872.368181517814
 31
0.0
  0
LINE
  5
17432
  8
0
 10
-701.31240622594282
 20
-1871.618181517814
 30
0.0
 11
-701.4624062259428
 21
-1872.368181517814
 31
0.0
  0
LINE
  5
17433
  8
0
 10
-701.31240622594282
 20
-1871.618181517814
 30
0.0
 11
-700.31240622594282
 21
-1876.618181517814
 31
0.0
  0
LINE
  5
17434
  8
0
 10
-697.31240622594282
 20
-1871.618181517814
 30
0.0
 11
-697.4624062259428
 21
-1872.368181517814
 31
0.0
  0
LINE
  5
17435
  8
0
 10
-695.31240622594282
 20
-1871.618181517814
 30
0.0
 11
-695.46240622594269
 21
-1872.368181517814
 31
0.0
  0
LINE
  5
17436
  8
0
 10
-695.31240622594282
 20
-1871.618181517814
 30
0.0
 11
-694.31240622594282
 21
-1876.618181517814
 31
0.0
  0
LINE
  5
17437
  8
0
 10
-697.31240622594282
 20
-1871.618181517814
 30
0.0
 11
-696.31240622594282
 21
-1876.618181517814
 31
0.0
  0
LINE
  5
17438
  8
0
 10
-699.31240622594282
 20
-1871.618181517814
 30
0.0
 11
-698.31240622594271
 21
-1876.618181517814
 31
0.0
  0
LINE
  5
17439
  8
0
 10
-694.16240622594273
 20
-1875.868181517814
 30
0.0
 11
-694.31240622594282
 21
-1876.618181517814
 31
0.0
  0
LINE
  5
1743A
  8
0
 10
-696.16240622594273
 20
-1875.868181517814
 30
0.0
 11
-696.31240622594282
 21
-1876.618181517814
 31
0.0
  0
LINE
  5
1743B
  8
0
 10
-700.16240622594273
 20
-1875.868181517814
 30
0.0
 11
-700.31240622594282
 21
-1876.618181517814
 31
0.0
  0
LINE
  5
1743C
  8
0
 10
-698.16240622594273
 20
-1875.868181517814
 30
0.0
 11
-698.31240622594271
 21
-1876.618181517814
 31
0.0
  0
LINE
  5
1743D
  8
0
 10
-705.31240622594282
 20
-1871.618181517814
 30
0.0
 11
-705.4624062259428
 21
-1872.368181517814
 31
0.0
  0
LINE
  5
1743E
  8
0
 10
-703.31240622594282
 20
-1871.618181517814
 30
0.0
 11
-703.46240622594269
 21
-1872.368181517814
 31
0.0
  0
LINE
  5
1743F
  8
0
 10
-709.31240622594282
 20
-1871.618181517814
 30
0.0
 11
-709.4624062259428
 21
-1872.368181517814
 31
0.0
  0
LINE
  5
17440
  8
0
 10
-707.31240622594282
 20
-1871.618181517814
 30
0.0
 11
-707.46240622594269
 21
-1872.368181517814
 31
0.0
  0
LINE
  5
17441
  8
0
 10
-703.31240622594282
 20
-1871.618181517814
 30
0.0
 11
-702.31240622594271
 21
-1876.618181517814
 31
0.0
  0
LINE
  5
17442
  8
0
 10
-705.31240622594282
 20
-1871.618181517814
 30
0.0
 11
-704.31240622594282
 21
-1876.618181517814
 31
0.0
  0
LINE
  5
17443
  8
0
 10
-707.31240622594282
 20
-1871.618181517814
 30
0.0
 11
-706.31240622594282
 21
-1876.618181517814
 31
0.0
  0
LINE
  5
17444
  8
0
 10
-709.31240622594282
 20
-1871.618181517814
 30
0.0
 11
-708.31240622594282
 21
-1876.618181517814
 31
0.0
  0
LINE
  5
17445
  8
0
 10
-706.16240622594273
 20
-1875.868181517814
 30
0.0
 11
-706.31240622594282
 21
-1876.618181517814
 31
0.0
  0
LINE
  5
17446
  8
0
 10
-704.16240622594273
 20
-1875.868181517814
 30
0.0
 11
-704.31240622594282
 21
-1876.618181517814
 31
0.0
  0
LINE
  5
17447
  8
0
 10
-710.16240622594273
 20
-1875.868181517814
 30
0.0
 11
-710.31240622594282
 21
-1876.618181517814
 31
0.0
  0
LINE
  5
17448
  8
0
 10
-708.16240622594273
 20
-1875.868181517814
 30
0.0
 11
-708.31240622594282
 21
-1876.618181517814
 31
0.0
  0
LINE
  5
17449
  8
0
 10
-727.31240622594271
 20
-1871.618181517814
 30
0.0
 11
-726.31240622594282
 21
-1876.618181517814
 31
0.0
  0
LINE
  5
1744A
  8
0
 10
-719.31240622594271
 20
-1871.618181517814
 30
0.0
 11
-718.31240622594282
 21
-1876.618181517814
 31
0.0
  0
LINE
  5
1744B
  8
0
 10
-711.31240622594282
 20
-1871.618181517814
 30
0.0
 11
-711.46240622594269
 21
-1872.368181517814
 31
0.0
  0
LINE
  5
1744C
  8
0
 10
-713.31240622594271
 20
-1871.618181517814
 30
0.0
 11
-713.4624062259428
 21
-1872.368181517814
 31
0.0
  0
LINE
  5
1744D
  8
0
 10
-715.3124062259426
 20
-1871.618181517814
 30
0.0
 11
-715.46240622594269
 21
-1872.368181517814
 31
0.0
  0
LINE
  5
1744E
  8
0
 10
-717.31240622594271
 20
-1871.618181517814
 30
0.0
 11
-717.4624062259428
 21
-1872.368181517814
 31
0.0
  0
LINE
  5
1744F
  8
0
 10
-713.31240622594271
 20
-1871.618181517814
 30
0.0
 11
-712.31240622594282
 21
-1876.618181517814
 31
0.0
  0
LINE
  5
17450
  8
0
 10
-715.3124062259426
 20
-1871.618181517814
 30
0.0
 11
-714.31240622594282
 21
-1876.618181517814
 31
0.0
  0
LINE
  5
17451
  8
0
 10
-717.31240622594271
 20
-1871.618181517814
 30
0.0
 11
-716.31240622594282
 21
-1876.618181517814
 31
0.0
  0
LINE
  5
17452
  8
0
 10
-712.16240622594273
 20
-1875.868181517814
 30
0.0
 11
-712.31240622594282
 21
-1876.618181517814
 31
0.0
  0
LINE
  5
17453
  8
0
 10
-714.16240622594273
 20
-1875.868181517814
 30
0.0
 11
-714.31240622594282
 21
-1876.618181517814
 31
0.0
  0
LINE
  5
17454
  8
0
 10
-716.16240622594273
 20
-1875.868181517814
 30
0.0
 11
-716.31240622594282
 21
-1876.618181517814
 31
0.0
  0
LINE
  5
17455
  8
0
 10
-718.16240622594273
 20
-1875.868181517814
 30
0.0
 11
-718.31240622594282
 21
-1876.618181517814
 31
0.0
  0
LINE
  5
17456
  8
0
 10
-723.31240622594271
 20
-1871.618181517814
 30
0.0
 11
-723.4624062259428
 21
-1872.368181517814
 31
0.0
  0
LINE
  5
17457
  8
0
 10
-721.31240622594271
 20
-1871.618181517814
 30
0.0
 11
-721.4624062259428
 21
-1872.368181517814
 31
0.0
  0
LINE
  5
17458
  8
0
 10
-719.31240622594271
 20
-1871.618181517814
 30
0.0
 11
-719.46240622594269
 21
-1872.368181517814
 31
0.0
  0
LINE
  5
17459
  8
0
 10
-725.31240622594271
 20
-1871.618181517814
 30
0.0
 11
-725.4624062259428
 21
-1872.368181517814
 31
0.0
  0
LINE
  5
1745A
  8
0
 10
-721.31240622594271
 20
-1871.618181517814
 30
0.0
 11
-720.31240622594282
 21
-1876.618181517814
 31
0.0
  0
LINE
  5
1745B
  8
0
 10
-723.31240622594271
 20
-1871.618181517814
 30
0.0
 11
-722.31240622594282
 21
-1876.618181517814
 31
0.0
  0
LINE
  5
1745C
  8
0
 10
-725.31240622594271
 20
-1871.618181517814
 30
0.0
 11
-724.31240622594282
 21
-1876.618181517814
 31
0.0
  0
LINE
  5
1745D
  8
0
 10
-722.16240622594273
 20
-1875.868181517814
 30
0.0
 11
-722.31240622594282
 21
-1876.618181517814
 31
0.0
  0
LINE
  5
1745E
  8
0
 10
-720.16240622594273
 20
-1875.868181517814
 30
0.0
 11
-720.31240622594282
 21
-1876.618181517814
 31
0.0
  0
LINE
  5
1745F
  8
0
 10
-724.16240622594273
 20
-1875.868181517814
 30
0.0
 11
-724.31240622594282
 21
-1876.618181517814
 31
0.0
  0
LINE
  5
17460
  8
0
 10
-726.16240622594273
 20
-1875.868181517814
 30
0.0
 11
-726.31240622594282
 21
-1876.618181517814
 31
0.0
  0
LINE
  5
17461
  8
0
 10
-727.31240622594271
 20
-1871.618181517814
 30
0.0
 11
-727.4624062259428
 21
-1872.368181517814
 31
0.0
  0
LINE
  5
17462
  8
0
 10
-727.43027181198863
 20
-1875.868181517814
 30
0.0
 11
-727.43027181198863
 21
-1872.368181517814
 31
0.0
  0
LINE
  5
17463
  8
0
 10
-851.00945026054592
 20
-1731.908861679243
 30
0.0
 11
-846.00945026054592
 21
-1730.908861679244
 31
0.0
  0
LINE
  5
17464
  8
1CENTER
 10
-848.50945026054592
 20
-1706.580374034741
 30
0.0
 11
-848.50945026054592
 21
-1753.0096800154349
 31
0.0
  0
LINE
  5
17466
  8
0
 10
-850.82571720158171
 20
-1713.8721150674501
 30
0.0
 11
-850.0757172015816
 21
-1714.0221150674499
 31
0.0
  0
LINE
  5
17467
  8
0
 10
-850.82571720158182
 20
-1713.8721150674501
 30
0.0
 11
-846.4288127204909
 21
-1712.9927341712321
 31
0.0
  0
LINE
  5
17468
  8
0
 10
-848.19609357360218
 20
-1709.046190341855
 30
0.0
 11
-847.44609357360218
 21
-1709.1961903418539
 31
0.0
  0
LINE
  5
17469
  8
0
 10
-849.6932306610629
 20
-1709.645617759347
 30
0.0
 11
-848.94323066106301
 21
-1709.7956177593469
 31
0.0
  0
LINE
  5
1746A
  8
0
 10
-849.6932306610629
 20
-1709.645617759347
 30
0.0
 11
-847.44609357360218
 21
-1709.1961903418539
 31
0.0
  0
LINE
  5
1746B
  8
0
 10
-847.1788127204909
 20
-1712.842734171232
 30
0.0
 11
-846.4288127204909
 21
-1712.9927341712321
 31
0.0
  0
LINE
  5
1746C
  8
0
 10
-847.68745314704665
 20
-1710.9444622565429
 30
0.0
 11
-846.93745314704665
 21
-1711.094462256543
 31
0.0
  0
LINE
  5
1746D
  8
0
 10
-850.25947393132242
 20
-1711.758866413398
 30
0.0
 11
-849.5094739313223
 21
-1711.908866413399
 31
0.0
  0
LINE
  5
1746E
  8
0
 10
-850.25947393132242
 20
-1711.758866413398
 30
0.0
 11
-846.93745314704665
 21
-1711.094462256543
 31
0.0
  0
LINE
  5
1746F
  8
0
 10
-846.75945026054592
 20
-1722.758861679243
 30
0.0
 11
-846.00945026054592
 21
-1722.908861679243
 31
0.0
  0
LINE
  5
17470
  8
0
 10
-851.00945026054592
 20
-1719.908861679243
 30
0.0
 11
-850.25945026054592
 21
-1720.0588616792429
 31
0.0
  0
LINE
  5
17471
  8
0
 10
-851.00945026054592
 20
-1721.908861679243
 30
0.0
 11
-850.25945026054592
 21
-1722.0588616792429
 31
0.0
  0
LINE
  5
17472
  8
0
 10
-851.00945026054592
 20
-1721.908861679243
 30
0.0
 11
-846.00945026054592
 21
-1720.908861679243
 31
0.0
  0
LINE
  5
17473
  8
0
 10
-851.00945026054592
 20
-1717.908861679243
 30
0.0
 11
-850.25945026054592
 21
-1718.0588616792429
 31
0.0
  0
LINE
  5
17474
  8
0
 10
-851.00945026054592
 20
-1715.908861679243
 30
0.0
 11
-850.25945026054592
 21
-1716.0588616792429
 31
0.0
  0
LINE
  5
17475
  8
0
 10
-851.00945026054592
 20
-1715.908861679243
 30
0.0
 11
-846.00945026054592
 21
-1714.908861679244
 31
0.0
  0
LINE
  5
17476
  8
0
 10
-851.00945026054592
 20
-1717.908861679243
 30
0.0
 11
-846.00945026054592
 21
-1716.908861679243
 31
0.0
  0
LINE
  5
17477
  8
0
 10
-851.00945026054592
 20
-1719.908861679243
 30
0.0
 11
-846.00945026054592
 21
-1718.908861679243
 31
0.0
  0
LINE
  5
17478
  8
0
 10
-846.75945026054592
 20
-1714.758861679243
 30
0.0
 11
-846.00945026054592
 21
-1714.908861679244
 31
0.0
  0
LINE
  5
17479
  8
0
 10
-846.75945026054592
 20
-1716.758861679243
 30
0.0
 11
-846.00945026054592
 21
-1716.908861679243
 31
0.0
  0
LINE
  5
1747A
  8
0
 10
-846.75945026054592
 20
-1720.758861679243
 30
0.0
 11
-846.00945026054592
 21
-1720.908861679243
 31
0.0
  0
LINE
  5
1747B
  8
0
 10
-846.75945026054592
 20
-1718.758861679243
 30
0.0
 11
-846.00945026054592
 21
-1718.908861679243
 31
0.0
  0
LINE
  5
1747C
  8
0
 10
-851.00945026054592
 20
-1725.908861679243
 30
0.0
 11
-850.25945026054592
 21
-1726.0588616792429
 31
0.0
  0
LINE
  5
1747D
  8
0
 10
-851.00945026054592
 20
-1723.908861679243
 30
0.0
 11
-850.25945026054592
 21
-1724.0588616792429
 31
0.0
  0
LINE
  5
1747E
  8
0
 10
-851.00945026054592
 20
-1729.908861679243
 30
0.0
 11
-850.25945026054592
 21
-1730.0588616792429
 31
0.0
  0
LINE
  5
1747F
  8
0
 10
-851.00945026054592
 20
-1727.908861679243
 30
0.0
 11
-850.25945026054592
 21
-1728.0588616792429
 31
0.0
  0
LINE
  5
17480
  8
0
 10
-851.00945026054592
 20
-1723.908861679243
 30
0.0
 11
-846.00945026054592
 21
-1722.908861679243
 31
0.0
  0
LINE
  5
17481
  8
0
 10
-851.00945026054592
 20
-1725.908861679243
 30
0.0
 11
-846.00945026054592
 21
-1724.908861679243
 31
0.0
  0
LINE
  5
17482
  8
0
 10
-851.00945026054592
 20
-1727.908861679243
 30
0.0
 11
-846.00945026054592
 21
-1726.908861679243
 31
0.0
  0
LINE
  5
17483
  8
0
 10
-851.00945026054592
 20
-1729.908861679243
 30
0.0
 11
-846.00945026054592
 21
-1728.908861679244
 31
0.0
  0
LINE
  5
17484
  8
0
 10
-846.75945026054592
 20
-1726.758861679243
 30
0.0
 11
-846.00945026054592
 21
-1726.908861679243
 31
0.0
  0
LINE
  5
17485
  8
0
 10
-846.75945026054592
 20
-1724.758861679243
 30
0.0
 11
-846.00945026054592
 21
-1724.908861679243
 31
0.0
  0
LINE
  5
17486
  8
0
 10
-846.75945026054592
 20
-1730.758861679243
 30
0.0
 11
-846.00945026054592
 21
-1730.908861679244
 31
0.0
  0
LINE
  5
17487
  8
0
 10
-846.75945026054592
 20
-1728.758861679243
 30
0.0
 11
-846.00945026054592
 21
-1728.908861679244
 31
0.0
  0
LINE
  5
17488
  8
0
 10
-851.00945026054592
 20
-1747.908861679243
 30
0.0
 11
-846.00945026054592
 21
-1746.908861679244
 31
0.0
  0
LINE
  5
17489
  8
0
 10
-851.00945026054592
 20
-1739.908861679244
 30
0.0
 11
-846.00945026054592
 21
-1738.908861679243
 31
0.0
  0
LINE
  5
1748A
  8
0
 10
-851.00945026054592
 20
-1731.908861679243
 30
0.0
 11
-850.25945026054592
 21
-1732.0588616792429
 31
0.0
  0
LINE
  5
1748B
  8
0
 10
-851.00945026054592
 20
-1733.908861679243
 30
0.0
 11
-850.25945026054592
 21
-1734.0588616792429
 31
0.0
  0
LINE
  5
1748C
  8
0
 10
-851.00945026054592
 20
-1735.908861679243
 30
0.0
 11
-850.25945026054592
 21
-1736.0588616792429
 31
0.0
  0
LINE
  5
1748D
  8
0
 10
-851.00945026054592
 20
-1737.908861679243
 30
0.0
 11
-850.25945026054592
 21
-1738.0588616792429
 31
0.0
  0
LINE
  5
1748E
  8
0
 10
-851.00945026054592
 20
-1733.908861679243
 30
0.0
 11
-846.00945026054592
 21
-1732.908861679243
 31
0.0
  0
LINE
  5
1748F
  8
0
 10
-851.00945026054592
 20
-1735.908861679243
 30
0.0
 11
-846.00945026054592
 21
-1734.908861679243
 31
0.0
  0
LINE
  5
17490
  8
0
 10
-851.00945026054592
 20
-1737.908861679243
 30
0.0
 11
-846.00945026054592
 21
-1736.908861679243
 31
0.0
  0
LINE
  5
17491
  8
0
 10
-846.75945026054592
 20
-1732.758861679243
 30
0.0
 11
-846.00945026054592
 21
-1732.908861679243
 31
0.0
  0
LINE
  5
17492
  8
0
 10
-846.75945026054592
 20
-1734.758861679243
 30
0.0
 11
-846.00945026054592
 21
-1734.908861679243
 31
0.0
  0
LINE
  5
17493
  8
0
 10
-846.75945026054592
 20
-1736.758861679243
 30
0.0
 11
-846.00945026054592
 21
-1736.908861679243
 31
0.0
  0
LINE
  5
17494
  8
0
 10
-846.75945026054592
 20
-1738.758861679243
 30
0.0
 11
-846.00945026054592
 21
-1738.908861679243
 31
0.0
  0
LINE
  5
17495
  8
0
 10
-851.00945026054592
 20
-1743.908861679243
 30
0.0
 11
-850.25945026054592
 21
-1744.0588616792429
 31
0.0
  0
LINE
  5
17496
  8
0
 10
-851.00945026054592
 20
-1741.908861679243
 30
0.0
 11
-850.25945026054592
 21
-1742.0588616792429
 31
0.0
  0
LINE
  5
17497
  8
0
 10
-851.00945026054592
 20
-1739.908861679244
 30
0.0
 11
-850.25945026054592
 21
-1740.0588616792429
 31
0.0
  0
LINE
  5
17498
  8
0
 10
-851.00945026054592
 20
-1745.908861679243
 30
0.0
 11
-850.25945026054592
 21
-1746.0588616792429
 31
0.0
  0
LINE
  5
17499
  8
0
 10
-851.00945026054592
 20
-1741.908861679243
 30
0.0
 11
-846.00945026054592
 21
-1740.908861679243
 31
0.0
  0
LINE
  5
1749A
  8
0
 10
-851.00945026054592
 20
-1743.908861679243
 30
0.0
 11
-846.00945026054592
 21
-1742.908861679243
 31
0.0
  0
LINE
  5
1749B
  8
0
 10
-851.00945026054592
 20
-1745.908861679243
 30
0.0
 11
-846.00945026054592
 21
-1744.908861679243
 31
0.0
  0
LINE
  5
1749C
  8
0
 10
-846.75945026054592
 20
-1742.758861679243
 30
0.0
 11
-846.00945026054592
 21
-1742.908861679243
 31
0.0
  0
LINE
  5
1749D
  8
0
 10
-846.75945026054592
 20
-1740.758861679243
 30
0.0
 11
-846.00945026054592
 21
-1740.908861679243
 31
0.0
  0
LINE
  5
1749E
  8
0
 10
-846.75945026054592
 20
-1744.758861679243
 30
0.0
 11
-846.00945026054592
 21
-1744.908861679243
 31
0.0
  0
LINE
  5
1749F
  8
0
 10
-846.75945026054592
 20
-1746.758861679243
 30
0.0
 11
-846.00945026054592
 21
-1746.908861679244
 31
0.0
  0
LINE
  5
174A0
  8
0
 10
-851.00945026054592
 20
-1747.908861679243
 30
0.0
 11
-850.25945026054592
 21
-1748.0588616792429
 31
0.0
  0
LINE
  5
174A1
  8
0
 10
-846.75945026054592
 20
-1748.0267272652891
 30
0.0
 11
-850.25945026054592
 21
-1748.0267272652891
 31
0.0
  0
LINE
  5
174A2
  8
0
 10
-850.25945026054592
 20
-1714.5578161785349
 30
0.0
 11
-850.25945026054592
 21
-1748.0267272652891
 31
0.0
  0
LINE
  5
174A3
  8
0
 10
-850.25945026054592
 20
-1748.0267272652891
 30
0.0
 11
-853.00945026054592
 21
-1748.0267272652891
 31
0.0
  0
LINE
  5
174A4
  8
0
 10
-848.50945026054592
 20
-1708.0267272652891
 30
0.0
 11
-850.25945026054592
 21
-1714.5578161785349
 31
0.0
  0
LINE
  5
174A5
  8
0
 10
-853.00945026054592
 20
-1748.0267272652891
 30
0.0
 11
-853.00945026054592
 21
-1748.826727265289
 31
0.0
  0
LINE
  5
174A6
  8
0
 10
-848.50945026054592
 20
-1708.0267272652891
 30
0.0
 11
-846.75945026054592
 21
-1714.5578161785349
 31
0.0
  0
ARC
  5
174A7
  8
0
 10
-850.50945026054592
 20
-1748.826727265289
 30
0.0
 40
2.5
 50
179.9999999999948
 51
270.0
  0
LINE
  5
174A8
  8
0
 10
-846.75945026054592
 20
-1714.5578161785349
 30
0.0
 11
-846.75945026054592
 21
-1748.0267272652891
 31
0.0
  0
LINE
  5
174A9
  8
0
 10
-846.50945026054603
 20
-1751.326727265289
 30
0.0
 11
-850.50945026054592
 21
-1751.326727265289
 31
0.0
  0
LINE
  5
174AA
  8
0
 10
-844.00945026054592
 20
-1748.0267272652891
 30
0.0
 11
-846.75945026054592
 21
-1748.0267272652891
 31
0.0
  0
ARC
  5
174AB
  8
0
 10
-846.50945026054603
 20
-1748.826727265289
 30
0.0
 40
2.5
 50
270.0
 51
0.0
  0
LINE
  5
174AC
  8
0
 10
-844.00945026054592
 20
-1748.0267272652891
 30
0.0
 11
-844.00945026054592
 21
-1748.826727265289
 31
0.0
  0
LINE
  5
174AD
  8
0
 10
-693.96136072523404
 20
-1872.368181517814
 30
0.0
 11
-727.43027181198863
 21
-1872.368181517814
 31
0.0
  0
LINE
  5
174AE
  8
0
 10
-727.43027181198863
 20
-1872.368181517814
 30
0.0
 11
-727.43027181198863
 21
-1869.618181517814
 31
0.0
  0
LINE
  5
174AF
  8
0
 10
-687.43027181198863
 20
-1874.118181517814
 30
0.0
 11
-693.96136072523404
 21
-1872.368181517814
 31
0.0
  0
LINE
  5
174B0
  8
0
 10
-727.43027181198863
 20
-1869.618181517814
 30
0.0
 11
-728.23027181198836
 21
-1869.618181517814
 31
0.0
  0
LINE
  5
174B1
  8
0
 10
-687.43027181198863
 20
-1874.118181517814
 30
0.0
 11
-693.96136072523404
 21
-1875.868181517814
 31
0.0
  0
ARC
  5
174B2
  8
0
 10
-728.23027181198847
 20
-1872.118181517814
 30
0.0
 40
2.5
 50
89.999999999994827
 51
180.0
  0
LINE
  5
174B3
  8
0
 10
-693.96136072523404
 20
-1875.868181517814
 30
0.0
 11
-727.43027181198863
 21
-1875.868181517814
 31
0.0
  0
LINE
  5
174B4
  8
0
 10
-730.7302718119887
 20
-1876.118181517814
 30
0.0
 11
-730.73027181198859
 21
-1872.118181517814
 31
0.0
  0
LINE
  5
174B5
  8
0
 10
-727.43027181198863
 20
-1878.618181517814
 30
0.0
 11
-727.43027181198863
 21
-1875.868181517814
 31
0.0
  0
ARC
  5
174B6
  8
0
 10
-728.23027181198859
 20
-1876.118181517814
 30
0.0
 40
2.5
 50
180.0
 51
270.0
  0
LINE
  5
174B7
  8
0
 10
-727.43027181198863
 20
-1878.618181517814
 30
0.0
 11
-728.23027181198859
 21
-1878.618181517814
 31
0.0
  0
LINE
  5
174B8
  8
1DIM
 10
-709.10892831984233
 20
-1822.974723870532
 30
0.0
 11
-701.70246592259844
 21
-1807.85875916484
 31
0.0
  0
LINE
  5
174B9
  8
1DIM
 10
-701.70246592259844
 20
-1807.85875916484
 30
0.0
 11
-699.00246592259839
 21
-1807.85875916484
 31
0.0
  0
LINE
  5
174BA
  8
1DIM
 10
-720.67874907902365
 20
-1823.222767242544
 30
0.0
 11
-704.44052531623481
 21
-1793.7071997514349
 31
0.0
  0
LINE
  5
174BB
  8
1DIM
 10
-704.44052531623481
 20
-1793.7071997514349
 30
0.0
 11
-701.74052531623477
 21
-1793.7071997514349
 31
0.0
  0
LINE
  5
174BC
  8
1DIM
 10
-728.82670319423607
 20
-1885.1182095526369
 30
0.0
 11
-745.13302146840044
 21
-1913.6007750392071
 31
0.0
  0
LINE
  5
174BD
  8
1DIM
 10
-745.13302146840044
 20
-1913.6007750392071
 30
0.0
 11
-747.83302146840049
 21
-1913.6007750392071
 31
0.0
  0
LINE
  5
174BE
  8
1DIM
 10
-786.44501806884455
 20
-1878.4743580374629
 30
0.0
 11
-802.7513363430088
 21
-1906.9569235240331
 31
0.0
  0
LINE
  5
174BF
  8
1DIM
 10
-802.7513363430088
 20
-1906.9569235240331
 30
0.0
 11
-805.45133634300885
 21
-1906.9569235240331
 31
0.0
  0
LINE
  5
174C0
  8
0
 10
-910.11807286561918
 20
-1800.02672726529
 30
0.0
 11
-893.21810776749521
 21
-1800.02672726529
 31
0.0
  0
LINE
  5
174C1
  8
0
 10
-890.71807868282326
 20
-1802.526773801188
 30
0.0
 11
-893.21810776749521
 21
-1800.02672726529
 31
0.0
  0
LINE
  5
174C2
  8
0
 10
-915.41806937548006
 20
-1798.52672726529
 30
0.0
 11
-910.11807286561918
 21
-1800.02672726529
 31
0.0
  0
LINE
  5
174C3
  8
0
 10
-890.71807868282326
 20
-1802.526773801188
 30
0.0
 11
-890.41807868282217
 21
-1802.526773801188
 31
0.0
  0
LINE
  5
174C4
  8
0
 10
-915.41806937548006
 20
-1798.52672726529
 30
0.0
 11
-910.11806588523484
 21
-1797.02672726529
 31
0.0
  0
LINE
  5
174C5
  8
0
 10
-890.41807868282217
 20
-1802.526773801188
 30
0.0
 11
-890.41806006846309
 21
-1794.526773801188
 31
0.0
  0
LINE
  5
174C6
  8
0
 10
-910.11806588523484
 20
-1797.02672726529
 30
0.0
 11
-893.2180426171301
 21
-1797.02672726529
 31
0.0
  0
LINE
  5
174C7
  8
0
 10
-890.71806006846407
 20
-1794.526773801188
 30
0.0
 11
-890.41806006846309
 21
-1794.526773801188
 31
0.0
  0
LINE
  5
174C8
  8
0
 10
-890.71806006846407
 20
-1794.526773801188
 30
0.0
 11
-893.2180426171301
 21
-1797.02672726529
 31
0.0
  0
TEXT
  5
174C9
  8
1DIM
 10
-676.09843594345614
 20
-1867.7015148511471
 30
0.0
 40
3.5
  1
P21
 50
90.0
  0
LINE
  5
174CA
  8
0
  6
BYBLOCK
 10
-675.93433432345637
 20
-1855.118181517814
 30
0.0
 11
-675.39843594345643
 21
-1853.118181517814
 31
0.0
  0
LINE
  5
174CB
  8
0
  6
BYBLOCK
 10
-675.39843594345643
 20
-1853.118181517814
 30
0.0
 11
-674.86253756345627
 21
-1855.118181517814
 31
0.0
  0
LINE
  5
174CC
  8
0
  6
BYBLOCK
 10
-675.39843594345643
 20
-1853.118181517814
 30
0.0
 11
-675.39843594345643
 21
-1855.118181517814
 31
0.0
  0
LINE
  5
174CD
  8
0
  6
BYBLOCK
 10
-674.86253756345627
 20
-1872.118181517814
 30
0.0
 11
-675.39843594345643
 21
-1874.118181517814
 31
0.0
  0
LINE
  5
174CE
  8
0
  6
BYBLOCK
 10
-675.39843594345643
 20
-1874.118181517814
 30
0.0
 11
-675.93433432345637
 21
-1872.118181517814
 31
0.0
  0
LINE
  5
174CF
  8
0
  6
BYBLOCK
 10
-675.39843594345643
 20
-1874.118181517814
 30
0.0
 11
-675.39843594345643
 21
-1872.118181517814
 31
0.0
  0
TEXT
  5
174D0
  8
1DIM
 10
-676.09843594345614
 20
-1839.2245910624961
 30
0.0
 40
3.5
  1
10.4
 50
90.0
  0
LINE
  5
174D1
  8
0
  6
BYBLOCK
 10
-675.93433432345637
 20
-1844.716257729162
 30
0.0
 11
-675.39843594345643
 21
-1842.716257729162
 31
0.0
  0
LINE
  5
174D2
  8
0
  6
BYBLOCK
 10
-675.39843594345643
 20
-1842.716257729162
 30
0.0
 11
-674.86253756345627
 21
-1844.716257729162
 31
0.0
  0
LINE
  5
174D3
  8
0
  6
BYBLOCK
 10
-675.39843594345643
 20
-1842.716257729162
 30
0.0
 11
-675.39843594345643
 21
-1844.716257729162
 31
0.0
  0
LINE
  5
174D4
  8
0
  6
BYBLOCK
 10
-674.86253756345627
 20
-1851.118181517814
 30
0.0
 11
-675.39843594345643
 21
-1853.118181517814
 31
0.0
  0
LINE
  5
174D5
  8
0
  6
BYBLOCK
 10
-675.39843594345643
 20
-1853.118181517814
 30
0.0
 11
-675.93433432345637
 21
-1851.118181517814
 31
0.0
  0
LINE
  5
174D6
  8
0
  6
BYBLOCK
 10
-675.39843594345643
 20
-1853.118181517814
 30
0.0
 11
-675.39843594345643
 21
-1851.118181517814
 31
0.0
  0
TEXT
  5
174D7
  8
1DIM
 10
-665.48601402521183
 20
-1868.984848184476
 30
0.0
 40
3.5
  1
\U+03C642
 50
90.0
  0
LINE
  5
174D8
  8
0
  6
BYBLOCK
 10
-665.32191240521206
 20
-1844.716257729162
 30
0.0
 11
-664.78601402521213
 21
-1842.716257729162
 31
0.0
  0
LINE
  5
174D9
  8
0
  6
BYBLOCK
 10
-664.78601402521213
 20
-1842.716257729162
 30
0.0
 11
-664.25011564521196
 21
-1844.716257729162
 31
0.0
  0
LINE
  5
174DA
  8
0
  6
BYBLOCK
 10
-664.78601402521213
 20
-1842.716257729162
 30
0.0
 11
-664.78601402521213
 21
-1844.716257729162
 31
0.0
  0
LINE
  5
174DB
  8
0
  6
BYBLOCK
 10
-664.25011564521196
 20
-1882.5201053064559
 30
0.0
 11
-664.78601402521213
 21
-1884.5201053064559
 31
0.0
  0
LINE
  5
174DC
  8
0
  6
BYBLOCK
 10
-664.78601402521213
 20
-1884.5201053064559
 30
0.0
 11
-665.32191240521206
 21
-1882.5201053064559
 31
0.0
  0
LINE
  5
174DD
  8
0
  6
BYBLOCK
 10
-664.78601402521213
 20
-1884.5201053064559
 30
0.0
 11
-664.78601402521213
 21
-1882.5201053064559
 31
0.0
  0
TEXT
  5
174DE
  8
1DIM
 10
-756.93027181198977
 20
-1813.2353532671009
 30
0.0
 40
3.5
  1
52.5
  0
LINE
  5
174DF
  8
0
  6
BYBLOCK
 10
-727.43027181198863
 20
-1813.399454887101
 30
0.0
 11
-725.43027181198863
 21
-1813.9353532671009
 31
0.0
  0
LINE
  5
174E0
  8
0
  6
BYBLOCK
 10
-725.43027181198863
 20
-1813.9353532671009
 30
0.0
 11
-727.43027181198863
 21
-1814.471251647102
 31
0.0
  0
LINE
  5
174E1
  8
0
  6
BYBLOCK
 10
-725.43027181198863
 20
-1813.9353532671009
 30
0.0
 11
-727.43027181198863
 21
-1813.9353532671009
 31
0.0
  0
LINE
  5
174E2
  8
0
  6
BYBLOCK
 10
-775.93027181199091
 20
-1814.471251647102
 30
0.0
 11
-777.93027181199079
 21
-1813.9353532671009
 31
0.0
  0
LINE
  5
174E3
  8
0
  6
BYBLOCK
 10
-777.93027181199079
 20
-1813.9353532671009
 30
0.0
 11
-775.93027181199091
 21
-1813.399454887101
 31
0.0
  0
LINE
  5
174E4
  8
0
  6
BYBLOCK
 10
-777.93027181199079
 20
-1813.9353532671009
 30
0.0
 11
-775.93027181199091
 21
-1813.9353532671009
 31
0.0
  0
TEXT
  5
174E5
  8
1DIM
 10
-769.05526970771052
 20
-1801.8955954329399
 30
0.0
 40
3.5
  1
73.25
  0
LINE
  5
174E6
  8
0
  6
BYBLOCK
 10
-727.43027181198863
 20
-1802.05969705294
 30
0.0
 11
-725.43027181198863
 21
-1802.5955954329399
 31
0.0
  0
LINE
  5
174E7
  8
0
  6
BYBLOCK
 10
-725.43027181198863
 20
-1802.5955954329399
 30
0.0
 11
-727.43027181198863
 21
-1803.1314938129401
 31
0.0
  0
LINE
  5
174E8
  8
0
  6
BYBLOCK
 10
-725.43027181198863
 20
-1802.5955954329399
 30
0.0
 11
-727.43027181198863
 21
-1802.5955954329399
 31
0.0
  0
LINE
  5
174E9
  8
0
  6
BYBLOCK
 10
-796.68026760343241
 20
-1803.1314938129401
 30
0.0
 11
-798.68026760343241
 21
-1802.5955954329399
 31
0.0
  0
LINE
  5
174EA
  8
0
  6
BYBLOCK
 10
-798.68026760343241
 20
-1802.5955954329399
 30
0.0
 11
-796.68026760343241
 21
-1802.05969705294
 31
0.0
  0
LINE
  5
174EB
  8
0
  6
BYBLOCK
 10
-798.68026760343241
 20
-1802.5955954329399
 30
0.0
 11
-796.68026760343241
 21
-1802.5955954329399
 31
0.0
  0
TEXT
  5
174EC
  8
1DIM
 10
-949.19543649460422
 20
-1803.893440467855
 30
0.0
 40
3.5
  1
\U+03C635
 50
90.0
  0
LINE
  5
174ED
  8
0
  6
BYBLOCK
 10
-949.03133487460445
 20
-1783.026773801188
 30
0.0
 11
-948.49543649460452
 21
-1781.026773801188
 31
0.0
  0
LINE
  5
174EE
  8
0
  6
BYBLOCK
 10
-948.49543649460452
 20
-1781.026773801188
 30
0.0
 11
-947.95953811460436
 21
-1783.026773801188
 31
0.0
  0
LINE
  5
174EF
  8
0
  6
BYBLOCK
 10
-948.49543649460452
 20
-1781.026773801188
 30
0.0
 11
-948.49543649460452
 21
-1783.026773801188
 31
0.0
  0
LINE
  5
174F0
  8
0
  6
BYBLOCK
 10
-947.95953811460436
 20
-1814.026773801188
 30
0.0
 11
-948.49543649460452
 21
-1816.026773801188
 31
0.0
  0
LINE
  5
174F1
  8
0
  6
BYBLOCK
 10
-948.49543649460452
 20
-1816.026773801188
 30
0.0
 11
-949.03133487460445
 21
-1814.026773801188
 31
0.0
  0
LINE
  5
174F2
  8
0
  6
BYBLOCK
 10
-948.49543649460452
 20
-1816.026773801188
 30
0.0
 11
-948.49543649460452
 21
-1814.026773801188
 31
0.0
  0
LINE
  5
174F3
  8
0
 10
-693.96136072523404
 20
-1851.368181517814
 30
0.0
 11
-727.43027181198863
 21
-1851.368181517814
 31
0.0
  0
LINE
  5
174F4
  8
0
 10
-727.43027181198863
 20
-1851.368181517814
 30
0.0
 11
-727.43027181198863
 21
-1848.618181517814
 31
0.0
  0
LINE
  5
174F5
  8
0
 10
-687.43027181198863
 20
-1853.118181517814
 30
0.0
 11
-693.96136072523404
 21
-1851.368181517814
 31
0.0
  0
LINE
  5
174F6
  8
0
 10
-727.43027181198863
 20
-1848.618181517814
 30
0.0
 11
-728.23027181198836
 21
-1848.618181517814
 31
0.0
  0
LINE
  5
174F7
  8
0
 10
-687.43027181198863
 20
-1853.118181517814
 30
0.0
 11
-693.96136072523404
 21
-1854.868181517814
 31
0.0
  0
ARC
  5
174F8
  8
0
 10
-728.23027181198847
 20
-1851.118181517814
 30
0.0
 40
2.5
 50
89.999999999994827
 51
180.0
  0
LINE
  5
174F9
  8
0
 10
-693.96136072523404
 20
-1854.868181517814
 30
0.0
 11
-727.43027181198863
 21
-1854.868181517814
 31
0.0
  0
LINE
  5
174FA
  8
0
 10
-730.7302718119887
 20
-1855.118181517814
 30
0.0
 11
-730.73027181198859
 21
-1851.118181517814
 31
0.0
  0
LINE
  5
174FB
  8
0
 10
-727.43027181198863
 20
-1857.618181517814
 30
0.0
 11
-727.43027181198863
 21
-1854.868181517814
 31
0.0
  0
ARC
  5
174FC
  8
0
 10
-728.23027181198859
 20
-1855.118181517814
 30
0.0
 40
2.5
 50
180.0
 51
270.0
  0
LINE
  5
174FD
  8
0
 10
-727.43027181198863
 20
-1857.618181517814
 30
0.0
 11
-728.23027181198859
 21
-1857.618181517814
 31
0.0
  0
VIEWPORT
  5
57
 67
     1
  8
0
 10
113.1473702168385
 20
23.513329144696741
 30
0.0
 40
688.90150471293157
 41
309.8316144160911
 68
     1
 69
     1
1001
ACAD
1000
MVIEW
1002
{
1070
    16
1010
0.0
1020
0.0
1030
0.0
1010
0.0
1020
0.0
1030
1.0
1040
0.0
1040
309.8316144160911
1040
113.1473702168385
1040
23.513329144696741
1040
50.0
1040
0.0
1040
0.0
1070
     0
1070
   100
1070
     1
1070
     1
1070
     0
1070
     0
1070
     0
1070
     0
1040
0.0
1040
0.0
1040
0.0
1040
10.0
1040
10.0
1040
10.0
1040
10.0
1070
     0
1002
{
1002
}
1002
}
  0
ENDSEC
  0
EOF
