  0
SECTION
  2
HEADER
  9
$ACADVER
  1
AC1012
  9
$DWGCODEPAGE
  3
ansi_932
  9
$INSBASE
 10
0.0
 20
0.0
 30
0.0
  9
$EXTMIN
 10
-265.4152145394116
 20
-902.1971227489007
 30
0.0
  9
$EXTMAX
 10
518.3885194097386
 20
-691.262096166887
 30
0.0
  9
$LIMMIN
 10
0.0
 20
0.0
  9
$LIMMAX
 10
420.0
 20
297.0
  9
$ORTHOMODE
 70
     0
  9
$REGENMODE
 70
     1
  9
$FILLMODE
 70
     1
  9
$QTEXTMODE
 70
     0
  9
$MIRRTEXT
 70
     0
  9
$DRAGMODE
 70
     2
  9
$LTSCALE
 40
0.5
  9
$OSMODE
 70
 16383
  9
$ATTMODE
 70
     1
  9
$TEXTSIZE
 40
4.0
  9
$TRACEWID
 40
1.0
  9
$TEXTSTYLE
  7
STANDARD
  9
$CLAYER
  8
1TEXT
  9
$CELTYPE
  6
BYLAYER
  9
$CECOLOR
 62
   256
  9
$CELTSCALE
 40
1.0
  9
$DELOBJ
 70
     1
  9
$DISPSILH
 70
     0
  9
$DIMSCALE
 40
1.0
  9
$DIMASZ
 40
2.0
  9
$DIMEXO
 40
0.0
  9
$DIMDLI
 40
7.0
  9
$DIMRND
 40
0.0
  9
$DIMDLE
 40
0.0
  9
$DIMEXE
 40
1.0
  9
$DIMTP
 40
0.0
  9
$DIMTM
 40
0.0
  9
$DIMTXT
 40
3.5
  9
$DIMCEN
 40
0.0
  9
$DIMTSZ
 40
0.0
  9
$DIMTOL
 70
     0
  9
$DIMLIM
 70
     0
  9
$DIMTIH
 70
     0
  9
$DIMTOH
 70
     0
  9
$DIMSE1
 70
     0
  9
$DIMSE2
 70
     0
  9
$DIMTAD
 70
     1
  9
$DIMZIN
 70
     8
  9
$DIMBLK
  1

  9
$DIMASO
 70
     1
  9
$DIMSHO
 70
     1
  9
$DIMPOST
  1
 
  9
$DIMAPOST
  1

  9
$DIMALT
 70
     0
  9
$DIMALTD
 70
     2
  9
$DIMALTF
 40
25.4
  9
$DIMLFAC
 40
1.0
  9
$DIMTOFL
 70
     1
  9
$DIMTVP
 40
0.0
  9
$DIMTIX
 70
     0
  9
$DIMSOXD
 70
     0
  9
$DIMSAH
 70
     1
  9
$DIMBLK1
  1
OPEN30
  9
$DIMBLK2
  1
OPEN30
  9
$DIMSTYLE
  2
NEWX10
  9
$DIMCLRD
 70
   256
  9
$DIMCLRE
 70
   256
  9
$DIMCLRT
 70
   201
  9
$DIMTFAC
 40
0.7
  9
$DIMGAP
 40
0.7
  9
$DIMJUST
 70
     0
  9
$DIMSD1
 70
     0
  9
$DIMSD2
 70
     0
  9
$DIMTOLJ
 70
     1
  9
$DIMTZIN
 70
     8
  9
$DIMALTZ
 70
     0
  9
$DIMALTTZ
 70
     0
  9
$DIMFIT
 70
     2
  9
$DIMUPT
 70
     0
  9
$DIMUNIT
 70
     2
  9
$DIMDEC
 70
     2
  9
$DIMTDEC
 70
     4
  9
$DIMALTU
 70
     2
  9
$DIMALTTD
 70
     2
  9
$DIMTXSTY
  7
STANDARD
  9
$DIMAUNIT
 70
     0
  9
$LUNITS
 70
     2
  9
$LUPREC
 70
     4
  9
$SKETCHINC
 40
1.0
  9
$FILLETRAD
 40
0.0
  9
$AUNITS
 70
     0
  9
$AUPREC
 70
     2
  9
$MENU
  1
acad
  9
$ELEVATION
 40
0.0
  9
$PELEVATION
 40
0.0
  9
$THICKNESS
 40
0.0
  9
$LIMCHECK
 70
     0
  9
$CHAMFERA
 40
10.0
  9
$CHAMFERB
 40
10.0
  9
$CHAMFERC
 40
20.0
  9
$CHAMFERD
 40
0.0
  9
$SKPOLY
 70
     0
  9
$TDCREATE
 40
2453033.732663484
  9
$TDUPDATE
 40
2458820.733907176
  9
$TDINDWG
 40
2.0016852894
  9
$TDUSRTIMER
 40
2.0016852894
  9
$USRTIMER
 70
     1
  9
$ANGBASE
 50
0.0
  9
$ANGDIR
 70
     0
  9
$PDMODE
 70
     0
  9
$PDSIZE
 40
0.0
  9
$PLINEWID
 40
0.0
  9
$COORDS
 70
     2
  9
$SPLFRAME
 70
     0
  9
$SPLINETYPE
 70
     6
  9
$SPLINESEGS
 70
     8
  9
$ATTDIA
 70
     0
  9
$ATTREQ
 70
     1
  9
$HANDLING
 70
     1
  9
$HANDSEED
  5
19480
  9
$SURFTAB1
 70
     6
  9
$SURFTAB2
 70
     6
  9
$SURFTYPE
 70
     6
  9
$SURFU
 70
     6
  9
$SURFV
 70
     6
  9
$UCSNAME
  2

  9
$UCSORG
 10
0.0
 20
0.0
 30
0.0
  9
$UCSXDIR
 10
1.0
 20
0.0
 30
0.0
  9
$UCSYDIR
 10
0.0
 20
1.0
 30
0.0
  9
$PUCSNAME
  2

  9
$PUCSORG
 10
0.0
 20
0.0
 30
0.0
  9
$PUCSXDIR
 10
1.0
 20
0.0
 30
0.0
  9
$PUCSYDIR
 10
0.0
 20
1.0
 30
0.0
  9
$USERI1
 70
     0
  9
$USERI2
 70
     0
  9
$USERI3
 70
     0
  9
$USERI4
 70
     0
  9
$USERI5
 70
     0
  9
$USERR1
 40
0.0
  9
$USERR2
 40
0.0
  9
$USERR3
 40
0.0
  9
$USERR4
 40
0.0
  9
$USERR5
 40
0.0
  9
$WORLDVIEW
 70
     1
  9
$SHADEDGE
 70
     3
  9
$SHADEDIF
 70
    70
  9
$TILEMODE
 70
     1
  9
$MAXACTVP
 70
    48
  9
$PINSBASE
 10
0.0
 20
0.0
 30
0.0
  9
$PLIMCHECK
 70
     0
  9
$PEXTMIN
 10
1.000000000000000E+20
 20
1.000000000000000E+20
 30
1.000000000000000E+20
  9
$PEXTMAX
 10
-1.000000000000000E+20
 20
-1.000000000000000E+20
 30
-1.000000000000000E+20
  9
$PLIMMIN
 10
0.0
 20
0.0
  9
$PLIMMAX
 10
420.0
 20
297.0
  9
$UNITMODE
 70
     0
  9
$VISRETAIN
 70
     1
  9
$PLINEGEN
 70
     0
  9
$PSLTSCALE
 70
     1
  9
$TREEDEPTH
 70
  3020
  9
$PICKSTYLE
 70
     1
  9
$CMLSTYLE
  2
STANDARD
  9
$CMLJUST
 70
     0
  9
$CMLSCALE
 40
20.0
  9
$SAVEIMAGES
 70
     1
  0
ENDSEC
  0
SECTION
  2
CLASSES
  0
CLASS
  1
DICTIONARYVAR
  2
AcDbDictionaryVar
  3
ObjectDBX Classes
 90
        0
280
     0
281
     0
  0
CLASS
  1
IDBUFFER
  2
AcDbIdBuffer
  3
ObjectDBX Classes
 90
    32768
280
     0
281
     0
  0
CLASS
  1
LWPOLYLINE
  2
AcDbPolyline
  3
ObjectDBX Classes
 90
    32768
280
     0
281
     1
  0
CLASS
  1
ACDBDICTIONARYWDFLT
  2
AcDbDictionaryWithDefault
  3
ObjectDBX Classes
 90
    32768
280
     0
281
     0
  0
CLASS
  1
ACDBPLACEHOLDER
  2
AcDbPlaceHolder
  3
ObjectDBX Classes
 90
        0
280
     0
281
     0
  0
CLASS
  1
LAYOUT
  2
AcDbLayout
  3
ObjectDBX Classes
 90
        0
280
     0
281
     0
  0
CLASS
  1
TABLESTYLE
  2
AcDbTableStyle
  3
ObjectDBX Classes
 90
     4095
280
     0
281
     0
  0
CLASS
  1
SORTENTSTABLE
  2
AcDbSortentsTable
  3
ObjectDBX Classes
 90
    32768
280
     0
281
     0
  0
CLASS
  1
DIMASSOC
  2
AcDbDimAssoc
  3
"AcDbDimAssoc|Product Desc:     AcDim ARX App For Dimension|Company:          Autodesk, Inc.|WEB Address:      www.autodesk.com"
 90
        0
280
     0
281
     0
  0
CLASS
  1
MATERIAL
  2
AcDbMaterial
  3
ObjectDBX Classes
 90
     1153
280
     0
281
     0
  0
CLASS
  1
VISUALSTYLE
  2
AcDbVisualStyle
  3
ObjectDBX Classes
 90
     4095
280
     0
281
     0
  0
CLASS
  1
SCALE
  2
AcDbScale
  3
ObjectDBX Classes
 90
     1153
280
     0
281
     0
  0
CLASS
  1
MLEADERSTYLE
  2
AcDbMLeaderStyle
  3
ACDB_MLEADERSTYLE_CLASS
 90
     4095
280
     0
281
     0
  0
CLASS
  1
CELLSTYLEMAP
  2
AcDbCellStyleMap
  3
ObjectDBX Classes
 90
     1152
280
     0
281
     0
  0
CLASS
  1
NPOCOLLECTION
  2
AcDbImpNonPersistentObjectsCollection
  3
ObjectDBX Classes
 90
     1153
280
     1
281
     0
  0
CLASS
  1
EXACXREFPANELOBJECT
  2
ExAcXREFPanelObject
  3
EXAC_ESW
 90
     1025
280
     1
281
     0
  0
CLASS
  1
EXACTERMXREFMAP
  2
ExAcTermXrefMap
  3
EXAC_SERVICE
 90
     1025
280
     1
281
     0
  0
CLASS
  1
AEC_REFEDIT_STATUS_TRACKER
  2
AecDbRefEditStatusTracker
  3
AecArchBase60|Product Desc: Autodesk Architectural Desktop 2007 |Company: Autodesk,Inc. |WEB Address: www.autodesk.com
 90
      129
280
     1
281
     0
  0
CLASS
  1
SUN
  2
AcDbSun
  3
SCENEOE
 90
     1153
280
     0
281
     0
  0
CLASS
  1
XRECORD
  2
AcDbXrecord
  3
ObjectDBX Classes
 90
    32768
280
     0
281
     0
  0
CLASS
  1
HATCH
  2
AcDbHatch
  3
ObjectDBX Classes
 90
    32768
280
     0
281
     1
  0
ENDSEC
  0
SECTION
  2
TABLES
  0
TABLE
  2
VPORT
  5
8
330
0
100
AcDbSymbolTable
 70
     1
  0
VPORT
  5
16338
330
8
100
AcDbSymbolTableRecord
100
AcDbViewportTableRecord
  2
*ACTIVE
 70
     0
 10
0.0
 20
0.0
 11
1.0
 21
1.0
 12
126.4866524351635
 22
-796.7296094578938
 13
0.0
 23
0.0
 14
10.0
 24
10.0
 15
10.0
 25
10.0
 16
0.0
 26
0.0
 36
1.0
 17
0.0
 27
0.0
 37
0.0
 40
466.7370332977571
 41
1.803066037735849
 42
50.0
 43
0.0
 44
0.0
 50
0.0
 51
0.0
 71
    16
 72
   100
 73
     1
 74
     1
 75
     0
 76
     0
 77
     0
 78
     0
1001
ACAD_NAV_VCDISPLAY
1070
     3
  0
ENDTAB
  0
TABLE
  2
LTYPE
  5
5
330
0
100
AcDbSymbolTable
 70
     3
  0
LTYPE
  5
12
330
5
100
AcDbSymbolTableRecord
100
AcDbLinetypeTableRecord
  2
BYBLOCK
 70
     0
  3

 72
    65
 73
     0
 40
0.0
  0
LTYPE
  5
13
330
5
100
AcDbSymbolTableRecord
100
AcDbLinetypeTableRecord
  2
BYLAYER
 70
     0
  3

 72
    65
 73
     0
 40
0.0
  0
LTYPE
  5
14
330
5
100
AcDbSymbolTableRecord
100
AcDbLinetypeTableRecord
  2
CONTINUOUS
 70
     0
  3
Solid line
 72
    65
 73
     0
 40
0.0
  0
LTYPE
  5
100
330
5
100
AcDbSymbolTableRecord
100
AcDbLinetypeTableRecord
  2
PHANTOM2
 70
     0
  3
Phantom (0.5x) ___ _ _ ___ _ _ ___ _ _ ___ _ _
 72
    65
 73
     6
 40
31.75
 49
15.875
 74
     0
 49
-3.175
 74
     0
 49
3.175
 74
     0
 49
-3.175
 74
     0
 49
3.175
 74
     0
 49
-3.175
 74
     0
  0
LTYPE
  5
16B34
330
5
100
AcDbSymbolTableRecord
100
AcDbLinetypeTableRecord
  2
CENTER2
 70
     0
  3
Center (.5x) ___ _ ___ _ ___ _ ___ _ ___ _ ___
 72
    65
 73
     4
 40
28.575
 49
19.05
 74
     0
 49
-3.175
 74
     0
 49
3.175
 74
     0
 49
-3.175
 74
     0
  0
ENDTAB
  0
TABLE
  2
LAYER
  5
2
102
{ACAD_XDICTIONARY
360
15F92
102
}
330
0
100
AcDbSymbolTable
 70
     8
  0
LAYER
  5
E
102
{ACAD_XDICTIONARY
360
163AF
102
}
330
2
100
AcDbSymbolTableRecord
100
AcDbLayerTableRecord
  2
0
 70
     0
 62
     7
  6
CONTINUOUS
  0
LAYER
  5
29
102
{ACAD_XDICTIONARY
360
163B1
102
}
330
2
100
AcDbSymbolTableRecord
100
AcDbLayerTableRecord
  2
1CENTER
 70
     0
 62
     7
  6
CENTER2
  0
LAYER
  5
31
102
{ACAD_XDICTIONARY
360
163B3
102
}
330
2
100
AcDbSymbolTableRecord
100
AcDbLayerTableRecord
  2
1TEXT
 70
     0
 62
     7
  6
CONTINUOUS
  0
LAYER
  5
101
102
{ACAD_XDICTIONARY
360
163BD
102
}
330
2
100
AcDbSymbolTableRecord
100
AcDbLayerTableRecord
  2
1DIM
 70
     0
 62
     7
  6
CONTINUOUS
  0
LAYER
  5
103
102
{ACAD_XDICTIONARY
360
163C1
102
}
330
2
100
AcDbSymbolTableRecord
100
AcDbLayerTableRecord
  2
1PHANTOM
 70
     0
 62
     7
  6
PHANTOM2
  0
LAYER
  5
25F
102
{ACAD_XDICTIONARY
360
163C5
102
}
330
2
100
AcDbSymbolTableRecord
100
AcDbLayerTableRecord
  2
01
 70
     0
 62
     1
  6
CONTINUOUS
  0
LAYER
  5
26A
102
{ACAD_XDICTIONARY
360
163DB
102
}
330
2
100
AcDbSymbolTableRecord
100
AcDbLayerTableRecord
  2
1DIM1
 70
     0
 62
     7
  6
CONTINUOUS
  0
LAYER
  5
26D
102
{ACAD_XDICTIONARY
360
163E1
102
}
330
2
100
AcDbSymbolTableRecord
100
AcDbLayerTableRecord
  2
1HATCH
 70
     0
 62
     7
  6
CONTINUOUS
  0
ENDTAB
  0
TABLE
  2
STYLE
  5
3
330
0
100
AcDbSymbolTable
 70
     1
  0
STYLE
  5
F
330
3
100
AcDbSymbolTableRecord
100
AcDbTextStyleTableRecord
  2
STANDARD
 70
     0
 40
0.0
 41
1.0
 50
0.0
 71
     0
 42
4.0
  3
txt.shx
  4
extfont.shx
  0
ENDTAB
  0
TABLE
  2
VIEW
  5
6
330
0
100
AcDbSymbolTable
 70
     0
  0
ENDTAB
  0
TABLE
  2
UCS
  5
7
330
0
100
AcDbSymbolTable
 70
     0
  0
ENDTAB
  0
TABLE
  2
APPID
  5
9
330
0
100
AcDbSymbolTable
 70
    17
  0
APPID
  5
10
330
9
100
AcDbSymbolTableRecord
100
AcDbRegAppTableRecord
  2
ACAD
 70
     0
  0
APPID
  5
21
330
9
100
AcDbSymbolTableRecord
100
AcDbRegAppTableRecord
  2
DRAWINGVARIABLESXDATA
 70
     0
  0
APPID
  5
64
330
9
100
AcDbSymbolTableRecord
100
AcDbRegAppTableRecord
  2
CONTENTTABDATA
 70
     0
  0
APPID
  5
65
330
9
100
AcDbSymbolTableRecord
100
AcDbRegAppTableRecord
  2
CONTENTCURRENTTAB
 70
     0
  0
APPID
  5
66
330
9
100
AcDbSymbolTableRecord
100
AcDbRegAppTableRecord
  2
CONTENTBLOCKDESCRIPTION
 70
     0
  0
APPID
  5
67
330
9
100
AcDbSymbolTableRecord
100
AcDbRegAppTableRecord
  2
CONTENTBLOCKICON
 70
     0
  0
APPID
  5
68
330
9
100
AcDbSymbolTableRecord
100
AcDbRegAppTableRecord
  2
CONTENTLONGBLOCKNAME
 70
     0
  0
APPID
  5
5A9
330
9
100
AcDbSymbolTableRecord
100
AcDbRegAppTableRecord
  2
ACAD_PSEXT
 70
     0
  0
APPID
  5
18AC
330
9
100
AcDbSymbolTableRecord
100
AcDbRegAppTableRecord
  2
ACAD_DSTYLE_DIMTEXT_FILL
 70
     0
  0
APPID
  5
16392
330
9
100
AcDbSymbolTableRecord
100
AcDbRegAppTableRecord
  2
ACAD_MLEADERVER
 70
     0
  0
APPID
  5
16BD0
330
9
100
AcDbSymbolTableRecord
100
AcDbRegAppTableRecord
  2
ACAD_DSTYLE_DIMRADIAL_EXTE
 70
     0
  0
APPID
  5
16BD1
330
9
100
AcDbSymbolTableRecord
100
AcDbRegAppTableRecord
  2
ACLAYERTOOLS
 70
     0
  0
APPID
  5
16C1E
330
9
100
AcDbSymbolTableRecord
100
AcDbRegAppTableRecord
  2
ACAD_EXEMPT_FROM_CAD_STAND
 70
     0
  0
APPID
  5
16CFB
330
9
100
AcDbSymbolTableRecord
100
AcDbRegAppTableRecord
  2
ACAD_NAV_VCDISPLAY
 70
     0
  0
APPID
  5
18517
330
9
100
AcDbSymbolTableRecord
100
AcDbRegAppTableRecord
  2
ACAD_OBJECT_CHANGE_GUID
 70
     0
  0
APPID
  5
186A0
330
9
100
AcDbSymbolTableRecord
100
AcDbRegAppTableRecord
  2
ACADANNOTATIVE
 70
     0
  0
APPID
  5
186A1
330
9
100
AcDbSymbolTableRecord
100
AcDbRegAppTableRecord
  2
ACDBBLOCKREPETAG
 70
     0
  0
ENDTAB
  0
TABLE
  2
DIMSTYLE
  5
A
330
0
100
AcDbSymbolTable
 70
     1
  0
DIMSTYLE
105
48
330
A
100
AcDbSymbolTableRecord
100
AcDbDimStyleTableRecord
  2
NEWX10
 70
     0
  3
 
  4

  5

  6
OPEN30
  7
OPEN30
 40
1.0
 41
2.0
 42
0.0
 43
7.0
 44
1.0
 45
0.0
 46
0.0
 47
0.0
 48
0.0
140
3.5
141
0.0
142
0.0
143
25.4
144
1.0
145
0.0
146
0.7
147
0.7
 71
     0
 72
     0
 73
     0
 74
     0
 75
     0
 76
     0
 77
     1
 78
     8
170
     0
171
     2
172
     1
173
     1
174
     0
175
     0
176
   256
177
   256
178
   201
179
     2
270
     2
271
     2
272
     4
273
     2
274
     2
340
F
275
     0
280
     0
281
     0
282
     0
283
     1
284
     8
285
     0
286
     0
287
     2
288
     0
  0
ENDTAB
  0
TABLE
  2
BLOCK_RECORD
  5
1
330
0
100
AcDbSymbolTable
 70
     8
  0
BLOCK_RECORD
  5
18
102
{ACAD_XDICTIONARY
360
6E9
102
}
330
1
100
AcDbSymbolTableRecord
100
AcDbBlockTableRecord
  2
*MODEL_SPACE
  0
BLOCK_RECORD
  5
15
102
{ACAD_XDICTIONARY
360
59B
102
}
330
1
100
AcDbSymbolTableRecord
100
AcDbBlockTableRecord
  2
*PAPER_SPACE
  0
BLOCK_RECORD
  5
42
330
1
100
AcDbSymbolTableRecord
100
AcDbBlockTableRecord
  2
_OPEN30
  0
BLOCK_RECORD
  5
186F2
330
1
100
AcDbSymbolTableRecord
100
AcDbBlockTableRecord
  2
A3WAKUKAWAJUN2017_HYOUDAI_
  0
BLOCK_RECORD
  5
192E0
330
1
100
AcDbSymbolTableRecord
100
AcDbBlockTableRecord
  2
*X23
  0
BLOCK_RECORD
  5
1932E
330
1
100
AcDbSymbolTableRecord
100
AcDbBlockTableRecord
  2
*X24
  0
BLOCK_RECORD
  5
19380
330
1
100
AcDbSymbolTableRecord
100
AcDbBlockTableRecord
  2
*X25
  0
BLOCK_RECORD
  5
193D1
330
1
100
AcDbSymbolTableRecord
100
AcDbBlockTableRecord
  2
*X26
  0
BLOCK_RECORD
  5
1940E
330
1
100
AcDbSymbolTableRecord
100
AcDbBlockTableRecord
  2
*X27
  0
BLOCK_RECORD
  5
1944E
330
1
100
AcDbSymbolTableRecord
100
AcDbBlockTableRecord
  2
*X28
  0
ENDTAB
  0
ENDSEC
  0
SECTION
  2
BLOCKS
  0
BLOCK
  5
19
330
18
100
AcDbEntity
  8
0
100
AcDbBlockBegin
  2
*MODEL_SPACE
 70
     0
 10
0.0
 20
0.0
 30
0.0
  3
*MODEL_SPACE
  1

  0
ENDBLK
  5
1A
330
18
100
AcDbEntity
  8
0
100
AcDbBlockEnd
  0
BLOCK
  5
16
330
15
100
AcDbEntity
 67
     1
  8
0
100
AcDbBlockBegin
  2
*PAPER_SPACE
 70
     0
 10
0.0
 20
0.0
 30
0.0
  3
*PAPER_SPACE
  1

  0
ENDBLK
  5
17
330
15
100
AcDbEntity
 67
     1
  8
0
100
AcDbBlockEnd
  0
BLOCK
  5
43
330
42
100
AcDbEntity
  8
0
100
AcDbBlockBegin
  2
_OPEN30
 70
     0
 10
0.0
 20
0.0
 30
0.0
  3
_OPEN30
  1

  0
LINE
  5
44
330
42
100
AcDbEntity
  8
0
  6
BYBLOCK
 62
     0
100
AcDbLine
 10
-1.0
 20
0.26794919
 30
0.0
 11
0.0
 21
0.0
 31
0.0
  0
LINE
  5
45
330
42
100
AcDbEntity
  8
0
  6
BYBLOCK
 62
     0
100
AcDbLine
 10
0.0
 20
0.0
 30
0.0
 11
-1.0
 21
-0.26794919
 31
0.0
  0
LINE
  5
46
330
42
100
AcDbEntity
  8
0
  6
BYBLOCK
 62
     0
100
AcDbLine
 10
0.0
 20
0.0
 30
0.0
 11
-1.0
 21
0.0
 31
0.0
  0
ENDBLK
  5
47
330
42
100
AcDbEntity
  8
0
100
AcDbBlockEnd
  0
BLOCK
  5
18E00
330
186F2
100
AcDbEntity
  8
0
100
AcDbBlockBegin
  2
A3WAKUKAWAJUN2017_HYOUDAI_
 70
     0
 10
0.0
 20
0.0
 30
0.0
  3
A3WAKUKAWAJUN2017_HYOUDAI_
  1

  0
LINE
  5
186F4
330
186F2
100
AcDbEntity
  8
0
100
AcDbLine
 10
13.26299999998673
 20
-0.0001000000000317
 30
0.0
 11
9.236999999990758
 21
8.999899999990987
 31
0.0
1001
ACAD
1000
ASC_BOUNDS
1002
{
1070
    19
1005
18735
1002
}
  0
LINE
  5
186F5
330
186F2
100
AcDbEntity
  8
0
100
AcDbLine
 10
5.657999999994331
 20
0.9999999999989768
 30
0.0
 11
9.236999999990758
 21
8.999999999991019
 31
0.0
1001
ACAD
1000
ASC_BOUNDS
1002
{
1070
    19
1005
18735
1002
}
  0
LINE
  5
186F6
330
186F2
100
AcDbEntity
  8
0
100
AcDbLine
 10
18.59199999998134
 20
-0.2368999999997641
 30
0.0
 11
16.46099999998353
 21
5.432899999994561
 31
0.0
1001
ACAD
1000
ASC_BOUNDS
1002
{
1070
    19
1005
18736
1002
}
  0
LINE
  5
186F7
330
186F2
100
AcDbEntity
  8
0
100
AcDbLine
 10
18.59199999998134
 20
-0.2368999999997641
 30
0.0
 11
22.38199999997767
 21
8.763099999991255
 31
0.0
1001
ACAD
1000
ASC_BOUNDS
1002
{
1070
    19
1005
18736
1002
}
  0
LINE
  5
186F8
330
186F2
100
AcDbEntity
  8
0
100
AcDbLine
 10
14.32899999998563
 20
-0.2368999999997641
 30
0.0
 11
16.46099999998353
 21
5.432899999994561
 31
0.0
1001
ACAD
1000
ASC_BOUNDS
1002
{
1070
    19
1005
18736
1002
}
  0
LINE
  5
186F9
330
186F2
100
AcDbEntity
  8
0
100
AcDbLine
 10
14.32899999998563
 20
-0.2368999999997641
 30
0.0
 11
10.53899999998941
 21
8.763099999991255
 31
0.0
1001
ACAD
1000
ASC_BOUNDS
1002
{
1070
    19
1005
18736
1002
}
  0
LINE
  5
186FA
330
186F2
100
AcDbEntity
  8
0
100
AcDbLine
 10
19.53899999998043
 20
-0.0001000000000317
 30
0.0
 11
23.56599999997638
 21
8.999899999990987
 31
0.0
1001
ACAD
1000
ASC_BOUNDS
1002
{
1070
    19
1005
18737
1002
}
  0
LINE
  5
186FB
330
186F2
100
AcDbEntity
  8
0
100
AcDbLine
 10
26.97358892824991
 20
1.383099999991202
 30
0.0
 11
23.56599999997638
 21
8.999899999990987
 31
0.0
1001
ACAD
1000
ASC_BOUNDS
1002
{
1070
    19
1005
18737
1002
}
  0
LINE
  5
186FC
330
186F2
100
AcDbEntity
  8
0
100
AcDbLine
 10
5.657999999994331
 20
0.9999999999989768
 30
0.0
 11
3.181999999996833
 21
4.668599999995308
 31
0.0
1001
ACAD
1000
ASC_BOUNDS
1002
{
1070
    19
1005
18735
1002
}
  0
LINE
  5
186FD
330
186F2
100
AcDbEntity
  8
0
100
AcDbLine
 10
4.617999999995391
 20
-0.0001000000000317
 30
0.0
 11
1.420999999998571
 21
4.736799999995242
 31
0.0
1001
ACAD
1000
ASC_BOUNDS
1002
{
1070
    19
1005
18735
1002
}
  0
LINE
  5
186FE
330
186F2
100
AcDbEntity
  8
0
100
AcDbLine
 10
1.420999999998571
 20
8.763099999991255
 30
0.0
 11
1.420999999998571
 21
0.0
 31
0.0
1001
ACAD
1000
ASC_BOUNDS
1002
{
1070
    19
1005
1873A
1002
}
  0
LINE
  5
186FF
330
186F2
100
AcDbEntity
  8
0
100
AcDbLine
 10
0.0
 20
8.763099999991255
 30
0.0
 11
0.0
 21
0.0
 31
0.0
1001
ACAD
1000
ASC_BOUNDS
1002
{
1070
    19
1005
1873A
1002
}
  0
LINE
  5
18700
330
186F2
100
AcDbEntity
  8
0
100
AcDbLine
 10
6.766999999993232
 20
-0.0001000000000317
 30
0.0
 11
7.826999999992154
 21
2.368399999997621
 31
0.0
1001
ACAD
1000
ASC_BOUNDS
1002
{
1070
    19
1005
18735
1002
}
  0
LINE
  5
18701
330
186F2
100
AcDbEntity
  8
0
100
AcDbLine
 10
0.0
 20
0.0
 30
0.0
 11
1.420999999998571
 21
0.0
 31
0.0
1001
ACAD
1000
ASC_BOUNDS
1002
{
1070
    19
1005
1873A
1002
}
  0
LINE
  5
18702
330
186F2
100
AcDbEntity
  8
0
100
AcDbLine
 10
4.617999999995391
 20
0.0
 30
0.0
 11
6.766999999993232
 21
0.0
 31
0.0
1001
ACAD
1000
ASC_BOUNDS
1002
{
1070
    19
1005
18735
1002
}
  0
LINE
  5
18703
330
186F2
100
AcDbEntity
  8
0
100
AcDbLine
 10
11.70599999998831
 20
-0.0001000000000317
 30
0.0
 11
10.64699999998936
 21
2.368399999997621
 31
0.0
1001
ACAD
1000
ASC_BOUNDS
1002
{
1070
    19
1005
18735
1002
}
  0
LINE
  5
18704
330
186F2
100
AcDbEntity
  8
0
100
AcDbLine
 10
7.826999999992154
 20
2.368399999997621
 30
0.0
 11
10.64699999998936
 21
2.368399999997621
 31
0.0
1001
ACAD
1000
ASC_BOUNDS
1002
{
1070
    19
1005
18735
1002
}
  0
LINE
  5
18705
330
186F2
100
AcDbEntity
  8
0
100
AcDbLine
 10
11.70599999998831
 20
0.0
 30
0.0
 11
13.26299999998673
 21
0.0
 31
0.0
1001
ACAD
1000
ASC_BOUNDS
1002
{
1070
    19
1005
18735
1002
}
  0
LINE
  5
18706
330
186F2
100
AcDbEntity
  8
0
100
AcDbLine
 10
22.15599999997789
 20
2.368399999997621
 30
0.0
 11
24.97599999997499
 21
2.368399999997621
 31
0.0
1001
ACAD
1000
ASC_BOUNDS
1002
{
1070
    19
1005
18737
1002
}
  0
LINE
  5
18707
330
186F2
100
AcDbEntity
  8
0
100
AcDbLine
 10
19.53899999998043
 20
0.0
 30
0.0
 11
21.09599999997886
 21
0.0
 31
0.0
1001
ACAD
1000
ASC_BOUNDS
1002
{
1070
    19
1005
18737
1002
}
  0
LINE
  5
18708
330
186F2
100
AcDbEntity
  8
0
100
AcDbLine
 10
21.09599999997886
 20
-0.0001000000000317
 30
0.0
 11
22.15599999997789
 21
2.368399999997621
 31
0.0
1001
ACAD
1000
ASC_BOUNDS
1002
{
1070
    19
1005
18737
1002
}
  0
LINE
  5
18709
330
186F2
100
AcDbEntity
  8
0
100
AcDbLine
 10
26.02015566812236
 20
0.0330999999912365
 30
0.0
 11
24.97599999997499
 21
2.368399999997621
 31
0.0
1001
ACAD
1000
ASC_BOUNDS
1002
{
1070
    19
1005
18737
1002
}
  0
LINE
  5
1870A
330
186F2
100
AcDbEntity
  8
0
100
AcDbLine
 10
14.32399999998563
 20
3.315799999996671
 30
0.0
 11
16.46099999998353
 21
8.999899999990987
 31
0.0
1001
ACAD
1000
ASC_BOUNDS
1002
{
1070
    19
1005
18736
1002
}
  0
LINE
  5
1870B
330
186F2
100
AcDbEntity
  8
0
100
AcDbLine
 10
6.432999999993513
 20
8.763099999991255
 30
0.0
 11
3.181999999996833
 21
4.668599999995308
 31
0.0
1001
ACAD
1000
ASC_BOUNDS
1002
{
1070
    19
1005
18735
1002
}
  0
LINE
  5
1870C
330
186F2
100
AcDbEntity
  8
0
100
AcDbLine
 10
4.617999999995391
 20
8.763099999991255
 30
0.0
 11
1.420999999998571
 21
4.736799999995242
 31
0.0
1001
ACAD
1000
ASC_BOUNDS
1002
{
1070
    19
1005
18735
1002
}
  0
LINE
  5
1870D
330
186F2
100
AcDbEntity
  8
0
100
AcDbLine
 10
0.0
 20
8.763099999991255
 30
0.0
 11
1.420999999998571
 21
8.763099999991255
 31
0.0
1001
ACAD
1000
ASC_BOUNDS
1002
{
1070
    19
1005
1873A
1002
}
  0
LINE
  5
1870E
330
186F2
100
AcDbEntity
  8
0
100
AcDbLine
 10
4.617999999995391
 20
8.763099999991255
 30
0.0
 11
6.432999999993513
 21
8.763099999991255
 31
0.0
1001
ACAD
1000
ASC_BOUNDS
1002
{
1070
    19
1005
18735
1002
}
  0
LINE
  5
1870F
330
186F2
100
AcDbEntity
  8
0
100
AcDbLine
 10
14.32399999998563
 20
3.315799999996671
 30
0.0
 11
12.02999999998792
 21
8.763099999991255
 31
0.0
1001
ACAD
1000
ASC_BOUNDS
1002
{
1070
    19
1005
18736
1002
}
  0
LINE
  5
18710
330
186F2
100
AcDbEntity
  8
0
100
AcDbLine
 10
10.06399999998996
 20
3.670999999996297
 30
0.0
 11
9.236999999990758
 21
5.5200999999945
 31
0.0
1001
ACAD
1000
ASC_BOUNDS
1002
{
1070
    19
1005
18735
1002
}
  0
LINE
  5
18711
330
186F2
100
AcDbEntity
  8
0
100
AcDbLine
 10
8.409999999991555
 20
3.670999999996297
 30
0.0
 11
9.236999999990758
 21
5.5200999999945
 31
0.0
1001
ACAD
1000
ASC_BOUNDS
1002
{
1070
    19
1005
18735
1002
}
  0
LINE
  5
18712
330
186F2
100
AcDbEntity
  8
0
100
AcDbLine
 10
8.409999999991555
 20
3.670999999996297
 30
0.0
 11
10.06399999998996
 21
3.670999999996297
 31
0.0
1001
ACAD
1000
ASC_BOUNDS
1002
{
1070
    19
1005
18735
1002
}
  0
LINE
  5
18713
330
186F2
100
AcDbEntity
  8
0
100
AcDbLine
 10
10.53899999998941
 20
8.763099999991255
 30
0.0
 11
12.02999999998792
 21
8.763099999991255
 31
0.0
1001
ACAD
1000
ASC_BOUNDS
1002
{
1070
    19
1005
18736
1002
}
  0
LINE
  5
18714
330
186F2
100
AcDbEntity
  8
0
100
AcDbLine
 10
22.7389999999773
 20
3.670999999996297
 30
0.0
 11
23.56599999997638
 21
5.5200999999945
 31
0.0
1001
ACAD
1000
ASC_BOUNDS
1002
{
1070
    19
1005
18737
1002
}
  0
LINE
  5
18715
330
186F2
100
AcDbEntity
  8
0
100
AcDbLine
 10
22.7389999999773
 20
3.670999999996297
 30
0.0
 11
24.39299999997559
 21
3.670999999996297
 31
0.0
1001
ACAD
1000
ASC_BOUNDS
1002
{
1070
    19
1005
18737
1002
}
  0
LINE
  5
18716
330
186F2
100
AcDbEntity
  8
0
100
AcDbLine
 10
18.59799999998143
 20
3.315799999996671
 30
0.0
 11
20.89099999997916
 21
8.763099999991255
 31
0.0
1001
ACAD
1000
ASC_BOUNDS
1002
{
1070
    19
1005
18736
1002
}
  0
LINE
  5
18717
330
186F2
100
AcDbEntity
  8
0
100
AcDbLine
 10
18.59799999998143
 20
3.315799999996671
 30
0.0
 11
16.46099999998353
 21
8.999899999990987
 31
0.0
1001
ACAD
1000
ASC_BOUNDS
1002
{
1070
    19
1005
18736
1002
}
  0
LINE
  5
18718
330
186F2
100
AcDbEntity
  8
0
100
AcDbLine
 10
20.89099999997916
 20
8.763099999991255
 30
0.0
 11
22.38199999997767
 21
8.763099999991255
 31
0.0
1001
ACAD
1000
ASC_BOUNDS
1002
{
1070
    19
1005
18736
1002
}
  0
LINE
  5
18719
330
186F2
100
AcDbEntity
  8
0
100
AcDbLine
 10
24.39299999997559
 20
3.670999999996297
 30
0.0
 11
23.56599999997638
 21
5.5200999999945
 31
0.0
1001
ACAD
1000
ASC_BOUNDS
1002
{
1070
    19
1005
18737
1002
}
  0
LINE
  5
1871A
330
186F2
100
AcDbEntity
  8
0
100
AcDbLine
 10
44.99999999995498
 20
-0.2368999999997641
 30
0.0
 11
40.02599999995994
 21
5.341799999994635
 31
0.0
1001
ACAD
1000
ASC_BOUNDS
1002
{
1070
    19
1005
18739
1002
}
  0
LINE
  5
1871B
330
186F2
100
AcDbEntity
  8
0
100
AcDbLine
 10
40.02599999995994
 20
5.341799999994635
 30
0.0
 11
40.02599999995994
 21
0.0
 31
0.0
1001
ACAD
1000
ASC_BOUNDS
1002
{
1070
    19
1005
18739
1002
}
  0
LINE
  5
1871C
330
186F2
100
AcDbEntity
  8
0
100
AcDbLine
 10
38.60499999996136
 20
8.999999999991019
 30
0.0
 11
38.60499999996136
 21
0.0
 31
0.0
1001
ACAD
1000
ASC_BOUNDS
1002
{
1070
    19
1005
18739
1002
}
  0
LINE
  5
1871D
330
186F2
100
AcDbEntity
  8
0
100
AcDbLine
 10
44.99999999995498
 20
8.763099999991255
 30
0.0
 11
44.99999999995498
 21
-0.2368999999997641
 31
0.0
1001
ACAD
1000
ASC_BOUNDS
1002
{
1070
    19
1005
18739
1002
}
  0
LINE
  5
1871E
330
186F2
100
AcDbEntity
  8
0
100
AcDbLine
 10
38.60499999996136
 20
0.0
 30
0.0
 11
40.02599999995994
 21
0.0
 31
0.0
1001
ACAD
1000
ASC_BOUNDS
1002
{
1070
    19
1005
18739
1002
}
  0
LINE
  5
1871F
330
186F2
100
AcDbEntity
  8
0
100
AcDbLine
 10
43.57899999995641
 20
3.421199999996588
 30
0.0
 11
38.60499999996136
 21
8.999899999990987
 31
0.0
1001
ACAD
1000
ASC_BOUNDS
1002
{
1070
    19
1005
18739
1002
}
  0
LINE
  5
18720
330
186F2
100
AcDbEntity
  8
0
100
AcDbLine
 10
43.57899999995641
 20
8.763099999991255
 30
0.0
 11
43.57899999995641
 21
3.421199999996588
 31
0.0
1001
ACAD
1000
ASC_BOUNDS
1002
{
1070
    19
1005
18739
1002
}
  0
LINE
  5
18721
330
186F2
100
AcDbEntity
  8
0
100
AcDbLine
 10
43.57899999995641
 20
8.763099999991255
 30
0.0
 11
44.99999999995498
 21
8.763099999991255
 31
0.0
1001
ACAD
1000
ASC_BOUNDS
1002
{
1070
    19
1005
18739
1002
}
  0
LINE
  5
18722
330
186F2
100
AcDbEntity
  8
0
100
AcDbLine
 10
37.67199999996831
 20
8.763099999991255
 30
0.0
 11
36.23199999996837
 21
8.763099999991255
 31
0.0
  0
LINE
  5
18723
330
186F2
100
AcDbEntity
  8
0
100
AcDbLine
 10
31.64199999996833
 20
8.763099999991255
 30
0.0
 11
31.64199999996833
 21
2.481619422925121
 31
0.0
  0
LINE
  5
18724
330
186F2
100
AcDbEntity
  8
0
100
AcDbLine
 10
37.67199999996831
 20
8.763099999991255
 30
0.0
 11
37.67199999996831
 21
2.481619422925121
 31
0.0
  0
LINE
  5
18725
330
186F2
100
AcDbEntity
  8
0
100
AcDbLine
 10
36.23199999996837
 20
8.763099999991255
 30
0.0
 11
36.23199999996837
 21
2.481619422925064
 31
0.0
  0
LINE
  5
18726
330
186F2
100
AcDbEntity
  8
0
100
AcDbLine
 10
33.08199999996839
 20
8.763099999991255
 30
0.0
 11
33.08199999996839
 21
2.481619422925121
 31
0.0
  0
ARC
  5
18727
330
186F2
100
AcDbEntity
  8
0
100
AcDbCircle
 10
34.65699999996832
 20
3.183099999991214
 30
0.0
 40
3.420000000000007
100
AcDbArc
 50
240.0000000000255
 51
299.9999999999766
  0
ARC
  5
18728
330
186F2
100
AcDbEntity
  8
0
100
AcDbCircle
 10
34.65699999996832
 20
3.183099999991214
 30
0.0
 40
1.97999999999999
100
AcDbArc
 50
240.000000000026
 51
299.9999999999703
  0
LINE
  5
18729
330
186F2
100
AcDbEntity
  8
0
100
AcDbLine
 10
33.08199999996828
 20
8.763099999991255
 30
0.0
 11
31.64199999996833
 21
8.763099999991255
 31
0.0
  0
ARC
  5
1872A
330
186F2
100
AcDbEntity
  8
0
100
AcDbCircle
 10
35.06199999996829
 20
2.481619422925064
 30
0.0
 40
1.17
100
AcDbArc
 50
299.9999999999699
 51
0.0
  0
ARC
  5
1872B
330
186F2
100
AcDbEntity
  8
0
100
AcDbCircle
 10
34.25199999996835
 20
2.481619422925121
 30
0.0
 40
1.17
100
AcDbArc
 50
180.0
 51
240.0000000000238
  0
ARC
  5
1872C
330
186F2
100
AcDbEntity
  8
0
100
AcDbCircle
 10
35.06199999996841
 20
2.481619422925121
 30
0.0
 40
2.61
100
AcDbArc
 50
299.9999999999756
 51
0.0
  0
ARC
  5
1872D
330
186F2
100
AcDbEntity
  8
0
100
AcDbCircle
 10
34.25199999996835
 20
2.481619422925121
 30
0.0
 40
2.61
100
AcDbArc
 50
180.0
 51
240.0000000000244
  0
LINE
  5
1872E
330
186F2
100
AcDbEntity
  8
0
100
AcDbLine
 10
29.30199999996933
 20
8.763099999991255
 30
0.0
 11
30.74199999996927
 21
8.763099999991255
 31
0.0
1001
ACAD
1000
ASC_BOUNDS
1002
{
1070
    19
1005
18737
1002
}
  0
LINE
  5
1872F
330
186F2
100
AcDbEntity
  8
0
100
AcDbLine
 10
30.74199999996927
 20
8.763099999991255
 30
0.0
 11
30.74199999996927
 21
2.373099999991211
 31
0.0
1001
ACAD
1000
ASC_BOUNDS
1002
{
1070
    19
1005
18737
1002
}
  0
LINE
  5
18730
330
186F2
100
AcDbEntity
  8
0
100
AcDbLine
 10
26.02015566812236
 20
0.0330999999912365
 30
0.0
 11
28.40199999996923
 21
0.0330999999912365
 31
0.0
1001
ACAD
1000
ASC_BOUNDS
1002
{
1070
    19
1005
18737
1002
}
  0
LINE
  5
18731
330
186F2
100
AcDbEntity
  8
0
100
AcDbLine
 10
29.30199999996933
 20
8.763099999991255
 30
0.0
 11
29.30199999996933
 21
2.283099999991236
 31
0.0
1001
ACAD
1000
ASC_BOUNDS
1002
{
1070
    19
1005
18737
1002
}
  0
LINE
  5
18732
330
186F2
100
AcDbEntity
  8
0
100
AcDbLine
 10
26.97358892824991
 20
1.383099999991202
 30
0.0
 11
28.40199999996923
 21
1.383099999991202
 31
0.0
1001
ACAD
1000
ASC_BOUNDS
1002
{
1070
    19
1005
18737
1002
}
  0
ARC
  5
18733
330
186F2
100
AcDbEntity
  8
0
100
AcDbCircle
 10
28.40199999996923
 20
2.283099999991236
 30
0.0
 40
0.9
100
AcDbArc
 50
270.0
 51
0.0
1001
ACAD
1000
ASC_BOUNDS
1002
{
1070
    19
1005
18737
1002
}
  0
ARC
  5
18734
330
186F2
100
AcDbEntity
  8
0
100
AcDbCircle
 10
28.40199999996923
 20
2.373099999991211
 30
0.0
 40
2.34
100
AcDbArc
 50
270.0
 51
0.0
1001
ACAD
1000
ASC_BOUNDS
1002
{
1070
    19
1005
18737
1002
}
  0
INSERT
  5
18735
330
186F2
100
AcDbEntity
  8
0
100
AcDbBlockReference
  2
*X23
 10
0.0
 20
0.0
 30
0.0
1001
ACAD
1000
HATCH
1002
{
1070
    19
1000
ANSI37
1040
0.15
1040
0.0
1000
ASC_BOUNDS
1070
     2
1070
     2
1070
    12
1005
186F4
1005
186F5
1005
186FC
1005
1870B
1005
1870E
1005
1870C
1005
186FD
1005
18702
1005
18700
1005
18704
1005
18703
1005
18705
1070
     2
1070
     3
1005
18710
1005
18712
1005
18711
1000
ASC_SEEDPOINT
1011
3.614004224891801
1021
2.996669441146025
1031
0.0
1000
R14_HATCH_DATA
1000
18735
1011
1.0
1021
0.0
1031
0.0
1011
0.0
1021
1.0
1031
0.0
1011
0.0
1021
0.0
1031
1.0
1040
0.0
1010
0.0
1020
0.0
1030
1.0
1000
ANSI37
1070
     0
1070
     1
1071
        2
1071
        7
1070
     0
1070
     1
1071
       17
1040
13.26299999998673
1040
-0.0001000000000317
1040
9.236999999990758
1040
8.999899999990987
1040
9.236999999990758
1040
8.999999999991019
1040
5.657999999994331
1040
0.9999999999989768
1040
3.181999999996833
1040
4.668599999995308
1040
6.432999999993513
1040
8.763099999991255
1040
4.617999999995391
1040
8.763099999991255
1040
1.420999999998571
1040
4.736799999995242
1040
4.617999999995391
1040
-0.0001000000000317
1040
4.617999999995391
1040
0.0
1040
6.766999999993232
1040
0.0
1040
6.766999999993232
1040
-0.0001000000000317
1040
7.826999999992154
1040
2.368399999997621
1040
10.64699999998936
1040
2.368399999997621
1040
11.70599999998831
1040
-0.0001000000000317
1040
11.70599999998831
1040
0.0
1040
13.26299999998673
1040
0.0
1071
       12
1005
186F4
1005
186F5
1005
186FC
1005
1870B
1005
1870E
1005
1870C
1005
186FD
1005
18702
1005
18700
1005
18704
1005
18703
1005
18705
1071
       22
1070
     0
1070
     1
1071
        3
1040
9.236999999990758
1040
5.5200999999945
1040
10.06399999998996
1040
3.670999999996297
1040
8.409999999991555
1040
3.670999999996297
1071
        3
1005
18710
1005
18712
1005
18711
1070
     0
1070
     1
1040
0.0
1040
0.15
1070
     0
1070
     2
1040
0.7853981633974483
1040
49.29960901727088
1040
-10.17736998311392
1040
-0.3367596045400932
1040
0.3367596045400932
1070
     0
1040
2.356194490192345
1040
49.29960901727088
1040
-10.17736998311392
1040
-0.3367596045400932
1040
-0.3367596045400932
1070
     0
1040
0.0110235143455945
1071
        2
1040
3.614004224891801
1040
2.996669441146025
1040
0.0
1040
3.614004224891801
1040
2.996669441146025
1040
0.0
1002
}
  0
INSERT
  5
18736
330
186F2
100
AcDbEntity
  8
0
100
AcDbBlockReference
  2
*X24
 10
0.0
 20
0.0
 30
0.0
1001
ACAD
1000
HATCH
1002
{
1070
    19
1000
ANSI37
1040
0.15
1040
0.0
1000
ASC_BOUNDS
1070
     1
1070
     2
1070
    10
1005
186F6
1005
186F7
1005
18718
1005
18716
1005
18717
1005
1870A
1005
1870F
1005
18713
1005
186F9
1005
186F8
1000
ASC_SEEDPOINT
1011
14.73245321214324
1021
2.798246178283421
1031
0.0
1000
R14_HATCH_DATA
1000
18736
1011
1.0
1021
0.0
1031
0.0
1011
0.0
1021
1.0
1031
0.0
1011
0.0
1021
0.0
1031
1.0
1040
0.0
1010
0.0
1020
0.0
1030
1.0
1000
ANSI37
1070
     0
1070
     1
1071
        1
1071
        7
1070
     0
1070
     1
1071
       10
1040
16.46099999998353
1040
5.432899999994561
1040
18.59199999998134
1040
-0.2368999999997641
1040
22.38199999997767
1040
8.763099999991255
1040
20.89099999997916
1040
8.763099999991255
1040
18.59799999998143
1040
3.315799999996671
1040
16.46099999998353
1040
8.999899999990987
1040
14.32399999998563
1040
3.315799999996671
1040
12.02999999998792
1040
8.763099999991255
1040
10.53899999998941
1040
8.763099999991255
1040
14.32899999998563
1040
-0.2368999999997641
1071
       10
1005
186F6
1005
186F7
1005
18718
1005
18716
1005
18717
1005
1870A
1005
1870F
1005
18713
1005
186F9
1005
186F8
1070
     0
1070
     1
1040
0.0
1040
0.15
1070
     0
1070
     2
1040
0.7853981633974483
1040
49.29960901727088
1040
-10.17736998311392
1040
-0.3367596045400932
1040
0.3367596045400932
1070
     0
1040
2.356194490192345
1040
49.29960901727088
1040
-10.17736998311392
1040
-0.3367596045400932
1040
-0.3367596045400932
1070
     0
1040
0.0110235143455945
1071
        1
1040
14.73245321214324
1040
2.798246178283421
1040
0.0
1002
}
  0
INSERT
  5
18737
330
186F2
100
AcDbEntity
  8
0
100
AcDbBlockReference
  2
*X25
 10
0.0
 20
0.0
 30
0.0
1001
ACAD
1000
HATCH
1002
{
1070
    19
1000
ANSI37
1040
0.15
1040
0.0
1000
ASC_BOUNDS
1070
     2
1070
     2
1070
    13
1005
186FA
1005
18707
1005
18708
1005
18706
1005
18709
1005
18730
1005
18734
1005
1872F
1005
1872E
1005
18731
1005
18733
1005
18732
1005
186FB
1070
     2
1070
     3
1005
18714
1005
18719
1005
18715
1000
ASC_SEEDPOINT
1011
21.97929957367762
1021
3.294304244259308
1031
0.0
1000
R14_HATCH_DATA
1000
18737
1011
1.0
1021
0.0
1031
0.0
1011
0.0
1021
1.0
1031
0.0
1011
0.0
1021
0.0
1031
1.0
1040
0.0
1010
0.0
1020
0.0
1030
1.0
1000
ANSI37
1070
     0
1070
     1
1071
        2
1071
        7
1070
     1
1070
     1
1071
       15
1040
23.56599999997638
1040
8.999899999990987
1040
0.0
1040
19.53899999998043
1040
-0.0001000000000317
1040
0.0
1040
19.53899999998043
1040
0.0
1040
0.0
1040
21.09599999997886
1040
0.0
1040
0.0
1040
21.09599999997886
1040
-0.0001000000000317
1040
0.0
1040
22.15599999997789
1040
2.368399999997621
1040
0.0
1040
24.97599999997499
1040
2.368399999997621
1040
0.0
1040
26.02015566812236
1040
0.0330999999912365
1040
0.0
1040
28.40199999996923
1040
0.0330999999912365
1040
0.414213562373095
1040
30.74199999996923
1040
2.373099999991211
1040
0.0
1040
30.74199999996927
1040
8.763099999991255
1040
0.0
1040
29.30199999996933
1040
8.763099999991255
1040
0.0
1040
29.30199999996933
1040
2.283099999991236
1040
-0.414213562373095
1040
28.40199999996923
1040
1.383099999991237
1040
0.0
1040
26.97358892824991
1040
1.383099999991202
1040
0.0
1071
       13
1005
186FA
1005
18707
1005
18708
1005
18706
1005
18709
1005
18730
1005
18734
1005
1872F
1005
1872E
1005
18731
1005
18733
1005
18732
1005
186FB
1071
       22
1070
     0
1070
     1
1071
        3
1040
22.7389999999773
1040
3.670999999996297
1040
23.56599999997638
1040
5.5200999999945
1040
24.39299999997559
1040
3.670999999996297
1071
        3
1005
18714
1005
18719
1005
18715
1070
     0
1070
     1
1040
0.0
1040
0.15
1070
     0
1070
     2
1040
0.7853981633974483
1040
49.29960901727088
1040
-10.17736998311392
1040
-0.3367596045400932
1040
0.3367596045400932
1070
     0
1040
2.356194490192345
1040
49.29960901727088
1040
-10.17736998311392
1040
-0.3367596045400932
1040
-0.3367596045400932
1070
     0
1040
0.0110235143455945
1071
        2
1040
21.97929957367762
1040
3.294304244259308
1040
0.0
1040
21.97929957367762
1040
3.294304244259308
1040
0.0
1002
}
  0
INSERT
  5
18738
330
186F2
100
AcDbEntity
  8
0
100
AcDbBlockReference
  2
*X26
 10
0.0
 20
0.0
 30
0.0
1001
ACAD
1000
HATCH
1002
{
1070
    19
1000
ANSI37
1040
0.15
1040
0.0
1000
R14_HATCH_DATA
1000
18738
1011
1.0
1021
0.0
1031
0.0
1011
0.0
1021
1.0
1031
0.0
1011
0.0
1021
0.0
1031
1.0
1040
0.0
1010
0.0
1020
0.0
1030
1.0
1000
ANSI37
1070
     0
1070
     1
1071
        1
1071
        7
1070
     1
1070
     1
1071
       12
1040
31.64199999996833
1040
2.481619422925121
1040
0.2679491924310942
1040
32.94699999997067
1040
0.2212931190493919
1040
0.2679491924301353
1040
36.36699999995983
1040
0.2212931190459813
1040
0.2679491924321411
1040
37.67199999996831
1040
2.481619422928361
1040
0.0
1040
37.67199999996831
1040
8.763099999991255
1040
0.0
1040
36.23199999996837
1040
8.763099999991255
1040
0.0
1040
36.23199999996837
1040
2.481619422925064
1040
-0.2679491924310291
1040
35.64699999996708
1040
1.468369700498386
1040
-0.267949192430519
1040
33.66699999997093
1040
1.468369700497703
1040
-0.267949192431809
1040
33.08199999996839
1040
2.481619422926997
1040
0.0
1040
33.08199999996839
1040
8.763099999991255
1040
0.0
1040
31.64199999996833
1040
8.763099999991255
1040
0.0
1071
        0
1070
     0
1070
     1
1040
0.0
1040
0.15
1070
     0
1070
     2
1040
0.7853981633974483
1040
49.29960901727088
1040
-10.17736998311392
1040
-0.3367596045400932
1040
0.3367596045400932
1070
     0
1040
2.356194490192345
1040
49.29960901727088
1040
-10.17736998311392
1040
-0.3367596045400932
1040
-0.3367596045400932
1070
     0
1040
0.0110235143455945
1071
        1
1040
32.30357378967278
1040
3.988785755459219
1040
0.0
1002
}
  0
INSERT
  5
18739
330
186F2
100
AcDbEntity
  8
0
100
AcDbBlockReference
  2
*X27
 10
0.0
 20
0.0
 30
0.0
1001
ACAD
1000
HATCH
1002
{
1070
    19
1000
ANSI37
1040
0.15
1040
0.0
1000
ASC_BOUNDS
1070
     1
1070
     2
1070
     8
1005
1871A
1005
1871D
1005
18721
1005
18720
1005
1871F
1005
1871C
1005
1871E
1005
1871B
1000
ASC_SEEDPOINT
1011
39.74896370716704
1021
4.484843821435049
1031
0.0
1000
R14_HATCH_DATA
1000
18739
1011
1.0
1021
0.0
1031
0.0
1011
0.0
1021
1.0
1031
0.0
1011
0.0
1021
0.0
1031
1.0
1040
0.0
1010
0.0
1020
0.0
1030
1.0
1000
ANSI37
1070
     0
1070
     1
1071
        1
1071
        7
1070
     0
1070
     1
1071
        9
1040
40.02599999995994
1040
5.341799999994635
1040
44.99999999995498
1040
-0.2368999999997641
1040
44.99999999995498
1040
8.763099999991255
1040
43.57899999995641
1040
8.763099999991255
1040
43.57899999995641
1040
3.421199999996588
1040
38.60499999996136
1040
8.999899999990987
1040
38.60499999996136
1040
8.999999999991019
1040
38.60499999996136
1040
0.0
1040
40.02599999995994
1040
0.0
1071
        8
1005
1871A
1005
1871D
1005
18721
1005
18720
1005
1871F
1005
1871C
1005
1871E
1005
1871B
1070
     0
1070
     1
1040
0.0
1040
0.15
1070
     0
1070
     2
1040
0.7853981633974483
1040
49.29960901727088
1040
-10.17736998311392
1040
-0.3367596045400932
1040
0.3367596045400932
1070
     0
1040
2.356194490192345
1040
49.29960901727088
1040
-10.17736998311392
1040
-0.3367596045400932
1040
-0.3367596045400932
1070
     0
1040
0.0110235143455945
1071
        1
1040
39.74896370716704
1040
4.484843821435049
1040
0.0
1002
}
  0
INSERT
  5
1873A
330
186F2
100
AcDbEntity
  8
0
100
AcDbBlockReference
  2
*X28
 10
0.0
 20
0.0
 30
0.0
1001
ACAD
1000
HATCH
1002
{
1070
    19
1000
ANSI37
1040
0.15
1040
0.0
1000
ASC_BOUNDS
1070
     1
1070
     2
1070
     4
1005
186FE
1005
1870D
1005
186FF
1005
18701
1000
ASC_SEEDPOINT
1011
1.079051535452663
1021
4.148538732891836
1031
0.0
1000
R14_HATCH_DATA
1000
1873A
1011
1.0
1021
0.0
1031
0.0
1011
0.0
1021
1.0
1031
0.0
1011
0.0
1021
0.0
1031
1.0
1040
0.0
1010
0.0
1020
0.0
1030
1.0
1000
ANSI37
1070
     0
1070
     1
1071
        1
1071
        7
1070
     0
1070
     1
1071
        4
1040
1.420999999998571
1040
0.0
1040
1.420999999998571
1040
8.763099999991255
1040
0.0
1040
8.763099999991255
1040
0.0
1040
0.0
1071
        4
1005
186FE
1005
1870D
1005
186FF
1005
18701
1070
     0
1070
     1
1040
0.0
1040
0.15
1070
     0
1070
     2
1040
0.7853981633974483
1040
49.29960901727088
1040
-10.17736998311392
1040
-0.3367596045400932
1040
0.3367596045400932
1070
     0
1040
2.356194490192345
1040
49.29960901727088
1040
-10.17736998311392
1040
-0.3367596045400932
1040
-0.3367596045400932
1070
     0
1040
0.0053004257112761
1071
        1
1040
1.079051535452663
1040
4.148538732891836
1040
0.0
1002
}
  0
ENDBLK
  5
18E01
330
186F2
100
AcDbEntity
  8
0
100
AcDbBlockEnd
  0
BLOCK
  5
1946E
330
192E0
100
AcDbEntity
  8
0
100
AcDbBlockBegin
  2
*X23
 70
     1
 10
0.0
 20
0.0
 30
0.0
  3
*X23
  1

  0
LINE
  5
192E1
330
192E0
100
AcDbEntity
  8
0
  6
CONTINUOUS
100
AcDbLine
 10
3.418023043697893
 20
7.251849696850613
 30
0.0
 11
4.929273346838536
 21
8.763099999991255
 31
0.0
  0
LINE
  5
192E2
330
192E0
100
AcDbEntity
  8
0
  6
CONTINUOUS
100
AcDbLine
 10
1.483656411257782
 20
4.643963855330318
 30
0.0
 11
5.60279255591872
 21
8.763099999991255
 31
0.0
  0
LINE
  5
192E3
330
192E0
100
AcDbEntity
  8
0
  6
CONTINUOUS
100
AcDbLine
 10
1.755053947328235
 20
4.241842182320584
 30
0.0
 11
6.276311764998907
 21
8.763099999991255
 31
0.0
  0
LINE
  5
192E4
330
192E0
100
AcDbEntity
  8
0
  6
CONTINUOUS
100
AcDbLine
 10
2.026451483398688
 20
3.839720509310849
 30
0.0
 11
4.441040904851878
 21
6.254309930764039
 31
0.0
  0
LINE
  5
192E5
330
192E0
100
AcDbEntity
  8
0
  6
CONTINUOUS
100
AcDbLine
 10
2.297849019469139
 20
3.437598836301114
 30
0.0
 11
3.321765168359338
 21
4.461514985191313
 31
0.0
  0
LINE
  5
192E6
330
192E0
100
AcDbEntity
  8
0
  6
CONTINUOUS
100
AcDbLine
 10
2.569246555539591
 20
3.03547716329138
 30
0.0
 11
3.593163397972743
 21
4.059394005724531
 31
0.0
  0
LINE
  5
192E7
330
192E0
100
AcDbEntity
  8
0
  6
CONTINUOUS
100
AcDbLine
 10
2.840644091610043
 20
2.633355490281646
 30
0.0
 11
3.864561627586149
 21
3.657273026257751
 31
0.0
  0
LINE
  5
192E8
330
192E0
100
AcDbEntity
  8
0
  6
CONTINUOUS
100
AcDbLine
 10
3.112041627680496
 20
2.231233817271911
 30
0.0
 11
4.135959857199554
 21
3.25515204679097
 31
0.0
  0
LINE
  5
192E9
330
192E0
100
AcDbEntity
  8
0
  6
CONTINUOUS
100
AcDbLine
 10
3.383439163750948
 20
1.829112144262177
 30
0.0
 11
4.40735808681296
 21
2.853031067324189
 31
0.0
  0
LINE
  5
192EA
330
192E0
100
AcDbEntity
  8
0
  6
CONTINUOUS
100
AcDbLine
 10
3.654836699821399
 20
1.426990471252442
 30
0.0
 11
4.678756316426365
 21
2.450910087857407
 31
0.0
  0
LINE
  5
192EB
330
192E0
100
AcDbEntity
  8
0
  6
CONTINUOUS
100
AcDbLine
 10
3.926234235891853
 20
1.024868798242709
 30
0.0
 11
4.95015454603977
 21
2.048789108390626
 31
0.0
  0
LINE
  5
192EC
330
192E0
100
AcDbEntity
  8
0
  6
CONTINUOUS
100
AcDbLine
 10
4.197631771962304
 20
0.6227471252329737
 30
0.0
 11
5.221552775653176
 21
1.646668128923846
 31
0.0
  0
LINE
  5
192ED
330
192E0
100
AcDbEntity
  8
0
  6
CONTINUOUS
100
AcDbLine
 10
8.715877546767851
 20
7.835069736359266
 30
0.0
 11
9.435953450375058
 21
8.555145639966472
 31
0.0
  0
LINE
  5
192EE
330
192E0
100
AcDbEntity
  8
0
  6
CONTINUOUS
100
AcDbLine
 10
8.170620868422267
 20
6.616293848933497
 30
0.0
 11
9.644120833743461
 21
8.08979381425469
 31
0.0
  0
LINE
  5
192EF
330
192E0
100
AcDbEntity
  8
0
  6
CONTINUOUS
100
AcDbLine
 10
7.625364190076684
 20
5.397517961507727
 30
0.0
 11
9.852288217111864
 21
7.624441988542907
 31
0.0
  0
LINE
  5
192F0
330
192E0
100
AcDbEntity
  8
0
  6
CONTINUOUS
100
AcDbLine
 10
7.080107511731101
 20
4.178742074081957
 30
0.0
 11
10.06045560048027
 21
7.159090162831124
 31
0.0
  0
LINE
  5
192F1
330
192E0
100
AcDbEntity
  8
0
  6
CONTINUOUS
100
AcDbLine
 10
6.534850833385518
 20
2.959966186656187
 30
0.0
 11
10.26862298384867
 21
6.693738337119342
 31
0.0
  0
LINE
  5
192F2
330
192E0
100
AcDbEntity
  8
0
  6
CONTINUOUS
100
AcDbLine
 10
4.469029308032756
 20
0.2206254522232385
 30
0.0
 11
5.492951005266582
 21
1.244547149457064
 31
0.0
  0
LINE
  5
192F3
330
192E0
100
AcDbEntity
  8
0
  6
CONTINUOUS
100
AcDbLine
 10
5.989594155039935
 20
1.741190299230417
 30
0.0
 11
8.806950407233131
 21
4.558546551423613
 31
0.0
  0
LINE
  5
192F4
330
192E0
100
AcDbEntity
  8
0
  6
CONTINUOUS
100
AcDbLine
 10
9.401251593263643
 20
5.152847737454126
 30
0.0
 11
10.47679036721708
 21
6.228386511407559
 31
0.0
  0
LINE
  5
192F5
330
192E0
100
AcDbEntity
  8
0
  6
CONTINUOUS
100
AcDbLine
 10
4.921837203428691
 20
-0.0000858614610131
 30
0.0
 11
8.592923064886001
 21
3.670999999996297
 31
0.0
  0
LINE
  5
192F6
330
192E0
100
AcDbEntity
  8
0
  6
CONTINUOUS
100
AcDbLine
 10
9.609390446785305
 20
4.6874673818956
 30
0.0
 11
10.68495775058548
 21
5.763034685695775
 31
0.0
  0
LINE
  5
192F7
330
192E0
100
AcDbEntity
  8
0
  6
CONTINUOUS
100
AcDbLine
 10
5.595387755019432
 20
-0.0000545189504582
 30
0.0
 11
7.716137258923768
 21
2.120694984953879
 31
0.0
  0
LINE
  5
192F8
330
192E0
100
AcDbEntity
  8
0
  6
CONTINUOUS
100
AcDbLine
 10
6.268938306610172
 20
-0.000023176439905
 30
0.0
 11
7.170485805526503
 21
0.9015243224764267
 31
0.0
  0
LINE
  5
192F9
330
192E0
100
AcDbEntity
  8
0
  6
CONTINUOUS
100
AcDbLine
 10
7.963842273967511
 20
2.368399999997621
 30
0.0
 11
9.266442273966188
 21
3.670999999996297
 31
0.0
  0
LINE
  5
192FA
330
192E0
100
AcDbEntity
  8
0
  6
CONTINUOUS
100
AcDbLine
 10
8.637361483047696
 20
2.368399999997621
 30
0.0
 11
9.939961483046375
 21
3.670999999996297
 31
0.0
  0
LINE
  5
192FB
330
192E0
100
AcDbEntity
  8
0
  6
CONTINUOUS
100
AcDbLine
 10
9.817529300306965
 20
4.222087026337075
 30
0.0
 11
10.89312513395388
 21
5.297682859983993
 31
0.0
  0
LINE
  5
192FC
330
192E0
100
AcDbEntity
  8
0
  6
CONTINUOUS
100
AcDbLine
 10
10.02566815382863
 20
3.756706670778549
 30
0.0
 11
11.10129251732229
 21
4.832331034272211
 31
0.0
  0
LINE
  5
192FD
330
192E0
100
AcDbEntity
  8
0
  6
CONTINUOUS
100
AcDbLine
 10
9.310880692127883
 20
2.368399999997621
 30
0.0
 11
11.30945990069069
 21
4.366979208560428
 31
0.0
  0
LINE
  5
192FE
330
192E0
100
AcDbEntity
  8
0
  6
CONTINUOUS
100
AcDbLine
 10
9.98439990120807
 20
2.36839999999762
 30
0.0
 11
11.5176272840591
 21
3.901627382848645
 31
0.0
  0
LINE
  5
192FF
330
192E0
100
AcDbEntity
  8
0
  6
CONTINUOUS
100
AcDbLine
 10
10.65037369446246
 20
2.36085458417182
 30
0.0
 11
11.7257946674275
 21
3.436275557136862
 31
0.0
  0
LINE
  5
19300
330
192E0
100
AcDbEntity
  8
0
  6
CONTINUOUS
100
AcDbLine
 10
10.85847197087848
 20
1.895433651507656
 30
0.0
 11
11.9339620507959
 21
2.97092373142508
 31
0.0
  0
LINE
  5
19301
330
192E0
100
AcDbEntity
  8
0
  6
CONTINUOUS
100
AcDbLine
 10
11.0665702472945
 20
1.430012718843491
 30
0.0
 11
12.14212943416431
 21
2.505571905713296
 31
0.0
  0
LINE
  5
19302
330
192E0
100
AcDbEntity
  8
0
  6
CONTINUOUS
100
AcDbLine
 10
11.27466852371052
 20
0.9645917861793256
 30
0.0
 11
12.35029681753271
 21
2.040220080001513
 31
0.0
  0
LINE
  5
19303
330
192E0
100
AcDbEntity
  8
0
  6
CONTINUOUS
100
AcDbLine
 10
11.48276680012654
 20
0.4991708535151611
 30
0.0
 11
12.55846420090111
 21
1.57486825428973
 31
0.0
  0
LINE
  5
19304
330
192E0
100
AcDbEntity
  8
0
  6
CONTINUOUS
100
AcDbLine
 10
11.69086507654257
 20
0.0337499208509957
 30
0.0
 11
12.76663158426952
 21
1.109516428577947
 31
0.0
  0
LINE
  5
19305
330
192E0
100
AcDbEntity
  8
0
  6
CONTINUOUS
100
AcDbLine
 10
12.33057447873954
 20
-0.0000598860322123
 30
0.0
 11
12.97479896763792
 21
0.6441646028661663
 31
0.0
  0
LINE
  5
19306
330
192E0
100
AcDbEntity
  8
0
  6
CONTINUOUS
100
AcDbLine
 10
13.00413694809395
 20
-0.0000166257579952
 30
0.0
 11
13.18296635100632
 21
0.1788127771543824
 31
0.0
  0
LINE
  5
19307
330
192E0
100
AcDbEntity
  8
0
  6
CONTINUOUS
100
AcDbLine
 10
4.772852165289667
 20
-0.000092794222212
 30
0.0
 11
4.296495091028902
 21
0.4762642800385528
 31
0.0
  0
LINE
  5
19308
330
192E0
100
AcDbEntity
  8
0
  6
CONTINUOUS
100
AcDbLine
 10
5.446340034776103
 20
-0.0000614546284616
 30
0.0
 11
2.898195908335625
 21
2.548082671812017
 31
0.0
  0
LINE
  5
19309
330
192E0
100
AcDbEntity
  8
0
  6
CONTINUOUS
100
AcDbLine
 10
6.119827904262539
 20
-0.0000301150347113
 30
0.0
 11
1.499896725642348
 21
4.61990106358548
 31
0.0
  0
LINE
  5
1930A
330
192E0
100
AcDbEntity
  8
0
  6
CONTINUOUS
100
AcDbLine
 10
6.775136745476159
 20
0.0181802528318542
 30
0.0
 11
5.699826040202669
 21
1.093490958105344
 31
0.0
  0
LINE
  5
1930B
330
192E0
100
AcDbEntity
  8
0
  6
CONTINUOUS
100
AcDbLine
 10
6.983376846288489
 20
0.4834593610997118
 30
0.0
 11
5.908008617934405
 21
1.558827589453796
 31
0.0
  0
LINE
  5
1930C
330
192E0
100
AcDbEntity
  8
0
  6
CONTINUOUS
100
AcDbLine
 10
5.377063484962296
 20
1.416253513345719
 30
0.0
 11
1.702276957014131
 21
5.091040041293883
 31
0.0
  0
LINE
  5
1930D
330
192E0
100
AcDbEntity
  8
0
  6
CONTINUOUS
100
AcDbLine
 10
3.978745891735324
 20
3.488090315652877
 30
0.0
 11
2.000373521109399
 21
5.466462686278803
 31
0.0
  0
LINE
  5
1930E
330
192E0
100
AcDbEntity
  8
0
  6
CONTINUOUS
100
AcDbLine
 10
7.191616947100819
 20
0.948738469367568
 30
0.0
 11
6.11619119566614
 21
2.024164220802247
 31
0.0
  0
LINE
  5
1930F
330
192E0
100
AcDbEntity
  8
0
  6
CONTINUOUS
100
AcDbLine
 10
7.399857047913149
 20
1.414017577635424
 30
0.0
 11
6.324373773397875
 21
2.489500852150698
 31
0.0
  0
LINE
  5
19310
330
192E0
100
AcDbEntity
  8
0
  6
CONTINUOUS
100
AcDbLine
 10
7.608097148725479
 20
1.879296685903281
 30
0.0
 11
6.53255635112961
 21
2.95483748349915
 31
0.0
  0
LINE
  5
19311
330
192E0
100
AcDbEntity
  8
0
  6
CONTINUOUS
100
AcDbLine
 10
7.816337249537808
 20
2.344575794171138
 30
0.0
 11
6.740738928861345
 21
3.420174114847601
 31
0.0
  0
LINE
  5
19312
330
192E0
100
AcDbEntity
  8
0
  6
CONTINUOUS
100
AcDbLine
 10
3.310241080789734
 20
4.830114335678653
 30
0.0
 11
2.298470085204666
 21
5.84188533126372
 31
0.0
  0
LINE
  5
19313
330
192E0
100
AcDbEntity
  8
0
  6
CONTINUOUS
100
AcDbLine
 10
3.60832983563551
 20
5.205544789913063
 30
0.0
 11
2.596566649299935
 21
6.217307976248638
 31
0.0
  0
LINE
  5
19314
330
192E0
100
AcDbEntity
  8
0
  6
CONTINUOUS
100
AcDbLine
 10
3.906418590481286
 20
5.580975244147473
 30
0.0
 11
2.894663213395203
 21
6.592730621233557
 31
0.0
  0
LINE
  5
19315
330
192E0
100
AcDbEntity
  8
0
  6
CONTINUOUS
100
AcDbLine
 10
4.204507345327062
 20
5.956405698381884
 30
0.0
 11
3.192759777490472
 21
6.968153266218474
 31
0.0
  0
LINE
  5
19316
330
192E0
100
AcDbEntity
  8
0
  6
CONTINUOUS
100
AcDbLine
 10
8.466032252791512
 20
2.368399999997621
 30
0.0
 11
6.948921506593081
 21
3.885510746196053
 31
0.0
  0
LINE
  5
19317
330
192E0
100
AcDbEntity
  8
0
  6
CONTINUOUS
100
AcDbLine
 10
9.139551461871699
 20
2.36839999999762
 30
0.0
 11
7.157104084324816
 21
4.350847377544504
 31
0.0
  0
LINE
  5
19318
330
192E0
100
AcDbEntity
  8
0
  6
CONTINUOUS
100
AcDbLine
 10
4.502596100172839
 20
6.331836152616295
 30
0.0
 11
3.49085634158574
 21
7.343575911203393
 31
0.0
  0
LINE
  5
19319
330
192E0
100
AcDbEntity
  8
0
  6
CONTINUOUS
100
AcDbLine
 10
4.800684855018615
 20
6.707266606850705
 30
0.0
 11
3.788952905681008
 21
7.718998556188312
 31
0.0
  0
LINE
  5
1931A
330
192E0
100
AcDbEntity
  8
0
  6
CONTINUOUS
100
AcDbLine
 10
12.18154012887317
 20
-0.0000694579236642
 30
0.0
 11
11.32140332908496
 21
0.8600673418645499
 31
0.0
  0
LINE
  5
1931B
330
192E0
100
AcDbEntity
  8
0
  6
CONTINUOUS
100
AcDbLine
 10
12.85501608323566
 20
-0.0000262032059659
 30
0.0
 11
10.77672456435345
 21
2.078265315676246
 31
0.0
  0
LINE
  5
1931C
330
192E0
100
AcDbEntity
  8
0
  6
CONTINUOUS
100
AcDbLine
 10
9.813070670951886
 20
2.36839999999762
 30
0.0
 11
8.51047067095321
 21
3.670999999996297
 31
0.0
  0
LINE
  5
1931D
330
192E0
100
AcDbEntity
  8
0
  6
CONTINUOUS
100
AcDbLine
 10
10.48658988003207
 20
2.36839999999762
 30
0.0
 11
9.183989880033396
 21
3.670999999996297
 31
0.0
  0
LINE
  5
1931E
330
192E0
100
AcDbEntity
  8
0
  6
CONTINUOUS
100
AcDbLine
 10
8.441048632286794
 20
3.740422038662712
 30
0.0
 11
7.365286662056551
 21
4.816184008892956
 31
0.0
  0
LINE
  5
1931F
330
192E0
100
AcDbEntity
  8
0
  6
CONTINUOUS
100
AcDbLine
 10
8.649187485808454
 20
4.205802394221237
 30
0.0
 11
7.573469239788285
 21
5.281520640241407
 31
0.0
  0
LINE
  5
19320
330
192E0
100
AcDbEntity
  8
0
  6
CONTINUOUS
100
AcDbLine
 10
5.098773609864391
 20
7.082697061085115
 30
0.0
 11
4.087049469776277
 21
8.09442120117323
 31
0.0
  0
LINE
  5
19321
330
192E0
100
AcDbEntity
  8
0
  6
CONTINUOUS
100
AcDbLine
 10
5.396862364710167
 20
7.458127515319526
 30
0.0
 11
4.385146033871544
 21
8.469843846158149
 31
0.0
  0
LINE
  5
19322
330
192E0
100
AcDbEntity
  8
0
  6
CONTINUOUS
100
AcDbLine
 10
13.04801363231285
 20
0.4804954567970334
 30
0.0
 11
9.85750908911358
 21
3.670999999996297
 31
0.0
  0
LINE
  5
19323
330
192E0
100
AcDbEntity
  8
0
  6
CONTINUOUS
100
AcDbLine
 10
8.857326339330116
 20
4.671182749779763
 30
0.0
 11
7.781651817520021
 21
5.746857271589858
 31
0.0
  0
LINE
  5
19324
330
192E0
100
AcDbEntity
  8
0
  6
CONTINUOUS
100
AcDbLine
 10
5.694951119555943
 20
7.833557969553937
 30
0.0
 11
4.765409089118624
 21
8.763099999991255
 31
0.0
  0
LINE
  5
19325
330
192E0
100
AcDbEntity
  8
0
  6
CONTINUOUS
100
AcDbLine
 10
12.50286117236978
 20
1.699167125820288
 30
0.0
 11
9.68611877250287
 21
4.515909525687196
 31
0.0
  0
LINE
  5
19326
330
192E0
100
AcDbEntity
  8
0
  6
CONTINUOUS
100
AcDbLine
 10
9.065465192851777
 20
5.136563105338288
 30
0.0
 11
7.989834395251757
 21
6.21219390293831
 31
0.0
  0
LINE
  5
19327
330
192E0
100
AcDbEntity
  8
0
  6
CONTINUOUS
100
AcDbLine
 10
5.993039874401719
 20
8.208988423788346
 30
0.0
 11
5.43892829819881
 21
8.763099999991255
 31
0.0
  0
LINE
  5
19328
330
192E0
100
AcDbEntity
  8
0
  6
CONTINUOUS
100
AcDbLine
 10
11.95770871242671
 20
2.917838794843543
 30
0.0
 11
8.19801697298349
 21
6.677530534286761
 31
0.0
  0
LINE
  5
19329
330
192E0
100
AcDbEntity
  8
0
  6
CONTINUOUS
100
AcDbLine
 10
6.291128629247495
 20
8.584418878022756
 30
0.0
 11
6.112447507278997
 21
8.763099999991255
 31
0.0
  0
LINE
  5
1932A
330
192E0
100
AcDbEntity
  8
0
  6
CONTINUOUS
100
AcDbLine
 10
11.41255625248364
 20
4.136510463866797
 30
0.0
 11
8.406199550715227
 21
7.142867165635211
 31
0.0
  0
LINE
  5
1932B
330
192E0
100
AcDbEntity
  8
0
  6
CONTINUOUS
100
AcDbLine
 10
10.86740379254057
 20
5.355182132890051
 30
0.0
 11
8.614382128446962
 21
7.608203796983664
 31
0.0
  0
LINE
  5
1932C
330
192E0
100
AcDbEntity
  8
0
  6
CONTINUOUS
100
AcDbLine
 10
10.3222513325975
 20
6.573853801913305
 30
0.0
 11
8.822564706178696
 21
8.073540428332114
 31
0.0
  0
LINE
  5
1932D
330
192E0
100
AcDbEntity
  8
0
  6
CONTINUOUS
100
AcDbLine
 10
9.777098872654436
 20
7.792525470936562
 30
0.0
 11
9.030747283910433
 21
8.538877059680566
 31
0.0
  0
ENDBLK
  5
1946F
330
192E0
100
AcDbEntity
  8
0
100
AcDbBlockEnd
  0
BLOCK
  5
19470
330
1932E
100
AcDbEntity
  8
0
100
AcDbBlockBegin
  2
*X24
 70
     1
 10
0.0
 20
0.0
 30
0.0
  3
*X24
  1

  0
LINE
  5
1932F
330
1932E
100
AcDbEntity
  8
0
  6
CONTINUOUS
100
AcDbLine
 10
10.67292308101235
 20
8.445076852443387
 30
0.0
 11
10.99094622856022
 21
8.763099999991255
 31
0.0
  0
LINE
  5
19330
330
1932E
100
AcDbEntity
  8
0
  6
CONTINUOUS
100
AcDbLine
 10
10.87250383178748
 20
7.971138394138331
 30
0.0
 11
11.6644654376404
 21
8.763099999991255
 31
0.0
  0
LINE
  5
19331
330
1932E
100
AcDbEntity
  8
0
  6
CONTINUOUS
100
AcDbLine
 10
11.07208458256261
 20
7.497199935833273
 30
0.0
 11
12.12126590876355
 21
8.546381262034211
 31
0.0
  0
LINE
  5
19332
330
1932E
100
AcDbEntity
  8
0
  6
CONTINUOUS
100
AcDbLine
 10
11.27166533333774
 20
7.023261477528216
 30
0.0
 11
12.32085164573666
 21
8.072447789927136
 31
0.0
  0
LINE
  5
19333
330
1932E
100
AcDbEntity
  8
0
  6
CONTINUOUS
100
AcDbLine
 10
11.47124608411287
 20
6.549323019223158
 30
0.0
 11
12.52043738270977
 21
7.59851431782006
 31
0.0
  0
LINE
  5
19334
330
1932E
100
AcDbEntity
  8
0
  6
CONTINUOUS
100
AcDbLine
 10
11.670826834888
 20
6.075384560918101
 30
0.0
 11
12.72002311968288
 21
7.124580845712984
 31
0.0
  0
LINE
  5
19335
330
1932E
100
AcDbEntity
  8
0
  6
CONTINUOUS
100
AcDbLine
 10
11.87040758566313
 20
5.601446102613043
 30
0.0
 11
12.91960885665599
 21
6.650647373605907
 31
0.0
  0
LINE
  5
19336
330
1932E
100
AcDbEntity
  8
0
  6
CONTINUOUS
100
AcDbLine
 10
12.06998833643825
 20
5.127507644307986
 30
0.0
 11
13.1191945936291
 21
6.176713901498832
 31
0.0
  0
LINE
  5
19337
330
1932E
100
AcDbEntity
  8
0
  6
CONTINUOUS
100
AcDbLine
 10
12.26956908721338
 20
4.65356918600293
 30
0.0
 11
13.31878033060221
 21
5.702780429391757
 31
0.0
  0
LINE
  5
19338
330
1932E
100
AcDbEntity
  8
0
  6
CONTINUOUS
100
AcDbLine
 10
12.46914983798851
 20
4.179630727697873
 30
0.0
 11
13.51836606757532
 21
5.228846957284683
 31
0.0
  0
LINE
  5
19339
330
1932E
100
AcDbEntity
  8
0
  6
CONTINUOUS
100
AcDbLine
 10
12.66873058876364
 20
3.705692269392816
 30
0.0
 11
13.71795180454843
 21
4.754913485177607
 31
0.0
  0
LINE
  5
1933A
330
1932E
100
AcDbEntity
  8
0
  6
CONTINUOUS
100
AcDbLine
 10
12.86831133953877
 20
3.231753811087759
 30
0.0
 11
13.91753754152154
 21
4.280980013070531
 31
0.0
  0
LINE
  5
1933B
330
1932E
100
AcDbEntity
  8
0
  6
CONTINUOUS
100
AcDbLine
 10
13.0678920903139
 20
2.757815352782702
 30
0.0
 11
14.11712327849465
 21
3.807046540963456
 31
0.0
  0
LINE
  5
1933C
330
1932E
100
AcDbEntity
  8
0
  6
CONTINUOUS
100
AcDbLine
 10
13.26747284108903
 20
2.283876894477644
 30
0.0
 11
14.31670901546777
 21
3.333113068856379
 31
0.0
  0
LINE
  5
1933D
330
1932E
100
AcDbEntity
  8
0
  6
CONTINUOUS
100
AcDbLine
 10
16.36767838827179
 20
8.751678487061342
 30
0.0
 11
16.50332410898388
 21
8.887324207773432
 31
0.0
  0
LINE
  5
1933E
330
1932E
100
AcDbEntity
  8
0
  6
CONTINUOUS
100
AcDbLine
 10
15.96190732182191
 20
7.67238821153127
 30
0.0
 11
16.68735328004734
 21
8.397834169756699
 31
0.0
  0
LINE
  5
1933F
330
1932E
100
AcDbEntity
  8
0
  6
CONTINUOUS
100
AcDbLine
 10
15.55613625537202
 20
6.593097936001196
 30
0.0
 11
16.87138245111079
 21
7.908344131739965
 31
0.0
  0
LINE
  5
19340
330
1932E
100
AcDbEntity
  8
0
  6
CONTINUOUS
100
AcDbLine
 10
15.15036518892213
 20
5.513807660471122
 30
0.0
 11
17.05541162217424
 21
7.418854093723231
 31
0.0
  0
LINE
  5
19341
330
1932E
100
AcDbEntity
  8
0
  6
CONTINUOUS
100
AcDbLine
 10
14.74459412247225
 20
4.434517384941048
 30
0.0
 11
17.2394407932377
 21
6.929364055706499
 31
0.0
  0
LINE
  5
19342
330
1932E
100
AcDbEntity
  8
0
  6
CONTINUOUS
100
AcDbLine
 10
14.33882305602236
 20
3.355227109410975
 30
0.0
 11
17.42346996430115
 21
6.439874017689766
 31
0.0
  0
LINE
  5
19343
330
1932E
100
AcDbEntity
  8
0
  6
CONTINUOUS
100
AcDbLine
 10
13.46705359186416
 20
1.809938436172586
 30
0.0
 11
16.0819338255367
 21
4.424818669845129
 31
0.0
  0
LINE
  5
19344
330
1932E
100
AcDbEntity
  8
0
  6
CONTINUOUS
100
AcDbLine
 10
16.63283254238972
 20
4.975717386698149
 30
0.0
 11
17.60749913536461
 21
5.950383979673033
 31
0.0
  0
LINE
  5
19345
330
1932E
100
AcDbEntity
  8
0
  6
CONTINUOUS
100
AcDbLine
 10
13.66663434263929
 20
1.335999977867529
 30
0.0
 11
15.67604797733754
 21
3.345413612565779
 31
0.0
  0
LINE
  5
19346
330
1932E
100
AcDbEntity
  8
0
  6
CONTINUOUS
100
AcDbLine
 10
13.86621509341442
 20
0.8620615195624723
 30
0.0
 11
15.27016212913838
 21
2.26600855528643
 31
0.0
  0
LINE
  5
19347
330
1932E
100
AcDbEntity
  8
0
  6
CONTINUOUS
100
AcDbLine
 10
16.81682257348267
 20
4.486188208710908
 30
0.0
 11
17.79152830642806
 21
5.460893941656299
 31
0.0
  0
LINE
  5
19348
330
1932E
100
AcDbEntity
  8
0
  6
CONTINUOUS
100
AcDbLine
 10
17.00081260457561
 20
3.996659030723667
 30
0.0
 11
17.97555747749151
 21
4.971403903639565
 31
0.0
  0
LINE
  5
19349
330
1932E
100
AcDbEntity
  8
0
  6
CONTINUOUS
100
AcDbLine
 10
20.74362343514722
 20
8.412989070375462
 30
0.0
 11
21.09373436476302
 21
8.763099999991256
 31
0.0
  0
LINE
  5
1934A
330
1932E
100
AcDbEntity
  8
0
  6
CONTINUOUS
100
AcDbLine
 10
20.25401257174777
 20
7.249858997895826
 30
0.0
 11
21.7672535738432
 21
8.763099999991255
 31
0.0
  0
LINE
  5
1934B
330
1932E
100
AcDbEntity
  8
0
  6
CONTINUOUS
100
AcDbLine
 10
14.06579584418955
 20
0.3881230612574149
 30
0.0
 11
14.86427628093921
 21
1.186603498007082
 31
0.0
  0
LINE
  5
1934C
330
1932E
100
AcDbEntity
  8
0
  6
CONTINUOUS
100
AcDbLine
 10
14.26537659496467
 20
-0.0858153970476412
 30
0.0
 11
14.45839043274005
 21
0.1071984407277329
 31
0.0
  0
LINE
  5
1934D
330
1932E
100
AcDbEntity
  8
0
  6
CONTINUOUS
100
AcDbLine
 10
17.18480263566856
 20
3.507129852736426
 30
0.0
 11
18.15958664855496
 21
4.481913865622833
 31
0.0
  0
LINE
  5
1934E
330
1932E
100
AcDbEntity
  8
0
  6
CONTINUOUS
100
AcDbLine
 10
17.3687926667615
 20
3.017600674749186
 30
0.0
 11
18.34361581961842
 21
3.9924238276061
 31
0.0
  0
LINE
  5
1934F
330
1932E
100
AcDbEntity
  8
0
  6
CONTINUOUS
100
AcDbLine
 10
19.76440170834832
 20
6.086728925416191
 30
0.0
 11
22.33924590259489
 21
8.661573119662755
 31
0.0
  0
LINE
  5
19350
330
1932E
100
AcDbEntity
  8
0
  6
CONTINUOUS
100
AcDbLine
 10
19.27479084494887
 20
4.923598852936555
 30
0.0
 11
21.84929622842713
 21
7.498104236414807
 31
0.0
  0
LINE
  5
19351
330
1932E
100
AcDbEntity
  8
0
  6
CONTINUOUS
100
AcDbLine
 10
17.55278269785445
 20
2.528071496761945
 30
0.0
 11
18.52764499068187
 21
3.502933789589366
 31
0.0
  0
LINE
  5
19352
330
1932E
100
AcDbEntity
  8
0
  6
CONTINUOUS
100
AcDbLine
 10
18.78517998154942
 20
3.760468780456919
 30
0.0
 11
21.35934655425936
 21
6.33463535316686
 31
0.0
  0
LINE
  5
19353
330
1932E
100
AcDbEntity
  8
0
  6
CONTINUOUS
100
AcDbLine
 10
17.73677272894739
 20
2.038542318774704
 30
0.0
 11
20.8693968800916
 21
5.171166469918914
 31
0.0
  0
LINE
  5
19354
330
1932E
100
AcDbEntity
  8
0
  6
CONTINUOUS
100
AcDbLine
 10
17.92076276004034
 20
1.549013140787464
 30
0.0
 11
20.37944720592384
 21
4.007697586670968
 31
0.0
  0
LINE
  5
19355
330
1932E
100
AcDbEntity
  8
0
  6
CONTINUOUS
100
AcDbLine
 10
18.10475279113329
 20
1.059483962800223
 30
0.0
 11
19.88949753175608
 21
2.84422870342302
 31
0.0
  0
LINE
  5
19356
330
1932E
100
AcDbEntity
  8
0
  6
CONTINUOUS
100
AcDbLine
 10
18.28874282222623
 20
0.5699547848129822
 30
0.0
 11
19.39954785758832
 21
1.680759820175074
 31
0.0
  0
LINE
  5
19357
330
1932E
100
AcDbEntity
  8
0
  6
CONTINUOUS
100
AcDbLine
 10
18.47273285331918
 20
0.0804256068257416
 30
0.0
 11
18.90959818342056
 21
0.517290936927127
 31
0.0
  0
LINE
  5
19358
330
1932E
100
AcDbEntity
  8
0
  6
CONTINUOUS
100
AcDbLine
 10
14.3590401358224
 20
-0.1570118376323384
 30
0.0
 11
14.24903296539946
 21
-0.0470046672093929
 31
0.0
  0
LINE
  5
19359
330
1932E
100
AcDbEntity
  8
0
  6
CONTINUOUS
100
AcDbLine
 10
14.54309291258661
 20
0.332454594683643
 30
0.0
 11
13.75908329123172
 21
1.116464216038529
 31
0.0
  0
LINE
  5
1935A
330
1932E
100
AcDbEntity
  8
0
  6
CONTINUOUS
100
AcDbLine
 10
14.72714568935081
 20
0.8219210269996244
 30
0.0
 11
13.26913361706399
 21
2.27993309928645
 31
0.0
  0
LINE
  5
1935B
330
1932E
100
AcDbEntity
  8
0
  6
CONTINUOUS
100
AcDbLine
 10
14.91119846611502
 20
1.311387459315606
 30
0.0
 11
12.77918394289625
 21
3.443401982534371
 31
0.0
  0
LINE
  5
1935C
330
1932E
100
AcDbEntity
  8
0
  6
CONTINUOUS
100
AcDbLine
 10
15.09525124287922
 20
1.800853891631587
 30
0.0
 11
12.28923426872852
 21
4.606870865782293
 31
0.0
  0
LINE
  5
1935D
330
1932E
100
AcDbEntity
  8
0
  6
CONTINUOUS
100
AcDbLine
 10
15.27930401964343
 20
2.290320323947569
 30
0.0
 11
11.79928459456078
 21
5.770339749030213
 31
0.0
  0
LINE
  5
1935E
330
1932E
100
AcDbEntity
  8
0
  6
CONTINUOUS
100
AcDbLine
 10
15.46335679640763
 20
2.77978675626355
 30
0.0
 11
14.48885470994921
 21
3.754288842721972
 31
0.0
  0
LINE
  5
1935F
330
1932E
100
AcDbEntity
  8
0
  6
CONTINUOUS
100
AcDbLine
 10
13.88507249233704
 20
4.358071060334137
 30
0.0
 11
11.30933492039305
 21
6.933808632278135
 31
0.0
  0
LINE
  5
19360
330
1932E
100
AcDbEntity
  8
0
  6
CONTINUOUS
100
AcDbLine
 10
18.75840522805855
 20
0.1582575336928151
 30
0.0
 11
18.25383727664818
 21
0.6628254851031863
 31
0.0
  0
LINE
  5
19361
330
1932E
100
AcDbEntity
  8
0
  6
CONTINUOUS
100
AcDbLine
 10
15.64740957317184
 20
3.269253188579531
 30
0.0
 11
14.67288388101266
 21
4.243778880738705
 31
0.0
  0
LINE
  5
19362
330
1932E
100
AcDbEntity
  8
0
  6
CONTINUOUS
100
AcDbLine
 10
13.39509276772158
 20
5.521569994029786
 30
0.0
 11
10.81938524622531
 21
8.097277515526056
 31
0.0
  0
LINE
  5
19363
330
1932E
100
AcDbEntity
  8
0
  6
CONTINUOUS
100
AcDbLine
 10
18.95798597883369
 20
0.6321959919978686
 30
0.0
 11
17.84825644852853
 21
1.741925522303024
 31
0.0
  0
LINE
  5
19364
330
1932E
100
AcDbEntity
  8
0
  6
CONTINUOUS
100
AcDbLine
 10
19.15756672960882
 20
1.106134450302922
 30
0.0
 11
17.44267562040888
 21
2.821025559502861
 31
0.0
  0
LINE
  5
19365
330
1932E
100
AcDbEntity
  8
0
  6
CONTINUOUS
100
AcDbLine
 10
15.83146234993604
 20
3.758719620895513
 30
0.0
 11
14.85691305207612
 21
4.733268918755439
 31
0.0
  0
LINE
  5
19366
330
1932E
100
AcDbEntity
  8
0
  6
CONTINUOUS
100
AcDbLine
 10
16.01551512670025
 20
4.248186053211494
 30
0.0
 11
15.04094222313957
 21
5.222758956772172
 31
0.0
  0
LINE
  5
19367
330
1932E
100
AcDbEntity
  8
0
  6
CONTINUOUS
100
AcDbLine
 10
12.90511304310612
 20
6.685068927725435
 30
0.0
 11
10.8270819708403
 21
8.763099999991255
 31
0.0
  0
LINE
  5
19368
330
1932E
100
AcDbEntity
  8
0
  6
CONTINUOUS
100
AcDbLine
 10
12.41513331849066
 20
7.848567861421083
 30
0.0
 11
11.50060117992049
 21
8.763099999991255
 31
0.0
  0
LINE
  5
19369
330
1932E
100
AcDbEntity
  8
0
  6
CONTINUOUS
100
AcDbLine
 10
19.35714748038395
 20
1.580072908607975
 30
0.0
 11
17.03709479228923
 21
3.900125596702697
 31
0.0
  0
LINE
  5
1936A
330
1932E
100
AcDbEntity
  8
0
  6
CONTINUOUS
100
AcDbLine
 10
19.55672823115909
 20
2.054011366913028
 30
0.0
 11
16.63151396416958
 21
4.979225633902534
 31
0.0
  0
LINE
  5
1936B
330
1932E
100
AcDbEntity
  8
0
  6
CONTINUOUS
100
AcDbLine
 10
16.19956790346445
 20
4.737652485527476
 30
0.0
 11
15.22497139420302
 21
5.712248994788904
 31
0.0
  0
LINE
  5
1936C
330
1932E
100
AcDbEntity
  8
0
  6
CONTINUOUS
100
AcDbLine
 10
16.38362068022866
 20
5.227118917843457
 30
0.0
 11
15.40900056526648
 21
6.201739032805637
 31
0.0
  0
LINE
  5
1936D
330
1932E
100
AcDbEntity
  8
0
  6
CONTINUOUS
100
AcDbLine
 10
19.75630898193422
 20
2.527949825218081
 30
0.0
 11
18.70774536448286
 21
3.576513442669441
 31
0.0
  0
LINE
  5
1936E
330
1932E
100
AcDbEntity
  8
0
  6
CONTINUOUS
100
AcDbLine
 10
19.95588973270936
 20
3.001888283523134
 30
0.0
 11
18.90726987211446
 21
4.050508144118028
 31
0.0
  0
LINE
  5
1936F
330
1932E
100
AcDbEntity
  8
0
  6
CONTINUOUS
100
AcDbLine
 10
20.15547048348449
 20
3.475826741828186
 30
0.0
 11
19.10679437974606
 21
4.524502845566614
 31
0.0
  0
LINE
  5
19370
330
1932E
100
AcDbEntity
  8
0
  6
CONTINUOUS
100
AcDbLine
 10
20.35505123425962
 20
3.94976520013324
 30
0.0
 11
19.30631888737766
 21
4.998497547015201
 31
0.0
  0
LINE
  5
19371
330
1932E
100
AcDbEntity
  8
0
  6
CONTINUOUS
100
AcDbLine
 10
20.55463198503475
 20
4.423703658438292
 30
0.0
 11
19.50584339500926
 21
5.472492248463787
 31
0.0
  0
LINE
  5
19372
330
1932E
100
AcDbEntity
  8
0
  6
CONTINUOUS
100
AcDbLine
 10
18.37481191085755
 20
3.909446896294752
 30
0.0
 11
15.59302973632993
 21
6.691229070822371
 31
0.0
  0
LINE
  5
19373
330
1932E
100
AcDbEntity
  8
0
  6
CONTINUOUS
100
AcDbLine
 10
17.96904084440766
 20
4.988737171824825
 30
0.0
 11
15.77705890739338
 21
7.180719108839104
 31
0.0
  0
LINE
  5
19374
330
1932E
100
AcDbEntity
  8
0
  6
CONTINUOUS
100
AcDbLine
 10
17.56326977795777
 20
6.068027447354899
 30
0.0
 11
15.96108807845684
 21
7.670209146855838
 31
0.0
  0
LINE
  5
19375
330
1932E
100
AcDbEntity
  8
0
  6
CONTINUOUS
100
AcDbLine
 10
17.15749871150789
 20
7.147317722884972
 30
0.0
 11
16.14511724952029
 21
8.15969918487257
 31
0.0
  0
LINE
  5
19376
330
1932E
100
AcDbEntity
  8
0
  6
CONTINUOUS
100
AcDbLine
 10
16.751727645058
 20
8.226607998415046
 30
0.0
 11
16.32914642058374
 21
8.649189222889303
 31
0.0
  0
LINE
  5
19377
330
1932E
100
AcDbEntity
  8
0
  6
CONTINUOUS
100
AcDbLine
 10
20.75421273580989
 20
4.897642116743345
 30
0.0
 11
19.70536790264086
 21
5.946486949912374
 31
0.0
  0
LINE
  5
19378
330
1932E
100
AcDbEntity
  8
0
  6
CONTINUOUS
100
AcDbLine
 10
20.95379348658502
 20
5.371580575048398
 30
0.0
 11
19.90489241027246
 21
6.42048165136096
 31
0.0
  0
LINE
  5
19379
330
1932E
100
AcDbEntity
  8
0
  6
CONTINUOUS
100
AcDbLine
 10
21.15337423736015
 20
5.845519033353452
 30
0.0
 11
20.10441691790406
 21
6.894476352809547
 31
0.0
  0
LINE
  5
1937A
330
1932E
100
AcDbEntity
  8
0
  6
CONTINUOUS
100
AcDbLine
 10
21.35295498813529
 20
6.319457491658505
 30
0.0
 11
20.30394142553566
 21
7.368471054258134
 31
0.0
  0
LINE
  5
1937B
330
1932E
100
AcDbEntity
  8
0
  6
CONTINUOUS
100
AcDbLine
 10
21.55253573891042
 20
6.793395949963558
 30
0.0
 11
20.50346593316726
 21
7.842465755706721
 31
0.0
  0
LINE
  5
1937C
330
1932E
100
AcDbEntity
  8
0
  6
CONTINUOUS
100
AcDbLine
 10
21.75211648968556
 20
7.267334408268612
 30
0.0
 11
20.70299044079886
 21
8.316460457155308
 31
0.0
  0
LINE
  5
1937D
330
1932E
100
AcDbEntity
  8
0
  6
CONTINUOUS
100
AcDbLine
 10
21.95169724046069
 20
7.741272866573663
 30
0.0
 11
20.9298701070431
 21
8.763099999991256
 31
0.0
  0
LINE
  5
1937E
330
1932E
100
AcDbEntity
  8
0
  6
CONTINUOUS
100
AcDbLine
 10
22.15127799123582
 20
8.215211324878716
 30
0.0
 11
21.60338931612328
 21
8.763099999991256
 31
0.0
  0
LINE
  5
1937F
330
1932E
100
AcDbEntity
  8
0
  6
CONTINUOUS
100
AcDbLine
 10
22.35085874201096
 20
8.689149783183769
 30
0.0
 11
22.27690852520347
 21
8.763099999991255
 31
0.0
  0
ENDBLK
  5
19471
330
1932E
100
AcDbEntity
  8
0
100
AcDbBlockEnd
  0
BLOCK
  5
19472
330
19380
100
AcDbEntity
  8
0
100
AcDbBlockBegin
  2
*X25
 70
     1
 10
0.0
 20
0.0
 30
0.0
  3
*X25
  1

  0
LINE
  5
19381
330
19380
100
AcDbEntity
  8
0
  6
CONTINUOUS
100
AcDbLine
 10
23.19462913593892
 20
8.169917934846424
 30
0.0
 11
23.70775465517246
 21
8.683043454079957
 31
0.0
  0
LINE
  5
19382
330
19380
100
AcDbEntity
  8
0
  6
CONTINUOUS
100
AcDbLine
 10
22.64923161835078
 20
6.951001208178088
 30
0.0
 11
23.9159364069932
 21
8.217705996820516
 31
0.0
  0
LINE
  5
19383
330
19380
100
AcDbEntity
  8
0
  6
CONTINUOUS
100
AcDbLine
 10
22.10383410076263
 20
5.732084481509751
 30
0.0
 11
24.12411815881395
 21
7.752368539561078
 31
0.0
  0
LINE
  5
19384
330
19380
100
AcDbEntity
  8
0
  6
CONTINUOUS
100
AcDbLine
 10
21.55843658317447
 20
4.513167754841414
 30
0.0
 11
24.3322999106347
 21
7.287031082301639
 31
0.0
  0
LINE
  5
19385
330
19380
100
AcDbEntity
  8
0
  6
CONTINUOUS
100
AcDbLine
 10
21.01303906558632
 20
3.294251028173077
 30
0.0
 11
24.54048166245544
 21
6.821693625042199
 31
0.0
  0
LINE
  5
19386
330
19380
100
AcDbEntity
  8
0
  6
CONTINUOUS
100
AcDbLine
 10
20.46764154799817
 20
2.075334301504738
 30
0.0
 11
23.28571549467848
 21
4.89340824818505
 31
0.0
  0
LINE
  5
19387
330
19380
100
AcDbEntity
  8
0
  6
CONTINUOUS
100
AcDbLine
 10
19.92224403041002
 20
0.8564175748364002
 30
0.0
 11
22.74075865492779
 21
3.674932199354171
 31
0.0
  0
LINE
  5
19388
330
19380
100
AcDbEntity
  8
0
  6
CONTINUOUS
100
AcDbLine
 10
23.67305085490148
 20
5.280743608408048
 30
0.0
 11
24.74866341427619
 21
6.356356167782759
 31
0.0
  0
LINE
  5
19389
330
19380
100
AcDbEntity
  8
0
  6
CONTINUOUS
100
AcDbLine
 10
23.88118970842314
 20
4.815363252849522
 30
0.0
 11
24.95684516609694
 21
5.89101871052332
 31
0.0
  0
LINE
  5
1938A
330
19380
100
AcDbEntity
  8
0
  6
CONTINUOUS
100
AcDbLine
 10
19.73925852647308
 20
-0.0000871381807288
 30
0.0
 11
23.4103456646501
 21
3.670999999996297
 31
0.0
  0
LINE
  5
1938B
330
19380
100
AcDbEntity
  8
0
  6
CONTINUOUS
100
AcDbLine
 10
24.0893285619448
 20
4.349982897290997
 30
0.0
 11
25.16502691791769
 21
5.42568125326388
 31
0.0
  0
LINE
  5
1938C
330
19380
100
AcDbEntity
  8
0
  6
CONTINUOUS
100
AcDbLine
 10
20.41282099582748
 20
-0.0000438779065108
 30
0.0
 11
21.64944178675636
 21
1.236576913022366
 31
0.0
  0
LINE
  5
1938D
330
19380
100
AcDbEntity
  8
0
  6
CONTINUOUS
100
AcDbLine
 10
22.78126487373161
 20
2.36839999999762
 30
0.0
 11
24.08386487373029
 21
3.670999999996297
 31
0.0
  0
LINE
  5
1938E
330
19380
100
AcDbEntity
  8
0
  6
CONTINUOUS
100
AcDbLine
 10
24.29746741546646
 20
3.884602541732471
 30
0.0
 11
25.37320866973843
 21
4.960343796004441
 31
0.0
  0
LINE
  5
1938F
330
19380
100
AcDbEntity
  8
0
  6
CONTINUOUS
100
AcDbLine
 10
21.08638346518189
 20
-0.0000006176322938
 30
0.0
 11
21.10379033335899
 21
0.0174062505448083
 31
0.0
  0
LINE
  5
19390
330
19380
100
AcDbEntity
  8
0
  6
CONTINUOUS
100
AcDbLine
 10
23.4547840828118
 20
2.36839999999762
 30
0.0
 11
25.58139042155918
 21
4.495006338745002
 31
0.0
  0
LINE
  5
19391
330
19380
100
AcDbEntity
  8
0
  6
CONTINUOUS
100
AcDbLine
 10
29.30199999996933
 20
8.215615917155148
 30
0.0
 11
29.84948408280543
 21
8.763099999991255
 31
0.0
  0
LINE
  5
19392
330
19380
100
AcDbEntity
  8
0
  6
CONTINUOUS
100
AcDbLine
 10
24.12830329189199
 20
2.36839999999762
 30
0.0
 11
25.78957217337993
 21
4.029668881485562
 31
0.0
  0
LINE
  5
19393
330
19380
100
AcDbEntity
  8
0
  6
CONTINUOUS
100
AcDbLine
 10
29.30199999996933
 20
7.54209670807496
 30
0.0
 11
30.52300329188562
 21
8.763099999991255
 31
0.0
  0
LINE
  5
19394
330
19380
100
AcDbEntity
  8
0
  6
CONTINUOUS
100
AcDbLine
 10
24.80182250097217
 20
2.36839999999762
 30
0.0
 11
25.99775392520067
 21
3.564331424226122
 31
0.0
  0
LINE
  5
19395
330
19380
100
AcDbEntity
  8
0
  6
CONTINUOUS
100
AcDbLine
 10
29.30199999996933
 20
6.868577498994774
 30
0.0
 11
30.74199999996926
 21
8.308577498994712
 31
0.0
  0
LINE
  5
19396
330
19380
100
AcDbEntity
  8
0
  6
CONTINUOUS
100
AcDbLine
 10
25.13028238392013
 20
2.023340673865392
 30
0.0
 11
26.20593567702142
 21
3.098993966966683
 31
0.0
  0
LINE
  5
19397
330
19380
100
AcDbEntity
  8
0
  6
CONTINUOUS
100
AcDbLine
 10
25.33838066033617
 20
1.557919741201244
 30
0.0
 11
26.41411742884217
 21
2.633656509707244
 31
0.0
  0
LINE
  5
19398
330
19380
100
AcDbEntity
  8
0
  6
CONTINUOUS
100
AcDbLine
 10
25.54647893675221
 20
1.092498808537098
 30
0.0
 11
26.62229918066291
 21
2.168319052447804
 31
0.0
  0
LINE
  5
19399
330
19380
100
AcDbEntity
  8
0
  6
CONTINUOUS
100
AcDbLine
 10
25.75457721316825
 20
0.62707787587295
 30
0.0
 11
26.83048093248366
 21
1.702981595188365
 31
0.0
  0
LINE
  5
1939A
330
19380
100
AcDbEntity
  8
0
  6
CONTINUOUS
100
AcDbLine
 10
29.30199999996933
 20
6.195058289914587
 30
0.0
 11
30.74199999996926
 21
7.635058289914522
 31
0.0
  0
LINE
  5
1939B
330
19380
100
AcDbEntity
  8
0
  6
CONTINUOUS
100
AcDbLine
 10
29.30199999996933
 20
5.521539080834401
 30
0.0
 11
30.74199999996926
 21
6.961539080834331
 31
0.0
  0
LINE
  5
1939C
330
19380
100
AcDbEntity
  8
0
  6
CONTINUOUS
100
AcDbLine
 10
29.30199999996933
 20
4.848019871754214
 30
0.0
 11
30.74199999996925
 21
6.288019871754143
 31
0.0
  0
LINE
  5
1939D
330
19380
100
AcDbEntity
  8
0
  6
CONTINUOUS
100
AcDbLine
 10
29.30199999996933
 20
4.174500662674028
 30
0.0
 11
30.74199999996925
 21
5.614500662673953
 31
0.0
  0
LINE
  5
1939E
330
19380
100
AcDbEntity
  8
0
  6
CONTINUOUS
100
AcDbLine
 10
25.96267548958429
 20
0.1616569432088024
 30
0.0
 11
27.18411854636669
 21
1.383099999991207
 31
0.0
  0
LINE
  5
1939F
330
19380
100
AcDbEntity
  8
0
  6
CONTINUOUS
100
AcDbLine
 10
29.30199999996933
 20
3.500981453593841
 30
0.0
 11
30.74199999996925
 21
4.940981453593762
 31
0.0
  0
LINE
  5
193A0
330
19380
100
AcDbEntity
  8
0
  6
CONTINUOUS
100
AcDbLine
 10
26.50763775544691
 20
0.0330999999912356
 30
0.0
 11
27.85763775544689
 21
1.383099999991223
 31
0.0
  0
LINE
  5
193A1
330
19380
100
AcDbEntity
  8
0
  6
CONTINUOUS
100
AcDbLine
 10
29.30199999996933
 20
2.827462244513656
 30
0.0
 11
30.74199999996925
 21
4.267462244513574
 31
0.0
  0
LINE
  5
193A2
330
19380
100
AcDbEntity
  8
0
  6
CONTINUOUS
100
AcDbLine
 10
27.18115696452709
 20
0.0330999999912356
 30
0.0
 11
28.55073879889363
 21
1.402681834357775
 31
0.0
  0
LINE
  5
193A3
330
19380
100
AcDbEntity
  8
0
  6
CONTINUOUS
100
AcDbLine
 10
29.28241816560272
 20
2.134361201066866
 30
0.0
 11
30.74199999996924
 21
3.593943035433383
 31
0.0
  0
LINE
  5
193A4
330
19380
100
AcDbEntity
  8
0
  6
CONTINUOUS
100
AcDbLine
 10
27.85467617360728
 20
0.0330999999912356
 30
0.0
 11
30.74199999996924
 21
2.920423826353195
 31
0.0
  0
LINE
  5
193A5
330
19380
100
AcDbEntity
  8
0
  6
CONTINUOUS
100
AcDbLine
 10
28.53897559587887
 20
0.0438802131826428
 30
0.0
 11
30.73121978677781
 21
2.236124404081585
 31
0.0
  0
LINE
  5
193A6
330
19380
100
AcDbEntity
  8
0
  6
CONTINUOUS
100
AcDbLine
 10
29.45140055588722
 20
0.2827859641107988
 30
0.0
 11
30.49231403584965
 21
1.323699444073236
 31
0.0
  0
LINE
  5
193A7
330
19380
100
AcDbEntity
  8
0
  6
CONTINUOUS
100
AcDbLine
 10
19.59027867740337
 20
-0.0000967065718083
 30
0.0
 11
19.55485265190471
 21
0.035329318926844
 31
0.0
  0
LINE
  5
193A8
330
19380
100
AcDbEntity
  8
0
  6
CONTINUOUS
100
AcDbLine
 10
20.26375463176586
 20
-0.0000534518541091
 30
0.0
 11
19.76305575737534
 21
0.5006454225364014
 31
0.0
  0
LINE
  5
193A9
330
19380
100
AcDbEntity
  8
0
  6
CONTINUOUS
100
AcDbLine
 10
20.93723058612834
 20
-0.0000101971364099
 30
0.0
 11
19.97125886284597
 21
0.965961526145958
 31
0.0
  0
LINE
  5
193AA
330
19380
100
AcDbEntity
  8
0
  6
CONTINUOUS
100
AcDbLine
 10
21.25514828313686
 20
0.355591314935257
 30
0.0
 11
20.1794619683166
 21
1.431277629755512
 31
0.0
  0
LINE
  5
193AB
330
19380
100
AcDbEntity
  8
0
  6
CONTINUOUS
100
AcDbLine
 10
21.46338838394921
 20
0.8208704232030986
 30
0.0
 11
20.38766507378723
 21
1.896593733365069
 31
0.0
  0
LINE
  5
193AC
330
19380
100
AcDbEntity
  8
0
  6
CONTINUOUS
100
AcDbLine
 10
21.67162848476155
 20
1.28614953147094
 30
0.0
 11
20.59586817925786
 21
2.361909836974626
 31
0.0
  0
LINE
  5
193AD
330
19380
100
AcDbEntity
  8
0
  6
CONTINUOUS
100
AcDbLine
 10
21.8798685855739
 20
1.751428639738782
 30
0.0
 11
20.80407128472849
 21
2.827225940584183
 31
0.0
  0
LINE
  5
193AE
330
19380
100
AcDbEntity
  8
0
  6
CONTINUOUS
100
AcDbLine
 10
22.08810868638624
 20
2.216707748006623
 30
0.0
 11
21.01227439019912
 21
3.292542044193739
 31
0.0
  0
LINE
  5
193AF
330
19380
100
AcDbEntity
  8
0
  6
CONTINUOUS
100
AcDbLine
 10
22.60993564347543
 20
2.36839999999762
 30
0.0
 11
21.22047749566975
 21
3.757858147803296
 31
0.0
  0
LINE
  5
193B0
330
19380
100
AcDbEntity
  8
0
  6
CONTINUOUS
100
AcDbLine
 10
23.28345485255561
 20
2.36839999999762
 30
0.0
 11
21.42868060114038
 21
4.223174251412853
 31
0.0
  0
LINE
  5
193B1
330
19380
100
AcDbEntity
  8
0
  6
CONTINUOUS
100
AcDbLine
 10
26.29227406164219
 20
0.0330999999912356
 30
0.0
 11
25.80009199592872
 21
0.5252820657046957
 31
0.0
  0
LINE
  5
193B2
330
19380
100
AcDbEntity
  8
0
  6
CONTINUOUS
100
AcDbLine
 10
23.9569740616358
 20
2.36839999999762
 30
0.0
 11
21.63688370661101
 21
4.688490355022409
 31
0.0
  0
LINE
  5
193B3
330
19380
100
AcDbEntity
  8
0
  6
CONTINUOUS
100
AcDbLine
 10
26.96579327072237
 20
0.0330999999912356
 30
0.0
 11
25.2554132311971
 21
1.743480039516508
 31
0.0
  0
LINE
  5
193B4
330
19380
100
AcDbEntity
  8
0
  6
CONTINUOUS
100
AcDbLine
 10
24.63049327071599
 20
2.36839999999762
 30
0.0
 11
23.32789327071731
 21
3.670999999996297
 31
0.0
  0
LINE
  5
193B5
330
19380
100
AcDbEntity
  8
0
  6
CONTINUOUS
100
AcDbLine
 10
22.92098674744635
 20
4.077906523267254
 30
0.0
 11
21.84508681208164
 21
5.153806458631966
 31
0.0
  0
LINE
  5
193B6
330
19380
100
AcDbEntity
  8
0
  6
CONTINUOUS
100
AcDbLine
 10
27.63931247980256
 20
0.0330999999912356
 30
0.0
 11
24.0014124797975
 21
3.670999999996297
 31
0.0
  0
LINE
  5
193B7
330
19380
100
AcDbEntity
  8
0
  6
CONTINUOUS
100
AcDbLine
 10
23.129125600968
 20
4.5432868788258
 30
0.0
 11
22.05328991755227
 21
5.619122562241522
 31
0.0
  0
LINE
  5
193B8
330
19380
100
AcDbEntity
  8
0
  6
CONTINUOUS
100
AcDbLine
 10
28.31283168888275
 20
0.0330999999912356
 30
0.0
 11
24.16488385994816
 21
4.181047828925828
 31
0.0
  0
LINE
  5
193B9
330
19380
100
AcDbEntity
  8
0
  6
CONTINUOUS
100
AcDbLine
 10
23.33726445448964
 20
5.008667234384345
 30
0.0
 11
22.2614930230229
 21
6.084438665851079
 31
0.0
  0
LINE
  5
193BA
330
19380
100
AcDbEntity
  8
0
  6
CONTINUOUS
100
AcDbLine
 10
28.92085740005492
 20
0.0985934978992438
 30
0.0
 11
27.63635089796295
 21
1.383099999991217
 31
0.0
  0
LINE
  5
193BB
330
19380
100
AcDbEntity
  8
0
  6
CONTINUOUS
100
AcDbLine
 10
26.43704649509776
 20
2.582404402856405
 30
0.0
 11
23.61992702019732
 21
5.399523877756844
 31
0.0
  0
LINE
  5
193BC
330
19380
100
AcDbEntity
  8
0
  6
CONTINUOUS
100
AcDbLine
 10
23.54540330801128
 20
5.47404758994289
 30
0.0
 11
22.46969612849353
 21
6.549754769460635
 31
0.0
  0
LINE
  5
193BD
330
19380
100
AcDbEntity
  8
0
  6
CONTINUOUS
100
AcDbLine
 10
29.42225615078443
 20
0.2707139562499279
 30
0.0
 11
28.30987010704312
 21
1.383099999991234
 31
0.0
  0
LINE
  5
193BE
330
19380
100
AcDbEntity
  8
0
  6
CONTINUOUS
100
AcDbLine
 10
25.89179548232307
 20
3.801174624711282
 30
0.0
 11
22.67789923396416
 21
7.015070873070191
 31
0.0
  0
LINE
  5
193BF
330
19380
100
AcDbEntity
  8
0
  6
CONTINUOUS
100
AcDbLine
 10
29.83624534690007
 20
0.5302439692144705
 30
0.0
 11
28.85811781497101
 21
1.508371501143527
 31
0.0
  0
LINE
  5
193C0
330
19380
100
AcDbEntity
  8
0
  6
CONTINUOUS
100
AcDbLine
 10
25.34654446954838
 20
5.01994484656616
 30
0.0
 11
22.88610233943479
 21
7.480386976679748
 31
0.0
  0
LINE
  5
193C1
330
19380
100
AcDbEntity
  8
0
  6
CONTINUOUS
100
AcDbLine
 10
30.17865975401872
 20
0.8613487711760022
 30
0.0
 11
29.18888744090175
 21
1.851121084292977
 31
0.0
  0
LINE
  5
193C2
330
19380
100
AcDbEntity
  8
0
  6
CONTINUOUS
100
AcDbLine
 10
24.80129345677369
 20
6.238715068421037
 30
0.0
 11
23.09430544490542
 21
7.945703080289305
 31
0.0
  0
LINE
  5
193C3
330
19380
100
AcDbEntity
  8
0
  6
CONTINUOUS
100
AcDbLine
 10
30.45496647202376
 20
1.258561262251155
 30
0.0
 11
29.30199999996933
 21
2.411527734305588
 31
0.0
  0
LINE
  5
193C4
330
19380
100
AcDbEntity
  8
0
  6
CONTINUOUS
100
AcDbLine
 10
24.256042443999
 20
7.457485290275915
 30
0.0
 11
23.30250855037605
 21
8.411019183898862
 31
0.0
  0
LINE
  5
193C5
330
19380
100
AcDbEntity
  8
0
  6
CONTINUOUS
100
AcDbLine
 10
30.64868582078271
 20
1.738361122572387
 30
0.0
 11
29.30199999996933
 21
3.085046943385775
 31
0.0
  0
LINE
  5
193C6
330
19380
100
AcDbEntity
  8
0
  6
CONTINUOUS
100
AcDbLine
 10
23.71079143122431
 20
8.676255512130794
 30
0.0
 11
23.51071165584668
 21
8.876335287508416
 31
0.0
  0
LINE
  5
193C7
330
19380
100
AcDbEntity
  8
0
  6
CONTINUOUS
100
AcDbLine
 10
30.73802122914428
 20
2.322544923291007
 30
0.0
 11
29.30199999996933
 21
3.758566152465961
 31
0.0
  0
LINE
  5
193C8
330
19380
100
AcDbEntity
  8
0
  6
CONTINUOUS
100
AcDbLine
 10
30.74199999996924
 20
2.992085361546236
 30
0.0
 11
29.30199999996933
 21
4.432085361546148
 31
0.0
  0
LINE
  5
193C9
330
19380
100
AcDbEntity
  8
0
  6
CONTINUOUS
100
AcDbLine
 10
30.74199999996924
 20
3.665604570626419
 30
0.0
 11
29.30199999996933
 21
5.105604570626333
 31
0.0
  0
LINE
  5
193CA
330
19380
100
AcDbEntity
  8
0
  6
CONTINUOUS
100
AcDbLine
 10
30.74199999996925
 20
4.339123779706602
 30
0.0
 11
29.30199999996933
 21
5.77912377970652
 31
0.0
  0
LINE
  5
193CB
330
19380
100
AcDbEntity
  8
0
  6
CONTINUOUS
100
AcDbLine
 10
30.74199999996925
 20
5.012642988786785
 30
0.0
 11
29.30199999996933
 21
6.452642988786707
 31
0.0
  0
LINE
  5
193CC
330
19380
100
AcDbEntity
  8
0
  6
CONTINUOUS
100
AcDbLine
 10
30.74199999996925
 20
5.68616219786697
 30
0.0
 11
29.30199999996933
 21
7.126162197866894
 31
0.0
  0
LINE
  5
193CD
330
19380
100
AcDbEntity
  8
0
  6
CONTINUOUS
100
AcDbLine
 10
30.74199999996925
 20
6.359681406947153
 30
0.0
 11
29.30199999996933
 21
7.799681406947081
 31
0.0
  0
LINE
  5
193CE
330
19380
100
AcDbEntity
  8
0
  6
CONTINUOUS
100
AcDbLine
 10
30.74199999996926
 20
7.033200616027337
 30
0.0
 11
29.30199999996933
 21
8.473200616027269
 31
0.0
  0
LINE
  5
193CF
330
19380
100
AcDbEntity
  8
0
  6
CONTINUOUS
100
AcDbLine
 10
30.74199999996926
 20
7.706719825107518
 30
0.0
 11
29.68561982508552
 21
8.763099999991255
 31
0.0
  0
LINE
  5
193D0
330
19380
100
AcDbEntity
  8
0
  6
CONTINUOUS
100
AcDbLine
 10
30.74199999996926
 20
8.380239034187703
 30
0.0
 11
30.35913903416571
 21
8.763099999991255
 31
0.0
  0
ENDBLK
  5
19473
330
19380
100
AcDbEntity
  8
0
100
AcDbBlockEnd
  0
BLOCK
  5
19474
330
193D1
100
AcDbEntity
  8
0
100
AcDbBlockBegin
  2
*X26
 70
     1
 10
0.0
 20
0.0
 30
0.0
  3
*X26
  1

  0
LINE
  5
193D2
330
193D1
100
AcDbEntity
  8
0
  6
CONTINUOUS
100
AcDbLine
 10
31.64199999996833
 20
8.535058289913598
 30
0.0
 11
31.87004171004599
 21
8.763099999991255
 31
0.0
  0
LINE
  5
193D3
330
193D1
100
AcDbEntity
  8
0
  6
CONTINUOUS
100
AcDbLine
 10
31.64199999996833
 20
7.861539080833412
 30
0.0
 11
32.54356091912618
 21
8.763099999991255
 31
0.0
  0
LINE
  5
193D4
330
193D1
100
AcDbEntity
  8
0
  6
CONTINUOUS
100
AcDbLine
 10
31.64199999996833
 20
7.188019871753226
 30
0.0
 11
33.08199999996839
 21
8.628019871753281
 31
0.0
  0
LINE
  5
193D5
330
193D1
100
AcDbEntity
  8
0
  6
CONTINUOUS
100
AcDbLine
 10
31.64199999996833
 20
6.51450066267304
 30
0.0
 11
33.08199999996839
 21
7.954500662673095
 31
0.0
  0
LINE
  5
193D6
330
193D1
100
AcDbEntity
  8
0
  6
CONTINUOUS
100
AcDbLine
 10
31.64199999996833
 20
5.840981453592853
 30
0.0
 11
33.08199999996839
 21
7.280981453592908
 31
0.0
  0
LINE
  5
193D7
330
193D1
100
AcDbEntity
  8
0
  6
CONTINUOUS
100
AcDbLine
 10
31.64199999996833
 20
5.167462244512667
 30
0.0
 11
33.08199999996839
 21
6.607462244512721
 31
0.0
  0
LINE
  5
193D8
330
193D1
100
AcDbEntity
  8
0
  6
CONTINUOUS
100
AcDbLine
 10
31.64199999996833
 20
4.493943035432481
 30
0.0
 11
33.08199999996839
 21
5.933943035432535
 31
0.0
  0
LINE
  5
193D9
330
193D1
100
AcDbEntity
  8
0
  6
CONTINUOUS
100
AcDbLine
 10
31.64199999996833
 20
3.820423826352293
 30
0.0
 11
33.08199999996839
 21
5.260423826352348
 31
0.0
  0
LINE
  5
193DA
330
193D1
100
AcDbEntity
  8
0
  6
CONTINUOUS
100
AcDbLine
 10
31.64199999996833
 20
3.146904617272106
 30
0.0
 11
33.08199999996839
 21
4.586904617272161
 31
0.0
  0
LINE
  5
193DB
330
193D1
100
AcDbEntity
  8
0
  6
CONTINUOUS
100
AcDbLine
 10
36.23199999996837
 20
8.410423826352325
 30
0.0
 11
36.5846761736073
 21
8.763099999991255
 31
0.0
  0
LINE
  5
193DC
330
193D1
100
AcDbEntity
  8
0
  6
CONTINUOUS
100
AcDbLine
 10
36.23199999996837
 20
7.73690461727214
 30
0.0
 11
37.25819538268748
 21
8.763099999991255
 31
0.0
  0
LINE
  5
193DD
330
193D1
100
AcDbEntity
  8
0
  6
CONTINUOUS
100
AcDbLine
 10
31.64257403601376
 20
2.473959444237348
 30
0.0
 11
33.08199999996839
 21
3.913385408191974
 31
0.0
  0
LINE
  5
193DE
330
193D1
100
AcDbEntity
  8
0
  6
CONTINUOUS
100
AcDbLine
 10
36.23199999996837
 20
7.063385408191953
 30
0.0
 11
37.67199999996831
 21
8.503385408191894
 31
0.0
  0
LINE
  5
193DF
330
193D1
100
AcDbEntity
  8
0
  6
CONTINUOUS
100
AcDbLine
 10
31.72013636841932
 20
1.87800256756272
 30
0.0
 11
33.08199999996839
 21
3.239866199111788
 31
0.0
  0
LINE
  5
193E0
330
193D1
100
AcDbEntity
  8
0
  6
CONTINUOUS
100
AcDbLine
 10
36.23199999996837
 20
6.389866199111767
 30
0.0
 11
37.67199999996831
 21
7.829866199111708
 31
0.0
  0
LINE
  5
193E1
330
193D1
100
AcDbEntity
  8
0
  6
CONTINUOUS
100
AcDbLine
 10
31.89042734314753
 20
1.374774333210744
 30
0.0
 11
33.08199999996839
 21
2.566346990031601
 31
0.0
  0
LINE
  5
193E2
330
193D1
100
AcDbEntity
  8
0
  6
CONTINUOUS
100
AcDbLine
 10
36.23199999996837
 20
5.71634699003158
 30
0.0
 11
37.67199999996831
 21
7.156346990031521
 31
0.0
  0
LINE
  5
193E3
330
193D1
100
AcDbEntity
  8
0
  6
CONTINUOUS
100
AcDbLine
 10
32.14210568064475
 20
0.952933461627778
 30
0.0
 11
33.18745552475986
 21
1.998283305742888
 31
0.0
  0
LINE
  5
193E4
330
193D1
100
AcDbEntity
  8
0
  6
CONTINUOUS
100
AcDbLine
 10
36.23199999996837
 20
5.042827780951393
 30
0.0
 11
37.67199999996831
 21
6.482827780951334
 31
0.0
  0
LINE
  5
193E5
330
193D1
100
AcDbEntity
  8
0
  6
CONTINUOUS
100
AcDbLine
 10
32.45820639400955
 20
0.5955149659123915
 30
0.0
 11
33.47242681921943
 21
1.60973539112227
 31
0.0
  0
LINE
  5
193E6
330
193D1
100
AcDbEntity
  8
0
  6
CONTINUOUS
100
AcDbLine
 10
36.23199999996837
 20
4.369308571871207
 30
0.0
 11
37.67199999996831
 21
5.809308571871147
 31
0.0
  0
LINE
  5
193E7
330
193D1
100
AcDbEntity
  8
0
  6
CONTINUOUS
100
AcDbLine
 10
32.83432456621412
 20
0.2981139290367771
 30
0.0
 11
33.89722476612215
 21
1.361014128944803
 31
0.0
  0
LINE
  5
193E8
330
193D1
100
AcDbEntity
  8
0
  6
CONTINUOUS
100
AcDbLine
 10
36.23199999996837
 20
3.69578936279102
 30
0.0
 11
37.67199999996831
 21
5.135789362790962
 31
0.0
  0
LINE
  5
193E9
330
193D1
100
AcDbEntity
  8
0
  6
CONTINUOUS
100
AcDbLine
 10
33.2711633111245
 20
0.0614334648669672
 30
0.0
 11
34.43247338014423
 21
1.222743533886696
 31
0.0
  0
LINE
  5
193EA
330
193D1
100
AcDbEntity
  8
0
  6
CONTINUOUS
100
AcDbLine
 10
36.23199999996837
 20
3.022270153710834
 30
0.0
 11
37.67199999996831
 21
4.462270153710775
 31
0.0
  0
LINE
  5
193EB
330
193D1
100
AcDbEntity
  8
0
  6
CONTINUOUS
100
AcDbLine
 10
33.76515245874577
 20
-0.1180965965919523
 30
0.0
 11
35.1587445516215
 21
1.27549549628378
 31
0.0
  0
LINE
  5
193EC
330
193D1
100
AcDbEntity
  8
0
  6
CONTINUOUS
100
AcDbLine
 10
36.21639478609585
 20
2.333145730758136
 30
0.0
 11
37.67199999996831
 21
3.788750944630588
 31
0.0
  0
LINE
  5
193ED
330
193D1
100
AcDbEntity
  8
0
  6
CONTINUOUS
100
AcDbLine
 10
34.34060583368432
 20
-0.2161624307335863
 30
0.0
 11
37.67199999996831
 21
3.115231735550401
 31
0.0
  0
LINE
  5
193EE
330
193D1
100
AcDbEntity
  8
0
  6
CONTINUOUS
100
AcDbLine
 10
35.01698193613905
 20
-0.2133055373590427
 30
0.0
 11
37.66876712070525
 21
2.438479647207154
 31
0.0
  0
LINE
  5
193EF
330
193D1
100
AcDbEntity
  8
0
  6
CONTINUOUS
100
AcDbLine
 10
35.90743367693304
 20
0.0036269943547609
 30
0.0
 11
37.51723902192366
 21
1.613432339345381
 31
0.0
  0
LINE
  5
193F0
330
193D1
100
AcDbEntity
  8
0
  6
CONTINUOUS
100
AcDbLine
 10
32.55309425579761
 20
0.5074718966376706
 30
0.0
 11
32.27784730925847
 21
0.7827188431768102
 31
0.0
  0
LINE
  5
193F1
330
193D1
100
AcDbEntity
  8
0
  6
CONTINUOUS
100
AcDbLine
 10
33.87496468909684
 20
-0.1408793275813673
 30
0.0
 11
31.67993083278052
 21
2.054154528734943
 31
0.0
  0
LINE
  5
193F2
330
193D1
100
AcDbEntity
  8
0
  6
CONTINUOUS
100
AcDbLine
 10
34.64362813207632
 20
-0.2360235614806649
 30
0.0
 11
31.64199999996833
 21
2.765604570627322
 31
0.0
  0
LINE
  5
193F3
330
193D1
100
AcDbEntity
  8
0
  6
CONTINUOUS
100
AcDbLine
 10
35.25801106796118
 20
-0.1768872882853429
 30
0.0
 11
31.64199999996833
 21
3.439123779707508
 31
0.0
  0
LINE
  5
193F4
330
193D1
100
AcDbEntity
  8
0
  6
CONTINUOUS
100
AcDbLine
 10
35.79065650332146
 20
-0.0360135145654361
 30
0.0
 11
34.54143210838231
 21
1.213210880373721
 31
0.0
  0
LINE
  5
193F5
330
193D1
100
AcDbEntity
  8
0
  6
CONTINUOUS
100
AcDbLine
 10
33.08199999996839
 20
2.67264298878764
 30
0.0
 11
31.64199999996833
 21
4.112642988787695
 31
0.0
  0
LINE
  5
193F6
330
193D1
100
AcDbEntity
  8
0
  6
CONTINUOUS
100
AcDbLine
 10
36.25975597779143
 20
0.1684062200447833
 30
0.0
 11
35.15395110240023
 21
1.274211095435983
 31
0.0
  0
LINE
  5
193F7
330
193D1
100
AcDbEntity
  8
0
  6
CONTINUOUS
100
AcDbLine
 10
33.08199999996839
 20
3.346162197867826
 30
0.0
 11
31.64199999996833
 21
4.786162197867881
 31
0.0
  0
LINE
  5
193F8
330
193D1
100
AcDbEntity
  8
0
  6
CONTINUOUS
100
AcDbLine
 10
36.67226329638774
 20
0.4294181105286579
 30
0.0
 11
35.63766478748767
 21
1.464016619428737
 31
0.0
  0
LINE
  5
193F9
330
193D1
100
AcDbEntity
  8
0
  6
CONTINUOUS
100
AcDbLine
 10
33.08199999996839
 20
4.019681406948012
 30
0.0
 11
31.64199999996833
 21
5.459681406948068
 31
0.0
  0
LINE
  5
193FA
330
193D1
100
AcDbEntity
  8
0
  6
CONTINUOUS
100
AcDbLine
 10
37.01677749710036
 20
0.7584231188962329
 30
0.0
 11
35.99563422741351
 21
1.779566388583076
 31
0.0
  0
LINE
  5
193FB
330
193D1
100
AcDbEntity
  8
0
  6
CONTINUOUS
100
AcDbLine
 10
33.08199999996839
 20
4.693200616028199
 30
0.0
 11
31.64199999996833
 21
6.133200616028255
 31
0.0
  0
LINE
  5
193FC
330
193D1
100
AcDbEntity
  8
0
  6
CONTINUOUS
100
AcDbLine
 10
37.29859977568887
 20
1.1501200493879
 30
0.0
 11
36.20680593341555
 21
2.241913891661226
 31
0.0
  0
LINE
  5
193FD
330
193D1
100
AcDbEntity
  8
0
  6
CONTINUOUS
100
AcDbLine
 10
33.08199999996839
 20
5.366719825108386
 30
0.0
 11
31.64199999996833
 21
6.80671982510844
 31
0.0
  0
LINE
  5
193FE
330
193D1
100
AcDbEntity
  8
0
  6
CONTINUOUS
100
AcDbLine
 10
37.5148623517228
 20
1.607376682434161
 30
0.0
 11
36.23199999996837
 21
2.890239034188594
 31
0.0
  0
LINE
  5
193FF
330
193D1
100
AcDbEntity
  8
0
  6
CONTINUOUS
100
AcDbLine
 10
33.08199999996839
 20
6.040239034188573
 30
0.0
 11
31.64199999996833
 21
7.480239034188627
 31
0.0
  0
LINE
  5
19400
330
193D1
100
AcDbEntity
  8
0
  6
CONTINUOUS
100
AcDbLine
 10
37.64705163358367
 20
2.148706609653477
 30
0.0
 11
36.23199999996837
 21
3.56375824326878
 31
0.0
  0
LINE
  5
19401
330
193D1
100
AcDbEntity
  8
0
  6
CONTINUOUS
100
AcDbLine
 10
33.08199999996839
 20
6.713758243268758
 30
0.0
 11
31.64199999996833
 21
8.153758243268815
 31
0.0
  0
LINE
  5
19402
330
193D1
100
AcDbEntity
  8
0
  6
CONTINUOUS
100
AcDbLine
 10
37.67199999996831
 20
2.797277452349026
 30
0.0
 11
36.23199999996837
 21
4.237277452348967
 31
0.0
  0
LINE
  5
19403
330
193D1
100
AcDbEntity
  8
0
  6
CONTINUOUS
100
AcDbLine
 10
37.67199999996831
 20
3.470796661429213
 30
0.0
 11
36.23199999996837
 21
4.910796661429154
 31
0.0
  0
LINE
  5
19404
330
193D1
100
AcDbEntity
  8
0
  6
CONTINUOUS
100
AcDbLine
 10
37.67199999996831
 20
4.144315870509399
 30
0.0
 11
36.23199999996837
 21
5.58431587050934
 31
0.0
  0
LINE
  5
19405
330
193D1
100
AcDbEntity
  8
0
  6
CONTINUOUS
100
AcDbLine
 10
33.08199999996839
 20
7.387277452348945
 30
0.0
 11
31.70617745232608
 21
8.763099999991255
 31
0.0
  0
LINE
  5
19406
330
193D1
100
AcDbEntity
  8
0
  6
CONTINUOUS
100
AcDbLine
 10
33.08199999996839
 20
8.060796661429132
 30
0.0
 11
32.37969666140626
 21
8.763099999991255
 31
0.0
  0
LINE
  5
19407
330
193D1
100
AcDbEntity
  8
0
  6
CONTINUOUS
100
AcDbLine
 10
33.08199999996839
 20
8.734315870509318
 30
0.0
 11
33.05321587048645
 21
8.763099999991255
 31
0.0
  0
LINE
  5
19408
330
193D1
100
AcDbEntity
  8
0
  6
CONTINUOUS
100
AcDbLine
 10
37.67199999996831
 20
4.817835079589585
 30
0.0
 11
36.23199999996837
 21
6.257835079589526
 31
0.0
  0
LINE
  5
19409
330
193D1
100
AcDbEntity
  8
0
  6
CONTINUOUS
100
AcDbLine
 10
37.67199999996831
 20
5.491354288669771
 30
0.0
 11
36.23199999996837
 21
6.931354288669713
 31
0.0
  0
LINE
  5
1940A
330
193D1
100
AcDbEntity
  8
0
  6
CONTINUOUS
100
AcDbLine
 10
37.67199999996831
 20
6.164873497749958
 30
0.0
 11
36.23199999996837
 21
7.6048734977499
 31
0.0
  0
LINE
  5
1940B
330
193D1
100
AcDbEntity
  8
0
  6
CONTINUOUS
100
AcDbLine
 10
37.67199999996831
 20
6.838392706830144
 30
0.0
 11
36.23199999996837
 21
8.278392706830086
 31
0.0
  0
LINE
  5
1940C
330
193D1
100
AcDbEntity
  8
0
  6
CONTINUOUS
100
AcDbLine
 10
37.67199999996831
 20
7.511911915910332
 30
0.0
 11
36.42081191588738
 21
8.763099999991255
 31
0.0
  0
LINE
  5
1940D
330
193D1
100
AcDbEntity
  8
0
  6
CONTINUOUS
100
AcDbLine
 10
37.67199999996831
 20
8.185431124990519
 30
0.0
 11
37.09433112496757
 21
8.763099999991255
 31
0.0
  0
ENDBLK
  5
19475
330
193D1
100
AcDbEntity
  8
0
100
AcDbBlockEnd
  0
BLOCK
  5
19476
330
1940E
100
AcDbEntity
  8
0
100
AcDbBlockBegin
  2
*X27
 70
     1
 10
0.0
 20
0.0
 30
0.0
  3
*X27
  1

  0
LINE
  5
1940F
330
1940E
100
AcDbEntity
  8
0
  6
CONTINUOUS
100
AcDbLine
 10
38.60499999996136
 20
8.762866199104765
 30
0.0
 11
38.71672554182345
 21
8.874591740966855
 31
0.0
  0
LINE
  5
19410
330
1940E
100
AcDbEntity
  8
0
  6
CONTINUOUS
100
AcDbLine
 10
38.60499999996136
 20
8.089346990024577
 30
0.0
 11
39.03418785440363
 21
8.518534844466847
 31
0.0
  0
LINE
  5
19411
330
1940E
100
AcDbEntity
  8
0
  6
CONTINUOUS
100
AcDbLine
 10
38.60499999996136
 20
7.41582778094439
 30
0.0
 11
39.35165016698382
 21
8.16247794796684
 31
0.0
  0
LINE
  5
19412
330
1940E
100
AcDbEntity
  8
0
  6
CONTINUOUS
100
AcDbLine
 10
38.60499999996136
 20
6.742308571864204
 30
0.0
 11
39.66911247956399
 21
7.806421051466834
 31
0.0
  0
LINE
  5
19413
330
1940E
100
AcDbEntity
  8
0
  6
CONTINUOUS
100
AcDbLine
 10
38.60499999996136
 20
6.068789362784018
 30
0.0
 11
39.98657479214418
 21
7.450364154966827
 31
0.0
  0
LINE
  5
19414
330
1940E
100
AcDbEntity
  8
0
  6
CONTINUOUS
100
AcDbLine
 10
38.60499999996136
 20
5.395270153703832
 30
0.0
 11
40.30403710472435
 21
7.09430725846682
 31
0.0
  0
LINE
  5
19415
330
1940E
100
AcDbEntity
  8
0
  6
CONTINUOUS
100
AcDbLine
 10
38.60499999996136
 20
4.721750944623645
 30
0.0
 11
40.62149941730453
 21
6.738250361966813
 31
0.0
  0
LINE
  5
19416
330
1940E
100
AcDbEntity
  8
0
  6
CONTINUOUS
100
AcDbLine
 10
38.60499999996136
 20
4.048231735543458
 30
0.0
 11
40.93896172988471
 21
6.382193465466806
 31
0.0
  0
LINE
  5
19417
330
1940E
100
AcDbEntity
  8
0
  6
CONTINUOUS
100
AcDbLine
 10
38.60499999996136
 20
3.374712526463272
 30
0.0
 11
40.02599999995994
 21
4.795712526461843
 31
0.0
  0
LINE
  5
19418
330
1940E
100
AcDbEntity
  8
0
  6
CONTINUOUS
100
AcDbLine
 10
38.60499999996136
 20
2.701193317383085
 30
0.0
 11
40.02599999995994
 21
4.122193317381657
 31
0.0
  0
LINE
  5
19419
330
1940E
100
AcDbEntity
  8
0
  6
CONTINUOUS
100
AcDbLine
 10
40.28339754687704
 20
5.053110073378947
 30
0.0
 11
41.25642404246489
 21
6.026136568966799
 31
0.0
  0
LINE
  5
1941A
330
1940E
100
AcDbEntity
  8
0
  6
CONTINUOUS
100
AcDbLine
 10
40.60085985945722
 20
4.697053176878939
 30
0.0
 11
41.57388635504507
 21
5.670079672466793
 31
0.0
  0
LINE
  5
1941B
330
1940E
100
AcDbEntity
  8
0
  6
CONTINUOUS
100
AcDbLine
 10
43.57899999995641
 20
8.348712526458318
 30
0.0
 11
43.99338747348935
 21
8.763099999991255
 31
0.0
  0
LINE
  5
1941C
330
1940E
100
AcDbEntity
  8
0
  6
CONTINUOUS
100
AcDbLine
 10
43.57899999995641
 20
7.675193317378131
 30
0.0
 11
44.66690668256953
 21
8.763099999991255
 31
0.0
  0
LINE
  5
1941D
330
1940E
100
AcDbEntity
  8
0
  6
CONTINUOUS
100
AcDbLine
 10
38.60499999996136
 20
2.027674108302898
 30
0.0
 11
40.02599999995994
 21
3.44867410830147
 31
0.0
  0
LINE
  5
1941E
330
1940E
100
AcDbEntity
  8
0
  6
CONTINUOUS
100
AcDbLine
 10
38.60499999996136
 20
1.354154899222712
 30
0.0
 11
40.02599999995994
 21
2.775154899221284
 31
0.0
  0
LINE
  5
1941F
330
1940E
100
AcDbEntity
  8
0
  6
CONTINUOUS
100
AcDbLine
 10
38.60499999996136
 20
0.6806356901425255
 30
0.0
 11
40.02599999995994
 21
2.101635690141098
 31
0.0
  0
LINE
  5
19420
330
1940E
100
AcDbEntity
  8
0
  6
CONTINUOUS
100
AcDbLine
 10
38.60499999996136
 20
0.0071164810623383
 30
0.0
 11
40.02599999995994
 21
1.428116481060911
 31
0.0
  0
LINE
  5
19421
330
1940E
100
AcDbEntity
  8
0
  6
CONTINUOUS
100
AcDbLine
 10
40.9183221720374
 20
4.340996280378933
 30
0.0
 11
41.89134866762525
 21
5.314022775966786
 31
0.0
  0
LINE
  5
19422
330
1940E
100
AcDbEntity
  8
0
  6
CONTINUOUS
100
AcDbLine
 10
41.23578448461758
 20
3.984939383878926
 30
0.0
 11
42.20881098020543
 21
4.957965879466778
 31
0.0
  0
LINE
  5
19423
330
1940E
100
AcDbEntity
  8
0
  6
CONTINUOUS
100
AcDbLine
 10
41.55324679719776
 20
3.628882487378919
 30
0.0
 11
42.52627329278561
 21
4.601908982966772
 31
0.0
  0
LINE
  5
19424
330
1940E
100
AcDbEntity
  8
0
  6
CONTINUOUS
100
AcDbLine
 10
41.87070910977793
 20
3.272825590878912
 30
0.0
 11
42.84373560536579
 21
4.245852086466765
 31
0.0
  0
LINE
  5
19425
330
1940E
100
AcDbEntity
  8
0
  6
CONTINUOUS
100
AcDbLine
 10
43.57899999995641
 20
7.001674108297943
 30
0.0
 11
44.99999999995498
 21
8.422674108296516
 31
0.0
  0
LINE
  5
19426
330
1940E
100
AcDbEntity
  8
0
  6
CONTINUOUS
100
AcDbLine
 10
43.57899999995641
 20
6.328154899217758
 30
0.0
 11
44.99999999995498
 21
7.749154899216329
 31
0.0
  0
LINE
  5
19427
330
1940E
100
AcDbEntity
  8
0
  6
CONTINUOUS
100
AcDbLine
 10
43.57899999995641
 20
5.654635690137571
 30
0.0
 11
44.99999999995498
 21
7.075635690136142
 31
0.0
  0
LINE
  5
19428
330
1940E
100
AcDbEntity
  8
0
  6
CONTINUOUS
100
AcDbLine
 10
43.57899999995641
 20
4.981116481057384
 30
0.0
 11
44.99999999995498
 21
6.402116481055955
 31
0.0
  0
LINE
  5
19429
330
1940E
100
AcDbEntity
  8
0
  6
CONTINUOUS
100
AcDbLine
 10
39.27140272797921
 20
-0.0000000000000009
 30
0.0
 11
40.02599999995994
 21
0.7545972719807246
 31
0.0
  0
LINE
  5
1942A
330
1940E
100
AcDbEntity
  8
0
  6
CONTINUOUS
100
AcDbLine
 10
39.9449219370594
 20
-0.0000000000000009
 30
0.0
 11
40.02599999995994
 21
0.0810780629005379
 31
0.0
  0
LINE
  5
1942B
330
1940E
100
AcDbEntity
  8
0
  6
CONTINUOUS
100
AcDbLine
 10
42.18817142235812
 20
2.916768694378905
 30
0.0
 11
43.16119791794597
 21
3.889795189966758
 31
0.0
  0
LINE
  5
1942C
330
1940E
100
AcDbEntity
  8
0
  6
CONTINUOUS
100
AcDbLine
 10
42.50563373493829
 20
2.560711797878898
 30
0.0
 11
43.47866023052615
 21
3.533738293466751
 31
0.0
  0
LINE
  5
1942D
330
1940E
100
AcDbEntity
  8
0
  6
CONTINUOUS
100
AcDbLine
 10
43.57899999995641
 20
4.307597271977198
 30
0.0
 11
44.99999999995498
 21
5.728597271975769
 31
0.0
  0
LINE
  5
1942E
330
1940E
100
AcDbEntity
  8
0
  6
CONTINUOUS
100
AcDbLine
 10
43.57899999995641
 20
3.634078062897011
 30
0.0
 11
44.99999999995498
 21
5.055078062895582
 31
0.0
  0
LINE
  5
1942F
330
1940E
100
AcDbEntity
  8
0
  6
CONTINUOUS
100
AcDbLine
 10
42.82309604751848
 20
2.204654901378891
 30
0.0
 11
44.99999999995498
 21
4.381558853815395
 31
0.0
  0
LINE
  5
19430
330
1940E
100
AcDbEntity
  8
0
  6
CONTINUOUS
100
AcDbLine
 10
43.14055836009865
 20
1.848598004878885
 30
0.0
 11
44.99999999995498
 21
3.70803964473521
 31
0.0
  0
LINE
  5
19431
330
1940E
100
AcDbEntity
  8
0
  6
CONTINUOUS
100
AcDbLine
 10
43.45802067267883
 20
1.492541108378878
 30
0.0
 11
44.99999999995498
 21
3.034520435655023
 31
0.0
  0
LINE
  5
19432
330
1940E
100
AcDbEntity
  8
0
  6
CONTINUOUS
100
AcDbLine
 10
43.77548298525902
 20
1.136484211878871
 30
0.0
 11
44.99999999995498
 21
2.361001226574837
 31
0.0
  0
LINE
  5
19433
330
1940E
100
AcDbEntity
  8
0
  6
CONTINUOUS
100
AcDbLine
 10
44.09294529783919
 20
0.7804273153788639
 30
0.0
 11
44.99999999995498
 21
1.687482017494649
 31
0.0
  0
LINE
  5
19434
330
1940E
100
AcDbEntity
  8
0
  6
CONTINUOUS
100
AcDbLine
 10
44.41040761041938
 20
0.4243704188788566
 30
0.0
 11
44.99999999995498
 21
1.013962808414463
 31
0.0
  0
LINE
  5
19435
330
1940E
100
AcDbEntity
  8
0
  6
CONTINUOUS
100
AcDbLine
 10
44.72786992299955
 20
0.0683135223788494
 30
0.0
 11
44.99999999995498
 21
0.340443599334276
 31
0.0
  0
LINE
  5
19436
330
1940E
100
AcDbEntity
  8
0
  6
CONTINUOUS
100
AcDbLine
 10
39.12223903415696
 20
-0.0000000000000009
 30
0.0
 11
38.60499999996136
 21
0.5172390341955961
 31
0.0
  0
LINE
  5
19437
330
1940E
100
AcDbEntity
  8
0
  6
CONTINUOUS
100
AcDbLine
 10
39.79575824323715
 20
-0.0000000000000009
 30
0.0
 11
38.60499999996136
 21
1.190758243275783
 31
0.0
  0
LINE
  5
19438
330
1940E
100
AcDbEntity
  8
0
  6
CONTINUOUS
100
AcDbLine
 10
40.02599999995994
 20
0.443277452357397
 30
0.0
 11
38.60499999996136
 21
1.864277452355969
 31
0.0
  0
LINE
  5
19439
330
1940E
100
AcDbEntity
  8
0
  6
CONTINUOUS
100
AcDbLine
 10
40.02599999995994
 20
1.116796661437583
 30
0.0
 11
38.60499999996136
 21
2.537796661436155
 31
0.0
  0
LINE
  5
1943A
330
1940E
100
AcDbEntity
  8
0
  6
CONTINUOUS
100
AcDbLine
 10
40.02599999995994
 20
1.79031587051777
 30
0.0
 11
38.60499999996136
 21
3.211315870516341
 31
0.0
  0
LINE
  5
1943B
330
1940E
100
AcDbEntity
  8
0
  6
CONTINUOUS
100
AcDbLine
 10
40.02599999995994
 20
2.463835079597956
 30
0.0
 11
38.60499999996136
 21
3.884835079596527
 31
0.0
  0
LINE
  5
1943C
330
1940E
100
AcDbEntity
  8
0
  6
CONTINUOUS
100
AcDbLine
 10
40.02599999995994
 20
3.137354288678143
 30
0.0
 11
38.60499999996136
 21
4.558354288676714
 31
0.0
  0
LINE
  5
1943D
330
1940E
100
AcDbEntity
  8
0
  6
CONTINUOUS
100
AcDbLine
 10
40.02599999995994
 20
3.810873497758329
 30
0.0
 11
38.60499999996136
 21
5.2318734977569
 31
0.0
  0
LINE
  5
1943E
330
1940E
100
AcDbEntity
  8
0
  6
CONTINUOUS
100
AcDbLine
 10
40.02599999995994
 20
4.484392706838515
 30
0.0
 11
38.60499999996136
 21
5.905392706837086
 31
0.0
  0
LINE
  5
1943F
330
1940E
100
AcDbEntity
  8
0
  6
CONTINUOUS
100
AcDbLine
 10
44.99999999995498
 20
0.183911915923658
 30
0.0
 11
41.53858364506288
 21
3.64532827081576
 31
0.0
  0
LINE
  5
19440
330
1940E
100
AcDbEntity
  8
0
  6
CONTINUOUS
100
AcDbLine
 10
40.02599999995994
 20
5.157911915918703
 30
0.0
 11
38.60499999996136
 21
6.578911915917274
 31
0.0
  0
LINE
  5
19441
330
1940E
100
AcDbEntity
  8
0
  6
CONTINUOUS
100
AcDbLine
 10
44.99999999995498
 20
0.8574311250038447
 30
0.0
 11
38.60499999996136
 21
7.25243112499746
 31
0.0
  0
LINE
  5
19442
330
1940E
100
AcDbEntity
  8
0
  6
CONTINUOUS
100
AcDbLine
 10
44.99999999995498
 20
1.530950334084031
 30
0.0
 11
38.60499999996136
 21
7.925950334077647
 31
0.0
  0
LINE
  5
19443
330
1940E
100
AcDbEntity
  8
0
  6
CONTINUOUS
100
AcDbLine
 10
44.99999999995498
 20
2.204469543164218
 30
0.0
 11
43.57899999995641
 21
3.625469543162789
 31
0.0
  0
LINE
  5
19444
330
1940E
100
AcDbEntity
  8
0
  6
CONTINUOUS
100
AcDbLine
 10
41.89876730984767
 20
5.305702233271528
 30
0.0
 11
38.60499999996136
 21
8.599469543157834
 31
0.0
  0
LINE
  5
19445
330
1940E
100
AcDbEntity
  8
0
  6
CONTINUOUS
100
AcDbLine
 10
44.99999999995498
 20
2.877988752244405
 30
0.0
 11
43.57899999995641
 21
4.298988752242975
 31
0.0
  0
LINE
  5
19446
330
1940E
100
AcDbEntity
  8
0
  6
CONTINUOUS
100
AcDbLine
 10
44.99999999995498
 20
3.551507961324591
 30
0.0
 11
43.57899999995641
 21
4.972507961323163
 31
0.0
  0
LINE
  5
19447
330
1940E
100
AcDbEntity
  8
0
  6
CONTINUOUS
100
AcDbLine
 10
44.99999999995498
 20
4.225027170404777
 30
0.0
 11
43.57899999995641
 21
5.646027170403348
 31
0.0
  0
LINE
  5
19448
330
1940E
100
AcDbEntity
  8
0
  6
CONTINUOUS
100
AcDbLine
 10
44.99999999995498
 20
4.898546379484964
 30
0.0
 11
43.57899999995641
 21
6.319546379483535
 31
0.0
  0
LINE
  5
19449
330
1940E
100
AcDbEntity
  8
0
  6
CONTINUOUS
100
AcDbLine
 10
44.99999999995498
 20
5.572065588565151
 30
0.0
 11
43.57899999995641
 21
6.993065588563722
 31
0.0
  0
LINE
  5
1944A
330
1940E
100
AcDbEntity
  8
0
  6
CONTINUOUS
100
AcDbLine
 10
44.99999999995498
 20
6.245584797645336
 30
0.0
 11
43.57899999995641
 21
7.666584797643908
 31
0.0
  0
LINE
  5
1944B
330
1940E
100
AcDbEntity
  8
0
  6
CONTINUOUS
100
AcDbLine
 10
44.99999999995498
 20
6.919104006725522
 30
0.0
 11
43.57899999995641
 21
8.340104006724093
 31
0.0
  0
LINE
  5
1944C
330
1940E
100
AcDbEntity
  8
0
  6
CONTINUOUS
100
AcDbLine
 10
44.99999999995498
 20
7.592623215805709
 30
0.0
 11
43.82952321576943
 21
8.763099999991255
 31
0.0
  0
LINE
  5
1944D
330
1940E
100
AcDbEntity
  8
0
  6
CONTINUOUS
100
AcDbLine
 10
44.99999999995498
 20
8.266142424885896
 30
0.0
 11
44.50304242484962
 21
8.763099999991255
 31
0.0
  0
ENDBLK
  5
19477
330
1940E
100
AcDbEntity
  8
0
100
AcDbBlockEnd
  0
BLOCK
  5
19478
330
1944E
100
AcDbEntity
  8
0
100
AcDbBlockBegin
  2
*X28
 70
     1
 10
0.0
 20
0.0
 30
0.0
  3
*X28
  1

  0
LINE
  5
1944F
330
1944E
100
AcDbEntity
  8
0
  6
CONTINUOUS
100
AcDbLine
 10
0.0
 20
8.548461116714023
 30
0.0
 11
0.2146388832772324
 21
8.763099999991255
 31
0.0
  0
LINE
  5
19450
330
1944E
100
AcDbEntity
  8
0
  6
CONTINUOUS
100
AcDbLine
 10
-0.0000000000000002
 20
7.874941907633837
 30
0.0
 11
0.8881580923574184
 21
8.763099999991255
 31
0.0
  0
LINE
  5
19451
330
1944E
100
AcDbEntity
  8
0
  6
CONTINUOUS
100
AcDbLine
 10
0.0
 20
7.20142269855365
 30
0.0
 11
1.420999999998572
 21
8.622422698552223
 31
0.0
  0
LINE
  5
19452
330
1944E
100
AcDbEntity
  8
0
  6
CONTINUOUS
100
AcDbLine
 10
-0.0000000000000001
 20
6.527903489473465
 30
0.0
 11
1.420999999998571
 21
7.948903489472036
 31
0.0
  0
LINE
  5
19453
330
1944E
100
AcDbEntity
  8
0
  6
CONTINUOUS
100
AcDbLine
 10
-0.0000000000000002
 20
5.854384280393278
 30
0.0
 11
1.420999999998571
 21
7.275384280391849
 31
0.0
  0
LINE
  5
19454
330
1944E
100
AcDbEntity
  8
0
  6
CONTINUOUS
100
AcDbLine
 10
-0.0000000000000002
 20
5.180865071313091
 30
0.0
 11
1.420999999998571
 21
6.601865071311663
 31
0.0
  0
LINE
  5
19455
330
1944E
100
AcDbEntity
  8
0
  6
CONTINUOUS
100
AcDbLine
 10
0.0
 20
4.507345862232905
 30
0.0
 11
1.420999999998571
 21
5.928345862231477
 31
0.0
  0
LINE
  5
19456
330
1944E
100
AcDbEntity
  8
0
  6
CONTINUOUS
100
AcDbLine
 10
-0.0000000000000003
 20
3.833826653152718
 30
0.0
 11
1.420999999998571
 21
5.25482665315129
 31
0.0
  0
LINE
  5
19457
330
1944E
100
AcDbEntity
  8
0
  6
CONTINUOUS
100
AcDbLine
 10
-0.0000000000000002
 20
3.160307444072532
 30
0.0
 11
1.420999999998571
 21
4.581307444071103
 31
0.0
  0
LINE
  5
19458
330
1944E
100
AcDbEntity
  8
0
  6
CONTINUOUS
100
AcDbLine
 10
-0.0000000000000001
 20
2.486788234992345
 30
0.0
 11
1.420999999998571
 21
3.907788234990917
 31
0.0
  0
LINE
  5
19459
330
1944E
100
AcDbEntity
  8
0
  6
CONTINUOUS
100
AcDbLine
 10
-0.0000000000000006
 20
1.813269025912159
 30
0.0
 11
1.420999999998571
 21
3.234269025910731
 31
0.0
  0
LINE
  5
1945A
330
1944E
100
AcDbEntity
  8
0
  6
CONTINUOUS
100
AcDbLine
 10
0.0
 20
1.139749816831973
 30
0.0
 11
1.420999999998571
 21
2.560749816830544
 31
0.0
  0
LINE
  5
1945B
330
1944E
100
AcDbEntity
  8
0
  6
CONTINUOUS
100
AcDbLine
 10
0.0000000000000002
 20
0.466230607751787
 30
0.0
 11
1.420999999998571
 21
1.887230607750358
 31
0.0
  0
LINE
  5
1945C
330
1944E
100
AcDbEntity
  8
0
  6
CONTINUOUS
100
AcDbLine
 10
0.2072886013284003
 20
-0.0000000000000009
 30
0.0
 11
1.420999999998571
 21
1.213711398670171
 31
0.0
  0
LINE
  5
1945D
330
1944E
100
AcDbEntity
  8
0
  6
CONTINUOUS
100
AcDbLine
 10
0.8808078104085864
 20
-0.0000000000000009
 30
0.0
 11
1.420999999998571
 21
0.5401921895899839
 31
0.0
  0
LINE
  5
1945E
330
1944E
100
AcDbEntity
  8
0
  6
CONTINUOUS
100
AcDbLine
 10
0.0581249075061505
 20
-0.0000000000000009
 30
0.0
 11
-0.0000000000000002
 21
0.0581249075061496
 31
0.0
  0
LINE
  5
1945F
330
1944E
100
AcDbEntity
  8
0
  6
CONTINUOUS
100
AcDbLine
 10
0.7316441165863372
 20
-0.0000000000000009
 30
0.0
 11
-0.0000000000000002
 21
0.7316441165863363
 31
0.0
  0
LINE
  5
19460
330
1944E
100
AcDbEntity
  8
0
  6
CONTINUOUS
100
AcDbLine
 10
1.405163325666523
 20
-0.0000000000000009
 30
0.0
 11
-0.0000000000000002
 21
1.405163325666523
 31
0.0
  0
LINE
  5
19461
330
1944E
100
AcDbEntity
  8
0
  6
CONTINUOUS
100
AcDbLine
 10
1.420999999998572
 20
0.6576825347481381
 30
0.0
 11
-0.0000000000000001
 21
2.07868253474671
 31
0.0
  0
LINE
  5
19462
330
1944E
100
AcDbEntity
  8
0
  6
CONTINUOUS
100
AcDbLine
 10
1.420999999998571
 20
1.331201743828324
 30
0.0
 11
-0.0000000000000001
 21
2.752201743826896
 31
0.0
  0
LINE
  5
19463
330
1944E
100
AcDbEntity
  8
0
  6
CONTINUOUS
100
AcDbLine
 10
1.420999999998571
 20
2.004720952908511
 30
0.0
 11
-0.0000000000000002
 21
3.425720952907082
 31
0.0
  0
LINE
  5
19464
330
1944E
100
AcDbEntity
  8
0
  6
CONTINUOUS
100
AcDbLine
 10
1.420999999998571
 20
2.678240161988697
 30
0.0
 11
-0.0000000000000001
 21
4.099240161987269
 31
0.0
  0
LINE
  5
19465
330
1944E
100
AcDbEntity
  8
0
  6
CONTINUOUS
100
AcDbLine
 10
1.420999999998572
 20
3.351759371068884
 30
0.0
 11
0.0
 21
4.772759371067455
 31
0.0
  0
LINE
  5
19466
330
1944E
100
AcDbEntity
  8
0
  6
CONTINUOUS
100
AcDbLine
 10
1.420999999998571
 20
4.02527858014907
 30
0.0
 11
-0.0000000000000003
 21
5.446278580147642
 31
0.0
  0
LINE
  5
19467
330
1944E
100
AcDbEntity
  8
0
  6
CONTINUOUS
100
AcDbLine
 10
1.420999999998571
 20
4.698797789229257
 30
0.0
 11
0.0
 21
6.119797789227828
 31
0.0
  0
LINE
  5
19468
330
1944E
100
AcDbEntity
  8
0
  6
CONTINUOUS
100
AcDbLine
 10
1.420999999998571
 20
5.372316998309444
 30
0.0
 11
-0.0000000000000001
 21
6.793316998308015
 31
0.0
  0
LINE
  5
19469
330
1944E
100
AcDbEntity
  8
0
  6
CONTINUOUS
100
AcDbLine
 10
1.420999999998572
 20
6.045836207389629
 30
0.0
 11
-0.0000000000000004
 21
7.466836207388202
 31
0.0
  0
LINE
  5
1946A
330
1944E
100
AcDbEntity
  8
0
  6
CONTINUOUS
100
AcDbLine
 10
1.420999999998571
 20
6.719355416469816
 30
0.0
 11
0.0
 21
8.140355416468388
 31
0.0
  0
LINE
  5
1946B
330
1944E
100
AcDbEntity
  8
0
  6
CONTINUOUS
100
AcDbLine
 10
1.420999999998571
 20
7.392874625550003
 30
0.0
 11
0.0507746255573185
 21
8.763099999991255
 31
0.0
  0
LINE
  5
1946C
330
1944E
100
AcDbEntity
  8
0
  6
CONTINUOUS
100
AcDbLine
 10
1.420999999998571
 20
8.06639383463019
 30
0.0
 11
0.7242938346375052
 21
8.763099999991255
 31
0.0
  0
LINE
  5
1946D
330
1944E
100
AcDbEntity
  8
0
  6
CONTINUOUS
100
AcDbLine
 10
1.420999999998571
 20
8.739913043710375
 30
0.0
 11
1.397813043717691
 21
8.763099999991255
 31
0.0
  0
ENDBLK
  5
19479
330
1944E
100
AcDbEntity
  8
0
100
AcDbBlockEnd
  0
ENDSEC
  0
SECTION
  2
ENTITIES
  0
TEXT
  5
154AA
330
18
100
AcDbEntity
  8
1TEXT
100
AcDbText
 10
403.0462514227782
 20
-751.1232902921283
 30
0.0
 40
8.0
  1
KH-67-X
100
AcDbText
  0
LINE
  5
17622
330
18
100
AcDbEntity
  8
01
  6
CONTINUOUS
100
AcDbLine
 10
335.1411608776154
 20
-856.8301453200256
 30
0.0
 11
-262.8588551858364
 21
-856.8301453200256
 31
0.0
  0
LINE
  5
17623
330
18
100
AcDbEntity
  8
01
  6
CONTINUOUS
100
AcDbLine
 10
336.1411480030121
 20
-882.8301384058868
 30
0.0
 11
336.1411480030121
 21
-880.830134352771
 31
0.0
  0
ARC
  5
17624
330
18
100
AcDbEntity
  8
01
  6
CONTINUOUS
100
AcDbCircle
 10
335.1411434807039
 20
-882.8301417705952
 30
0.0
 40
1.000000000000227
100
AcDbArc
 50
270.0
 51
0.0
  0
LINE
  5
17625
330
18
100
AcDbEntity
  8
01
  6
CONTINUOUS
100
AcDbLine
 10
-263.8588572123943
 20
-859.8301439491188
 30
0.0
 11
-263.8588572123943
 21
-880.830134352771
 31
0.0
  0
ARC
  5
17626
330
18
100
AcDbEntity
  8
01
  6
CONTINUOUS
100
AcDbCircle
 10
-262.8588565192961
 20
-857.8301417705952
 30
0.0
 40
1.000000000000014
100
AcDbArc
 50
90.00000000000001
 51
180.0
  0
LINE
  5
17627
330
18
100
AcDbEntity
  8
01
  6
CONTINUOUS
100
AcDbLine
 10
-263.8588572123943
 20
-857.830139896003
 30
0.0
 11
-263.8588572123943
 21
-859.8301439491188
 31
0.0
  0
LINE
  5
17628
330
18
100
AcDbEntity
  8
01
  6
CONTINUOUS
100
AcDbLine
 10
-263.8588572123943
 20
-880.830134352771
 30
0.0
 11
-263.8588572123943
 21
-882.8301384058868
 31
0.0
  0
ARC
  5
17629
330
18
100
AcDbEntity
  8
01
  6
CONTINUOUS
100
AcDbCircle
 10
-262.8588565192961
 20
-882.8301417705952
 30
0.0
 40
1.000000000000085
100
AcDbArc
 50
180.0
 51
270.0
  0
LINE
  5
1762A
330
18
100
AcDbEntity
  8
01
  6
CONTINUOUS
100
AcDbLine
 10
335.1411608776154
 20
-883.8301404324448
 30
0.0
 11
-262.8588551858364
 21
-883.8301404324448
 31
0.0
  0
LINE
  5
1762C
330
18
100
AcDbEntity
  8
01
  6
CONTINUOUS
100
AcDbLine
 10
336.1411480030121
 20
-859.8301439491188
 30
0.0
 11
336.1411480030121
 21
-857.830139896003
 31
0.0
  0
ARC
  5
1762D
330
18
100
AcDbEntity
  8
01
  6
CONTINUOUS
100
AcDbCircle
 10
335.1411434807039
 20
-857.8301417705952
 30
0.0
 40
1.000000000000227
100
AcDbArc
 50
0.0
 51
90.00000000000001
  0
LINE
  5
1762E
330
18
100
AcDbEntity
  8
01
  6
CONTINUOUS
100
AcDbLine
 10
336.1411480030121
 20
-880.830134352771
 30
0.0
 11
336.1411480030121
 21
-859.8301439491188
 31
0.0
  0
LINE
  5
17632
330
18
100
AcDbEntity
  8
1CENTER
100
AcDbLine
 10
-231.9872476313815
 20
-870.3301404324445
 30
0.0
 11
-224.8372476313814
 21
-870.3301404324445
 31
0.0
  0
LINE
  5
17633
330
18
100
AcDbEntity
  8
1CENTER
100
AcDbLine
 10
254.6627523686183
 20
-870.3301404324445
 30
0.0
 11
300.2388324782765
 21
-870.3301404324445
 31
0.0
  0
LINE
  5
17634
330
18
100
AcDbEntity
  8
1CENTER
100
AcDbLine
 10
247.5127523686182
 20
-870.3301404324445
 30
0.0
 11
254.6627523686183
 21
-870.3301404324445
 31
0.0
  0
LINE
  5
1763B
330
18
100
AcDbEntity
  8
1CENTER
100
AcDbLine
 10
251.0877523686183
 20
-734.8845027298205
 30
0.0
 11
251.0877523686183
 21
-743.0223717515121
 31
0.0
  0
LINE
  5
17642
330
18
100
AcDbEntity
  8
1CENTER
100
AcDbLine
 10
296.0877523686187
 20
-742.936525654947
 30
0.0
 11
296.0877523686187
 21
-735.1634147878922
 31
0.0
  0
LINE
  5
17657
330
18
100
AcDbEntity
  8
01
  6
CONTINUOUS
100
AcDbLine
 10
216.0877523686187
 20
-767.5237981241962
 30
0.0
 11
216.0877523686187
 21
-766.8360148087022
 31
0.0
  0
LINE
  5
17658
330
18
100
AcDbEntity
  8
01
  6
CONTINUOUS
100
AcDbLine
 10
216.0877523686187
 20
-766.8360148087022
 30
0.0
 11
216.0877523686187
 21
-736.8237981241973
 31
0.0
  0
LINE
  5
17659
330
18
100
AcDbEntity
  8
01
  6
CONTINUOUS
100
AcDbLine
 10
216.0877523686187
 20
-766.8360148087022
 30
0.0
 11
216.0877523686187
 21
-767.5237981241962
 31
0.0
  0
LINE
  5
1765A
330
18
100
AcDbEntity
  8
01
  6
CONTINUOUS
100
AcDbLine
 10
216.0877523686187
 20
-757.5737981241955
 30
0.0
 11
216.0877523686187
 21
-747.0737981241955
 31
0.0
  0
LINE
  5
1765B
330
18
100
AcDbEntity
  8
1PHANTOM
100
AcDbLine
 10
223.7441264233509
 20
-746.5786646880779
 30
0.0
 11
232.2602174726023
 21
-759.0689315603149
 31
0.0
  0
LINE
  5
1765C
330
18
100
AcDbEntity
  8
01
  6
CONTINUOUS
100
AcDbLine
 10
225.7862628570676
 20
-749.5737981241955
 30
0.0
 11
229.5301828098192
 21
-755.0648807215648
 31
0.0
  0
LINE
  5
1765D
330
18
100
AcDbEntity
  8
1PHANTOM
100
AcDbLine
 10
216.5877523686187
 20
-736.3237981241955
 30
0.0
 11
305.310123563039
 21
-736.3237981241955
 31
0.0
  0
LINE
  5
1765E
330
18
100
AcDbEntity
  8
1PHANTOM
100
AcDbLine
 10
305.310123563039
 20
-736.3237981241955
 30
0.0
 11
310.6355343453167
 21
-736.3237981241955
 31
0.0
  0
LINE
  5
1765F
330
18
100
AcDbEntity
  8
1PHANTOM
100
AcDbLine
 10
310.6355343453167
 20
-736.3237981241955
 30
0.0
 11
315.831583506743
 21
-736.3237981241955
 31
0.0
  0
LINE
  5
17660
330
18
100
AcDbEntity
  8
1PHANTOM
100
AcDbLine
 10
315.831583506743
 20
-736.3237981241955
 30
0.0
 11
316.6871375069961
 21
-736.3237981241955
 31
0.0
  0
LINE
  5
17661
330
18
100
AcDbEntity
  8
1PHANTOM
100
AcDbLine
 10
316.6871375069961
 20
-736.3237981241955
 30
0.0
 11
315.831583506743
 21
-736.3237981241955
 31
0.0
  0
LINE
  5
17662
330
18
100
AcDbEntity
  8
1PHANTOM
100
AcDbLine
 10
293.3377523686187
 20
-736.6237981241948
 30
0.0
 11
298.8377523686183
 21
-736.6237981241948
 31
0.0
  0
LINE
  5
17663
330
18
100
AcDbEntity
  8
1PHANTOM
100
AcDbLine
 10
219.0877523686187
 20
-765.3237981241973
 30
0.0
 11
219.0877523686187
 21
-766.8237981241973
 31
0.0
  0
LINE
  5
17664
330
18
100
AcDbEntity
  8
01
  6
CONTINUOUS
100
AcDbLine
 10
248.3377523686183
 20
-736.3237981241955
 30
0.0
 11
253.8377523686183
 21
-736.3237981241955
 31
0.0
  0
LINE
  5
17665
330
18
100
AcDbEntity
  8
1PHANTOM
100
AcDbLine
 10
231.4339901297946
 20
-764.3237981241973
 30
0.0
 11
220.0877523686187
 21
-764.3237981241973
 31
0.0
  0
LINE
  5
17666
330
18
100
AcDbEntity
  8
1PHANTOM
100
AcDbLine
 10
232.4339901297946
 20
-759.6322683849548
 30
0.0
 11
232.4339901297946
 21
-763.3237981241955
 31
0.0
  0
LINE
  5
17667
330
18
100
AcDbEntity
  8
1PHANTOM
100
AcDbLine
 10
223.5703537661586
 20
-742.3237981241955
 30
0.0
 11
223.5703537661586
 21
-746.0153278634361
 31
0.0
  0
LINE
  5
17668
330
18
100
AcDbEntity
  8
1PHANTOM
100
AcDbLine
 10
305.2024291126942
 20
-741.3237981241955
 30
0.0
 11
224.5703537661586
 21
-741.3237981241955
 31
0.0
  0
LINE
  5
17669
330
18
100
AcDbEntity
  8
1PHANTOM
100
AcDbLine
 10
298.8377523686183
 20
-741.3237981241955
 30
0.0
 11
293.3377523686187
 21
-741.3237981241955
 31
0.0
  0
LINE
  5
1766A
330
18
100
AcDbEntity
  8
1PHANTOM
100
AcDbLine
 10
330.1638700603332
 20
-764.3237981241973
 30
0.0
 11
321.941252195548
 21
-764.3237981241973
 31
0.0
  0
LINE
  5
1766B
330
18
100
AcDbEntity
  8
01
  6
CONTINUOUS
100
AcDbLine
 10
253.8377523686183
 20
-741.3237981241955
 30
0.0
 11
248.3377523686183
 21
-741.3237981241955
 31
0.0
  0
LINE
  5
1766C
330
18
100
AcDbEntity
  8
1PHANTOM
100
AcDbLine
 10
331.1638700603332
 20
-757.6322683849548
 30
0.0
 11
331.1638700603332
 21
-763.3237981241955
 31
0.0
  0
LINE
  5
1766D
330
18
100
AcDbEntity
  8
1PHANTOM
100
AcDbLine
 10
330.9900974031409
 20
-757.0689315603131
 30
0.0
 11
316.9350057098383
 21
-736.4547970768026
 31
0.0
  0
LINE
  5
1766F
330
18
100
AcDbEntity
  8
1PHANTOM
100
AcDbLine
 10
321.1150248527403
 20
-763.8871349488372
 30
0.0
 11
306.0286564555019
 21
-741.7604612995556
 31
0.0
  0
ARC
  5
17670
330
18
100
AcDbEntity
  8
1PHANTOM
100
AcDbCircle
 10
224.5703537661586
 20
-746.0153278634361
 30
0.0
 40
1.000000000000085
100
AcDbArc
 50
180.0
 51
214.2868769772247
  0
ARC
  5
17671
330
18
100
AcDbEntity
  8
1PHANTOM
100
AcDbCircle
 10
224.5703537661586
 20
-742.3237981241955
 30
0.0
 40
1.000000000000085
100
AcDbArc
 50
90.00000000000001
 51
180.0
  0
ARC
  5
17672
330
18
100
AcDbEntity
  8
1PHANTOM
100
AcDbCircle
 10
330.1638700603332
 20
-757.6322683849548
 30
0.0
 40
1.000000000000086
100
AcDbArc
 50
0.0
 51
34.28687697722472
  0
ARC
  5
17673
330
18
100
AcDbEntity
  8
1PHANTOM
100
AcDbCircle
 10
330.1638700603332
 20
-757.6322683849548
 30
0.0
 40
1.000000000000086
100
AcDbArc
 50
0.0
 51
34.28687697722472
  0
ARC
  5
17674
330
18
100
AcDbEntity
  8
1PHANTOM
100
AcDbCircle
 10
330.1638700603332
 20
-763.3237981241955
 30
0.0
 40
1.000000000000085
100
AcDbArc
 50
270.0
 51
0.0
  0
ARC
  5
17675
330
18
100
AcDbEntity
  8
1PHANTOM
100
AcDbCircle
 10
321.941252195548
 20
-763.3237981241955
 30
0.0
 40
1.000000000000046
100
AcDbArc
 50
214.2868769772247
 51
270.0
  0
ARC
  5
17676
330
18
100
AcDbEntity
  8
1PHANTOM
100
AcDbCircle
 10
330.1638700603332
 20
-763.3237981241955
 30
0.0
 40
1.000000000000085
100
AcDbArc
 50
270.0
 51
0.0
  0
ARC
  5
17677
330
18
100
AcDbEntity
  8
1PHANTOM
100
AcDbCircle
 10
321.941252195548
 20
-763.3237981241955
 30
0.0
 40
1.000000000000046
100
AcDbArc
 50
214.2868769772247
 51
270.0
  0
ARC
  5
17678
330
18
100
AcDbEntity
  8
1PHANTOM
100
AcDbCircle
 10
305.2024291126942
 20
-742.3237981241955
 30
0.0
 40
0.9999999999999432
100
AcDbArc
 50
34.28687697722472
 51
90.00000000000001
  0
ARC
  5
17679
330
18
100
AcDbEntity
  8
1PHANTOM
100
AcDbCircle
 10
220.0877523686187
 20
-765.3237981241973
 30
0.0
 40
1.000000000000085
100
AcDbArc
 50
90.00000000000001
 51
180.0
  0
ARC
  5
1767A
330
18
100
AcDbEntity
  8
1PHANTOM
100
AcDbCircle
 10
231.4339901297946
 20
-759.6322683849548
 30
0.0
 40
0.9999999999999432
100
AcDbArc
 50
0.0
 51
34.28687697722472
  0
ARC
  5
1767B
330
18
100
AcDbEntity
  8
1PHANTOM
100
AcDbCircle
 10
231.4339901297946
 20
-759.6322683849548
 30
0.0
 40
0.9999999999999432
100
AcDbArc
 50
0.0
 51
34.28687697722472
  0
LINE
  5
1767C
330
18
100
AcDbEntity
  8
01
  6
CONTINUOUS
100
AcDbLine
 10
218.0877523686187
 20
-767.8237981241973
 30
0.0
 11
216.3877523686185
 21
-767.8237981241973
 31
0.0
  0
ARC
  5
1767D
330
18
100
AcDbEntity
  8
1PHANTOM
100
AcDbCircle
 10
231.4339901297946
 20
-763.3237981241955
 30
0.0
 40
1.000000000000014
100
AcDbArc
 50
270.0
 51
0.0
  0
ARC
  5
1767E
330
18
100
AcDbEntity
  8
1PHANTOM
100
AcDbCircle
 10
231.4339901297946
 20
-763.3237981241955
 30
0.0
 40
1.000000000000014
100
AcDbArc
 50
270.0
 51
0.0
  0
ARC
  5
1767F
330
18
100
AcDbEntity
  8
1PHANTOM
100
AcDbCircle
 10
218.0877523686187
 20
-766.8237981241973
 30
0.0
 40
1.000000000000014
100
AcDbArc
 50
270.0
 51
0.0
  0
ARC
  5
17680
330
18
100
AcDbEntity
  8
01
  6
CONTINUOUS
100
AcDbCircle
 10
216.5877523686187
 20
-736.8237981241973
 30
0.0
 40
0.4999999999999716
100
AcDbArc
 50
90.00000000000001
 51
180.0
  0
ARC
  5
17681
330
18
100
AcDbEntity
  8
1PHANTOM
100
AcDbCircle
 10
316.6871375069961
 20
-736.6237981241966
 30
0.0
 40
0.3000000000000488
100
AcDbArc
 50
34.28687697719327
 51
90.00000000000001
  0
ARC
  5
17682
330
18
100
AcDbEntity
  8
1PHANTOM
100
AcDbCircle
 10
316.6871375069961
 20
-736.6237981241966
 30
0.0
 40
0.2999999999999403
100
AcDbArc
 50
34.28687697722472
 51
90.00000000000001
  0
ARC
  5
17683
330
18
100
AcDbEntity
  8
01
  6
CONTINUOUS
100
AcDbCircle
 10
216.3877523686185
 20
-767.5237981241962
 30
0.0
 40
0.3000000000000114
100
AcDbArc
 50
180.0
 51
270.0
  0
ARC
  5
17684
330
18
100
AcDbEntity
  8
01
  6
CONTINUOUS
100
AcDbCircle
 10
216.3877523686185
 20
-767.5237981241962
 30
0.0
 40
0.3000000000000114
100
AcDbArc
 50
180.0
 51
270.0
  0
LINE
  5
17685
330
18
100
AcDbEntity
  8
01
  6
CONTINUOUS
100
AcDbLine
 10
-171.106088145383
 20
-768.3237981241955
 30
0.0
 11
-165.6116262794056
 21
-768.3237981241955
 31
0.0
  0
LINE
  5
17686
330
18
100
AcDbEntity
  8
01
  6
CONTINUOUS
100
AcDbLine
 10
-219.106088145383
 20
-768.3237981241955
 30
0.0
 11
-213.6116262794058
 21
-768.3237981241955
 31
0.0
  0
LINE
  5
1768D
330
18
100
AcDbEntity
  8
01
  6
CONTINUOUS
100
AcDbLine
 10
315.6198984314098
 20
-736.3237981241955
 30
0.0
 11
216.1411427876057
 21
-736.3237981241955
 31
0.0
  0
LINE
  5
1768F
330
18
100
AcDbEntity
  8
01
  6
CONTINUOUS
100
AcDbLine
 10
216.6411427876057
 20
-736.3237981241955
 30
0.0
 11
334.6411427876057
 21
-736.3237981241955
 31
0.0
  0
LINE
  5
17690
330
18
100
AcDbEntity
  8
01
  6
CONTINUOUS
100
AcDbLine
 10
216.1411427876057
 20
-736.3237981241955
 30
0.0
 11
216.6411427876057
 21
-736.3237981241955
 31
0.0
  0
LINE
  5
17691
330
18
100
AcDbEntity
  8
01
  6
CONTINUOUS
100
AcDbLine
 10
317.2087844318323
 20
-736.3237981242046
 30
0.0
 11
315.6198984314098
 21
-736.3237981242046
 31
0.0
  0
LINE
  5
17692
330
18
100
AcDbEntity
  8
01
  6
CONTINUOUS
100
AcDbLine
 10
334.6411427876057
 20
-736.3237981241955
 30
0.0
 11
335.1411427876057
 21
-736.3237981241955
 31
0.0
  0
LINE
  5
17693
330
18
100
AcDbEntity
  8
01
  6
CONTINUOUS
100
AcDbLine
 10
202.1411427876057
 20
-768.3237981241955
 30
0.0
 11
204.141142787542
 21
-768.3237981241955
 31
0.0
  0
LINE
  5
17694
330
18
100
AcDbEntity
  8
01
  6
CONTINUOUS
100
AcDbLine
 10
335.1411427876057
 20
-736.3237981241955
 30
0.0
 11
334.6411427876057
 21
-736.3237981241955
 31
0.0
  0
LINE
  5
17695
330
18
100
AcDbEntity
  8
01
  6
CONTINUOUS
100
AcDbLine
 10
216.6411427876057
 20
-736.3237981241955
 30
0.0
 11
216.1411427876057
 21
-736.3237981241955
 31
0.0
  0
LINE
  5
17696
330
18
100
AcDbEntity
  8
01
  6
CONTINUOUS
100
AcDbLine
 10
315.6198984312925
 20
-736.3237981242046
 30
0.0
 11
317.2087844318323
 21
-736.3237981242046
 31
0.0
  0
LINE
  5
17697
330
18
100
AcDbEntity
  8
01
  6
CONTINUOUS
100
AcDbLine
 10
205.4411427875418
 20
-768.3237981241955
 30
0.0
 11
204.141142787542
 21
-768.3237981241955
 31
0.0
  0
LINE
  5
17698
330
18
100
AcDbEntity
  8
01
  6
CONTINUOUS
100
AcDbLine
 10
245.3939118546174
 20
-768.3237981241955
 30
0.0
 11
250.8883737205944
 21
-768.3237981241955
 31
0.0
  0
LINE
  5
17699
330
18
100
AcDbEntity
  8
01
  6
CONTINUOUS
100
AcDbLine
 10
335.6411427876057
 20
-736.8237981241955
 30
0.0
 11
335.6411427876057
 21
-767.3237981241955
 31
0.0
  0
LINE
  5
1769A
330
18
100
AcDbEntity
  8
01
  6
CONTINUOUS
100
AcDbLine
 10
293.3939118546174
 20
-768.3237981241955
 30
0.0
 11
298.8883737205944
 21
-768.3237981241955
 31
0.0
  0
LINE
  5
176A8
330
18
100
AcDbEntity
  8
01
  6
CONTINUOUS
100
AcDbLine
 10
215.6411427876057
 20
-736.8237981241955
 30
0.0
 11
215.6411427876057
 21
-767.3237981241955
 31
0.0
  0
LINE
  5
176BC
330
18
100
AcDbEntity
  8
01
  6
CONTINUOUS
100
AcDbLine
 10
204.141142787542
 20
-768.3237981241955
 30
0.0
 11
205.4411427875418
 21
-768.3237981241955
 31
0.0
  0
ARC
  5
176BD
330
18
100
AcDbEntity
  8
01
  6
CONTINUOUS
100
AcDbCircle
 10
216.6411427876057
 20
-767.3237981241955
 30
0.0
 40
1.000000000000085
100
AcDbArc
 50
180.0
 51
270.0
  0
ARC
  5
176BE
330
18
100
AcDbEntity
  8
01
  6
CONTINUOUS
100
AcDbCircle
 10
334.6411427876057
 20
-767.3237981241955
 30
0.0
 40
1.000000000000014
100
AcDbArc
 50
270.0
 51
0.0
  0
ARC
  5
176BF
330
18
100
AcDbEntity
  8
01
  6
CONTINUOUS
100
AcDbCircle
 10
334.6411427876057
 20
-767.3237981241955
 30
0.0
 40
1.000000000000014
100
AcDbArc
 50
270.0
 51
0.0
  0
ARC
  5
176C0
330
18
100
AcDbEntity
  8
01
  6
CONTINUOUS
100
AcDbCircle
 10
216.6411427876057
 20
-767.3237981241955
 30
0.0
 40
1.000000000000085
100
AcDbArc
 50
180.0
 51
270.0
  0
ARC
  5
176C1
330
18
100
AcDbEntity
  8
01
  6
CONTINUOUS
100
AcDbCircle
 10
216.1411427876057
 20
-736.8237981241955
 30
0.0
 40
0.5000000000001137
100
AcDbArc
 50
90.00000000000001
 51
180.0
  0
ARC
  5
176C2
330
18
100
AcDbEntity
  8
01
  6
CONTINUOUS
100
AcDbCircle
 10
335.1411427876057
 20
-736.8237981241955
 30
0.0
 40
0.5000000000000426
100
AcDbArc
 50
0.0
 51
90.00000000000001
  0
ARC
  5
176C3
330
18
100
AcDbEntity
  8
01
  6
CONTINUOUS
100
AcDbCircle
 10
335.1411427876057
 20
-736.8237981241955
 30
0.0
 40
0.5000000000000426
100
AcDbArc
 50
0.0
 51
90.00000000000001
  0
ARC
  5
176C4
330
18
100
AcDbEntity
  8
01
  6
CONTINUOUS
100
AcDbCircle
 10
216.1411427876057
 20
-736.8237981241955
 30
0.0
 40
0.5000000000001137
100
AcDbArc
 50
90.00000000000001
 51
180.0
  0
LINE
  5
176C8
330
18
100
AcDbEntity
  8
01
  6
CONTINUOUS
100
AcDbLine
 10
336.1411427876057
 20
-797.3237981241955
 30
0.0
 11
336.1411427876057
 21
-769.3237981241955
 31
0.0
  0
LINE
  5
176C9
330
18
100
AcDbEntity
  8
01
  6
CONTINUOUS
100
AcDbLine
 10
-262.8588572123943
 20
-800.3237981241955
 30
0.0
 11
335.1411427876057
 21
-800.3237981241955
 31
0.0
  0
LINE
  5
176CA
330
18
100
AcDbEntity
  8
01
  6
CONTINUOUS
100
AcDbLine
 10
336.1411427876057
 20
-799.3237981241955
 30
0.0
 11
336.1411427876057
 21
-797.3237981241955
 31
0.0
  0
LINE
  5
176CB
330
18
100
AcDbEntity
  8
01
  6
CONTINUOUS
100
AcDbLine
 10
-170.4588572123942
 20
-768.3237981241955
 30
0.0
 11
-166.2588572123944
 21
-768.3237981241955
 31
0.0
  0
LINE
  5
176CC
330
18
100
AcDbEntity
  8
01
  6
CONTINUOUS
100
AcDbLine
 10
-218.4588572123942
 20
-768.3237981241955
 30
0.0
 11
-214.2588572123944
 21
-768.3237981241955
 31
0.0
  0
LINE
  5
176CD
330
18
100
AcDbEntity
  8
01
  6
CONTINUOUS
100
AcDbLine
 10
294.0411427876058
 20
-768.3237981241955
 30
0.0
 11
298.2411427876056
 21
-768.3237981241955
 31
0.0
  0
LINE
  5
176CE
330
18
100
AcDbEntity
  8
01
  6
CONTINUOUS
100
AcDbLine
 10
246.0411427876058
 20
-768.3237981241955
 30
0.0
 11
250.2411427876061
 21
-768.3237981241955
 31
0.0
  0
LINE
  5
176D1
330
18
100
AcDbEntity
  8
01
  6
CONTINUOUS
100
AcDbLine
 10
-263.8588572123943
 20
-797.3237981241955
 30
0.0
 11
-263.8588572123943
 21
-769.3237981241955
 31
0.0
  0
LINE
  5
176D2
330
18
100
AcDbEntity
  8
01
  6
CONTINUOUS
100
AcDbLine
 10
-263.8588572123943
 20
-799.3237981241955
 30
0.0
 11
-263.8588572123943
 21
-797.3237981241955
 31
0.0
  0
ARC
  5
176D3
330
18
100
AcDbEntity
  8
01
  6
CONTINUOUS
100
AcDbCircle
 10
335.1411427876057
 20
-799.3237981241955
 30
0.0
 40
1.000000000000227
100
AcDbArc
 50
270.0
 51
0.0
  0
ARC
  5
176D4
330
18
100
AcDbEntity
  8
01
  6
CONTINUOUS
100
AcDbCircle
 10
-262.8588572123943
 20
-799.3237981241955
 30
0.0
 40
1.000000000000014
100
AcDbArc
 50
180.0
 51
270.0
  0
SPLINE
  5
176D5
330
18
100
AcDbEntity
  8
01
  6
CONTINUOUS
100
AcDbSpline
210
0.0
220
0.0
230
1.0
 70
     8
 71
     3
 72
    11
 73
     7
 74
     0
 42
0.0000000001
 43
0.0000000001
 40
0.0
 40
0.0
 40
0.0
 40
0.0
 40
0.250000000000029
 40
0.5000000000000147
 40
0.7499999999999998
 40
0.9999999999999999
 40
0.9999999999999999
 40
0.9999999999999999
 40
0.9999999999999999
 10
335.1411427876057
 20
-768.3237981241937
 30
0.0
 10
335.2721798314121
 20
-768.3388296969815
 30
0.0
 10
335.5342539190244
 20
-768.3688928425572
 30
0.0
 10
335.8647988561212
 20
-768.6001420556795
 30
0.0
 10
336.0960480692435
 20
-768.9306869927759
 30
0.0
 10
336.1261112148183
 20
-769.1927610803896
 30
0.0
 10
336.1411427876057
 20
-769.3237981241955
 30
0.0
  0
SPLINE
  5
176D7
330
18
100
AcDbEntity
  8
01
  6
CONTINUOUS
100
AcDbSpline
210
0.0
220
0.0
230
1.0
 70
     8
 71
     3
 72
    11
 73
     7
 74
     0
 42
0.0000000001
 43
0.0000000001
 40
0.0
 40
0.0
 40
0.0
 40
0.0
 40
0.2499999999999991
 40
0.5000000000000006
 40
0.7499999999999978
 40
0.9999999999999999
 40
0.9999999999999999
 40
0.9999999999999999
 40
0.9999999999999999
 10
-263.8588572123943
 20
-769.3237981241955
 30
0.0
 10
-263.8438256396069
 20
-769.1927610803896
 30
0.0
 10
-263.8137624940323
 20
-768.9306869927759
 30
0.0
 10
-263.5825132809098
 20
-768.6001420556795
 30
0.0
 10
-263.251968343813
 20
-768.3688928425572
 30
0.0
 10
-262.9898942562007
 20
-768.3388296969815
 30
0.0
 10
-262.8588572123945
 20
-768.3237981241937
 30
0.0
  0
LINE
  5
176DF
330
18
100
AcDbEntity
  8
1CENTER
100
AcDbLine
 10
-227.9122476313819
 20
-734.5512519739934
 30
0.0
 11
-227.9122476313819
 21
-743.2403345210457
 31
0.0
  0
LINE
  5
176E1
330
18
100
AcDbEntity
  8
01
  6
CONTINUOUS
100
AcDbLine
 10
-249.4637371429329
 20
-752.3237981241937
 30
0.0
 11
-259.9122476313817
 21
-752.3237981241937
 31
0.0
  0
LINE
  5
176E7
330
18
100
AcDbEntity
  8
1CENTER
100
AcDbLine
 10
-182.9122476313819
 20
-734.5512519739934
 30
0.0
 11
-182.9122476313819
 21
-743.5147239515534
 31
0.0
  0
LINE
  5
176F2
330
18
100
AcDbEntity
  8
01
  6
CONTINUOUS
100
AcDbLine
 10
-262.9122476313817
 20
-767.5237981241944
 30
0.0
 11
-262.9122476313817
 21
-766.8360148087004
 31
0.0
  0
LINE
  5
176F3
330
18
100
AcDbEntity
  8
1PHANTOM
100
AcDbLine
 10
-262.9122476313817
 20
-766.8360148087004
 30
0.0
 11
-262.9122476313817
 21
-736.8237981241955
 31
0.0
  0
LINE
  5
176F4
330
18
100
AcDbEntity
  8
01
  6
CONTINUOUS
100
AcDbLine
 10
-262.9122476313817
 20
-766.8360148087004
 30
0.0
 11
-262.9122476313817
 21
-767.5237981241944
 31
0.0
  0
LINE
  5
176F5
330
18
100
AcDbEntity
  8
01
  6
CONTINUOUS
100
AcDbLine
 10
-262.9122476313817
 20
-757.5737981241937
 30
0.0
 11
-262.9122476313817
 21
-747.0737981241937
 31
0.0
  0
LINE
  5
176F6
330
18
100
AcDbEntity
  8
1PHANTOM
100
AcDbLine
 10
-255.2558735766495
 20
-746.5786646880761
 30
0.0
 11
-246.7397825273982
 21
-759.0689315603131
 31
0.0
  0
LINE
  5
176F7
330
18
100
AcDbEntity
  8
01
  6
CONTINUOUS
100
AcDbLine
 10
-253.2137371429329
 20
-749.5737981241937
 30
0.0
 11
-249.4698171901812
 21
-755.064880721563
 31
0.0
  0
LINE
  5
176F8
330
18
100
AcDbEntity
  8
1PHANTOM
100
AcDbLine
 10
-262.4122476313817
 20
-736.3237981241937
 30
0.0
 11
-173.6898764369612
 21
-736.3237981241937
 31
0.0
  0
LINE
  5
176F9
330
18
100
AcDbEntity
  8
01
  6
CONTINUOUS
100
AcDbLine
 10
-173.6898764369612
 20
-736.3237981241937
 30
0.0
 11
-168.3644656546838
 21
-736.3237981241937
 31
0.0
  0
LINE
  5
176FA
330
18
100
AcDbEntity
  8
01
  6
CONTINUOUS
100
AcDbLine
 10
-168.3644656546838
 20
-736.3237981241937
 30
0.0
 11
-163.1684164932574
 21
-736.3237981241937
 31
0.0
  0
LINE
  5
176FB
330
18
100
AcDbEntity
  8
01
  6
CONTINUOUS
100
AcDbLine
 10
-163.1684164932574
 20
-736.3237981241937
 30
0.0
 11
-162.3128624930044
 21
-736.3237981241937
 31
0.0
  0
LINE
  5
176FC
330
18
100
AcDbEntity
  8
01
  6
CONTINUOUS
100
AcDbLine
 10
-162.3128624930044
 20
-736.3237981241937
 30
0.0
 11
-163.1684164932574
 21
-736.3237981241937
 31
0.0
  0
LINE
  5
176FD
330
18
100
AcDbEntity
  8
01
  6
CONTINUOUS
100
AcDbLine
 10
-185.6622476313817
 20
-736.3237981241937
 30
0.0
 11
-180.1622476313819
 21
-736.3237981241937
 31
0.0
  0
LINE
  5
176FE
330
18
100
AcDbEntity
  8
1PHANTOM
100
AcDbLine
 10
-259.9122476313817
 20
-765.3237981241955
 30
0.0
 11
-259.9122476313817
 21
-766.8237981241955
 31
0.0
  0
LINE
  5
176FF
330
18
100
AcDbEntity
  8
01
  6
CONTINUOUS
100
AcDbLine
 10
-230.6622476313819
 20
-736.623798124193
 30
0.0
 11
-225.1622476313819
 21
-736.623798124193
 31
0.0
  0
LINE
  5
17700
330
18
100
AcDbEntity
  8
1PHANTOM
100
AcDbLine
 10
-247.5660098702056
 20
-764.3237981241955
 30
0.0
 11
-258.9122476313817
 21
-764.3237981241955
 31
0.0
  0
LINE
  5
17701
330
18
100
AcDbEntity
  8
1PHANTOM
100
AcDbLine
 10
-246.5660098702056
 20
-759.632268384953
 30
0.0
 11
-246.5660098702058
 21
-763.3237981241937
 31
0.0
  0
LINE
  5
17702
330
18
100
AcDbEntity
  8
1PHANTOM
100
AcDbLine
 10
-255.4296462338419
 20
-742.3237981241937
 30
0.0
 11
-255.4296462338419
 21
-746.0153278634343
 31
0.0
  0
LINE
  5
17703
330
18
100
AcDbEntity
  8
1PHANTOM
100
AcDbLine
 10
-173.797570887306
 20
-741.3237981241937
 30
0.0
 11
-254.4296462338419
 21
-741.3237981241937
 31
0.0
  0
LINE
  5
17704
330
18
100
AcDbEntity
  8
01
  6
CONTINUOUS
100
AcDbLine
 10
-180.1622476313819
 20
-741.3237981241937
 30
0.0
 11
-185.6622476313817
 21
-741.3237981241937
 31
0.0
  0
LINE
  5
17705
330
18
100
AcDbEntity
  8
1PHANTOM
100
AcDbLine
 10
-148.8361299396673
 20
-764.3237981241955
 30
0.0
 11
-157.0587478044525
 21
-764.3237981241955
 31
0.0
  0
LINE
  5
17706
330
18
100
AcDbEntity
  8
01
  6
CONTINUOUS
100
AcDbLine
 10
-225.1622476313819
 20
-741.3237981241937
 30
0.0
 11
-230.6622476313819
 21
-741.3237981241937
 31
0.0
  0
LINE
  5
17707
330
18
100
AcDbEntity
  8
1PHANTOM
100
AcDbLine
 10
-147.8361299396673
 20
-757.632268384953
 30
0.0
 11
-147.8361299396673
 21
-763.3237981241937
 31
0.0
  0
LINE
  5
17708
330
18
100
AcDbEntity
  8
1PHANTOM
100
AcDbLine
 10
-148.0099025968596
 20
-757.0689315603113
 30
0.0
 11
-162.0649942901621
 21
-736.4547970768008
 31
0.0
  0
LINE
  5
1770A
330
18
100
AcDbEntity
  8
1PHANTOM
100
AcDbLine
 10
-157.8849751472601
 20
-763.8871349488354
 30
0.0
 11
-172.9713435444986
 21
-741.7604612995538
 31
0.0
  0
ARC
  5
1770B
330
18
100
AcDbEntity
  8
1PHANTOM
100
AcDbCircle
 10
-254.4296462338419
 20
-746.0153278634343
 30
0.0
 40
1.000000000000085
100
AcDbArc
 50
180.0
 51
214.2868769772248
  0
ARC
  5
1770C
330
18
100
AcDbEntity
  8
1PHANTOM
100
AcDbCircle
 10
-254.4296462338419
 20
-742.3237981241937
 30
0.0
 40
1.000000000000085
100
AcDbArc
 50
90.00000000000001
 51
180.0
  0
ARC
  5
1770D
330
18
100
AcDbEntity
  8
1PHANTOM
100
AcDbCircle
 10
-148.8361299396673
 20
-757.632268384953
 30
0.0
 40
1.000000000000086
100
AcDbArc
 50
0.0
 51
34.28687697722477
  0
ARC
  5
1770E
330
18
100
AcDbEntity
  8
1PHANTOM
100
AcDbCircle
 10
-148.8361299396673
 20
-757.632268384953
 30
0.0
 40
1.000000000000086
100
AcDbArc
 50
0.0
 51
34.28687697722477
  0
ARC
  5
1770F
330
18
100
AcDbEntity
  8
1PHANTOM
100
AcDbCircle
 10
-148.8361299396673
 20
-763.3237981241937
 30
0.0
 40
1.000000000000085
100
AcDbArc
 50
270.0
 51
0.0
  0
ARC
  5
17710
330
18
100
AcDbEntity
  8
01
  6
CONTINUOUS
100
AcDbCircle
 10
-157.0587478044525
 20
-763.3237981241937
 30
0.0
 40
1.000000000000046
100
AcDbArc
 50
214.2868769772248
 51
270.0
  0
ARC
  5
17711
330
18
100
AcDbEntity
  8
1PHANTOM
100
AcDbCircle
 10
-148.8361299396673
 20
-763.3237981241937
 30
0.0
 40
1.000000000000085
100
AcDbArc
 50
270.0
 51
0.0
  0
ARC
  5
17712
330
18
100
AcDbEntity
  8
01
  6
CONTINUOUS
100
AcDbCircle
 10
-157.0587478044525
 20
-763.3237981241937
 30
0.0
 40
1.000000000000046
100
AcDbArc
 50
214.2868769772248
 51
270.0
  0
ARC
  5
17713
330
18
100
AcDbEntity
  8
01
  6
CONTINUOUS
100
AcDbCircle
 10
-173.797570887306
 20
-742.3237981241937
 30
0.0
 40
0.9999999999999432
100
AcDbArc
 50
34.28687697722477
 51
90.00000000000001
  0
ARC
  5
17714
330
18
100
AcDbEntity
  8
1PHANTOM
100
AcDbCircle
 10
-258.9122476313817
 20
-765.3237981241955
 30
0.0
 40
1.000000000000085
100
AcDbArc
 50
90.00000000000001
 51
180.0
  0
ARC
  5
17715
330
18
100
AcDbEntity
  8
1PHANTOM
100
AcDbCircle
 10
-247.5660098702056
 20
-759.632268384953
 30
0.0
 40
0.9999999999999432
100
AcDbArc
 50
0.0
 51
34.28687697722477
  0
ARC
  5
17716
330
18
100
AcDbEntity
  8
1PHANTOM
100
AcDbCircle
 10
-247.5660098702056
 20
-759.632268384953
 30
0.0
 40
0.9999999999999432
100
AcDbArc
 50
0.0
 51
34.28687697722477
  0
LINE
  5
17717
330
18
100
AcDbEntity
  8
01
  6
CONTINUOUS
100
AcDbLine
 10
-260.9122476313817
 20
-767.8237981241955
 30
0.0
 11
-262.612247631382
 21
-767.8237981241955
 31
0.0
  0
ARC
  5
17718
330
18
100
AcDbEntity
  8
1PHANTOM
100
AcDbCircle
 10
-247.5660098702056
 20
-763.3237981241937
 30
0.0
 40
1.000000000000014
100
AcDbArc
 50
270.0
 51
0.0
  0
ARC
  5
17719
330
18
100
AcDbEntity
  8
1PHANTOM
100
AcDbCircle
 10
-247.5660098702056
 20
-763.3237981241937
 30
0.0
 40
1.000000000000014
100
AcDbArc
 50
270.0
 51
0.0
  0
ARC
  5
1771A
330
18
100
AcDbEntity
  8
01
  6
CONTINUOUS
100
AcDbCircle
 10
-260.9122476313817
 20
-766.8237981241955
 30
0.0
 40
1.000000000000014
100
AcDbArc
 50
270.0
 51
0.0
  0
ARC
  5
1771B
330
18
100
AcDbEntity
  8
01
  6
CONTINUOUS
100
AcDbCircle
 10
-262.4122476313817
 20
-736.8237981241955
 30
0.0
 40
0.4999999999999716
100
AcDbArc
 50
90.00000000000001
 51
180.0
  0
ARC
  5
1771C
330
18
100
AcDbEntity
  8
01
  6
CONTINUOUS
100
AcDbCircle
 10
-162.3128624930044
 20
-736.6237981241948
 30
0.0
 40
0.3000000000000488
100
AcDbArc
 50
34.28687697719327
 51
90.00000000000001
  0
ARC
  5
1771D
330
18
100
AcDbEntity
  8
01
  6
CONTINUOUS
100
AcDbCircle
 10
-162.3128624930044
 20
-736.6237981241948
 30
0.0
 40
0.2999999999999403
100
AcDbArc
 50
34.28687697722477
 51
90.00000000000001
  0
ARC
  5
1771E
330
18
100
AcDbEntity
  8
01
  6
CONTINUOUS
100
AcDbCircle
 10
-262.612247631382
 20
-767.5237981241944
 30
0.0
 40
0.3000000000000114
100
AcDbArc
 50
180.0
 51
270.0
  0
ARC
  5
1771F
330
18
100
AcDbEntity
  8
01
  6
CONTINUOUS
100
AcDbCircle
 10
-262.612247631382
 20
-767.5237981241944
 30
0.0
 40
0.3000000000000114
100
AcDbArc
 50
180.0
 51
270.0
  0
LINE
  5
17726
330
18
100
AcDbEntity
  8
01
  6
CONTINUOUS
100
AcDbLine
 10
-163.3801015685904
 20
-736.3237981241937
 30
0.0
 11
-262.8588572123943
 21
-736.3237981241937
 31
0.0
  0
LINE
  5
17728
330
18
100
AcDbEntity
  8
01
  6
CONTINUOUS
100
AcDbLine
 10
-262.3588572123943
 20
-736.3237981241937
 30
0.0
 11
-144.3588572123945
 21
-736.3237981241937
 31
0.0
  0
LINE
  5
17729
330
18
100
AcDbEntity
  8
01
  6
CONTINUOUS
100
AcDbLine
 10
-262.8588572123943
 20
-736.3237981241937
 30
0.0
 11
-262.3588572123943
 21
-736.3237981241937
 31
0.0
  0
LINE
  5
1772A
330
18
100
AcDbEntity
  8
01
  6
CONTINUOUS
100
AcDbLine
 10
-161.7912155681682
 20
-736.3237981242028
 30
0.0
 11
-163.3801015685904
 21
-736.3237981242028
 31
0.0
  0
LINE
  5
1772B
330
18
100
AcDbEntity
  8
01
  6
CONTINUOUS
100
AcDbLine
 10
-144.3588572123945
 20
-736.3237981241937
 30
0.0
 11
-143.8588572123945
 21
-736.3237981241937
 31
0.0
  0
LINE
  5
1772C
330
18
100
AcDbEntity
  8
01
  6
CONTINUOUS
100
AcDbLine
 10
-143.8588572123945
 20
-736.3237981241937
 30
0.0
 11
-144.3588572123945
 21
-736.3237981241937
 31
0.0
  0
LINE
  5
1772D
330
18
100
AcDbEntity
  8
01
  6
CONTINUOUS
100
AcDbLine
 10
-262.3588572123943
 20
-736.3237981241937
 30
0.0
 11
-262.8588572123943
 21
-736.3237981241937
 31
0.0
  0
LINE
  5
1772E
330
18
100
AcDbEntity
  8
01
  6
CONTINUOUS
100
AcDbLine
 10
-163.3801015687077
 20
-736.3237981242028
 30
0.0
 11
-161.7912155681682
 21
-736.3237981242028
 31
0.0
  0
LINE
  5
1772F
330
18
100
AcDbEntity
  8
01
  6
CONTINUOUS
100
AcDbLine
 10
-143.3588572123945
 20
-736.8237981241937
 30
0.0
 11
-143.3588572123943
 21
-767.3237981241937
 31
0.0
  0
LINE
  5
1773C
330
18
100
AcDbEntity
  8
01
  6
CONTINUOUS
100
AcDbLine
 10
-263.3588572123943
 20
-736.8237981241937
 30
0.0
 11
-263.3588572123943
 21
-767.3237981241937
 31
0.0
  0
ARC
  5
17750
330
18
100
AcDbEntity
  8
01
  6
CONTINUOUS
100
AcDbCircle
 10
-262.3588572123943
 20
-767.3237981241937
 30
0.0
 40
1.000000000000085
100
AcDbArc
 50
180.0
 51
270.0
  0
ARC
  5
17751
330
18
100
AcDbEntity
  8
01
  6
CONTINUOUS
100
AcDbCircle
 10
-144.3588572123943
 20
-767.3237981241937
 30
0.0
 40
1.000000000000014
100
AcDbArc
 50
270.0
 51
0.0
  0
ARC
  5
17752
330
18
100
AcDbEntity
  8
01
  6
CONTINUOUS
100
AcDbCircle
 10
-144.3588572123943
 20
-767.3237981241937
 30
0.0
 40
1.000000000000014
100
AcDbArc
 50
270.0
 51
0.0
  0
ARC
  5
17753
330
18
100
AcDbEntity
  8
01
  6
CONTINUOUS
100
AcDbCircle
 10
-262.3588572123943
 20
-767.3237981241937
 30
0.0
 40
1.000000000000085
100
AcDbArc
 50
180.0
 51
270.0
  0
ARC
  5
17754
330
18
100
AcDbEntity
  8
01
  6
CONTINUOUS
100
AcDbCircle
 10
-262.8588572123943
 20
-736.8237981241937
 30
0.0
 40
0.5000000000001137
100
AcDbArc
 50
90.00000000000001
 51
180.0
  0
ARC
  5
17755
330
18
100
AcDbEntity
  8
01
  6
CONTINUOUS
100
AcDbCircle
 10
-143.8588572123945
 20
-736.8237981241937
 30
0.0
 40
0.5000000000000426
100
AcDbArc
 50
0.0
 51
90.00000000000001
  0
ARC
  5
17756
330
18
100
AcDbEntity
  8
01
  6
CONTINUOUS
100
AcDbCircle
 10
-143.8588572123945
 20
-736.8237981241937
 30
0.0
 40
0.5000000000000426
100
AcDbArc
 50
0.0
 51
90.00000000000001
  0
ARC
  5
17757
330
18
100
AcDbEntity
  8
01
  6
CONTINUOUS
100
AcDbCircle
 10
-262.8588572123943
 20
-736.8237981241937
 30
0.0
 40
0.5000000000001137
100
AcDbArc
 50
90.00000000000001
 51
180.0
  0
LINE
  5
1775C
330
18
100
AcDbEntity
  8
01
100
AcDbLine
 10
335.1411427876057
 20
-768.3237981241937
 30
0.0
 11
-262.8588572123945
 21
-768.3237981241932
 31
0.0
  0
LINE
  5
1776A
330
18
100
AcDbEntity
  8
1DIM
100
AcDbLine
 10
-259.9122476313817
 20
-754.8237981241937
 30
0.0
 11
-259.9122476313817
 21
-749.8237981241937
 31
0.0
  0
LINE
  5
17774
330
18
100
AcDbEntity
  8
1CENTER
100
AcDbLine
 10
296.0877523686187
 20
-865.9800246052168
 30
0.0
 11
296.0877523686187
 21
-874.6802562596727
 31
0.0
  0
LINE
  5
17775
330
18
100
AcDbEntity
  8
1CENTER
100
AcDbLine
 10
251.0877523686183
 20
-865.9800246052168
 30
0.0
 11
251.0877523686183
 21
-874.6802562596729
 31
0.0
  0
LINE
  5
1788F
102
{ACAD_REACTORS
330
17895
102
}
330
18
100
AcDbEntity
  8
1PHANTOM
100
AcDbLine
 10
291.7222944691959
 20
-742.3237879777474
 30
0.0
 11
291.7222944691959
 21
-741.3237981352726
 31
0.0
  0
LINE
  5
17890
102
{ACAD_REACTORS
330
17895
102
}
330
18
100
AcDbEntity
  8
1PHANTOM
100
AcDbLine
 10
293.4222944691962
 20
-742.3237879777474
 30
0.0
 11
293.4222944691962
 21
-741.3237981352726
 31
0.0
  0
LINE
  5
17891
102
{ACAD_REACTORS
330
17895
102
}
330
18
100
AcDbEntity
  8
1PHANTOM
100
AcDbLine
 10
300.4722944691959
 20
-742.3238083372029
 30
0.0
 11
300.4722944691954
 21
-741.32379811307
 31
0.0
  0
LINE
  5
17892
102
{ACAD_REACTORS
330
17895
102
}
330
18
100
AcDbEntity
  8
1PHANTOM
100
AcDbLine
 10
298.7722944691956
 20
-742.3238083372029
 30
0.0
 11
298.7722944691956
 21
-741.3237981352726
 31
0.0
  0
LINE
  5
17893
102
{ACAD_REACTORS
330
17895
102
}
330
18
100
AcDbEntity
  8
1PHANTOM
100
AcDbLine
 10
300.4722944691954
 20
-741.32379811307
 30
0.0
 11
291.7222944691959
 21
-741.3237981352726
 31
0.0
  0
LINE
  5
17894
102
{ACAD_REACTORS
330
17895
102
}
330
18
100
AcDbEntity
  8
01
100
AcDbLine
 10
291.7222944691959
 20
-742.3237879777474
 30
0.0
 11
300.4722944691959
 21
-742.3237879777474
 31
0.0
  0
LINE
  5
178A4
102
{ACAD_REACTORS
330
178AC
102
}
330
18
100
AcDbEntity
  8
1CENTER
100
AcDbLine
 10
251.0877523686183
 20
-742.936525654947
 30
0.0
 11
251.0877523686183
 21
-735.1634147878922
 31
0.0
  0
LINE
  5
178A6
102
{ACAD_REACTORS
330
178AC
102
}
330
18
100
AcDbEntity
  8
1PHANTOM
100
AcDbLine
 10
246.7222944691954
 20
-742.3237879777474
 30
0.0
 11
246.7222944691954
 21
-741.3237981352726
 31
0.0
  0
LINE
  5
178A7
102
{ACAD_REACTORS
330
178AC
102
}
330
18
100
AcDbEntity
  8
1PHANTOM
100
AcDbLine
 10
248.4222944691957
 20
-742.3237879777474
 30
0.0
 11
248.4222944691957
 21
-741.3237981352726
 31
0.0
  0
LINE
  5
178A8
102
{ACAD_REACTORS
330
178AC
102
}
330
18
100
AcDbEntity
  8
1PHANTOM
100
AcDbLine
 10
255.4722944691954
 20
-742.3238083372029
 30
0.0
 11
255.472294469195
 21
-741.32379811307
 31
0.0
  0
LINE
  5
178A9
102
{ACAD_REACTORS
330
178AC
102
}
330
18
100
AcDbEntity
  8
1PHANTOM
100
AcDbLine
 10
253.7722944691952
 20
-742.3238083372029
 30
0.0
 11
253.7722944691952
 21
-741.3237981352726
 31
0.0
  0
LINE
  5
178AA
102
{ACAD_REACTORS
330
178AC
102
}
330
18
100
AcDbEntity
  8
1PHANTOM
100
AcDbLine
 10
255.472294469195
 20
-741.32379811307
 30
0.0
 11
246.7222944691954
 21
-741.3237981352726
 31
0.0
  0
LINE
  5
178AB
102
{ACAD_REACTORS
330
178AC
102
}
330
18
100
AcDbEntity
  8
01
100
AcDbLine
 10
246.7222944691954
 20
-742.3237879777474
 30
0.0
 11
255.4722944691954
 21
-742.3237879777474
 31
0.0
  0
LINE
  5
178BB
102
{ACAD_REACTORS
330
178C3
102
}
330
18
100
AcDbEntity
  8
1CENTER
100
AcDbLine
 10
-182.9122476313819
 20
-742.9365256549452
 30
0.0
 11
-182.9122476313819
 21
-735.1634147878904
 31
0.0
  0
LINE
  5
178BD
102
{ACAD_REACTORS
330
178C3
102
}
330
18
100
AcDbEntity
  8
1PHANTOM
100
AcDbLine
 10
-187.2777055308048
 20
-742.3237879777456
 30
0.0
 11
-187.2777055308048
 21
-741.3237981352707
 31
0.0
  0
LINE
  5
178BE
102
{ACAD_REACTORS
330
178C3
102
}
330
18
100
AcDbEntity
  8
1PHANTOM
100
AcDbLine
 10
-185.5777055308045
 20
-742.3237879777456
 30
0.0
 11
-185.5777055308045
 21
-741.3237981352707
 31
0.0
  0
LINE
  5
178BF
102
{ACAD_REACTORS
330
178C3
102
}
330
18
100
AcDbEntity
  8
1PHANTOM
100
AcDbLine
 10
-178.5277055308048
 20
-742.3238083372011
 30
0.0
 11
-178.5277055308052
 21
-741.3237981130682
 31
0.0
  0
LINE
  5
178C0
102
{ACAD_REACTORS
330
178C3
102
}
330
18
100
AcDbEntity
  8
1PHANTOM
100
AcDbLine
 10
-180.2277055308051
 20
-742.3238083372011
 30
0.0
 11
-180.2277055308051
 21
-741.3237981352707
 31
0.0
  0
LINE
  5
178C1
102
{ACAD_REACTORS
330
178C3
102
}
330
18
100
AcDbEntity
  8
1PHANTOM
100
AcDbLine
 10
-178.5277055308052
 20
-741.3237981130682
 30
0.0
 11
-187.2777055308048
 21
-741.3237981352707
 31
0.0
  0
LINE
  5
178C2
102
{ACAD_REACTORS
330
178C3
102
}
330
18
100
AcDbEntity
  8
01
100
AcDbLine
 10
-187.2777055308048
 20
-742.3237879777456
 30
0.0
 11
-178.5277055308048
 21
-742.3237879777456
 31
0.0
  0
LINE
  5
178D2
102
{ACAD_REACTORS
330
178DA
102
}
330
18
100
AcDbEntity
  8
1CENTER
100
AcDbLine
 10
-227.9122476313819
 20
-742.9365256549452
 30
0.0
 11
-227.9122476313819
 21
-735.1634147878904
 31
0.0
  0
LINE
  5
178D4
102
{ACAD_REACTORS
330
178DA
102
}
330
18
100
AcDbEntity
  8
1PHANTOM
100
AcDbLine
 10
-232.2777055308048
 20
-742.3237879777456
 30
0.0
 11
-232.2777055308048
 21
-741.3237981352707
 31
0.0
  0
LINE
  5
178D5
102
{ACAD_REACTORS
330
178DA
102
}
330
18
100
AcDbEntity
  8
1PHANTOM
100
AcDbLine
 10
-230.5777055308045
 20
-742.3237879777456
 30
0.0
 11
-230.5777055308045
 21
-741.3237981352707
 31
0.0
  0
LINE
  5
178D6
102
{ACAD_REACTORS
330
178DA
102
}
330
18
100
AcDbEntity
  8
1PHANTOM
100
AcDbLine
 10
-223.5277055308048
 20
-742.3238083372011
 30
0.0
 11
-223.5277055308052
 21
-741.3237981130682
 31
0.0
  0
LINE
  5
178D7
102
{ACAD_REACTORS
330
178DA
102
}
330
18
100
AcDbEntity
  8
1PHANTOM
100
AcDbLine
 10
-225.2277055308051
 20
-742.3238083372011
 30
0.0
 11
-225.2277055308051
 21
-741.3237981352707
 31
0.0
  0
LINE
  5
178D8
102
{ACAD_REACTORS
330
178DA
102
}
330
18
100
AcDbEntity
  8
1PHANTOM
100
AcDbLine
 10
-223.5277055308052
 20
-741.3237981130682
 30
0.0
 11
-232.2777055308048
 21
-741.3237981352707
 31
0.0
  0
LINE
  5
178D9
102
{ACAD_REACTORS
330
178DA
102
}
330
18
100
AcDbEntity
  8
01
100
AcDbLine
 10
-232.2777055308048
 20
-742.3237879777456
 30
0.0
 11
-223.5277055308048
 21
-742.3237879777456
 31
0.0
  0
SPLINE
  5
17B83
102
{ACAD_REACTORS
330
17D5A
102
}
330
18
100
AcDbEntity
  8
1PHANTOM
100
AcDbSpline
210
0.0
220
0.0
230
1.0
 70
     8
 71
     3
 72
    11
 73
     7
 74
     0
 42
0.0000000001
 43
0.0000000001
 40
0.0
 40
0.0
 40
0.0
 40
0.0
 40
0.0949464463998526
 40
0.3968162382782008
 40
0.7412337196863136
 40
1.0
 40
1.0
 40
1.0
 40
1.0
 10
303.2648416963092
 20
-860.7375375644531
 30
0.0
 10
303.2498048133174
 20
-860.7564217153501
 30
0.0
 10
303.1869601301259
 20
-860.835345550902
 30
0.0
 10
303.0271903901857
 20
-860.9428850976726
 30
0.0
 10
302.8068991432362
 20
-861.0182822371114
 30
0.0
 10
302.6535424874709
 20
-861.0265804800708
 30
0.0
 10
302.5877523686183
 20
-861.0301404324434
 30
0.0
  0
ARC
  5
17B84
102
{ACAD_REACTORS
330
17D5A
102
}
330
18
100
AcDbEntity
  8
1PHANTOM
100
AcDbCircle
 10
303.6702841233488
 20
-861.0301404324434
 30
0.0
 40
0.5000000000000016
100
AcDbArc
 50
90.0
 51
144.1824743555546
  0
SPLINE
  5
17B85
102
{ACAD_REACTORS
330
17D5A
102
}
330
18
100
AcDbEntity
  8
1PHANTOM
100
AcDbSpline
210
0.0
220
0.0
230
1.0
 70
     8
 71
     3
 72
    11
 73
     7
 74
     0
 42
0.0000000001
 43
0.0000000001
 40
0.0
 40
0.0
 40
0.0
 40
0.0
 40
0.1586533817346768
 40
0.5102968630540741
 40
0.814539835513874
 40
1.0
 40
1.0
 40
1.0
 40
1.0
 10
302.5877523686183
 20
-879.6301404324438
 30
0.0
 10
302.6280537717757
 20
-879.631516235241
 30
0.0
 10
302.7576802529952
 20
-879.6359414031392
 30
0.0
 10
302.9599594419996
 20
-879.6885904218377
 30
0.0
 10
303.1521406556439
 20
-879.7924707545897
 30
0.0
 10
303.2338839213602
 20
-879.8869588202513
 30
0.0
 10
303.2648416963092
 20
-879.9227433004341
 30
0.0
  0
ARC
  5
17B86
102
{ACAD_REACTORS
330
17D5A
102
}
330
18
100
AcDbEntity
  8
1PHANTOM
100
AcDbCircle
 10
303.6702841233488
 20
-879.6301404324438
 30
0.0
 40
0.500000000000031
100
AcDbArc
 50
215.8175256444454
 51
270.0
  0
LINE
  5
17B87
102
{ACAD_REACTORS
330
17D5A
102
}
330
18
100
AcDbEntity
  8
1PHANTOM
100
AcDbLine
 10
219.0877523686185
 20
-862.0301404324434
 30
0.0
 11
219.0877523686185
 21
-878.6301404324438
 31
0.0
  0
LINE
  5
17B88
102
{ACAD_REACTORS
330
17D5A
102
}
330
18
100
AcDbEntity
  8
1PHANTOM
100
AcDbLine
 10
216.0877523686183
 20
-861.5301404324434
 30
0.0
 11
216.0877523686183
 21
-879.1301404324438
 31
0.0
  0
LINE
  5
17B89
102
{ACAD_REACTORS
330
17D5A
102
}
330
18
100
AcDbEntity
  8
1PHANTOM
100
AcDbLine
 10
331.0877523686185
 20
-862.0301404324434
 30
0.0
 11
331.0877523686185
 21
-878.6301404324438
 31
0.0
  0
LINE
  5
17B8A
102
{ACAD_REACTORS
330
17D5A
102
}
330
18
100
AcDbEntity
  8
1PHANTOM
100
AcDbLine
 10
219.1688911987027
 20
-861.0301404324434
 30
0.0
 11
231.0877523686185
 21
-861.0301404324434
 31
0.0
  0
ARC
  5
17B8B
102
{ACAD_REACTORS
330
17D5A
102
}
330
18
100
AcDbEntity
  8
1PHANTOM
100
AcDbCircle
 10
330.0877523686185
 20
-862.0301404324434
 30
0.0
 40
1.0
100
AcDbArc
 50
0.0
 51
90.0
  0
LINE
  5
17B8C
102
{ACAD_REACTORS
330
17D5A
102
}
330
18
100
AcDbEntity
  8
1PHANTOM
100
AcDbLine
 10
329.0877523686185
 20
-861.0301404324434
 30
0.0
 11
330.0877523686185
 21
-861.0301404324434
 31
0.0
  0
ARC
  5
17B8D
102
{ACAD_REACTORS
330
17D5A
102
}
330
18
100
AcDbEntity
  8
1PHANTOM
100
AcDbCircle
 10
330.0877523686185
 20
-878.6301404324438
 30
0.0
 40
1.0
100
AcDbArc
 50
270.0
 51
0.0
  0
LINE
  5
17B8E
102
{ACAD_REACTORS
330
17D5A
102
}
330
18
100
AcDbEntity
  8
1PHANTOM
100
AcDbLine
 10
330.0877523686185
 20
-879.6301404324438
 30
0.0
 11
329.0877523686185
 21
-879.6301404324438
 31
0.0
  0
LINE
  5
17B8F
102
{ACAD_REACTORS
330
17D5A
102
}
330
18
100
AcDbEntity
  8
1PHANTOM
100
AcDbLine
 10
232.0877523686185
 20
-862.0301404324434
 30
0.0
 11
232.0877523686185
 21
-878.6301404324438
 31
0.0
  0
ARC
  5
17B90
102
{ACAD_REACTORS
330
17D5A
102
}
330
18
100
AcDbEntity
  8
1PHANTOM
100
AcDbCircle
 10
231.0877523686185
 20
-878.6301404324438
 30
0.0
 40
1.0
100
AcDbArc
 50
270.0
 51
0.0
  0
ARC
  5
17B91
102
{ACAD_REACTORS
330
17D5A
102
}
330
18
100
AcDbEntity
  8
1PHANTOM
100
AcDbCircle
 10
231.0877523686185
 20
-862.0301404324434
 30
0.0
 40
1.0
100
AcDbArc
 50
0.0
 51
90.0
  0
LINE
  5
17B92
102
{ACAD_REACTORS
330
17D5A
102
}
330
18
100
AcDbEntity
  8
1PHANTOM
100
AcDbLine
 10
321.4627523686183
 20
-861.0301404324434
 30
0.0
 11
329.0877523686185
 21
-861.0301404324434
 31
0.0
  0
LINE
  5
17B93
102
{ACAD_REACTORS
330
17D5A
102
}
330
18
100
AcDbEntity
  8
1PHANTOM
100
AcDbLine
 10
231.0877523686185
 20
-879.6301404324438
 30
0.0
 11
219.0877523686194
 21
-879.6301404324438
 31
0.0
  0
ARC
  5
17B94
102
{ACAD_REACTORS
330
17D5A
102
}
330
18
100
AcDbEntity
  8
1PHANTOM
100
AcDbCircle
 10
321.5752523686182
 20
-861.9401404324442
 30
0.0
 40
0.9169276143731249
100
AcDbArc
 50
97.04751111445812
 51
185.6328723773584
  0
LINE
  5
17B95
102
{ACAD_REACTORS
330
17D5A
102
}
330
18
100
AcDbEntity
  8
1PHANTOM
100
AcDbLine
 10
329.0877523686185
 20
-879.6301404324438
 30
0.0
 11
321.4627523686183
 21
-879.6301404324438
 31
0.0
  0
LINE
  5
17B96
102
{ACAD_REACTORS
330
17D5A
102
}
330
18
100
AcDbEntity
  8
1PHANTOM
100
AcDbLine
 10
320.6627523686183
 20
-878.6301404324438
 30
0.0
 11
320.6627523686183
 21
-862.0301404324434
 31
0.0
  0
ARC
  5
17B97
102
{ACAD_REACTORS
330
17D5A
102
}
330
18
100
AcDbEntity
  8
1PHANTOM
100
AcDbCircle
 10
321.5752523686182
 20
-878.7201404324439
 30
0.0
 40
0.9169276143730615
100
AcDbArc
 50
174.3671276226416
 51
262.9524888855549
  0
LINE
  5
17B98
102
{ACAD_REACTORS
330
17D5A
102
}
330
18
100
AcDbEntity
  8
1PHANTOM
100
AcDbLine
 10
321.4627523686183
 20
-879.6301404324438
 30
0.0
 11
305.1877523686184
 21
-879.6301404324438
 31
0.0
  0
LINE
  5
17B99
102
{ACAD_REACTORS
330
17D5A
102
}
330
18
100
AcDbEntity
  8
1PHANTOM
100
AcDbLine
 10
305.1877523686184
 20
-861.0301404324434
 30
0.0
 11
321.4627523686183
 21
-861.0301404324434
 31
0.0
  0
ELLIPSE
  5
17B9A
102
{ACAD_REACTORS
330
17D5A
102
}
330
18
100
AcDbEntity
  8
1PHANTOM
100
AcDbEllipse
 10
310.8377523686183
 20
-880.1301404324438
 30
0.0
 11
18.38562617336714
 21
0.4997114459874262
 31
0.0
210
0.0
220
0.0
230
1.0
 40
0.0009237883172151
 41
0.0339753894013827
 42
1.081172940598092
  0
ELLIPSE
  5
17B9B
102
{ACAD_REACTORS
330
17D5A
102
}
330
18
100
AcDbEntity
  8
1PHANTOM
100
AcDbEllipse
 10
328.130220613888
 20
-879.6301404324438
 30
0.0
 11
18.38562617336714
 21
0.4997114459874262
 31
0.0
210
0.0
220
0.0
230
1.0
 40
0.0009237883172151
 41
3.175568043006316
 42
4.222765594191606
  0
LINE
  5
17B9C
102
{ACAD_REACTORS
330
17D5A
102
}
330
18
100
AcDbEntity
  8
1PHANTOM
100
AcDbLine
 10
304.4202841233486
 20
-880.1301404324438
 30
0.0
 11
309.7552206138877
 21
-880.1301404324438
 31
0.0
  0
ELLIPSE
  5
17B9D
102
{ACAD_REACTORS
330
17D5A
102
}
330
18
100
AcDbEntity
  8
1PHANTOM
100
AcDbEllipse
 10
328.1302206138875
 20
-861.0301404324434
 30
0.0
 11
18.38562617336984
 21
-0.4997114459875183
 31
0.0
210
0.0
220
0.0
230
1.0
 40
0.0009237883172149
 41
2.060419712991138
 42
3.107617264188365
  0
ELLIPSE
  5
17B9E
102
{ACAD_REACTORS
330
17D5A
102
}
330
18
100
AcDbEntity
  8
1PHANTOM
100
AcDbEllipse
 10
310.8377523686185
 20
-860.5301404324434
 30
0.0
 11
18.38562617336987
 21
-0.4997114459875183
 31
0.0
210
0.0
220
0.0
230
1.0
 40
0.000923788317215
 41
5.202012366584747
 42
6.249209917793392
  0
LINE
  5
17B9F
102
{ACAD_REACTORS
330
17D5A
102
}
330
18
100
AcDbEntity
  8
1PHANTOM
100
AcDbLine
 10
309.7552206138877
 20
-860.5301404324434
 30
0.0
 11
304.4202841233486
 21
-860.5301404324434
 31
0.0
  0
LINE
  5
17BA0
102
{ACAD_REACTORS
330
17D5A
102
}
330
18
100
AcDbEntity
  8
1PHANTOM
100
AcDbLine
 10
304.4202841233486
 20
-880.1301404324438
 30
0.0
 11
303.6702841233488
 21
-880.1301404324438
 31
0.0
  0
LINE
  5
17BA1
102
{ACAD_REACTORS
330
17D5A
102
}
330
18
100
AcDbEntity
  8
1PHANTOM
100
AcDbLine
 10
303.6702841233488
 20
-860.5301404324434
 30
0.0
 11
304.4202841233486
 21
-860.5301404324434
 31
0.0
  0
LINE
  5
17BA2
102
{ACAD_REACTORS
330
17D5A
102
}
330
18
100
AcDbEntity
  8
1PHANTOM
100
AcDbLine
 10
303.5877523686183
 20
-861.0301404324434
 30
0.0
 11
305.1877523686184
 21
-861.0301404324434
 31
0.0
  0
LINE
  5
17BA3
102
{ACAD_REACTORS
330
17D5A
102
}
330
18
100
AcDbEntity
  8
1PHANTOM
100
AcDbLine
 10
305.1877523686184
 20
-879.6301404324438
 30
0.0
 11
303.5877523686183
 21
-879.6301404324438
 31
0.0
  0
LINE
  5
17BA4
102
{ACAD_REACTORS
330
17D5A
102
}
330
18
100
AcDbEntity
  8
1PHANTOM
100
AcDbLine
 10
304.0877523686185
 20
-879.6301404324438
 30
0.0
 11
304.0877523686185
 21
-861.0301404324434
 31
0.0
  0
LINE
  5
17BA5
102
{ACAD_REACTORS
330
17D5A
102
}
330
18
100
AcDbEntity
  8
1PHANTOM
100
AcDbLine
 10
231.0877523686185
 20
-861.0301404324434
 30
0.0
 11
303.5877523686183
 21
-861.0301404324434
 31
0.0
  0
CIRCLE
  5
17BA6
102
{ACAD_REACTORS
330
17D5A
102
}
330
18
100
AcDbEntity
  8
1PHANTOM
100
AcDbCircle
 10
251.0877523686183
 20
-870.3301404324436
 30
0.0
 40
2.75
  0
CIRCLE
  5
17BA7
102
{ACAD_REACTORS
330
17D5A
102
}
330
18
100
AcDbEntity
  8
1PHANTOM
100
AcDbCircle
 10
296.0877523686183
 20
-870.3301404324436
 30
0.0
 40
2.75
  0
LINE
  5
17BA8
102
{ACAD_REACTORS
330
17D5A
102
}
330
18
100
AcDbEntity
  8
1PHANTOM
100
AcDbLine
 10
303.5877523686183
 20
-879.6301404324438
 30
0.0
 11
231.0877523686185
 21
-879.6301404324438
 31
0.0
  0
LINE
  5
17BBA
330
18
100
AcDbEntity
  8
1PHANTOM
100
AcDbLine
 10
455.5551706498042
 20
-880.1301391875847
 30
0.0
 11
454.5551706498042
 21
-880.1301392023515
 31
0.0
  0
LINE
  5
17BBC
330
18
100
AcDbEntity
  8
1PHANTOM
100
AcDbLine
 10
454.5551703603762
 20
-860.5301392023512
 30
0.0
 11
455.5551703603762
 21
-860.5301391875844
 31
0.0
  0
LINE
  5
17BC1
330
18
100
AcDbEntity
  8
01
  6
CONTINUOUS
100
AcDbLine
 10
456.0551703825265
 20
-862.0301391802011
 30
0.0
 11
456.0551706276541
 21
-878.6301391802015
 31
0.0
  0
LINE
  5
17BC2
330
18
100
AcDbEntity
  8
01
  6
CONTINUOUS
100
AcDbLine
 10
456.0551703751429
 20
-861.5301391802011
 30
0.0
 11
456.0551703825265
 21
-862.0301391802011
 31
0.0
  0
LINE
  5
17BC5
330
18
100
AcDbEntity
  8
01
  6
CONTINUOUS
100
AcDbLine
 10
456.0551706276541
 20
-878.6301391802015
 30
0.0
 11
456.0551706350374
 21
-879.1301391802015
 31
0.0
  0
LINE
  5
17BC7
330
18
100
AcDbEntity
  8
01
  6
CONTINUOUS
100
AcDbLine
 10
456.0551706424209
 20
-879.6301391802015
 30
0.0
 11
456.0551706350374
 21
-879.1301391802015
 31
0.0
  0
LINE
  5
17BC8
330
18
100
AcDbEntity
  8
01
  6
CONTINUOUS
100
AcDbLine
 10
456.0551703751429
 20
-861.5301391802011
 30
0.0
 11
456.0551703677597
 21
-861.0301391802011
 31
0.0
  0
ARC
  5
17BC9
330
18
100
AcDbEntity
  8
01
  6
CONTINUOUS
100
AcDbCircle
 10
455.5551703677597
 20
-861.0301391875844
 30
0.0
 40
0.5
100
AcDbArc
 50
0.000000846074363
 51
90.00000084607437
  0
ARC
  5
17BCA
330
18
100
AcDbEntity
  8
01
  6
CONTINUOUS
100
AcDbCircle
 10
455.5551706424209
 20
-879.6301391875847
 30
0.0
 40
0.5
100
AcDbArc
 50
270.0000008460744
 51
0.000000846074363
  0
LINE
  5
17BCB
330
18
100
AcDbEntity
  8
1PHANTOM
100
AcDbLine
 10
424.5551703751429
 20
-861.5301396453531
 30
0.0
 11
424.5551706350374
 21
-879.1301396453534
 31
0.0
  0
ARC
  5
17BCC
330
18
100
AcDbEntity
  8
1PHANTOM
100
AcDbCircle
 10
425.5551706350374
 20
-879.1301396305867
 30
0.0
 40
1.0
100
AcDbArc
 50
180.0000008460744
 51
270.0000008460744
  0
LINE
  5
17BCD
330
18
100
AcDbEntity
  8
1PHANTOM
100
AcDbLine
 10
424.5551703825265
 20
-862.0301396453531
 30
0.0
 11
424.5551703825265
 21
-862.0301396453531
 31
0.0
  0
LINE
  5
17BCE
102
{ACAD_REACTORS
330
17D5A
102
}
330
18
100
AcDbEntity
  8
1CENTER
100
AcDbLine
 10
296.0877523686183
 20
-866.7551404324438
 30
0.0
 11
296.0877523686183
 21
-873.9051404324443
 31
0.0
  0
LINE
  5
17BD0
102
{ACAD_REACTORS
330
17D5A
102
}
330
18
100
AcDbEntity
  8
1CENTER
100
AcDbLine
 10
251.0877523686183
 20
-866.7551404324438
 30
0.0
 11
251.0877523686183
 21
-873.9051404324443
 31
0.0
  0
LINE
  5
17BD1
102
{ACAD_REACTORS
330
17D5A
102
}
330
18
100
AcDbEntity
  8
1CENTER
100
AcDbLine
 10
247.5127523686182
 20
-870.3301404324445
 30
0.0
 11
254.6627523686183
 21
-870.3301404324445
 31
0.0
  0
LINE
  5
17BDC
102
{ACAD_REACTORS
330
17D5A
102
}
330
18
100
AcDbEntity
  8
1PHANTOM
100
AcDbLine
 10
219.0877523686185
 20
-861.3905200424722
 30
0.0
 11
219.0877523686185
 21
-861.917566319167
 31
0.0
  0
ARC
  5
17BDD
102
{ACAD_REACTORS
330
17D5A
102
}
330
18
100
AcDbEntity
  8
1PHANTOM
100
AcDbCircle
 10
218.5877523686185
 20
-861.3905200424722
 30
0.0
 40
0.5000000000000031
100
AcDbArc
 50
0.0
 51
71.56505117704464
  0
LINE
  5
17BDE
102
{ACAD_REACTORS
330
17D5A
102
}
330
18
100
AcDbEntity
  8
1PHANTOM
100
AcDbLine
 10
219.0877523686185
 20
-861.917566319167
 30
0.0
 11
219.0877523686185
 21
-878.7427145457211
 31
0.0
  0
LINE
  5
17BDF
102
{ACAD_REACTORS
330
17D5A
102
}
330
18
100
AcDbEntity
  8
1PHANTOM
100
AcDbLine
 10
219.0877523686185
 20
-878.7427145457211
 30
0.0
 11
219.0877523686185
 21
-879.269760822416
 31
0.0
  0
ARC
  5
17BE0
102
{ACAD_REACTORS
330
17D5A
102
}
330
18
100
AcDbEntity
  8
1PHANTOM
100
AcDbCircle
 10
218.5877523686185
 20
-879.269760822416
 30
0.0
 40
0.5
100
AcDbArc
 50
288.4349488229538
 51
0.0
  0
LINE
  5
17BE1
102
{ACAD_REACTORS
330
17D5A
102
}
330
18
100
AcDbEntity
  8
1PHANTOM
100
AcDbLine
 10
216.0877523686185
 20
-879.6301404324438
 30
0.0
 11
216.0877523686185
 21
-879.1301404324438
 31
0.0
  0
ARC
  5
17BE2
102
{ACAD_REACTORS
330
17D5A
102
}
330
18
100
AcDbEntity
  8
1PHANTOM
100
AcDbCircle
 10
216.5877523686185
 20
-879.6301404324438
 30
0.0
 40
0.5
100
AcDbArc
 50
180.0
 51
270.0
  0
LINE
  5
17BE3
102
{ACAD_REACTORS
330
17D5A
102
}
330
18
100
AcDbEntity
  8
1PHANTOM
100
AcDbLine
 10
217.6647274215426
 20
-860.5557987834188
 30
0.0
 11
218.7458662516268
 21
-860.9161783934467
 31
0.0
  0
LINE
  5
17BE4
102
{ACAD_REACTORS
330
17D5A
102
}
330
18
100
AcDbEntity
  8
1PHANTOM
100
AcDbLine
 10
216.5877523686185
 20
-860.5301404324434
 30
0.0
 11
217.5066135385343
 21
-860.5301404324434
 31
0.0
  0
LINE
  5
17BE5
102
{ACAD_REACTORS
330
17D5A
102
}
330
18
100
AcDbEntity
  8
1PHANTOM
100
AcDbLine
 10
218.7458662516268
 20
-879.7441024714406
 30
0.0
 11
217.6647274215426
 21
-880.1044820814693
 31
0.0
  0
LINE
  5
17BE6
102
{ACAD_REACTORS
330
17D5A
102
}
330
18
100
AcDbEntity
  8
1PHANTOM
100
AcDbLine
 10
217.5066135385343
 20
-880.1301404324438
 30
0.0
 11
216.5877523686185
 21
-880.1301404324438
 31
0.0
  0
LINE
  5
17BE7
102
{ACAD_REACTORS
330
17D5A
102
}
330
18
100
AcDbEntity
  8
1PHANTOM
100
AcDbLine
 10
216.0877523686185
 20
-879.1301404324438
 30
0.0
 11
216.0877523686185
 21
-861.5301404324434
 31
0.0
  0
LINE
  5
17BE8
102
{ACAD_REACTORS
330
17D5A
102
}
330
18
100
AcDbEntity
  8
1PHANTOM
100
AcDbLine
 10
216.0877523686185
 20
-861.5301404324434
 30
0.0
 11
216.0877523686185
 21
-861.0301404324434
 31
0.0
  0
ARC
  5
17BE9
102
{ACAD_REACTORS
330
17D5A
102
}
330
18
100
AcDbEntity
  8
1PHANTOM
100
AcDbCircle
 10
216.5877523686185
 20
-861.0301404324434
 30
0.0
 40
0.5
100
AcDbArc
 50
90.0
 51
180.0
  0
ARC
  5
17BEA
102
{ACAD_REACTORS
330
17D5A
102
}
330
18
100
AcDbEntity
  8
1PHANTOM
100
AcDbCircle
 10
217.5066135385343
 20
-861.0301404324434
 30
0.0
 40
0.5
100
AcDbArc
 50
71.56505117704464
 51
90.0
  0
ARC
  5
17BEB
102
{ACAD_REACTORS
330
17D5A
102
}
330
18
100
AcDbEntity
  8
1PHANTOM
100
AcDbCircle
 10
217.5066135385343
 20
-879.6301404324438
 30
0.0
 40
0.5
100
AcDbArc
 50
270.0
 51
288.4349488229538
  0
LINE
  5
17BEC
102
{ACAD_REACTORS
330
17D5A
102
}
330
18
100
AcDbEntity
  8
1PHANTOM
100
AcDbLine
 10
219.0895938395535
 20
-879.6295266087989
 30
0.0
 11
218.7458662516268
 21
-879.7441024714406
 31
0.0
  0
LINE
  5
17BED
102
{ACAD_REACTORS
330
17D5A
102
}
330
18
100
AcDbEntity
  8
1PHANTOM
100
AcDbLine
 10
218.7458662516268
 20
-860.9161783934467
 30
0.0
 11
219.010777315695
 21
-861.004482081469
 31
0.0
  0
ARC
  5
17BEE
102
{ACAD_REACTORS
330
17D5A
102
}
330
18
100
AcDbEntity
  8
1PHANTOM
100
AcDbCircle
 10
219.1688911987027
 20
-860.5301404324434
 30
0.0
 40
0.5000000000000031
100
AcDbArc
 50
251.5650511770444
 51
270.0
  0
LINE
  5
17BEF
102
{ACAD_REACTORS
330
17D5A
102
}
330
18
100
AcDbEntity
  8
1PHANTOM
100
AcDbLine
 10
231.0877523686185
 20
-879.6301404324438
 30
0.0
 11
220.0877523686185
 21
-879.6301404324438
 31
0.0
  0
LINE
  5
17BF0
102
{ACAD_REACTORS
330
17D5A
102
}
330
18
100
AcDbEntity
  8
1PHANTOM
100
AcDbLine
 10
220.0877523686185
 20
-861.0301404324434
 30
0.0
 11
231.0877523686185
 21
-861.0301404324434
 31
0.0
  0
LINE
  5
17BFD
330
18
100
AcDbEntity
  8
1PHANTOM
100
AcDbLine
 10
454.5551706498042
 20
-880.1301392023515
 30
0.0
 11
425.5551706498042
 21
-880.1301396305867
 31
0.0
  0
LINE
  5
17BFE
330
18
100
AcDbEntity
  8
1PHANTOM
100
AcDbLine
 10
454.5551703603762
 20
-860.5301392023512
 30
0.0
 11
425.5551703603762
 21
-860.5301396305863
 31
0.0
  0
ARC
  5
17BFF
330
18
100
AcDbEntity
  8
1PHANTOM
100
AcDbCircle
 10
425.5551703751429
 20
-861.5301396305863
 30
0.0
 40
1.0
100
AcDbArc
 50
90.00000084607437
 51
180.0000008460744
  0
LINE
  5
17C14
330
18
100
AcDbEntity
  8
1CENTER
100
AcDbLine
 10
421.46251189401
 20
-870.3301404324445
 30
0.0
 11
457.8479471826874
 21
-870.3301393578565
 31
0.0
  0
SPLINE
  5
17D9F
102
{ACAD_REACTORS
330
17DDD
102
}
330
18
100
AcDbEntity
  8
1PHANTOM
100
AcDbSpline
210
0.0
220
0.0
230
1.0
 70
     8
 71
     3
 72
    11
 73
     7
 74
     0
 42
0.0000000001
 43
0.0000000001
 40
0.0
 40
0.0
 40
0.0
 40
0.0
 40
0.0949464463998526
 40
0.3968162382782008
 40
0.7412337196863136
 40
1.0
 40
1.0
 40
1.0
 40
1.0
 10
-175.7351583036905
 20
-860.7375375644531
 30
0.0
 10
-175.7501951866823
 20
-860.7564217153501
 30
0.0
 10
-175.8130398698739
 20
-860.835345550902
 30
0.0
 10
-175.9728096098141
 20
-860.9428850976726
 30
0.0
 10
-176.1931008567636
 20
-861.0182822371114
 30
0.0
 10
-176.3464575125288
 20
-861.0265804800708
 30
0.0
 10
-176.4122476313815
 20
-861.0301404324434
 30
0.0
  0
ARC
  5
17DA0
102
{ACAD_REACTORS
330
17DDD
102
}
330
18
100
AcDbEntity
  8
1PHANTOM
100
AcDbCircle
 10
-175.3297158766509
 20
-861.0301404324434
 30
0.0
 40
0.5000000000000016
100
AcDbArc
 50
90.0
 51
144.1824743555506
  0
SPLINE
  5
17DA1
102
{ACAD_REACTORS
330
17DDD
102
}
330
18
100
AcDbEntity
  8
1PHANTOM
100
AcDbSpline
210
0.0
220
0.0
230
1.0
 70
     8
 71
     3
 72
    11
 73
     7
 74
     0
 42
0.0000000001
 43
0.0000000001
 40
0.0
 40
0.0
 40
0.0
 40
0.0
 40
0.1586533817346768
 40
0.5102968630540741
 40
0.814539835513874
 40
1.0
 40
1.0
 40
1.0
 40
1.0
 10
-176.4122476313815
 20
-879.6301404324438
 30
0.0
 10
-176.3719462282241
 20
-879.631516235241
 30
0.0
 10
-176.2423197470046
 20
-879.6359414031392
 30
0.0
 10
-176.0400405580002
 20
-879.6885904218377
 30
0.0
 10
-175.8478593443559
 20
-879.7924707545897
 30
0.0
 10
-175.7661160786395
 20
-879.8869588202513
 30
0.0
 10
-175.7351583036905
 20
-879.9227433004341
 30
0.0
  0
ARC
  5
17DA2
102
{ACAD_REACTORS
330
17DDD
102
}
330
18
100
AcDbEntity
  8
1PHANTOM
100
AcDbCircle
 10
-175.3297158766509
 20
-879.6301404324438
 30
0.0
 40
0.500000000000031
100
AcDbArc
 50
215.8175256444494
 51
270.0
  0
LINE
  5
17DA3
102
{ACAD_REACTORS
330
17DDD
102
}
330
18
100
AcDbEntity
  8
1PHANTOM
100
AcDbLine
 10
-259.9122476313813
 20
-862.0301404324434
 30
0.0
 11
-259.9122476313813
 21
-878.6301404324438
 31
0.0
  0
LINE
  5
17DA4
102
{ACAD_REACTORS
330
17DDD
102
}
330
18
100
AcDbEntity
  8
1PHANTOM
100
AcDbLine
 10
-262.9122476313815
 20
-861.5301404324434
 30
0.0
 11
-262.9122476313815
 21
-879.1301404324438
 31
0.0
  0
LINE
  5
17DA5
102
{ACAD_REACTORS
330
17DDD
102
}
330
18
100
AcDbEntity
  8
1PHANTOM
100
AcDbLine
 10
-147.9122476313813
 20
-862.0301404324434
 30
0.0
 11
-147.9122476313813
 21
-878.6301404324438
 31
0.0
  0
LINE
  5
17DA6
102
{ACAD_REACTORS
330
17DDD
102
}
330
18
100
AcDbEntity
  8
1PHANTOM
100
AcDbLine
 10
-259.831108801297
 20
-861.0301404324434
 30
0.0
 11
-247.9122476313813
 21
-861.0301404324434
 31
0.0
  0
ARC
  5
17DA7
102
{ACAD_REACTORS
330
17DDD
102
}
330
18
100
AcDbEntity
  8
1PHANTOM
100
AcDbCircle
 10
-148.9122476313813
 20
-862.0301404324434
 30
0.0
 40
1.0
100
AcDbArc
 50
0.0
 51
90.0
  0
LINE
  5
17DA8
102
{ACAD_REACTORS
330
17DDD
102
}
330
18
100
AcDbEntity
  8
1PHANTOM
100
AcDbLine
 10
-149.9122476313813
 20
-861.0301404324434
 30
0.0
 11
-148.9122476313813
 21
-861.0301404324434
 31
0.0
  0
ARC
  5
17DA9
102
{ACAD_REACTORS
330
17DDD
102
}
330
18
100
AcDbEntity
  8
1PHANTOM
100
AcDbCircle
 10
-148.9122476313813
 20
-878.6301404324438
 30
0.0
 40
1.0
100
AcDbArc
 50
270.0
 51
0.0
  0
LINE
  5
17DAA
102
{ACAD_REACTORS
330
17DDD
102
}
330
18
100
AcDbEntity
  8
1PHANTOM
100
AcDbLine
 10
-148.9122476313813
 20
-879.6301404324438
 30
0.0
 11
-149.9122476313813
 21
-879.6301404324438
 31
0.0
  0
LINE
  5
17DAB
102
{ACAD_REACTORS
330
17DDD
102
}
330
18
100
AcDbEntity
  8
1PHANTOM
100
AcDbLine
 10
-246.9122476313813
 20
-862.0301404324434
 30
0.0
 11
-246.9122476313813
 21
-878.6301404324438
 31
0.0
  0
ARC
  5
17DAC
102
{ACAD_REACTORS
330
17DDD
102
}
330
18
100
AcDbEntity
  8
1PHANTOM
100
AcDbCircle
 10
-247.9122476313813
 20
-878.6301404324438
 30
0.0
 40
1.0
100
AcDbArc
 50
270.0
 51
0.0
  0
ARC
  5
17DAD
102
{ACAD_REACTORS
330
17DDD
102
}
330
18
100
AcDbEntity
  8
1PHANTOM
100
AcDbCircle
 10
-247.9122476313813
 20
-862.0301404324434
 30
0.0
 40
1.0
100
AcDbArc
 50
0.0
 51
90.0
  0
LINE
  5
17DAE
102
{ACAD_REACTORS
330
17DDD
102
}
330
18
100
AcDbEntity
  8
1PHANTOM
100
AcDbLine
 10
-157.5372476313815
 20
-861.0301404324434
 30
0.0
 11
-149.9122476313813
 21
-861.0301404324434
 31
0.0
  0
LINE
  5
17DAF
102
{ACAD_REACTORS
330
17DDD
102
}
330
18
100
AcDbEntity
  8
1PHANTOM
100
AcDbLine
 10
-247.9122476313813
 20
-879.6301404324438
 30
0.0
 11
-259.9122476313804
 21
-879.6301404324438
 31
0.0
  0
ARC
  5
17DB0
102
{ACAD_REACTORS
330
17DDD
102
}
330
18
100
AcDbEntity
  8
1PHANTOM
100
AcDbCircle
 10
-157.4247476313815
 20
-861.9401404324442
 30
0.0
 40
0.9169276143731249
100
AcDbArc
 50
97.04751111445812
 51
185.6328723773584
  0
LINE
  5
17DB1
102
{ACAD_REACTORS
330
17DDD
102
}
330
18
100
AcDbEntity
  8
1PHANTOM
100
AcDbLine
 10
-149.9122476313813
 20
-879.6301404324438
 30
0.0
 11
-157.5372476313815
 21
-879.6301404324438
 31
0.0
  0
LINE
  5
17DB2
102
{ACAD_REACTORS
330
17DDD
102
}
330
18
100
AcDbEntity
  8
1PHANTOM
100
AcDbLine
 10
-158.3372476313814
 20
-878.6301404324438
 30
0.0
 11
-158.3372476313814
 21
-862.0301404324434
 31
0.0
  0
ARC
  5
17DB3
102
{ACAD_REACTORS
330
17DDD
102
}
330
18
100
AcDbEntity
  8
1PHANTOM
100
AcDbCircle
 10
-157.4247476313815
 20
-878.7201404324439
 30
0.0
 40
0.9169276143730615
100
AcDbArc
 50
174.3671276226416
 51
262.9524888855549
  0
LINE
  5
17DB4
102
{ACAD_REACTORS
330
17DDD
102
}
330
18
100
AcDbEntity
  8
1PHANTOM
100
AcDbLine
 10
-157.5372476313815
 20
-879.6301404324438
 30
0.0
 11
-173.8122476313814
 21
-879.6301404324438
 31
0.0
  0
LINE
  5
17DB5
102
{ACAD_REACTORS
330
17DDD
102
}
330
18
100
AcDbEntity
  8
1PHANTOM
100
AcDbLine
 10
-173.8122476313814
 20
-861.0301404324434
 30
0.0
 11
-157.5372476313815
 21
-861.0301404324434
 31
0.0
  0
ELLIPSE
  5
17DB6
102
{ACAD_REACTORS
330
17DDD
102
}
330
18
100
AcDbEntity
  8
1PHANTOM
100
AcDbEllipse
 10
-168.1622476313815
 20
-880.1301404324438
 30
0.0
 11
18.38562617336714
 21
0.4997114459874262
 31
0.0
210
0.0
220
0.0
230
1.0
 40
0.0009237883172151
 41
0.0339753894013827
 42
1.081172940598092
  0
ELLIPSE
  5
17DB7
102
{ACAD_REACTORS
330
17DDD
102
}
330
18
100
AcDbEntity
  8
1PHANTOM
100
AcDbEllipse
 10
-150.8697793861118
 20
-879.6301404324438
 30
0.0
 11
18.38562617336714
 21
0.4997114459874262
 31
0.0
210
0.0
220
0.0
230
1.0
 40
0.0009237883172151
 41
3.175568043006316
 42
4.222765594191606
  0
LINE
  5
17DB8
102
{ACAD_REACTORS
330
17DDD
102
}
330
18
100
AcDbEntity
  8
1PHANTOM
100
AcDbLine
 10
-174.5797158766512
 20
-880.1301404324438
 30
0.0
 11
-169.244779386112
 21
-880.1301404324438
 31
0.0
  0
ELLIPSE
  5
17DB9
102
{ACAD_REACTORS
330
17DDD
102
}
330
18
100
AcDbEntity
  8
1PHANTOM
100
AcDbEllipse
 10
-150.8697793861123
 20
-861.0301404324434
 30
0.0
 11
18.38562617336984
 21
-0.4997114459875183
 31
0.0
210
0.0
220
0.0
230
1.0
 40
0.0009237883172149
 41
2.060419712991138
 42
3.107617264188365
  0
ELLIPSE
  5
17DBA
102
{ACAD_REACTORS
330
17DDD
102
}
330
18
100
AcDbEntity
  8
1PHANTOM
100
AcDbEllipse
 10
-168.1622476313813
 20
-860.5301404324434
 30
0.0
 11
18.38562617336987
 21
-0.4997114459875183
 31
0.0
210
0.0
220
0.0
230
1.0
 40
0.000923788317215
 41
5.202012366584747
 42
6.249209917793392
  0
LINE
  5
17DBB
102
{ACAD_REACTORS
330
17DDD
102
}
330
18
100
AcDbEntity
  8
1PHANTOM
100
AcDbLine
 10
-169.244779386112
 20
-860.5301404324434
 30
0.0
 11
-174.5797158766512
 21
-860.5301404324434
 31
0.0
  0
LINE
  5
17DBC
102
{ACAD_REACTORS
330
17DDD
102
}
330
18
100
AcDbEntity
  8
1PHANTOM
100
AcDbLine
 10
-174.5797158766512
 20
-880.1301404324438
 30
0.0
 11
-175.3297158766509
 21
-880.1301404324438
 31
0.0
  0
LINE
  5
17DBD
102
{ACAD_REACTORS
330
17DDD
102
}
330
18
100
AcDbEntity
  8
1PHANTOM
100
AcDbLine
 10
-175.3297158766509
 20
-860.5301404324434
 30
0.0
 11
-174.5797158766512
 21
-860.5301404324434
 31
0.0
  0
LINE
  5
17DBE
102
{ACAD_REACTORS
330
17DDD
102
}
330
18
100
AcDbEntity
  8
1PHANTOM
100
AcDbLine
 10
-175.4122476313815
 20
-861.0301404324434
 30
0.0
 11
-173.8122476313814
 21
-861.0301404324434
 31
0.0
  0
LINE
  5
17DBF
102
{ACAD_REACTORS
330
17DDD
102
}
330
18
100
AcDbEntity
  8
1PHANTOM
100
AcDbLine
 10
-173.8122476313814
 20
-879.6301404324438
 30
0.0
 11
-175.4122476313815
 21
-879.6301404324438
 31
0.0
  0
LINE
  5
17DC0
102
{ACAD_REACTORS
330
17DDD
102
}
330
18
100
AcDbEntity
  8
1PHANTOM
100
AcDbLine
 10
-174.9122476313813
 20
-879.6301404324438
 30
0.0
 11
-174.9122476313813
 21
-861.0301404324434
 31
0.0
  0
LINE
  5
17DC1
102
{ACAD_REACTORS
330
17DDD
102
}
330
18
100
AcDbEntity
  8
1PHANTOM
100
AcDbLine
 10
-247.9122476313813
 20
-861.0301404324434
 30
0.0
 11
-175.4122476313815
 21
-861.0301404324434
 31
0.0
  0
CIRCLE
  5
17DC2
102
{ACAD_REACTORS
330
17DDD
102
}
330
18
100
AcDbEntity
  8
1PHANTOM
100
AcDbCircle
 10
-227.9122476313815
 20
-870.3301404324436
 30
0.0
 40
2.75
  0
CIRCLE
  5
17DC3
102
{ACAD_REACTORS
330
17DDD
102
}
330
18
100
AcDbEntity
  8
1PHANTOM
100
AcDbCircle
 10
-182.9122476313815
 20
-870.3301404324436
 30
0.0
 40
2.75
  0
LINE
  5
17DC4
102
{ACAD_REACTORS
330
17DDD
102
}
330
18
100
AcDbEntity
  8
1PHANTOM
100
AcDbLine
 10
-175.4122476313815
 20
-879.6301404324438
 30
0.0
 11
-247.9122476313813
 21
-879.6301404324438
 31
0.0
  0
LINE
  5
17DC5
102
{ACAD_REACTORS
330
17DDD
102
}
330
18
100
AcDbEntity
  8
1CENTER
100
AcDbLine
 10
-182.9122476313815
 20
-866.7551404324438
 30
0.0
 11
-182.9122476313815
 21
-873.9051404324443
 31
0.0
  0
LINE
  5
17DC6
102
{ACAD_REACTORS
330
17DDD
102
}
330
18
100
AcDbEntity
  8
1CENTER
100
AcDbLine
 10
-227.9122476313815
 20
-866.7551404324438
 30
0.0
 11
-227.9122476313815
 21
-873.9051404324443
 31
0.0
  0
LINE
  5
17DC7
102
{ACAD_REACTORS
330
17DDD
102
}
330
18
100
AcDbEntity
  8
1CENTER
100
AcDbLine
 10
-231.4872476313815
 20
-870.3301404324445
 30
0.0
 11
-224.3372476313814
 21
-870.3301404324445
 31
0.0
  0
LINE
  5
17DC8
102
{ACAD_REACTORS
330
17DDD
102
}
330
18
100
AcDbEntity
  8
1PHANTOM
100
AcDbLine
 10
-259.9122476313813
 20
-861.3905200424722
 30
0.0
 11
-259.9122476313813
 21
-861.917566319167
 31
0.0
  0
ARC
  5
17DC9
102
{ACAD_REACTORS
330
17DDD
102
}
330
18
100
AcDbEntity
  8
1PHANTOM
100
AcDbCircle
 10
-260.4122476313813
 20
-861.3905200424722
 30
0.0
 40
0.5000000000000031
100
AcDbArc
 50
0.0
 51
71.56505117704444
  0
LINE
  5
17DCA
102
{ACAD_REACTORS
330
17DDD
102
}
330
18
100
AcDbEntity
  8
1PHANTOM
100
AcDbLine
 10
-259.9122476313813
 20
-861.917566319167
 30
0.0
 11
-259.9122476313813
 21
-878.7427145457211
 31
0.0
  0
LINE
  5
17DCB
102
{ACAD_REACTORS
330
17DDD
102
}
330
18
100
AcDbEntity
  8
1PHANTOM
100
AcDbLine
 10
-259.9122476313813
 20
-878.7427145457211
 30
0.0
 11
-259.9122476313813
 21
-879.269760822416
 31
0.0
  0
ARC
  5
17DCC
102
{ACAD_REACTORS
330
17DDD
102
}
330
18
100
AcDbEntity
  8
1PHANTOM
100
AcDbCircle
 10
-260.4122476313813
 20
-879.269760822416
 30
0.0
 40
0.5
100
AcDbArc
 50
288.4349488229555
 51
0.0
  0
LINE
  5
17DCD
102
{ACAD_REACTORS
330
17DDD
102
}
330
18
100
AcDbEntity
  8
1PHANTOM
100
AcDbLine
 10
-262.9122476313813
 20
-879.6301404324438
 30
0.0
 11
-262.9122476313813
 21
-879.1301404324438
 31
0.0
  0
ARC
  5
17DCE
102
{ACAD_REACTORS
330
17DDD
102
}
330
18
100
AcDbEntity
  8
1PHANTOM
100
AcDbCircle
 10
-262.4122476313813
 20
-879.6301404324438
 30
0.0
 40
0.5
100
AcDbArc
 50
180.0
 51
270.0
  0
LINE
  5
17DCF
102
{ACAD_REACTORS
330
17DDD
102
}
330
18
100
AcDbEntity
  8
1PHANTOM
100
AcDbLine
 10
-261.3352725784571
 20
-860.5557987834188
 30
0.0
 11
-260.2541337483729
 21
-860.9161783934467
 31
0.0
  0
LINE
  5
17DD0
102
{ACAD_REACTORS
330
17DDD
102
}
330
18
100
AcDbEntity
  8
1PHANTOM
100
AcDbLine
 10
-262.4122476313813
 20
-860.5301404324434
 30
0.0
 11
-261.4933864614655
 21
-860.5301404324434
 31
0.0
  0
LINE
  5
17DD1
102
{ACAD_REACTORS
330
17DDD
102
}
330
18
100
AcDbEntity
  8
1PHANTOM
100
AcDbLine
 10
-260.2541337483729
 20
-879.7441024714406
 30
0.0
 11
-261.3352725784571
 21
-880.1044820814693
 31
0.0
  0
LINE
  5
17DD2
102
{ACAD_REACTORS
330
17DDD
102
}
330
18
100
AcDbEntity
  8
1PHANTOM
100
AcDbLine
 10
-261.4933864614655
 20
-880.1301404324438
 30
0.0
 11
-262.4122476313813
 21
-880.1301404324438
 31
0.0
  0
LINE
  5
17DD3
102
{ACAD_REACTORS
330
17DDD
102
}
330
18
100
AcDbEntity
  8
1PHANTOM
100
AcDbLine
 10
-262.9122476313813
 20
-879.1301404324438
 30
0.0
 11
-262.9122476313813
 21
-861.5301404324434
 31
0.0
  0
LINE
  5
17DD4
102
{ACAD_REACTORS
330
17DDD
102
}
330
18
100
AcDbEntity
  8
1PHANTOM
100
AcDbLine
 10
-262.9122476313813
 20
-861.5301404324434
 30
0.0
 11
-262.9122476313813
 21
-861.0301404324434
 31
0.0
  0
ARC
  5
17DD5
102
{ACAD_REACTORS
330
17DDD
102
}
330
18
100
AcDbEntity
  8
1PHANTOM
100
AcDbCircle
 10
-262.4122476313813
 20
-861.0301404324434
 30
0.0
 40
0.5
100
AcDbArc
 50
90.0
 51
180.0
  0
ARC
  5
17DD6
102
{ACAD_REACTORS
330
17DDD
102
}
330
18
100
AcDbEntity
  8
1PHANTOM
100
AcDbCircle
 10
-261.4933864614655
 20
-861.0301404324434
 30
0.0
 40
0.5
100
AcDbArc
 50
71.56505117704444
 51
90.0
  0
ARC
  5
17DD7
102
{ACAD_REACTORS
330
17DDD
102
}
330
18
100
AcDbEntity
  8
1PHANTOM
100
AcDbCircle
 10
-261.4933864614655
 20
-879.6301404324438
 30
0.0
 40
0.5
100
AcDbArc
 50
270.0
 51
288.4349488229555
  0
LINE
  5
17DD8
102
{ACAD_REACTORS
330
17DDD
102
}
330
18
100
AcDbEntity
  8
1PHANTOM
100
AcDbLine
 10
-259.9104061604463
 20
-879.6295266087989
 30
0.0
 11
-260.2541337483729
 21
-879.7441024714406
 31
0.0
  0
LINE
  5
17DD9
102
{ACAD_REACTORS
330
17DDD
102
}
330
18
100
AcDbEntity
  8
1PHANTOM
100
AcDbLine
 10
-260.2541337483729
 20
-860.9161783934467
 30
0.0
 11
-259.9892226843047
 21
-861.004482081469
 31
0.0
  0
ARC
  5
17DDA
102
{ACAD_REACTORS
330
17DDD
102
}
330
18
100
AcDbEntity
  8
1PHANTOM
100
AcDbCircle
 10
-259.831108801297
 20
-860.5301404324434
 30
0.0
 40
0.5000000000000031
100
AcDbArc
 50
251.5650511770444
 51
270.0
  0
LINE
  5
17DDB
102
{ACAD_REACTORS
330
17DDD
102
}
330
18
100
AcDbEntity
  8
1PHANTOM
100
AcDbLine
 10
-247.9122476313813
 20
-879.6301404324438
 30
0.0
 11
-258.9122476313813
 21
-879.6301404324438
 31
0.0
  0
LINE
  5
17DDC
102
{ACAD_REACTORS
330
17DDD
102
}
330
18
100
AcDbEntity
  8
1PHANTOM
100
AcDbLine
 10
-258.9122476313813
 20
-861.0301404324434
 30
0.0
 11
-247.9122476313813
 21
-861.0301404324434
 31
0.0
  0
LINE
  5
17DE2
330
18
100
AcDbEntity
  8
1CENTER
100
AcDbLine
 10
-224.3372476313814
 20
-870.3301404324445
 30
0.0
 11
-179.055793381981
 21
-870.3301404324436
 31
0.0
  0
LINE
  5
17EDE
330
18
100
AcDbEntity
  8
01
100
AcDbLine
 10
465.0551705050903
 20
-830.3301394108034
 30
0.0
 11
465.0551705050903
 21
-888.2783649717943
 31
0.0
  0
LINE
  5
17EDF
330
18
100
AcDbEntity
  8
01
100
AcDbLine
 10
477.0551705050903
 20
-830.3301394108034
 30
0.0
 11
477.0551705050903
 21
-888.2783649717943
 31
0.0
  0
LINE
  5
17EE0
330
18
100
AcDbEntity
  8
01
100
AcDbLine
 10
456.0551705050903
 20
-830.3301394108034
 30
0.0
 11
456.0551705050903
 21
-888.2783649717943
 31
0.0
  0
LINE
  5
17F26
102
{ACAD_REACTORS
330
17F2C
102
}
330
18
100
AcDbEntity
  8
1PHANTOM
100
AcDbLine
 10
450.0551806515384
 20
-865.964681659048
 30
0.0
 11
451.0551704940132
 21
-865.964681659048
 31
0.0
  0
LINE
  5
17F27
102
{ACAD_REACTORS
330
17F2C
102
}
330
18
100
AcDbEntity
  8
1PHANTOM
100
AcDbLine
 10
450.0551806515384
 20
-867.6646816590483
 30
0.0
 11
451.0551704940132
 21
-867.6646816590483
 31
0.0
  0
LINE
  5
17F28
102
{ACAD_REACTORS
330
17F2C
102
}
330
18
100
AcDbEntity
  8
1PHANTOM
100
AcDbLine
 10
450.0551602920829
 20
-874.714681659048
 30
0.0
 11
451.0551705162158
 21
-874.7146816590475
 31
0.0
  0
LINE
  5
17F29
102
{ACAD_REACTORS
330
17F2C
102
}
330
18
100
AcDbEntity
  8
1PHANTOM
100
AcDbLine
 10
450.0551602920829
 20
-873.0146816590477
 30
0.0
 11
451.0551704940132
 21
-873.0146816590477
 31
0.0
  0
LINE
  5
17F2A
102
{ACAD_REACTORS
330
17F2C
102
}
330
18
100
AcDbEntity
  8
1PHANTOM
100
AcDbLine
 10
451.0551705162158
 20
-874.7146816590475
 30
0.0
 11
451.0551704940132
 21
-865.964681659048
 31
0.0
  0
LINE
  5
17F2B
102
{ACAD_REACTORS
330
17F2C
102
}
330
18
100
AcDbEntity
  8
01
100
AcDbLine
 10
450.0551806515384
 20
-865.964681659048
 30
0.0
 11
450.0551806515384
 21
-874.714681659048
 31
0.0
  0
LINE
  5
17F2F
330
18
100
AcDbEntity
  8
01
100
AcDbLine
 10
424.0551705050903
 20
-857.8301404324445
 30
0.0
 11
424.0551705050903
 21
-882.8301404324445
 31
0.0
  0
LINE
  5
17F30
330
18
100
AcDbEntity
  8
01
100
AcDbLine
 10
392.0551705050903
 20
-859.8301404324445
 30
0.0
 11
392.0551705050903
 21
-880.8301404324445
 31
0.0
  0
LINE
  5
17F31
330
18
100
AcDbEntity
  8
01
100
AcDbLine
 10
425.0551704755568
 20
-856.8301403263408
 30
0.0
 11
455.7551704962303
 21
-856.8301394196635
 31
0.0
  0
LINE
  5
17F32
330
18
100
AcDbEntity
  8
01
100
AcDbLine
 10
425.0551705346238
 20
-883.8301403263408
 30
0.0
 11
455.7551705139503
 21
-883.8301394196635
 31
0.0
  0
LINE
  5
17F33
330
18
100
AcDbEntity
  8
01
100
AcDbLine
 10
423.0551705050903
 20
-856.8301404324445
 30
0.0
 11
395.0551705050903
 21
-856.8301404324445
 31
0.0
  0
LINE
  5
17F34
330
18
100
AcDbEntity
  8
01
100
AcDbLine
 10
423.0551705050903
 20
-883.8301404324445
 30
0.0
 11
395.0551705050903
 21
-883.8301404324445
 31
0.0
  0
LINE
  5
17F35
330
18
100
AcDbEntity
  8
01
100
AcDbLine
 10
456.0551705050903
 20
-857.1301394196635
 30
0.0
 11
456.0551705050903
 21
-883.5301394196636
 31
0.0
  0
ARC
  5
17F36
330
18
100
AcDbEntity
  8
01
100
AcDbCircle
 10
455.7551705050903
 20
-857.1301394196635
 30
0.0
 40
0.3
100
AcDbArc
 50
0.0
 51
90.0000016921429
  0
ARC
  5
17F37
330
18
100
AcDbEntity
  8
01
100
AcDbCircle
 10
455.7551705050903
 20
-883.5301394196636
 30
0.0
 40
0.3
100
AcDbArc
 50
270.0000016921429
 51
0.0
  0
ARC
  5
17F38
330
18
100
AcDbEntity
  8
01
100
AcDbCircle
 10
425.0551705050903
 20
-857.8301403263408
 30
0.0
 40
1.0
100
AcDbArc
 50
90.0000016921428
 51
180.0
  0
ARC
  5
17F39
330
18
100
AcDbEntity
  8
01
100
AcDbCircle
 10
425.0551705050903
 20
-882.8301403263408
 30
0.0
 40
1.0
100
AcDbArc
 50
180.0
 51
270.0000016921429
  0
ARC
  5
17F3A
330
18
100
AcDbEntity
  8
01
100
AcDbCircle
 10
423.0551705050903
 20
-882.8301404324445
 30
0.0
 40
1.0
100
AcDbArc
 50
270.0
 51
0.0
  0
ARC
  5
17F3B
330
18
100
AcDbEntity
  8
01
100
AcDbCircle
 10
423.0551705050903
 20
-857.8301404324445
 30
0.0
 40
1.0
100
AcDbArc
 50
0.0
 51
90.0
  0
ARC
  5
17F3C
330
18
100
AcDbEntity
  8
01
100
AcDbCircle
 10
395.0551705050903
 20
-880.8301404324445
 30
0.0
 40
3.0
100
AcDbArc
 50
180.0
 51
270.0
  0
ARC
  5
17F3D
330
18
100
AcDbEntity
  8
01
100
AcDbCircle
 10
395.0551705050903
 20
-859.8301404324445
 30
0.0
 40
3.0
100
AcDbArc
 50
90.0
 51
180.0
  0
TEXT
  5
180B3
330
18
100
AcDbEntity
  8
1TEXT
100
AcDbText
 10
443.2700434860267
 20
-760.023034688996
 30
0.0
 40
4.0
  1
仕上げ：握り
 41
0.9
 72
     1
 11
455.4500434860267
 21
-760.023034688996
 31
0.0
100
AcDbText
  0
LINE
  5
180B4
330
18
100
AcDbEntity
  8
1DIM
100
AcDbLine
 10
403.0500434860271
 20
-754.523034688996
 30
0.0
 11
508.0500434860271
 21
-754.523034688996
 31
0.0
  0
LINE
  5
180B5
330
18
100
AcDbEntity
  8
1DIM
100
AcDbLine
 10
403.0500434860271
 20
-768.523034688996
 30
0.0
 11
508.0500434860271
 21
-768.523034688996
 31
0.0
  0
LINE
  5
180B6
330
18
100
AcDbEntity
  8
1DIM
100
AcDbLine
 10
403.0500434860271
 20
-761.523034688996
 30
0.0
 11
508.0500434860271
 21
-761.523034688996
 31
0.0
  0
LINE
  5
180B7
330
18
100
AcDbEntity
  8
1DIM
100
AcDbLine
 10
403.0500434860271
 20
-775.523034688996
 30
0.0
 11
508.0500434860271
 21
-775.523034688996
 31
0.0
  0
LINE
  5
180B8
330
18
100
AcDbEntity
  8
1DIM
100
AcDbLine
 10
403.0500434860271
 20
-775.523034688996
 30
0.0
 11
508.0500434860271
 21
-775.523034688996
 31
0.0
  0
LINE
  5
180B9
330
18
100
AcDbEntity
  8
1DIM
100
AcDbLine
 10
473.0500434860271
 20
-754.523034688996
 30
0.0
 11
473.0500434860271
 21
-775.523034688996
 31
0.0
  0
TEXT
  5
180BA
330
18
100
AcDbEntity
  8
1TEXT
100
AcDbText
 10
483.58337681936
 20
-760.023034688996
 30
0.0
 40
4.0
  1
コード
 72
     1
 11
490.4500434860267
 21
-760.023034688996
 31
0.0
100
AcDbText
  0
LINE
  5
180BB
330
18
100
AcDbEntity
  8
1DIM
100
AcDbLine
 10
438.0500434860271
 20
-775.523034688996
 30
0.0
 11
438.0500434860271
 21
-754.523034688996
 31
0.0
  0
LINE
  5
180BC
330
18
100
AcDbEntity
  8
1DIM
100
AcDbLine
 10
508.0500434860271
 20
-775.523034688996
 30
0.0
 11
508.0500434860271
 21
-754.523034688996
 31
0.0
  0
TEXT
  5
180BE
330
18
100
AcDbEntity
  8
1TEXT
100
AcDbText
 10
406.38337681936
 20
-760.023034688996
 30
0.0
 40
4.0
  1
仕上げ：脚部
 72
     1
 11
420.4500434860267
 21
-760.023034688996
 31
0.0
100
AcDbText
  0
TEXT
  5
180BF
330
18
100
AcDbEntity
  8
1TEXT
100
AcDbText
 10
403.661529526027
 20
-774.0233134264265
 30
0.0
 40
4.0
  1
サテンニッケル
 72
     1
 11
420.1948628593603
 21
-774.0233134264265
 31
0.0
100
AcDbText
  0
LINE
  5
180C1
330
18
100
AcDbEntity
  8
1DIM
100
AcDbLine
 10
403.0500434860271
 20
-775.523034688996
 30
0.0
 11
403.0500434860271
 21
-754.523034688996
 31
0.0
  0
TEXT
  5
180C3
330
18
100
AcDbEntity
  8
1TEXT
100
AcDbText
 10
442.2055641991691
 20
-773.56318944232
 30
0.0
 40
4.0
  1
ダークブラウン
 41
0.8
 72
     1
 11
455.3255641991691
 21
-773.56318944232
 31
0.0
100
AcDbText
  0
TEXT
  5
180F8
330
18
100
AcDbEntity
  8
1TEXT
100
AcDbText
 10
479.6354035747863
 20
-774.1358831194698
 30
0.0
 40
4.0
  1
KH-67-6N
 41
0.7
 72
     1
 11
490.3881813525641
 21
-774.1358831194698
 31
0.0
100
AcDbText
  0
LINE
  5
182CB
330
18
100
AcDbEntity
  8
1DIM
100
AcDbLine
 10
403.0500434860271
 20
-775.523034688996
 30
0.0
 11
508.0500434860271
 21
-775.523034688996
 31
0.0
  0
LINE
  5
182CC
330
18
100
AcDbEntity
  8
1DIM
100
AcDbLine
 10
403.0500434860271
 20
-775.523034688996
 30
0.0
 11
508.0500434860271
 21
-775.523034688996
 31
0.0
  0
LINE
  5
182CF
330
18
100
AcDbEntity
  8
1DIM
100
AcDbLine
 10
508.0500434860271
 20
-775.523034688996
 30
0.0
 11
508.0500434860271
 21
-754.523034688996
 31
0.0
  0
TEXT
  5
182D0
330
18
100
AcDbEntity
  8
1TEXT
100
AcDbText
 10
442.1700434860267
 20
-766.9330679346867
 30
0.0
 40
4.0
  1
ライトブラウン
 41
0.8
 72
     1
 11
455.4500434860267
 21
-766.9330679346867
 31
0.0
100
AcDbText
  0
TEXT
  5
182D1
330
18
100
AcDbEntity
  8
1TEXT
100
AcDbText
 10
403.9167101526933
 20
-766.9330679346867
 30
0.0
 40
4.0
  1
サテンニッケル
 72
     1
 11
420.4500434860267
 21
-766.9330679346867
 31
0.0
100
AcDbText
  0
TEXT
  5
182D2
330
18
100
AcDbEntity
  8
1TEXT
100
AcDbText
 10
479.5028751361245
 20
-767.2766833139794
 30
0.0
 40
4.0
  1
KH-67-4N
 41
0.7
 72
     1
 11
490.24593069168
 21
-767.2766833139794
 31
0.0
100
AcDbText
  0
LINE
  5
18FB9
330
18
100
AcDbEntity
  8
1DIM
100
AcDbLine
 10
403.0500434860271
 20
-775.523034688996
 30
0.0
 11
508.0500434860271
 21
-775.523034688996
 31
0.0
  0
LINE
  5
18FBA
330
18
100
AcDbEntity
  8
1DIM
100
AcDbLine
 10
403.0500434860271
 20
-782.523034688996
 30
0.0
 11
508.0500434860271
 21
-782.523034688996
 31
0.0
  0
LINE
  5
18FBB
330
18
100
AcDbEntity
  8
1DIM
100
AcDbLine
 10
403.0500434860271
 20
-782.523034688996
 30
0.0
 11
508.0500434860271
 21
-782.523034688996
 31
0.0
  0
LINE
  5
18FBC
330
18
100
AcDbEntity
  8
1DIM
100
AcDbLine
 10
473.0500434860271
 20
-775.523034688996
 30
0.0
 11
473.0500434860271
 21
-782.523034688996
 31
0.0
  0
LINE
  5
18FBD
330
18
100
AcDbEntity
  8
1DIM
100
AcDbLine
 10
438.0500434860271
 20
-782.523034688996
 30
0.0
 11
438.0500434860271
 21
-775.523034688996
 31
0.0
  0
LINE
  5
18FBE
330
18
100
AcDbEntity
  8
1DIM
100
AcDbLine
 10
508.0500434860271
 20
-782.523034688996
 30
0.0
 11
508.0500434860271
 21
-775.523034688996
 31
0.0
  0
TEXT
  5
18FBF
330
18
100
AcDbEntity
  8
1TEXT
100
AcDbText
 10
403.9281961926937
 20
-781.0233134264265
 30
0.0
 40
4.0
  1
マットブラック
 72
     1
 11
420.1948628593603
 21
-781.0233134264265
 31
0.0
100
AcDbText
  0
LINE
  5
18FC0
330
18
100
AcDbEntity
  8
1DIM
100
AcDbLine
 10
403.0500434860271
 20
-782.523034688996
 30
0.0
 11
403.0500434860271
 21
-775.523034688996
 31
0.0
  0
TEXT
  5
18FC1
330
18
100
AcDbEntity
  8
1TEXT
100
AcDbText
 10
442.2055641991691
 20
-780.56318944232
 30
0.0
 40
4.0
  1
ダークブラウン
 41
0.8
 72
     1
 11
455.3255641991691
 21
-780.56318944232
 31
0.0
100
AcDbText
  0
TEXT
  5
18FC2
330
18
100
AcDbEntity
  8
1TEXT
100
AcDbText
 10
477.302070241453
 20
-781.1358831194698
 30
0.0
 40
4.0
  1
KH-67-6003
 41
0.7
 72
     1
 11
490.3881813525641
 21
-781.1358831194698
 31
0.0
100
AcDbText
  0
LINE
  5
18FC3
330
18
100
AcDbEntity
  8
1DIM
100
AcDbLine
 10
403.0500434860271
 20
-782.523034688996
 30
0.0
 11
508.0500434860271
 21
-782.523034688996
 31
0.0
  0
LINE
  5
18FC4
330
18
100
AcDbEntity
  8
1DIM
100
AcDbLine
 10
403.0500434860271
 20
-782.523034688996
 30
0.0
 11
508.0500434860271
 21
-782.523034688996
 31
0.0
  0
LINE
  5
18FC5
330
18
100
AcDbEntity
  8
1DIM
100
AcDbLine
 10
508.0500434860271
 20
-782.523034688996
 30
0.0
 11
508.0500434860271
 21
-775.523034688996
 31
0.0
  0
LINE
  5
1904C
330
18
100
AcDbEntity
  8
1DIM
100
AcDbLine
 10
403.0500434860271
 20
-789.523034688996
 30
0.0
 11
508.0500434860271
 21
-789.523034688996
 31
0.0
  0
LINE
  5
1904D
330
18
100
AcDbEntity
  8
1DIM
100
AcDbLine
 10
403.0500434860271
 20
-789.523034688996
 30
0.0
 11
508.0500434860271
 21
-789.523034688996
 31
0.0
  0
LINE
  5
1904E
330
18
100
AcDbEntity
  8
1DIM
100
AcDbLine
 10
473.0500434860271
 20
-782.523034688996
 30
0.0
 11
473.0500434860271
 21
-789.523034688996
 31
0.0
  0
LINE
  5
1904F
330
18
100
AcDbEntity
  8
1DIM
100
AcDbLine
 10
438.0500434860271
 20
-789.523034688996
 30
0.0
 11
438.0500434860271
 21
-782.523034688996
 31
0.0
  0
LINE
  5
19050
330
18
100
AcDbEntity
  8
1DIM
100
AcDbLine
 10
508.0500434860271
 20
-789.523034688996
 30
0.0
 11
508.0500434860271
 21
-782.523034688996
 31
0.0
  0
TEXT
  5
19051
330
18
100
AcDbEntity
  8
1TEXT
100
AcDbText
 10
403.9281961926937
 20
-788.0233134264265
 30
0.0
 40
4.0
  1
マットブラック
 72
     1
 11
420.1948628593603
 21
-788.0233134264265
 31
0.0
100
AcDbText
  0
LINE
  5
19052
330
18
100
AcDbEntity
  8
1DIM
100
AcDbLine
 10
403.0500434860271
 20
-789.523034688996
 30
0.0
 11
403.0500434860271
 21
-782.523034688996
 31
0.0
  0
TEXT
  5
19053
330
18
100
AcDbEntity
  8
1TEXT
100
AcDbText
 10
442.0455641991691
 20
-787.56318944232
 30
0.0
 40
4.0
  1
ライトブラウン
 41
0.8
 72
     1
 11
455.3255641991691
 21
-787.56318944232
 31
0.0
100
AcDbText
  0
TEXT
  5
19054
330
18
100
AcDbEntity
  8
1TEXT
100
AcDbText
 10
477.3117924636752
 20
-788.1358831194698
 30
0.0
 40
4.0
  1
KH-67-4003
 41
0.7
 72
     1
 11
490.3881813525641
 21
-788.1358831194698
 31
0.0
100
AcDbText
  0
LINE
  5
19055
330
18
100
AcDbEntity
  8
1DIM
100
AcDbLine
 10
403.0500434860271
 20
-789.523034688996
 30
0.0
 11
508.0500434860271
 21
-789.523034688996
 31
0.0
  0
LINE
  5
19056
330
18
100
AcDbEntity
  8
1DIM
100
AcDbLine
 10
403.0500434860271
 20
-789.523034688996
 30
0.0
 11
508.0500434860271
 21
-789.523034688996
 31
0.0
  0
LINE
  5
19057
330
18
100
AcDbEntity
  8
1DIM
100
AcDbLine
 10
508.0500434860271
 20
-789.523034688996
 30
0.0
 11
508.0500434860271
 21
-782.523034688996
 31
0.0
  0
LINE
  5
190C3
330
18
100
AcDbEntity
  8
1CENTER
100
AcDbLine
 10
247.6841055991669
 20
-752.3237981241955
 30
0.0
 11
213.5847854605888
 21
-752.3237981241955
 31
0.0
  0
LINE
  5
190C4
330
18
100
AcDbEntity
  8
1HATCH
100
AcDbLine
 10
246.2377523686188
 20
-754.4237981241955
 30
0.0
 11
219.4877523686188
 21
-754.4237981241955
 31
0.0
  0
LINE
  5
190C5
330
18
100
AcDbEntity
  8
1HATCH
100
AcDbLine
 10
246.2377523686188
 20
-750.2237981241955
 30
0.0
 11
219.4877523686188
 21
-750.2237981241955
 31
0.0
  0
LINE
  5
190C6
330
18
100
AcDbEntity
  8
1HATCH
100
AcDbLine
 10
245.8377523686188
 20
-754.8237981241955
 30
0.0
 11
245.8377523686188
 21
-749.8237981241955
 31
0.0
  0
LINE
  5
190C7
330
18
100
AcDbEntity
  8
01
100
AcDbLine
 10
246.2377523686188
 20
-754.4237981241955
 30
0.0
 11
245.8377523686188
 21
-754.8237981241955
 31
0.0
  0
LINE
  5
190C8
330
18
100
AcDbEntity
  8
01
100
AcDbLine
 10
245.8377523686189
 20
-749.8237981241955
 30
0.0
 11
246.2377523686188
 21
-750.2237981241955
 31
0.0
  0
LINE
  5
190C9
330
18
100
AcDbEntity
  8
01
100
AcDbLine
 10
216.5877523686188
 20
-757.3237981241955
 30
0.0
 11
216.5877523686188
 21
-747.3237981241955
 31
0.0
  0
LINE
  5
190CA
330
18
100
AcDbEntity
  8
1HATCH
100
AcDbLine
 10
219.0877523686188
 20
-754.8237981241955
 30
0.0
 11
219.4877523686188
 21
-754.4237981241955
 31
0.0
  0
LINE
  5
190CB
330
18
100
AcDbEntity
  8
1HATCH
100
AcDbLine
 10
219.0877523686189
 20
-749.8237981241955
 30
0.0
 11
219.4877523686188
 21
-750.2237981241955
 31
0.0
  0
LINE
  5
190CD
330
18
100
AcDbEntity
  8
1CENTER
100
AcDbLine
 10
-231.3158944008335
 20
-752.3237981241937
 30
0.0
 11
-265.4152145394116
 21
-752.3237981241937
 31
0.0
  0
LINE
  5
190CE
330
18
100
AcDbEntity
  8
1HATCH
100
AcDbLine
 10
-232.7622476313816
 20
-754.4237981241937
 30
0.0
 11
-259.5122476313817
 21
-754.4237981241937
 31
0.0
  0
LINE
  5
190CF
330
18
100
AcDbEntity
  8
1HATCH
100
AcDbLine
 10
-232.7622476313816
 20
-750.2237981241936
 30
0.0
 11
-259.5122476313817
 21
-750.2237981241936
 31
0.0
  0
LINE
  5
190D0
330
18
100
AcDbEntity
  8
1HATCH
100
AcDbLine
 10
-233.1622476313816
 20
-754.8237981241937
 30
0.0
 11
-233.1622476313816
 21
-749.8237981241937
 31
0.0
  0
LINE
  5
190D1
330
18
100
AcDbEntity
  8
01
100
AcDbLine
 10
-232.7622476313816
 20
-754.4237981241937
 30
0.0
 11
-233.1622476313816
 21
-754.8237981241937
 31
0.0
  0
LINE
  5
190D2
330
18
100
AcDbEntity
  8
01
100
AcDbLine
 10
-233.1622476313816
 20
-749.8237981241937
 30
0.0
 11
-232.7622476313816
 21
-750.2237981241936
 31
0.0
  0
LINE
  5
190D3
330
18
100
AcDbEntity
  8
01
100
AcDbLine
 10
-262.4122476313817
 20
-757.3237981241937
 30
0.0
 11
-262.4122476313817
 21
-747.3237981241937
 31
0.0
  0
LINE
  5
190D4
330
18
100
AcDbEntity
  8
1HATCH
100
AcDbLine
 10
-259.9122476313817
 20
-754.8237981241937
 30
0.0
 11
-259.5122476313817
 21
-754.4237981241937
 31
0.0
  0
LINE
  5
190D5
330
18
100
AcDbEntity
  8
1HATCH
100
AcDbLine
 10
-259.9122476313816
 20
-749.8237981241937
 30
0.0
 11
-259.5122476313817
 21
-750.2237981241936
 31
0.0
  0
LINE
  5
190D7
330
18
100
AcDbEntity
  8
01
100
AcDbLine
 10
293.5877523686187
 20
-722.2059223917015
 30
0.0
 11
298.5877523686187
 21
-721.2059223917015
 31
0.0
  0
LINE
  5
190D8
330
18
100
AcDbEntity
  8
1CENTER
100
AcDbLine
 10
296.0877523686187
 20
-700.6195236265835
 30
0.0
 11
296.0877523686187
 21
-747.3067407278934
 31
0.0
  0
LINE
  5
190D9
330
18
100
AcDbEntity
  8
01
100
AcDbLine
 10
297.8377523686187
 20
-717.0559223917015
 30
0.0
 11
298.5877523686187
 21
-717.2059223917015
 31
0.0
  0
LINE
  5
190DA
330
18
100
AcDbEntity
  8
01
100
AcDbLine
 10
293.5877523686187
 20
-716.2059223917015
 30
0.0
 11
298.5877523686187
 21
-715.2059223917015
 31
0.0
  0
LINE
  5
190DB
330
18
100
AcDbEntity
  8
01
100
AcDbLine
 10
293.5877523686187
 20
-714.2059223917015
 30
0.0
 11
294.3377523686187
 21
-714.3559223917016
 31
0.0
  0
LINE
  5
190DC
330
18
100
AcDbEntity
  8
01
100
AcDbLine
 10
293.5877523686187
 20
-716.2059223917015
 30
0.0
 11
294.3377523686187
 21
-716.3559223917016
 31
0.0
  0
LINE
  5
190DD
330
18
100
AcDbEntity
  8
01
100
AcDbLine
 10
297.8377523686187
 20
-715.0559223917015
 30
0.0
 11
298.5877523686187
 21
-715.2059223917015
 31
0.0
  0
LINE
  5
190DE
330
18
100
AcDbEntity
  8
01
100
AcDbLine
 10
297.8377523686187
 20
-721.0559223917015
 30
0.0
 11
298.5877523686187
 21
-721.2059223917015
 31
0.0
  0
LINE
  5
190DF
330
18
100
AcDbEntity
  8
01
100
AcDbLine
 10
293.5877523686187
 20
-718.2059223917015
 30
0.0
 11
298.5877523686187
 21
-717.2059223917015
 31
0.0
  0
LINE
  5
190E0
330
18
100
AcDbEntity
  8
01
100
AcDbLine
 10
293.5877523686187
 20
-720.2059223917015
 30
0.0
 11
298.5877523686187
 21
-719.2059223917015
 31
0.0
  0
LINE
  5
190E1
330
18
100
AcDbEntity
  8
01
100
AcDbLine
 10
293.5877523686187
 20
-720.2059223917015
 30
0.0
 11
294.3377523686187
 21
-720.3559223917016
 31
0.0
  0
LINE
  5
190E2
330
18
100
AcDbEntity
  8
01
100
AcDbLine
 10
293.5877523686187
 20
-718.2059223917015
 30
0.0
 11
294.3377523686187
 21
-718.3559223917016
 31
0.0
  0
LINE
  5
190E3
330
18
100
AcDbEntity
  8
01
100
AcDbLine
 10
297.8377523686187
 20
-719.0559223917015
 30
0.0
 11
298.5877523686187
 21
-719.2059223917015
 31
0.0
  0
LINE
  5
190E4
330
18
100
AcDbEntity
  8
01
100
AcDbLine
 10
294.9039719681015
 20
-703.942678471805
 30
0.0
 11
297.1511090555625
 21
-703.4932510543129
 31
0.0
  0
LINE
  5
190E5
330
18
100
AcDbEntity
  8
01
100
AcDbLine
 10
293.7714854275829
 20
-708.1691757799088
 30
0.0
 11
298.1683899086735
 21
-707.2897948836905
 31
0.0
  0
LINE
  5
190E6
330
18
100
AcDbEntity
  8
01
100
AcDbLine
 10
293.7714854275829
 20
-708.1691757799088
 30
0.0
 11
294.5214854275829
 21
-708.3191757799087
 31
0.0
  0
LINE
  5
190E7
330
18
100
AcDbEntity
  8
01
100
AcDbLine
 10
293.5877523686187
 20
-710.2059223917015
 30
0.0
 11
298.5877523686187
 21
-709.2059223917015
 31
0.0
  0
LINE
  5
190E8
330
18
100
AcDbEntity
  8
01
100
AcDbLine
 10
293.5877523686187
 20
-710.2059223917015
 30
0.0
 11
294.3377523686187
 21
-710.3559223917016
 31
0.0
  0
LINE
  5
190E9
330
18
100
AcDbEntity
  8
01
100
AcDbLine
 10
297.8377523686187
 20
-709.0559223917015
 30
0.0
 11
298.5877523686187
 21
-709.2059223917015
 31
0.0
  0
LINE
  5
190EA
330
18
100
AcDbEntity
  8
01
100
AcDbLine
 10
294.9039719681015
 20
-703.942678471805
 30
0.0
 11
295.6539719681015
 21
-704.092678471805
 31
0.0
  0
LINE
  5
190EB
330
18
100
AcDbEntity
  8
01
100
AcDbLine
 10
294.3377286978422
 20
-706.0559271258569
 30
0.0
 11
297.6597494821182
 21
-705.3915229690017
 31
0.0
  0
LINE
  5
190EC
330
18
100
AcDbEntity
  8
01
100
AcDbLine
 10
294.3377286978422
 20
-706.0559271258569
 30
0.0
 11
295.0877286978422
 21
-706.2059271258569
 31
0.0
  0
LINE
  5
190ED
330
18
100
AcDbEntity
  8
01
100
AcDbLine
 10
296.9097494821182
 20
-705.2415229690016
 30
0.0
 11
297.6597494821182
 21
-705.3915229690017
 31
0.0
  0
LINE
  5
190EE
330
18
100
AcDbEntity
  8
01
100
AcDbLine
 10
297.4183899086735
 20
-707.1397948836906
 30
0.0
 11
298.1683899086735
 21
-707.2897948836905
 31
0.0
  0
LINE
  5
190EF
330
18
100
AcDbEntity
  8
01
100
AcDbLine
 10
293.5877523686187
 20
-712.2059223917015
 30
0.0
 11
298.5877523686187
 21
-711.2059223917015
 31
0.0
  0
LINE
  5
190F0
330
18
100
AcDbEntity
  8
01
100
AcDbLine
 10
293.5877523686187
 20
-712.2059223917015
 30
0.0
 11
294.3377523686187
 21
-712.3559223917016
 31
0.0
  0
LINE
  5
190F1
330
18
100
AcDbEntity
  8
01
100
AcDbLine
 10
297.8377523686187
 20
-711.0559223917015
 30
0.0
 11
298.5877523686187
 21
-711.2059223917015
 31
0.0
  0
LINE
  5
190F2
330
18
100
AcDbEntity
  8
01
100
AcDbLine
 10
297.8377523686187
 20
-713.0559223917015
 30
0.0
 11
298.5877523686187
 21
-713.2059223917015
 31
0.0
  0
LINE
  5
190F3
330
18
100
AcDbEntity
  8
01
100
AcDbLine
 10
293.5877523686187
 20
-714.2059223917015
 30
0.0
 11
298.5877523686187
 21
-713.2059223917015
 31
0.0
  0
LINE
  5
190F4
330
18
100
AcDbEntity
  8
01
100
AcDbLine
 10
296.4011090555625
 20
-703.3432510543128
 30
0.0
 11
297.1511090555625
 21
-703.4932510543129
 31
0.0
  0
LINE
  5
190F5
330
18
100
AcDbEntity
  8
01
100
AcDbLine
 10
293.5877523686187
 20
-738.2059223917015
 30
0.0
 11
298.5877523686187
 21
-737.2059223917016
 31
0.0
  0
LINE
  5
190F6
330
18
100
AcDbEntity
  8
01
100
AcDbLine
 10
297.8377523686187
 20
-737.0559223917015
 30
0.0
 11
298.5877523686187
 21
-737.2059223917016
 31
0.0
  0
LINE
  5
190F7
330
18
100
AcDbEntity
  8
01
100
AcDbLine
 10
293.5877523686187
 20
-736.2059223917015
 30
0.0
 11
294.3377523686187
 21
-736.3559223917016
 31
0.0
  0
LINE
  5
190F8
330
18
100
AcDbEntity
  8
01
100
AcDbLine
 10
297.8377523686187
 20
-741.0559223917015
 30
0.0
 11
298.5877523686187
 21
-741.2059223917016
 31
0.0
  0
LINE
  5
190F9
330
18
100
AcDbEntity
  8
01
100
AcDbLine
 10
293.5877523686187
 20
-742.2059223917015
 30
0.0
 11
294.3377523686187
 21
-742.3559223917015
 31
0.0
  0
LINE
  5
190FA
330
18
100
AcDbEntity
  8
01
100
AcDbLine
 10
293.5877523686187
 20
-742.2059223917015
 30
0.0
 11
298.5877523686187
 21
-741.2059223917016
 31
0.0
  0
LINE
  5
190FB
330
18
100
AcDbEntity
  8
01
100
AcDbLine
 10
297.8377523686187
 20
-739.0559223917015
 30
0.0
 11
298.5877523686187
 21
-739.2059223917016
 31
0.0
  0
LINE
  5
190FC
330
18
100
AcDbEntity
  8
01
100
AcDbLine
 10
293.5877523686187
 20
-740.2059223917015
 30
0.0
 11
294.3377523686187
 21
-740.3559223917015
 31
0.0
  0
LINE
  5
190FD
330
18
100
AcDbEntity
  8
01
100
AcDbLine
 10
293.5877523686187
 20
-740.2059223917015
 30
0.0
 11
298.5877523686187
 21
-739.2059223917016
 31
0.0
  0
LINE
  5
190FE
330
18
100
AcDbEntity
  8
01
100
AcDbLine
 10
293.5877523686187
 20
-738.2059223917015
 30
0.0
 11
294.3377523686187
 21
-738.3559223917015
 31
0.0
  0
LINE
  5
190FF
330
18
100
AcDbEntity
  8
01
100
AcDbLine
 10
297.8377523686187
 20
-742.3237879777474
 30
0.0
 11
294.3377523686187
 21
-742.3237879777474
 31
0.0
  0
LINE
  5
19100
330
18
100
AcDbEntity
  8
01
100
AcDbLine
 10
293.5877523686187
 20
-730.2059223917015
 30
0.0
 11
298.5877523686187
 21
-729.2059223917015
 31
0.0
  0
LINE
  5
19101
330
18
100
AcDbEntity
  8
01
100
AcDbLine
 10
293.5877523686187
 20
-728.2059223917015
 30
0.0
 11
294.3377523686187
 21
-728.3559223917016
 31
0.0
  0
LINE
  5
19102
330
18
100
AcDbEntity
  8
01
100
AcDbLine
 10
293.5877523686187
 20
-730.2059223917015
 30
0.0
 11
294.3377523686187
 21
-730.3559223917016
 31
0.0
  0
LINE
  5
19103
330
18
100
AcDbEntity
  8
01
100
AcDbLine
 10
297.8377523686187
 20
-729.0559223917015
 30
0.0
 11
298.5877523686187
 21
-729.2059223917015
 31
0.0
  0
LINE
  5
19104
330
18
100
AcDbEntity
  8
01
100
AcDbLine
 10
293.5877523686187
 20
-726.2059223917015
 30
0.0
 11
298.5877523686187
 21
-725.2059223917015
 31
0.0
  0
LINE
  5
19105
330
18
100
AcDbEntity
  8
01
100
AcDbLine
 10
297.8377523686187
 20
-725.0559223917015
 30
0.0
 11
298.5877523686187
 21
-725.2059223917015
 31
0.0
  0
LINE
  5
19106
330
18
100
AcDbEntity
  8
01
100
AcDbLine
 10
293.5877523686187
 20
-726.2059223917015
 30
0.0
 11
294.3377523686187
 21
-726.3559223917016
 31
0.0
  0
LINE
  5
19107
330
18
100
AcDbEntity
  8
01
100
AcDbLine
 10
297.8377523686187
 20
-727.0559223917015
 30
0.0
 11
298.5877523686187
 21
-727.2059223917015
 31
0.0
  0
LINE
  5
19108
330
18
100
AcDbEntity
  8
01
100
AcDbLine
 10
293.5877523686187
 20
-728.2059223917015
 30
0.0
 11
298.5877523686187
 21
-727.2059223917015
 31
0.0
  0
LINE
  5
19109
330
18
100
AcDbEntity
  8
01
100
AcDbLine
 10
297.8377523686187
 20
-735.0559223917015
 30
0.0
 11
298.5877523686187
 21
-735.2059223917016
 31
0.0
  0
LINE
  5
1910A
330
18
100
AcDbEntity
  8
01
100
AcDbLine
 10
297.8377523686187
 20
-733.0559223917015
 30
0.0
 11
298.5877523686187
 21
-733.2059223917015
 31
0.0
  0
LINE
  5
1910B
330
18
100
AcDbEntity
  8
01
100
AcDbLine
 10
293.5877523686187
 20
-734.2059223917015
 30
0.0
 11
294.3377523686187
 21
-734.3559223917016
 31
0.0
  0
LINE
  5
1910C
330
18
100
AcDbEntity
  8
01
100
AcDbLine
 10
293.5877523686187
 20
-734.2059223917015
 30
0.0
 11
298.5877523686187
 21
-733.2059223917015
 31
0.0
  0
LINE
  5
1910D
330
18
100
AcDbEntity
  8
01
100
AcDbLine
 10
293.5877523686187
 20
-732.2059223917015
 30
0.0
 11
298.5877523686187
 21
-731.2059223917015
 31
0.0
  0
LINE
  5
1910E
330
18
100
AcDbEntity
  8
01
100
AcDbLine
 10
293.5877523686187
 20
-732.2059223917015
 30
0.0
 11
294.3377523686187
 21
-732.3559223917016
 31
0.0
  0
LINE
  5
1910F
330
18
100
AcDbEntity
  8
01
100
AcDbLine
 10
297.8377523686187
 20
-731.0559223917015
 30
0.0
 11
298.5877523686187
 21
-731.2059223917015
 31
0.0
  0
LINE
  5
19110
330
18
100
AcDbEntity
  8
01
100
AcDbLine
 10
293.5877523686187
 20
-736.2059223917015
 30
0.0
 11
298.5877523686187
 21
-735.2059223917016
 31
0.0
  0
LINE
  5
19111
330
18
100
AcDbEntity
  8
01
100
AcDbLine
 10
293.5877523686187
 20
-724.2059223917015
 30
0.0
 11
298.5877523686187
 21
-723.2059223917015
 31
0.0
  0
LINE
  5
19112
330
18
100
AcDbEntity
  8
01
100
AcDbLine
 10
293.5877523686187
 20
-722.2059223917015
 30
0.0
 11
294.3377523686187
 21
-722.3559223917016
 31
0.0
  0
LINE
  5
19113
330
18
100
AcDbEntity
  8
01
100
AcDbLine
 10
297.8377523686187
 20
-723.0559223917015
 30
0.0
 11
298.5877523686187
 21
-723.2059223917015
 31
0.0
  0
LINE
  5
19114
330
18
100
AcDbEntity
  8
01
100
AcDbLine
 10
293.5877523686187
 20
-724.2059223917015
 30
0.0
 11
294.3377523686187
 21
-724.3559223917016
 31
0.0
  0
LINE
  5
19116
330
18
100
AcDbEntity
  8
01
100
AcDbLine
 10
248.5877523686183
 20
-722.2059223917015
 30
0.0
 11
253.5877523686183
 21
-721.2059223917015
 31
0.0
  0
LINE
  5
19117
330
18
100
AcDbEntity
  8
1CENTER
100
AcDbLine
 10
251.0877523686183
 20
-700.6195236265835
 30
0.0
 11
251.0877523686183
 21
-747.3067407278934
 31
0.0
  0
LINE
  5
19118
330
18
100
AcDbEntity
  8
01
100
AcDbLine
 10
252.8377523686183
 20
-717.0559223917015
 30
0.0
 11
253.5877523686183
 21
-717.2059223917015
 31
0.0
  0
LINE
  5
19119
330
18
100
AcDbEntity
  8
01
100
AcDbLine
 10
248.5877523686183
 20
-716.2059223917015
 30
0.0
 11
253.5877523686183
 21
-715.2059223917015
 31
0.0
  0
LINE
  5
1911A
330
18
100
AcDbEntity
  8
01
100
AcDbLine
 10
248.5877523686183
 20
-714.2059223917015
 30
0.0
 11
249.3377523686183
 21
-714.3559223917016
 31
0.0
  0
LINE
  5
1911B
330
18
100
AcDbEntity
  8
01
100
AcDbLine
 10
248.5877523686183
 20
-716.2059223917015
 30
0.0
 11
249.3377523686183
 21
-716.3559223917016
 31
0.0
  0
LINE
  5
1911C
330
18
100
AcDbEntity
  8
01
100
AcDbLine
 10
252.8377523686183
 20
-715.0559223917015
 30
0.0
 11
253.5877523686183
 21
-715.2059223917015
 31
0.0
  0
LINE
  5
1911D
330
18
100
AcDbEntity
  8
01
100
AcDbLine
 10
252.8377523686183
 20
-721.0559223917015
 30
0.0
 11
253.5877523686183
 21
-721.2059223917015
 31
0.0
  0
LINE
  5
1911E
330
18
100
AcDbEntity
  8
01
100
AcDbLine
 10
248.5877523686183
 20
-718.2059223917015
 30
0.0
 11
253.5877523686183
 21
-717.2059223917015
 31
0.0
  0
LINE
  5
1911F
330
18
100
AcDbEntity
  8
01
100
AcDbLine
 10
248.5877523686183
 20
-720.2059223917015
 30
0.0
 11
253.5877523686183
 21
-719.2059223917015
 31
0.0
  0
LINE
  5
19120
330
18
100
AcDbEntity
  8
01
100
AcDbLine
 10
248.5877523686183
 20
-720.2059223917015
 30
0.0
 11
249.3377523686183
 21
-720.3559223917016
 31
0.0
  0
LINE
  5
19121
330
18
100
AcDbEntity
  8
01
100
AcDbLine
 10
248.5877523686183
 20
-718.2059223917015
 30
0.0
 11
249.3377523686183
 21
-718.3559223917016
 31
0.0
  0
LINE
  5
19122
330
18
100
AcDbEntity
  8
01
100
AcDbLine
 10
252.8377523686183
 20
-719.0559223917015
 30
0.0
 11
253.5877523686183
 21
-719.2059223917015
 31
0.0
  0
LINE
  5
19123
330
18
100
AcDbEntity
  8
01
100
AcDbLine
 10
249.9039719681011
 20
-703.942678471805
 30
0.0
 11
252.151109055562
 21
-703.4932510543129
 31
0.0
  0
LINE
  5
19124
330
18
100
AcDbEntity
  8
01
100
AcDbLine
 10
248.7714854275825
 20
-708.1691757799088
 30
0.0
 11
253.1683899086731
 21
-707.2897948836905
 31
0.0
  0
LINE
  5
19125
330
18
100
AcDbEntity
  8
01
100
AcDbLine
 10
248.7714854275825
 20
-708.1691757799088
 30
0.0
 11
249.5214854275825
 21
-708.3191757799087
 31
0.0
  0
LINE
  5
19126
330
18
100
AcDbEntity
  8
01
100
AcDbLine
 10
248.5877523686183
 20
-710.2059223917015
 30
0.0
 11
253.5877523686183
 21
-709.2059223917015
 31
0.0
  0
LINE
  5
19127
330
18
100
AcDbEntity
  8
01
100
AcDbLine
 10
248.5877523686183
 20
-710.2059223917015
 30
0.0
 11
249.3377523686183
 21
-710.3559223917016
 31
0.0
  0
LINE
  5
19128
330
18
100
AcDbEntity
  8
01
100
AcDbLine
 10
252.8377523686183
 20
-709.0559223917015
 30
0.0
 11
253.5877523686183
 21
-709.2059223917015
 31
0.0
  0
LINE
  5
19129
330
18
100
AcDbEntity
  8
01
100
AcDbLine
 10
249.9039719681011
 20
-703.942678471805
 30
0.0
 11
250.6539719681011
 21
-704.092678471805
 31
0.0
  0
LINE
  5
1912A
330
18
100
AcDbEntity
  8
01
100
AcDbLine
 10
249.3377286978418
 20
-706.0559271258569
 30
0.0
 11
252.6597494821178
 21
-705.3915229690017
 31
0.0
  0
LINE
  5
1912B
330
18
100
AcDbEntity
  8
01
100
AcDbLine
 10
249.3377286978418
 20
-706.0559271258569
 30
0.0
 11
250.0877286978418
 21
-706.2059271258569
 31
0.0
  0
LINE
  5
1912C
330
18
100
AcDbEntity
  8
01
100
AcDbLine
 10
251.9097494821178
 20
-705.2415229690016
 30
0.0
 11
252.6597494821178
 21
-705.3915229690017
 31
0.0
  0
LINE
  5
1912D
330
18
100
AcDbEntity
  8
01
100
AcDbLine
 10
252.4183899086731
 20
-707.1397948836906
 30
0.0
 11
253.1683899086731
 21
-707.2897948836905
 31
0.0
  0
LINE
  5
1912E
330
18
100
AcDbEntity
  8
01
100
AcDbLine
 10
248.5877523686183
 20
-712.2059223917015
 30
0.0
 11
253.5877523686183
 21
-711.2059223917015
 31
0.0
  0
LINE
  5
1912F
330
18
100
AcDbEntity
  8
01
100
AcDbLine
 10
248.5877523686183
 20
-712.2059223917015
 30
0.0
 11
249.3377523686183
 21
-712.3559223917016
 31
0.0
  0
LINE
  5
19130
330
18
100
AcDbEntity
  8
01
100
AcDbLine
 10
252.8377523686183
 20
-711.0559223917015
 30
0.0
 11
253.5877523686183
 21
-711.2059223917015
 31
0.0
  0
LINE
  5
19131
330
18
100
AcDbEntity
  8
01
100
AcDbLine
 10
252.8377523686183
 20
-713.0559223917015
 30
0.0
 11
253.5877523686183
 21
-713.2059223917015
 31
0.0
  0
LINE
  5
19132
330
18
100
AcDbEntity
  8
01
100
AcDbLine
 10
248.5877523686183
 20
-714.2059223917015
 30
0.0
 11
253.5877523686183
 21
-713.2059223917015
 31
0.0
  0
LINE
  5
19133
330
18
100
AcDbEntity
  8
01
100
AcDbLine
 10
251.401109055562
 20
-703.3432510543128
 30
0.0
 11
252.151109055562
 21
-703.4932510543129
 31
0.0
  0
LINE
  5
19134
330
18
100
AcDbEntity
  8
01
100
AcDbLine
 10
248.5877523686183
 20
-738.2059223917015
 30
0.0
 11
253.5877523686183
 21
-737.2059223917016
 31
0.0
  0
LINE
  5
19135
330
18
100
AcDbEntity
  8
01
100
AcDbLine
 10
252.8377523686183
 20
-737.0559223917015
 30
0.0
 11
253.5877523686183
 21
-737.2059223917016
 31
0.0
  0
LINE
  5
19136
330
18
100
AcDbEntity
  8
01
100
AcDbLine
 10
248.5877523686183
 20
-736.2059223917015
 30
0.0
 11
249.3377523686183
 21
-736.3559223917016
 31
0.0
  0
LINE
  5
19137
330
18
100
AcDbEntity
  8
01
100
AcDbLine
 10
252.8377523686183
 20
-741.0559223917015
 30
0.0
 11
253.5877523686183
 21
-741.2059223917016
 31
0.0
  0
LINE
  5
19138
330
18
100
AcDbEntity
  8
01
100
AcDbLine
 10
248.5877523686183
 20
-742.2059223917015
 30
0.0
 11
249.3377523686183
 21
-742.3559223917015
 31
0.0
  0
LINE
  5
19139
330
18
100
AcDbEntity
  8
01
100
AcDbLine
 10
248.5877523686183
 20
-742.2059223917015
 30
0.0
 11
253.5877523686183
 21
-741.2059223917016
 31
0.0
  0
LINE
  5
1913A
330
18
100
AcDbEntity
  8
01
100
AcDbLine
 10
252.8377523686183
 20
-739.0559223917015
 30
0.0
 11
253.5877523686183
 21
-739.2059223917016
 31
0.0
  0
LINE
  5
1913B
330
18
100
AcDbEntity
  8
01
100
AcDbLine
 10
248.5877523686183
 20
-740.2059223917015
 30
0.0
 11
249.3377523686183
 21
-740.3559223917015
 31
0.0
  0
LINE
  5
1913C
330
18
100
AcDbEntity
  8
01
100
AcDbLine
 10
248.5877523686183
 20
-740.2059223917015
 30
0.0
 11
253.5877523686183
 21
-739.2059223917016
 31
0.0
  0
LINE
  5
1913D
330
18
100
AcDbEntity
  8
01
100
AcDbLine
 10
248.5877523686183
 20
-738.2059223917015
 30
0.0
 11
249.3377523686183
 21
-738.3559223917015
 31
0.0
  0
LINE
  5
1913E
330
18
100
AcDbEntity
  8
01
100
AcDbLine
 10
252.8377523686183
 20
-742.3237879777474
 30
0.0
 11
249.3377523686183
 21
-742.3237879777474
 31
0.0
  0
LINE
  5
1913F
330
18
100
AcDbEntity
  8
01
100
AcDbLine
 10
248.5877523686183
 20
-730.2059223917015
 30
0.0
 11
253.5877523686183
 21
-729.2059223917015
 31
0.0
  0
LINE
  5
19140
330
18
100
AcDbEntity
  8
01
100
AcDbLine
 10
248.5877523686183
 20
-728.2059223917015
 30
0.0
 11
249.3377523686183
 21
-728.3559223917016
 31
0.0
  0
LINE
  5
19141
330
18
100
AcDbEntity
  8
01
100
AcDbLine
 10
248.5877523686183
 20
-730.2059223917015
 30
0.0
 11
249.3377523686183
 21
-730.3559223917016
 31
0.0
  0
LINE
  5
19142
330
18
100
AcDbEntity
  8
01
100
AcDbLine
 10
252.8377523686183
 20
-729.0559223917015
 30
0.0
 11
253.5877523686183
 21
-729.2059223917015
 31
0.0
  0
LINE
  5
19143
330
18
100
AcDbEntity
  8
01
100
AcDbLine
 10
248.5877523686183
 20
-726.2059223917015
 30
0.0
 11
253.5877523686183
 21
-725.2059223917015
 31
0.0
  0
LINE
  5
19144
330
18
100
AcDbEntity
  8
01
100
AcDbLine
 10
252.8377523686183
 20
-725.0559223917015
 30
0.0
 11
253.5877523686183
 21
-725.2059223917015
 31
0.0
  0
LINE
  5
19145
330
18
100
AcDbEntity
  8
01
100
AcDbLine
 10
248.5877523686183
 20
-726.2059223917015
 30
0.0
 11
249.3377523686183
 21
-726.3559223917016
 31
0.0
  0
LINE
  5
19146
330
18
100
AcDbEntity
  8
01
100
AcDbLine
 10
252.8377523686183
 20
-727.0559223917015
 30
0.0
 11
253.5877523686183
 21
-727.2059223917015
 31
0.0
  0
LINE
  5
19147
330
18
100
AcDbEntity
  8
01
100
AcDbLine
 10
248.5877523686183
 20
-728.2059223917015
 30
0.0
 11
253.5877523686183
 21
-727.2059223917015
 31
0.0
  0
LINE
  5
19148
330
18
100
AcDbEntity
  8
01
100
AcDbLine
 10
252.8377523686183
 20
-735.0559223917015
 30
0.0
 11
253.5877523686183
 21
-735.2059223917016
 31
0.0
  0
LINE
  5
19149
330
18
100
AcDbEntity
  8
01
100
AcDbLine
 10
252.8377523686183
 20
-733.0559223917015
 30
0.0
 11
253.5877523686183
 21
-733.2059223917015
 31
0.0
  0
LINE
  5
1914A
330
18
100
AcDbEntity
  8
01
100
AcDbLine
 10
248.5877523686183
 20
-734.2059223917015
 30
0.0
 11
249.3377523686183
 21
-734.3559223917016
 31
0.0
  0
LINE
  5
1914B
330
18
100
AcDbEntity
  8
01
100
AcDbLine
 10
248.5877523686183
 20
-734.2059223917015
 30
0.0
 11
253.5877523686183
 21
-733.2059223917015
 31
0.0
  0
LINE
  5
1914C
330
18
100
AcDbEntity
  8
01
100
AcDbLine
 10
248.5877523686183
 20
-732.2059223917015
 30
0.0
 11
253.5877523686183
 21
-731.2059223917015
 31
0.0
  0
LINE
  5
1914D
330
18
100
AcDbEntity
  8
01
100
AcDbLine
 10
248.5877523686183
 20
-732.2059223917015
 30
0.0
 11
249.3377523686183
 21
-732.3559223917016
 31
0.0
  0
LINE
  5
1914E
330
18
100
AcDbEntity
  8
01
100
AcDbLine
 10
252.8377523686183
 20
-731.0559223917015
 30
0.0
 11
253.5877523686183
 21
-731.2059223917015
 31
0.0
  0
LINE
  5
1914F
330
18
100
AcDbEntity
  8
01
100
AcDbLine
 10
248.5877523686183
 20
-736.2059223917015
 30
0.0
 11
253.5877523686183
 21
-735.2059223917016
 31
0.0
  0
LINE
  5
19150
330
18
100
AcDbEntity
  8
01
100
AcDbLine
 10
248.5877523686183
 20
-724.2059223917015
 30
0.0
 11
253.5877523686183
 21
-723.2059223917015
 31
0.0
  0
LINE
  5
19151
330
18
100
AcDbEntity
  8
01
100
AcDbLine
 10
248.5877523686183
 20
-722.2059223917015
 30
0.0
 11
249.3377523686183
 21
-722.3559223917016
 31
0.0
  0
LINE
  5
19152
330
18
100
AcDbEntity
  8
01
100
AcDbLine
 10
252.8377523686183
 20
-723.0559223917015
 30
0.0
 11
253.5877523686183
 21
-723.2059223917015
 31
0.0
  0
LINE
  5
19153
330
18
100
AcDbEntity
  8
01
100
AcDbLine
 10
248.5877523686183
 20
-724.2059223917015
 30
0.0
 11
249.3377523686183
 21
-724.3559223917016
 31
0.0
  0
LINE
  5
19155
330
18
100
AcDbEntity
  8
01
100
AcDbLine
 10
-185.4122476313819
 20
-722.2059223916997
 30
0.0
 11
-180.4122476313819
 21
-721.2059223916997
 31
0.0
  0
LINE
  5
19156
330
18
100
AcDbEntity
  8
1CENTER
100
AcDbLine
 10
-182.9122476313819
 20
-700.6195236265817
 30
0.0
 11
-182.9122476313819
 21
-747.3067407278916
 31
0.0
  0
LINE
  5
19157
330
18
100
AcDbEntity
  8
01
100
AcDbLine
 10
-181.1622476313819
 20
-717.0559223916997
 30
0.0
 11
-180.4122476313819
 21
-717.2059223916997
 31
0.0
  0
LINE
  5
19158
330
18
100
AcDbEntity
  8
01
100
AcDbLine
 10
-185.4122476313819
 20
-716.2059223916997
 30
0.0
 11
-180.4122476313819
 21
-715.2059223916997
 31
0.0
  0
LINE
  5
19159
330
18
100
AcDbEntity
  8
01
100
AcDbLine
 10
-185.4122476313819
 20
-714.2059223916997
 30
0.0
 11
-184.6622476313819
 21
-714.3559223916998
 31
0.0
  0
LINE
  5
1915A
330
18
100
AcDbEntity
  8
01
100
AcDbLine
 10
-185.4122476313819
 20
-716.2059223916997
 30
0.0
 11
-184.6622476313819
 21
-716.3559223916998
 31
0.0
  0
LINE
  5
1915B
330
18
100
AcDbEntity
  8
01
100
AcDbLine
 10
-181.1622476313819
 20
-715.0559223916997
 30
0.0
 11
-180.4122476313819
 21
-715.2059223916997
 31
0.0
  0
LINE
  5
1915C
330
18
100
AcDbEntity
  8
01
100
AcDbLine
 10
-181.1622476313819
 20
-721.0559223916997
 30
0.0
 11
-180.4122476313819
 21
-721.2059223916997
 31
0.0
  0
LINE
  5
1915D
330
18
100
AcDbEntity
  8
01
100
AcDbLine
 10
-185.4122476313819
 20
-718.2059223916997
 30
0.0
 11
-180.4122476313819
 21
-717.2059223916997
 31
0.0
  0
LINE
  5
1915E
330
18
100
AcDbEntity
  8
01
100
AcDbLine
 10
-185.4122476313819
 20
-720.2059223916997
 30
0.0
 11
-180.4122476313819
 21
-719.2059223916997
 31
0.0
  0
LINE
  5
1915F
330
18
100
AcDbEntity
  8
01
100
AcDbLine
 10
-185.4122476313819
 20
-720.2059223916997
 30
0.0
 11
-184.6622476313819
 21
-720.3559223916998
 31
0.0
  0
LINE
  5
19160
330
18
100
AcDbEntity
  8
01
100
AcDbLine
 10
-185.4122476313819
 20
-718.2059223916997
 30
0.0
 11
-184.6622476313819
 21
-718.3559223916998
 31
0.0
  0
LINE
  5
19161
330
18
100
AcDbEntity
  8
01
100
AcDbLine
 10
-181.1622476313819
 20
-719.0559223916997
 30
0.0
 11
-180.4122476313819
 21
-719.2059223916997
 31
0.0
  0
LINE
  5
19162
330
18
100
AcDbEntity
  8
01
100
AcDbLine
 10
-184.0960280318992
 20
-703.9426784718032
 30
0.0
 11
-181.8488909444382
 21
-703.493251054311
 31
0.0
  0
LINE
  5
19163
330
18
100
AcDbEntity
  8
01
100
AcDbLine
 10
-185.2285145724177
 20
-708.1691757799069
 30
0.0
 11
-180.8316100913271
 21
-707.2897948836887
 31
0.0
  0
LINE
  5
19164
330
18
100
AcDbEntity
  8
01
100
AcDbLine
 10
-185.2285145724177
 20
-708.1691757799069
 30
0.0
 11
-184.4785145724177
 21
-708.3191757799069
 31
0.0
  0
LINE
  5
19165
330
18
100
AcDbEntity
  8
01
100
AcDbLine
 10
-185.4122476313819
 20
-710.2059223916997
 30
0.0
 11
-180.4122476313819
 21
-709.2059223916997
 31
0.0
  0
LINE
  5
19166
330
18
100
AcDbEntity
  8
01
100
AcDbLine
 10
-185.4122476313819
 20
-710.2059223916997
 30
0.0
 11
-184.6622476313819
 21
-710.3559223916998
 31
0.0
  0
LINE
  5
19167
330
18
100
AcDbEntity
  8
01
100
AcDbLine
 10
-181.1622476313819
 20
-709.0559223916997
 30
0.0
 11
-180.4122476313819
 21
-709.2059223916997
 31
0.0
  0
LINE
  5
19168
330
18
100
AcDbEntity
  8
01
100
AcDbLine
 10
-184.0960280318992
 20
-703.9426784718032
 30
0.0
 11
-183.3460280318992
 21
-704.0926784718032
 31
0.0
  0
LINE
  5
19169
330
18
100
AcDbEntity
  8
01
100
AcDbLine
 10
-184.6622713021584
 20
-706.0559271258551
 30
0.0
 11
-181.3402505178825
 21
-705.3915229689999
 31
0.0
  0
LINE
  5
1916A
330
18
100
AcDbEntity
  8
01
100
AcDbLine
 10
-184.6622713021584
 20
-706.0559271258551
 30
0.0
 11
-183.9122713021584
 21
-706.205927125855
 31
0.0
  0
LINE
  5
1916B
330
18
100
AcDbEntity
  8
01
100
AcDbLine
 10
-182.0902505178825
 20
-705.2415229689998
 30
0.0
 11
-181.3402505178825
 21
-705.3915229689999
 31
0.0
  0
LINE
  5
1916C
330
18
100
AcDbEntity
  8
01
100
AcDbLine
 10
-181.5816100913271
 20
-707.1397948836888
 30
0.0
 11
-180.8316100913271
 21
-707.2897948836887
 31
0.0
  0
LINE
  5
1916D
330
18
100
AcDbEntity
  8
01
100
AcDbLine
 10
-185.4122476313819
 20
-712.2059223916997
 30
0.0
 11
-180.4122476313819
 21
-711.2059223916997
 31
0.0
  0
LINE
  5
1916E
330
18
100
AcDbEntity
  8
01
100
AcDbLine
 10
-185.4122476313819
 20
-712.2059223916997
 30
0.0
 11
-184.6622476313819
 21
-712.3559223916998
 31
0.0
  0
LINE
  5
1916F
330
18
100
AcDbEntity
  8
01
100
AcDbLine
 10
-181.1622476313819
 20
-711.0559223916997
 30
0.0
 11
-180.4122476313819
 21
-711.2059223916997
 31
0.0
  0
LINE
  5
19170
330
18
100
AcDbEntity
  8
01
100
AcDbLine
 10
-181.1622476313819
 20
-713.0559223916997
 30
0.0
 11
-180.4122476313819
 21
-713.2059223916997
 31
0.0
  0
LINE
  5
19171
330
18
100
AcDbEntity
  8
01
100
AcDbLine
 10
-185.4122476313819
 20
-714.2059223916997
 30
0.0
 11
-180.4122476313819
 21
-713.2059223916997
 31
0.0
  0
LINE
  5
19172
330
18
100
AcDbEntity
  8
01
100
AcDbLine
 10
-182.5988909444382
 20
-703.3432510543109
 30
0.0
 11
-181.8488909444382
 21
-703.493251054311
 31
0.0
  0
LINE
  5
19173
330
18
100
AcDbEntity
  8
01
100
AcDbLine
 10
-185.4122476313819
 20
-738.2059223916997
 30
0.0
 11
-180.4122476313819
 21
-737.2059223916998
 31
0.0
  0
LINE
  5
19174
330
18
100
AcDbEntity
  8
01
100
AcDbLine
 10
-181.1622476313819
 20
-737.0559223916997
 30
0.0
 11
-180.4122476313819
 21
-737.2059223916998
 31
0.0
  0
LINE
  5
19175
330
18
100
AcDbEntity
  8
01
100
AcDbLine
 10
-185.4122476313819
 20
-736.2059223916997
 30
0.0
 11
-184.6622476313819
 21
-736.3559223916998
 31
0.0
  0
LINE
  5
19176
330
18
100
AcDbEntity
  8
01
100
AcDbLine
 10
-181.1622476313819
 20
-741.0559223916997
 30
0.0
 11
-180.4122476313819
 21
-741.2059223916998
 31
0.0
  0
LINE
  5
19177
330
18
100
AcDbEntity
  8
01
100
AcDbLine
 10
-185.4122476313819
 20
-742.2059223916997
 30
0.0
 11
-184.6622476313819
 21
-742.3559223916997
 31
0.0
  0
LINE
  5
19178
330
18
100
AcDbEntity
  8
01
100
AcDbLine
 10
-185.4122476313819
 20
-742.2059223916997
 30
0.0
 11
-180.4122476313819
 21
-741.2059223916998
 31
0.0
  0
LINE
  5
19179
330
18
100
AcDbEntity
  8
01
100
AcDbLine
 10
-181.1622476313819
 20
-739.0559223916997
 30
0.0
 11
-180.4122476313819
 21
-739.2059223916998
 31
0.0
  0
LINE
  5
1917A
330
18
100
AcDbEntity
  8
01
100
AcDbLine
 10
-185.4122476313819
 20
-740.2059223916997
 30
0.0
 11
-184.6622476313819
 21
-740.3559223916997
 31
0.0
  0
LINE
  5
1917B
330
18
100
AcDbEntity
  8
01
100
AcDbLine
 10
-185.4122476313819
 20
-740.2059223916997
 30
0.0
 11
-180.4122476313819
 21
-739.2059223916998
 31
0.0
  0
LINE
  5
1917C
330
18
100
AcDbEntity
  8
01
100
AcDbLine
 10
-185.4122476313819
 20
-738.2059223916997
 30
0.0
 11
-184.6622476313819
 21
-738.3559223916997
 31
0.0
  0
LINE
  5
1917D
330
18
100
AcDbEntity
  8
01
100
AcDbLine
 10
-181.1622476313819
 20
-742.3237879777456
 30
0.0
 11
-184.6622476313819
 21
-742.3237879777456
 31
0.0
  0
LINE
  5
1917E
330
18
100
AcDbEntity
  8
01
100
AcDbLine
 10
-185.4122476313819
 20
-730.2059223916997
 30
0.0
 11
-180.4122476313819
 21
-729.2059223916997
 31
0.0
  0
LINE
  5
1917F
330
18
100
AcDbEntity
  8
01
100
AcDbLine
 10
-185.4122476313819
 20
-728.2059223916997
 30
0.0
 11
-184.6622476313819
 21
-728.3559223916998
 31
0.0
  0
LINE
  5
19180
330
18
100
AcDbEntity
  8
01
100
AcDbLine
 10
-185.4122476313819
 20
-730.2059223916997
 30
0.0
 11
-184.6622476313819
 21
-730.3559223916998
 31
0.0
  0
LINE
  5
19181
330
18
100
AcDbEntity
  8
01
100
AcDbLine
 10
-181.1622476313819
 20
-729.0559223916997
 30
0.0
 11
-180.4122476313819
 21
-729.2059223916997
 31
0.0
  0
LINE
  5
19182
330
18
100
AcDbEntity
  8
01
100
AcDbLine
 10
-185.4122476313819
 20
-726.2059223916997
 30
0.0
 11
-180.4122476313819
 21
-725.2059223916997
 31
0.0
  0
LINE
  5
19183
330
18
100
AcDbEntity
  8
01
100
AcDbLine
 10
-181.1622476313819
 20
-725.0559223916997
 30
0.0
 11
-180.4122476313819
 21
-725.2059223916997
 31
0.0
  0
LINE
  5
19184
330
18
100
AcDbEntity
  8
01
100
AcDbLine
 10
-185.4122476313819
 20
-726.2059223916997
 30
0.0
 11
-184.6622476313819
 21
-726.3559223916998
 31
0.0
  0
LINE
  5
19185
330
18
100
AcDbEntity
  8
01
100
AcDbLine
 10
-181.1622476313819
 20
-727.0559223916997
 30
0.0
 11
-180.4122476313819
 21
-727.2059223916997
 31
0.0
  0
LINE
  5
19186
330
18
100
AcDbEntity
  8
01
100
AcDbLine
 10
-185.4122476313819
 20
-728.2059223916997
 30
0.0
 11
-180.4122476313819
 21
-727.2059223916997
 31
0.0
  0
LINE
  5
19187
330
18
100
AcDbEntity
  8
01
100
AcDbLine
 10
-181.1622476313819
 20
-735.0559223916997
 30
0.0
 11
-180.4122476313819
 21
-735.2059223916998
 31
0.0
  0
LINE
  5
19188
330
18
100
AcDbEntity
  8
01
100
AcDbLine
 10
-181.1622476313819
 20
-733.0559223916997
 30
0.0
 11
-180.4122476313819
 21
-733.2059223916997
 31
0.0
  0
LINE
  5
19189
330
18
100
AcDbEntity
  8
01
100
AcDbLine
 10
-185.4122476313819
 20
-734.2059223916997
 30
0.0
 11
-184.6622476313819
 21
-734.3559223916998
 31
0.0
  0
LINE
  5
1918A
330
18
100
AcDbEntity
  8
01
100
AcDbLine
 10
-185.4122476313819
 20
-734.2059223916997
 30
0.0
 11
-180.4122476313819
 21
-733.2059223916997
 31
0.0
  0
LINE
  5
1918B
330
18
100
AcDbEntity
  8
01
100
AcDbLine
 10
-185.4122476313819
 20
-732.2059223916997
 30
0.0
 11
-180.4122476313819
 21
-731.2059223916997
 31
0.0
  0
LINE
  5
1918C
330
18
100
AcDbEntity
  8
01
100
AcDbLine
 10
-185.4122476313819
 20
-732.2059223916997
 30
0.0
 11
-184.6622476313819
 21
-732.3559223916998
 31
0.0
  0
LINE
  5
1918D
330
18
100
AcDbEntity
  8
01
100
AcDbLine
 10
-181.1622476313819
 20
-731.0559223916997
 30
0.0
 11
-180.4122476313819
 21
-731.2059223916997
 31
0.0
  0
LINE
  5
1918E
330
18
100
AcDbEntity
  8
01
100
AcDbLine
 10
-185.4122476313819
 20
-736.2059223916997
 30
0.0
 11
-180.4122476313819
 21
-735.2059223916998
 31
0.0
  0
LINE
  5
1918F
330
18
100
AcDbEntity
  8
01
100
AcDbLine
 10
-185.4122476313819
 20
-724.2059223916997
 30
0.0
 11
-180.4122476313819
 21
-723.2059223916997
 31
0.0
  0
LINE
  5
19190
330
18
100
AcDbEntity
  8
01
100
AcDbLine
 10
-185.4122476313819
 20
-722.2059223916997
 30
0.0
 11
-184.6622476313819
 21
-722.3559223916998
 31
0.0
  0
LINE
  5
19191
330
18
100
AcDbEntity
  8
01
100
AcDbLine
 10
-181.1622476313819
 20
-723.0559223916997
 30
0.0
 11
-180.4122476313819
 21
-723.2059223916997
 31
0.0
  0
LINE
  5
19192
330
18
100
AcDbEntity
  8
01
100
AcDbLine
 10
-185.4122476313819
 20
-724.2059223916997
 30
0.0
 11
-184.6622476313819
 21
-724.3559223916998
 31
0.0
  0
LINE
  5
19194
330
18
100
AcDbEntity
  8
01
100
AcDbLine
 10
-230.4122476313819
 20
-722.2059223916997
 30
0.0
 11
-225.4122476313819
 21
-721.2059223916997
 31
0.0
  0
LINE
  5
19195
330
18
100
AcDbEntity
  8
1CENTER
100
AcDbLine
 10
-227.9122476313819
 20
-700.6195236265817
 30
0.0
 11
-227.9122476313819
 21
-747.3067407278916
 31
0.0
  0
LINE
  5
19196
330
18
100
AcDbEntity
  8
01
100
AcDbLine
 10
-226.1622476313819
 20
-717.0559223916997
 30
0.0
 11
-225.4122476313819
 21
-717.2059223916997
 31
0.0
  0
LINE
  5
19197
330
18
100
AcDbEntity
  8
01
100
AcDbLine
 10
-230.4122476313819
 20
-716.2059223916997
 30
0.0
 11
-225.4122476313819
 21
-715.2059223916997
 31
0.0
  0
LINE
  5
19198
330
18
100
AcDbEntity
  8
01
100
AcDbLine
 10
-230.4122476313819
 20
-714.2059223916997
 30
0.0
 11
-229.6622476313819
 21
-714.3559223916998
 31
0.0
  0
LINE
  5
19199
330
18
100
AcDbEntity
  8
01
100
AcDbLine
 10
-230.4122476313819
 20
-716.2059223916997
 30
0.0
 11
-229.6622476313819
 21
-716.3559223916998
 31
0.0
  0
LINE
  5
1919A
330
18
100
AcDbEntity
  8
01
100
AcDbLine
 10
-226.1622476313819
 20
-715.0559223916997
 30
0.0
 11
-225.4122476313819
 21
-715.2059223916997
 31
0.0
  0
LINE
  5
1919B
330
18
100
AcDbEntity
  8
01
100
AcDbLine
 10
-226.1622476313819
 20
-721.0559223916997
 30
0.0
 11
-225.4122476313819
 21
-721.2059223916997
 31
0.0
  0
LINE
  5
1919C
330
18
100
AcDbEntity
  8
01
100
AcDbLine
 10
-230.4122476313819
 20
-718.2059223916997
 30
0.0
 11
-225.4122476313819
 21
-717.2059223916997
 31
0.0
  0
LINE
  5
1919D
330
18
100
AcDbEntity
  8
01
100
AcDbLine
 10
-230.4122476313819
 20
-720.2059223916997
 30
0.0
 11
-225.4122476313819
 21
-719.2059223916997
 31
0.0
  0
LINE
  5
1919E
330
18
100
AcDbEntity
  8
01
100
AcDbLine
 10
-230.4122476313819
 20
-720.2059223916997
 30
0.0
 11
-229.6622476313819
 21
-720.3559223916998
 31
0.0
  0
LINE
  5
1919F
330
18
100
AcDbEntity
  8
01
100
AcDbLine
 10
-230.4122476313819
 20
-718.2059223916997
 30
0.0
 11
-229.6622476313819
 21
-718.3559223916998
 31
0.0
  0
LINE
  5
191A0
330
18
100
AcDbEntity
  8
01
100
AcDbLine
 10
-226.1622476313819
 20
-719.0559223916997
 30
0.0
 11
-225.4122476313819
 21
-719.2059223916997
 31
0.0
  0
LINE
  5
191A1
330
18
100
AcDbEntity
  8
01
100
AcDbLine
 10
-229.0960280318992
 20
-703.9426784718032
 30
0.0
 11
-226.8488909444382
 21
-703.493251054311
 31
0.0
  0
LINE
  5
191A2
330
18
100
AcDbEntity
  8
01
100
AcDbLine
 10
-230.2285145724177
 20
-708.1691757799069
 30
0.0
 11
-225.8316100913271
 21
-707.2897948836887
 31
0.0
  0
LINE
  5
191A3
330
18
100
AcDbEntity
  8
01
100
AcDbLine
 10
-230.2285145724177
 20
-708.1691757799069
 30
0.0
 11
-229.4785145724177
 21
-708.3191757799069
 31
0.0
  0
LINE
  5
191A4
330
18
100
AcDbEntity
  8
01
100
AcDbLine
 10
-230.4122476313819
 20
-710.2059223916997
 30
0.0
 11
-225.4122476313819
 21
-709.2059223916997
 31
0.0
  0
LINE
  5
191A5
330
18
100
AcDbEntity
  8
01
100
AcDbLine
 10
-230.4122476313819
 20
-710.2059223916997
 30
0.0
 11
-229.6622476313819
 21
-710.3559223916998
 31
0.0
  0
LINE
  5
191A6
330
18
100
AcDbEntity
  8
01
100
AcDbLine
 10
-226.1622476313819
 20
-709.0559223916997
 30
0.0
 11
-225.4122476313819
 21
-709.2059223916997
 31
0.0
  0
LINE
  5
191A7
330
18
100
AcDbEntity
  8
01
100
AcDbLine
 10
-229.0960280318992
 20
-703.9426784718032
 30
0.0
 11
-228.3460280318992
 21
-704.0926784718032
 31
0.0
  0
LINE
  5
191A8
330
18
100
AcDbEntity
  8
01
100
AcDbLine
 10
-229.6622713021584
 20
-706.0559271258551
 30
0.0
 11
-226.3402505178825
 21
-705.3915229689999
 31
0.0
  0
LINE
  5
191A9
330
18
100
AcDbEntity
  8
01
100
AcDbLine
 10
-229.6622713021584
 20
-706.0559271258551
 30
0.0
 11
-228.9122713021584
 21
-706.205927125855
 31
0.0
  0
LINE
  5
191AA
330
18
100
AcDbEntity
  8
01
100
AcDbLine
 10
-227.0902505178825
 20
-705.2415229689998
 30
0.0
 11
-226.3402505178825
 21
-705.3915229689999
 31
0.0
  0
LINE
  5
191AB
330
18
100
AcDbEntity
  8
01
100
AcDbLine
 10
-226.5816100913271
 20
-707.1397948836888
 30
0.0
 11
-225.8316100913271
 21
-707.2897948836887
 31
0.0
  0
LINE
  5
191AC
330
18
100
AcDbEntity
  8
01
100
AcDbLine
 10
-230.4122476313819
 20
-712.2059223916997
 30
0.0
 11
-225.4122476313819
 21
-711.2059223916997
 31
0.0
  0
LINE
  5
191AD
330
18
100
AcDbEntity
  8
01
100
AcDbLine
 10
-230.4122476313819
 20
-712.2059223916997
 30
0.0
 11
-229.6622476313819
 21
-712.3559223916998
 31
0.0
  0
LINE
  5
191AE
330
18
100
AcDbEntity
  8
01
100
AcDbLine
 10
-226.1622476313819
 20
-711.0559223916997
 30
0.0
 11
-225.4122476313819
 21
-711.2059223916997
 31
0.0
  0
LINE
  5
191AF
330
18
100
AcDbEntity
  8
01
100
AcDbLine
 10
-226.1622476313819
 20
-713.0559223916997
 30
0.0
 11
-225.4122476313819
 21
-713.2059223916997
 31
0.0
  0
LINE
  5
191B0
330
18
100
AcDbEntity
  8
01
100
AcDbLine
 10
-230.4122476313819
 20
-714.2059223916997
 30
0.0
 11
-225.4122476313819
 21
-713.2059223916997
 31
0.0
  0
LINE
  5
191B1
330
18
100
AcDbEntity
  8
01
100
AcDbLine
 10
-227.5988909444382
 20
-703.3432510543109
 30
0.0
 11
-226.8488909444382
 21
-703.493251054311
 31
0.0
  0
LINE
  5
191B2
330
18
100
AcDbEntity
  8
01
100
AcDbLine
 10
-230.4122476313819
 20
-738.2059223916997
 30
0.0
 11
-225.4122476313819
 21
-737.2059223916998
 31
0.0
  0
LINE
  5
191B3
330
18
100
AcDbEntity
  8
01
100
AcDbLine
 10
-226.1622476313819
 20
-737.0559223916997
 30
0.0
 11
-225.4122476313819
 21
-737.2059223916998
 31
0.0
  0
LINE
  5
191B4
330
18
100
AcDbEntity
  8
01
100
AcDbLine
 10
-230.4122476313819
 20
-736.2059223916997
 30
0.0
 11
-229.6622476313819
 21
-736.3559223916998
 31
0.0
  0
LINE
  5
191B5
330
18
100
AcDbEntity
  8
01
100
AcDbLine
 10
-226.1622476313819
 20
-741.0559223916997
 30
0.0
 11
-225.4122476313819
 21
-741.2059223916998
 31
0.0
  0
LINE
  5
191B6
330
18
100
AcDbEntity
  8
01
100
AcDbLine
 10
-230.4122476313819
 20
-742.2059223916997
 30
0.0
 11
-229.6622476313819
 21
-742.3559223916997
 31
0.0
  0
LINE
  5
191B7
330
18
100
AcDbEntity
  8
01
100
AcDbLine
 10
-230.4122476313819
 20
-742.2059223916997
 30
0.0
 11
-225.4122476313819
 21
-741.2059223916998
 31
0.0
  0
LINE
  5
191B8
330
18
100
AcDbEntity
  8
01
100
AcDbLine
 10
-226.1622476313819
 20
-739.0559223916997
 30
0.0
 11
-225.4122476313819
 21
-739.2059223916998
 31
0.0
  0
LINE
  5
191B9
330
18
100
AcDbEntity
  8
01
100
AcDbLine
 10
-230.4122476313819
 20
-740.2059223916997
 30
0.0
 11
-229.6622476313819
 21
-740.3559223916997
 31
0.0
  0
LINE
  5
191BA
330
18
100
AcDbEntity
  8
01
100
AcDbLine
 10
-230.4122476313819
 20
-740.2059223916997
 30
0.0
 11
-225.4122476313819
 21
-739.2059223916998
 31
0.0
  0
LINE
  5
191BB
330
18
100
AcDbEntity
  8
01
100
AcDbLine
 10
-230.4122476313819
 20
-738.2059223916997
 30
0.0
 11
-229.6622476313819
 21
-738.3559223916997
 31
0.0
  0
LINE
  5
191BC
330
18
100
AcDbEntity
  8
01
100
AcDbLine
 10
-226.1622476313819
 20
-742.3237879777456
 30
0.0
 11
-229.6622476313819
 21
-742.3237879777456
 31
0.0
  0
LINE
  5
191BD
330
18
100
AcDbEntity
  8
01
100
AcDbLine
 10
-230.4122476313819
 20
-730.2059223916997
 30
0.0
 11
-225.4122476313819
 21
-729.2059223916997
 31
0.0
  0
LINE
  5
191BE
330
18
100
AcDbEntity
  8
01
100
AcDbLine
 10
-230.4122476313819
 20
-728.2059223916997
 30
0.0
 11
-229.6622476313819
 21
-728.3559223916998
 31
0.0
  0
LINE
  5
191BF
330
18
100
AcDbEntity
  8
01
100
AcDbLine
 10
-230.4122476313819
 20
-730.2059223916997
 30
0.0
 11
-229.6622476313819
 21
-730.3559223916998
 31
0.0
  0
LINE
  5
191C0
330
18
100
AcDbEntity
  8
01
100
AcDbLine
 10
-226.1622476313819
 20
-729.0559223916997
 30
0.0
 11
-225.4122476313819
 21
-729.2059223916997
 31
0.0
  0
LINE
  5
191C1
330
18
100
AcDbEntity
  8
01
100
AcDbLine
 10
-230.4122476313819
 20
-726.2059223916997
 30
0.0
 11
-225.4122476313819
 21
-725.2059223916997
 31
0.0
  0
LINE
  5
191C2
330
18
100
AcDbEntity
  8
01
100
AcDbLine
 10
-226.1622476313819
 20
-725.0559223916997
 30
0.0
 11
-225.4122476313819
 21
-725.2059223916997
 31
0.0
  0
LINE
  5
191C3
330
18
100
AcDbEntity
  8
01
100
AcDbLine
 10
-230.4122476313819
 20
-726.2059223916997
 30
0.0
 11
-229.6622476313819
 21
-726.3559223916998
 31
0.0
  0
LINE
  5
191C4
330
18
100
AcDbEntity
  8
01
100
AcDbLine
 10
-226.1622476313819
 20
-727.0559223916997
 30
0.0
 11
-225.4122476313819
 21
-727.2059223916997
 31
0.0
  0
LINE
  5
191C5
330
18
100
AcDbEntity
  8
01
100
AcDbLine
 10
-230.4122476313819
 20
-728.2059223916997
 30
0.0
 11
-225.4122476313819
 21
-727.2059223916997
 31
0.0
  0
LINE
  5
191C6
330
18
100
AcDbEntity
  8
01
100
AcDbLine
 10
-226.1622476313819
 20
-735.0559223916997
 30
0.0
 11
-225.4122476313819
 21
-735.2059223916998
 31
0.0
  0
LINE
  5
191C7
330
18
100
AcDbEntity
  8
01
100
AcDbLine
 10
-226.1622476313819
 20
-733.0559223916997
 30
0.0
 11
-225.4122476313819
 21
-733.2059223916997
 31
0.0
  0
LINE
  5
191C8
330
18
100
AcDbEntity
  8
01
100
AcDbLine
 10
-230.4122476313819
 20
-734.2059223916997
 30
0.0
 11
-229.6622476313819
 21
-734.3559223916998
 31
0.0
  0
LINE
  5
191C9
330
18
100
AcDbEntity
  8
01
100
AcDbLine
 10
-230.4122476313819
 20
-734.2059223916997
 30
0.0
 11
-225.4122476313819
 21
-733.2059223916997
 31
0.0
  0
LINE
  5
191CA
330
18
100
AcDbEntity
  8
01
100
AcDbLine
 10
-230.4122476313819
 20
-732.2059223916997
 30
0.0
 11
-225.4122476313819
 21
-731.2059223916997
 31
0.0
  0
LINE
  5
191CB
330
18
100
AcDbEntity
  8
01
100
AcDbLine
 10
-230.4122476313819
 20
-732.2059223916997
 30
0.0
 11
-229.6622476313819
 21
-732.3559223916998
 31
0.0
  0
LINE
  5
191CC
330
18
100
AcDbEntity
  8
01
100
AcDbLine
 10
-226.1622476313819
 20
-731.0559223916997
 30
0.0
 11
-225.4122476313819
 21
-731.2059223916997
 31
0.0
  0
LINE
  5
191CD
330
18
100
AcDbEntity
  8
01
100
AcDbLine
 10
-230.4122476313819
 20
-736.2059223916997
 30
0.0
 11
-225.4122476313819
 21
-735.2059223916998
 31
0.0
  0
LINE
  5
191CE
330
18
100
AcDbEntity
  8
01
100
AcDbLine
 10
-230.4122476313819
 20
-724.2059223916997
 30
0.0
 11
-225.4122476313819
 21
-723.2059223916997
 31
0.0
  0
LINE
  5
191CF
330
18
100
AcDbEntity
  8
01
100
AcDbLine
 10
-230.4122476313819
 20
-722.2059223916997
 30
0.0
 11
-229.6622476313819
 21
-722.3559223916998
 31
0.0
  0
LINE
  5
191D0
330
18
100
AcDbEntity
  8
01
100
AcDbLine
 10
-226.1622476313819
 20
-723.0559223916997
 30
0.0
 11
-225.4122476313819
 21
-723.2059223916997
 31
0.0
  0
LINE
  5
191D1
330
18
100
AcDbEntity
  8
01
100
AcDbLine
 10
-230.4122476313819
 20
-724.2059223916997
 30
0.0
 11
-229.6622476313819
 21
-724.3559223916998
 31
0.0
  0
LINE
  5
191D3
330
18
100
AcDbEntity
  8
01
100
AcDbLine
 10
470.1730462375842
 20
-867.8301395584708
 30
0.0
 11
471.1730462375842
 21
-872.8301395584708
 31
0.0
  0
LINE
  5
191D4
330
18
100
AcDbEntity
  8
1CENTER
100
AcDbLine
 10
491.7594450027023
 20
-870.3301395584708
 30
0.0
 11
445.0722279013924
 21
-870.3301395584708
 31
0.0
  0
LINE
  5
191D5
330
18
100
AcDbEntity
  8
01
100
AcDbLine
 10
475.3230462375843
 20
-872.0801395584708
 30
0.0
 11
475.1730462375842
 21
-872.8301395584708
 31
0.0
  0
LINE
  5
191D6
330
18
100
AcDbEntity
  8
01
100
AcDbLine
 10
476.1730462375842
 20
-867.8301395584708
 30
0.0
 11
477.1730462375842
 21
-872.8301395584708
 31
0.0
  0
LINE
  5
191D7
330
18
100
AcDbEntity
  8
01
100
AcDbLine
 10
478.1730462375842
 20
-867.8301395584708
 30
0.0
 11
478.0230462375843
 21
-868.5801395584708
 31
0.0
  0
LINE
  5
191D8
330
18
100
AcDbEntity
  8
01
100
AcDbLine
 10
476.1730462375842
 20
-867.8301395584708
 30
0.0
 11
476.0230462375843
 21
-868.5801395584708
 31
0.0
  0
LINE
  5
191D9
330
18
100
AcDbEntity
  8
01
100
AcDbLine
 10
477.3230462375843
 20
-872.0801395584708
 30
0.0
 11
477.1730462375842
 21
-872.8301395584708
 31
0.0
  0
LINE
  5
191DA
330
18
100
AcDbEntity
  8
01
100
AcDbLine
 10
471.3230462375843
 20
-872.0801395584708
 30
0.0
 11
471.1730462375842
 21
-872.8301395584708
 31
0.0
  0
LINE
  5
191DB
330
18
100
AcDbEntity
  8
01
100
AcDbLine
 10
474.1730462375842
 20
-867.8301395584708
 30
0.0
 11
475.1730462375842
 21
-872.8301395584708
 31
0.0
  0
LINE
  5
191DC
330
18
100
AcDbEntity
  8
01
100
AcDbLine
 10
472.1730462375842
 20
-867.8301395584708
 30
0.0
 11
473.1730462375842
 21
-872.8301395584708
 31
0.0
  0
LINE
  5
191DD
330
18
100
AcDbEntity
  8
01
100
AcDbLine
 10
472.1730462375842
 20
-867.8301395584708
 30
0.0
 11
472.0230462375843
 21
-868.5801395584708
 31
0.0
  0
LINE
  5
191DE
330
18
100
AcDbEntity
  8
01
100
AcDbLine
 10
474.1730462375842
 20
-867.8301395584708
 30
0.0
 11
474.0230462375843
 21
-868.5801395584708
 31
0.0
  0
LINE
  5
191DF
330
18
100
AcDbEntity
  8
01
100
AcDbLine
 10
473.3230462375843
 20
-872.0801395584708
 30
0.0
 11
473.1730462375842
 21
-872.8301395584708
 31
0.0
  0
LINE
  5
191E0
330
18
100
AcDbEntity
  8
01
100
AcDbLine
 10
488.4362901574808
 20
-869.1463591579536
 30
0.0
 11
488.885717574973
 21
-871.3934962454146
 31
0.0
  0
LINE
  5
191E1
330
18
100
AcDbEntity
  8
01
100
AcDbLine
 10
484.209792849377
 20
-868.013872617435
 30
0.0
 11
485.0891737455952
 21
-872.4107770985256
 31
0.0
  0
LINE
  5
191E2
330
18
100
AcDbEntity
  8
01
100
AcDbLine
 10
484.209792849377
 20
-868.013872617435
 30
0.0
 11
484.0597928493771
 21
-868.763872617435
 31
0.0
  0
LINE
  5
191E3
330
18
100
AcDbEntity
  8
01
100
AcDbLine
 10
482.1730462375842
 20
-867.8301395584708
 30
0.0
 11
483.1730462375842
 21
-872.8301395584708
 31
0.0
  0
LINE
  5
191E4
330
18
100
AcDbEntity
  8
01
100
AcDbLine
 10
482.1730462375842
 20
-867.8301395584708
 30
0.0
 11
482.0230462375843
 21
-868.5801395584708
 31
0.0
  0
LINE
  5
191E5
330
18
100
AcDbEntity
  8
01
100
AcDbLine
 10
483.3230462375843
 20
-872.0801395584708
 30
0.0
 11
483.1730462375842
 21
-872.8301395584708
 31
0.0
  0
LINE
  5
191E6
330
18
100
AcDbEntity
  8
01
100
AcDbLine
 10
488.4362901574808
 20
-869.1463591579536
 30
0.0
 11
488.2862901574808
 21
-869.8963591579536
 31
0.0
  0
LINE
  5
191E7
330
18
100
AcDbEntity
  8
01
100
AcDbLine
 10
486.323041503429
 20
-868.5801158876943
 30
0.0
 11
486.9874456602841
 21
-871.9021366719703
 31
0.0
  0
LINE
  5
191E8
330
18
100
AcDbEntity
  8
01
100
AcDbLine
 10
486.323041503429
 20
-868.5801158876943
 30
0.0
 11
486.1730415034289
 21
-869.3301158876943
 31
0.0
  0
LINE
  5
191E9
330
18
100
AcDbEntity
  8
01
100
AcDbLine
 10
487.1374456602841
 20
-871.1521366719703
 30
0.0
 11
486.9874456602841
 21
-871.9021366719703
 31
0.0
  0
LINE
  5
191EA
330
18
100
AcDbEntity
  8
01
100
AcDbLine
 10
485.2391737455952
 20
-871.6607770985256
 30
0.0
 11
485.0891737455952
 21
-872.4107770985256
 31
0.0
  0
LINE
  5
191EB
330
18
100
AcDbEntity
  8
01
100
AcDbLine
 10
480.1730462375842
 20
-867.8301395584708
 30
0.0
 11
481.1730462375842
 21
-872.8301395584708
 31
0.0
  0
LINE
  5
191EC
330
18
100
AcDbEntity
  8
01
100
AcDbLine
 10
480.1730462375842
 20
-867.8301395584708
 30
0.0
 11
480.0230462375843
 21
-868.5801395584708
 31
0.0
  0
LINE
  5
191ED
330
18
100
AcDbEntity
  8
01
100
AcDbLine
 10
481.3230462375843
 20
-872.0801395584708
 30
0.0
 11
481.1730462375842
 21
-872.8301395584708
 31
0.0
  0
LINE
  5
191EE
330
18
100
AcDbEntity
  8
01
100
AcDbLine
 10
479.3230462375843
 20
-872.0801395584708
 30
0.0
 11
479.1730462375842
 21
-872.8301395584708
 31
0.0
  0
LINE
  5
191EF
330
18
100
AcDbEntity
  8
01
100
AcDbLine
 10
478.1730462375842
 20
-867.8301395584708
 30
0.0
 11
479.1730462375842
 21
-872.8301395584708
 31
0.0
  0
LINE
  5
191F0
330
18
100
AcDbEntity
  8
01
100
AcDbLine
 10
489.035717574973
 20
-870.6434962454146
 30
0.0
 11
488.885717574973
 21
-871.3934962454146
 31
0.0
  0
LINE
  5
191F1
330
18
100
AcDbEntity
  8
01
100
AcDbLine
 10
454.1730462375842
 20
-867.8301395584708
 30
0.0
 11
455.1730462375842
 21
-872.8301395584708
 31
0.0
  0
LINE
  5
191F2
330
18
100
AcDbEntity
  8
01
100
AcDbLine
 10
455.3230462375843
 20
-872.0801395584708
 30
0.0
 11
455.1730462375842
 21
-872.8301395584708
 31
0.0
  0
LINE
  5
191F3
330
18
100
AcDbEntity
  8
01
100
AcDbLine
 10
456.1730462375842
 20
-867.8301395584708
 30
0.0
 11
456.0230462375843
 21
-868.5801395584708
 31
0.0
  0
LINE
  5
191F4
330
18
100
AcDbEntity
  8
01
100
AcDbLine
 10
451.3230462375843
 20
-872.0801395584708
 30
0.0
 11
451.1730462375842
 21
-872.8301395584708
 31
0.0
  0
LINE
  5
191F5
330
18
100
AcDbEntity
  8
01
100
AcDbLine
 10
450.1730462375842
 20
-867.8301395584708
 30
0.0
 11
450.0230462375843
 21
-868.5801395584708
 31
0.0
  0
LINE
  5
191F6
330
18
100
AcDbEntity
  8
01
100
AcDbLine
 10
450.1730462375842
 20
-867.8301395584708
 30
0.0
 11
451.1730462375842
 21
-872.8301395584708
 31
0.0
  0
LINE
  5
191F7
330
18
100
AcDbEntity
  8
01
100
AcDbLine
 10
453.3230462375843
 20
-872.0801395584708
 30
0.0
 11
453.1730462375842
 21
-872.8301395584708
 31
0.0
  0
LINE
  5
191F8
330
18
100
AcDbEntity
  8
01
100
AcDbLine
 10
452.1730462375842
 20
-867.8301395584708
 30
0.0
 11
452.0230462375843
 21
-868.5801395584708
 31
0.0
  0
LINE
  5
191F9
330
18
100
AcDbEntity
  8
01
100
AcDbLine
 10
452.1730462375842
 20
-867.8301395584708
 30
0.0
 11
453.1730462375842
 21
-872.8301395584708
 31
0.0
  0
LINE
  5
191FA
330
18
100
AcDbEntity
  8
01
100
AcDbLine
 10
454.1730462375842
 20
-867.8301395584708
 30
0.0
 11
454.0230462375843
 21
-868.5801395584708
 31
0.0
  0
LINE
  5
191FB
330
18
100
AcDbEntity
  8
01
100
AcDbLine
 10
450.0551806515384
 20
-872.0801395584708
 30
0.0
 11
450.0551806515384
 21
-868.5801395584708
 31
0.0
  0
LINE
  5
191FC
330
18
100
AcDbEntity
  8
01
100
AcDbLine
 10
462.1730462375842
 20
-867.8301395584708
 30
0.0
 11
463.1730462375842
 21
-872.8301395584708
 31
0.0
  0
LINE
  5
191FD
330
18
100
AcDbEntity
  8
01
100
AcDbLine
 10
464.1730462375842
 20
-867.8301395584708
 30
0.0
 11
464.0230462375843
 21
-868.5801395584708
 31
0.0
  0
LINE
  5
191FE
330
18
100
AcDbEntity
  8
01
100
AcDbLine
 10
462.1730462375842
 20
-867.8301395584708
 30
0.0
 11
462.0230462375843
 21
-868.5801395584708
 31
0.0
  0
LINE
  5
191FF
330
18
100
AcDbEntity
  8
01
100
AcDbLine
 10
463.3230462375843
 20
-872.0801395584708
 30
0.0
 11
463.1730462375842
 21
-872.8301395584708
 31
0.0
  0
LINE
  5
19200
330
18
100
AcDbEntity
  8
01
100
AcDbLine
 10
466.1730462375842
 20
-867.8301395584708
 30
0.0
 11
467.1730462375842
 21
-872.8301395584708
 31
0.0
  0
LINE
  5
19201
330
18
100
AcDbEntity
  8
01
100
AcDbLine
 10
467.3230462375843
 20
-872.0801395584708
 30
0.0
 11
467.1730462375842
 21
-872.8301395584708
 31
0.0
  0
LINE
  5
19202
330
18
100
AcDbEntity
  8
01
100
AcDbLine
 10
466.1730462375842
 20
-867.8301395584708
 30
0.0
 11
466.0230462375843
 21
-868.5801395584708
 31
0.0
  0
LINE
  5
19203
330
18
100
AcDbEntity
  8
01
100
AcDbLine
 10
465.3230462375843
 20
-872.0801395584708
 30
0.0
 11
465.1730462375842
 21
-872.8301395584708
 31
0.0
  0
LINE
  5
19204
330
18
100
AcDbEntity
  8
01
100
AcDbLine
 10
464.1730462375842
 20
-867.8301395584708
 30
0.0
 11
465.1730462375842
 21
-872.8301395584708
 31
0.0
  0
LINE
  5
19205
330
18
100
AcDbEntity
  8
01
100
AcDbLine
 10
457.3230462375843
 20
-872.0801395584708
 30
0.0
 11
457.1730462375842
 21
-872.8301395584708
 31
0.0
  0
LINE
  5
19206
330
18
100
AcDbEntity
  8
01
100
AcDbLine
 10
459.3230462375843
 20
-872.0801395584708
 30
0.0
 11
459.1730462375842
 21
-872.8301395584708
 31
0.0
  0
LINE
  5
19207
330
18
100
AcDbEntity
  8
01
100
AcDbLine
 10
458.1730462375842
 20
-867.8301395584708
 30
0.0
 11
458.0230462375843
 21
-868.5801395584708
 31
0.0
  0
LINE
  5
19208
330
18
100
AcDbEntity
  8
01
100
AcDbLine
 10
458.1730462375842
 20
-867.8301395584708
 30
0.0
 11
459.1730462375842
 21
-872.8301395584708
 31
0.0
  0
LINE
  5
19209
330
18
100
AcDbEntity
  8
01
100
AcDbLine
 10
460.1730462375842
 20
-867.8301395584708
 30
0.0
 11
461.1730462375842
 21
-872.8301395584708
 31
0.0
  0
LINE
  5
1920A
330
18
100
AcDbEntity
  8
01
100
AcDbLine
 10
460.1730462375842
 20
-867.8301395584708
 30
0.0
 11
460.0230462375843
 21
-868.5801395584708
 31
0.0
  0
LINE
  5
1920B
330
18
100
AcDbEntity
  8
01
100
AcDbLine
 10
461.3230462375843
 20
-872.0801395584708
 30
0.0
 11
461.1730462375842
 21
-872.8301395584708
 31
0.0
  0
LINE
  5
1920C
330
18
100
AcDbEntity
  8
01
100
AcDbLine
 10
456.1730462375842
 20
-867.8301395584708
 30
0.0
 11
457.1730462375842
 21
-872.8301395584708
 31
0.0
  0
LINE
  5
1920D
330
18
100
AcDbEntity
  8
01
100
AcDbLine
 10
468.1730462375842
 20
-867.8301395584708
 30
0.0
 11
469.1730462375842
 21
-872.8301395584708
 31
0.0
  0
LINE
  5
1920E
330
18
100
AcDbEntity
  8
01
100
AcDbLine
 10
470.1730462375842
 20
-867.8301395584708
 30
0.0
 11
470.0230462375843
 21
-868.5801395584708
 31
0.0
  0
LINE
  5
1920F
330
18
100
AcDbEntity
  8
01
100
AcDbLine
 10
469.3230462375843
 20
-872.0801395584708
 30
0.0
 11
469.1730462375842
 21
-872.8301395584708
 31
0.0
  0
LINE
  5
19210
330
18
100
AcDbEntity
  8
01
100
AcDbLine
 10
468.1730462375842
 20
-867.8301395584708
 30
0.0
 11
468.0230462375843
 21
-868.5801395584708
 31
0.0
  0
LINE
  5
19211
330
18
100
AcDbEntity
  8
01
100
AcDbLine
 10
219.0877523686188
 20
-754.8237981241955
 30
0.0
 11
245.8377523686188
 21
-754.8237981241955
 31
0.0
  0
LINE
  5
19212
330
18
100
AcDbEntity
  8
01
100
AcDbLine
 10
245.8377523686188
 20
-754.8237981241955
 30
0.0
 11
246.2377523686188
 21
-754.4237981241955
 31
0.0
  0
LINE
  5
19213
330
18
100
AcDbEntity
  8
01
100
AcDbLine
 10
246.2377523686188
 20
-754.4237981241955
 30
0.0
 11
246.2377523686188
 21
-750.2237981241955
 31
0.0
  0
LINE
  5
19214
330
18
100
AcDbEntity
  8
01
100
AcDbLine
 10
246.2377523686188
 20
-750.2237981241955
 30
0.0
 11
245.8377523686189
 21
-749.8237981241955
 31
0.0
  0
LINE
  5
19215
330
18
100
AcDbEntity
  8
01
100
AcDbLine
 10
245.8377523686189
 20
-749.8237981241955
 30
0.0
 11
219.0877523686189
 21
-749.8237981241955
 31
0.0
  0
LINE
  5
19216
330
18
100
AcDbEntity
  8
01
100
AcDbLine
 10
219.0877523686189
 20
-749.8237981241955
 30
0.0
 11
216.5877523686188
 21
-747.3237981241955
 31
0.0
  0
LINE
  5
19217
330
18
100
AcDbEntity
  8
01
100
AcDbLine
 10
216.5877523686188
 20
-747.3237981241955
 30
0.0
 11
216.2377523686188
 21
-747.3237981241955
 31
0.0
  0
LINE
  5
19218
330
18
100
AcDbEntity
  8
01
100
AcDbLine
 10
216.2377523686188
 20
-747.3237981241955
 30
0.0
 11
216.2377523686188
 21
-757.3237981241955
 31
0.0
  0
LINE
  5
19219
330
18
100
AcDbEntity
  8
01
100
AcDbLine
 10
216.2377523686188
 20
-757.3237981241955
 30
0.0
 11
216.5877523686188
 21
-757.3237981241955
 31
0.0
  0
LINE
  5
1921A
330
18
100
AcDbEntity
  8
01
100
AcDbLine
 10
216.5877523686188
 20
-757.3237981241955
 30
0.0
 11
219.0877523686188
 21
-754.8237981241955
 31
0.0
  0
LINE
  5
1921B
330
18
100
AcDbEntity
  8
01
100
AcDbLine
 10
-259.9122476313817
 20
-754.8237981241937
 30
0.0
 11
-233.1622476313816
 21
-754.8237981241937
 31
0.0
  0
LINE
  5
1921C
330
18
100
AcDbEntity
  8
01
100
AcDbLine
 10
-233.1622476313816
 20
-754.8237981241937
 30
0.0
 11
-232.7622476313816
 21
-754.4237981241937
 31
0.0
  0
LINE
  5
1921D
330
18
100
AcDbEntity
  8
01
100
AcDbLine
 10
-232.7622476313816
 20
-754.4237981241937
 30
0.0
 11
-232.7622476313816
 21
-750.2237981241936
 31
0.0
  0
LINE
  5
1921E
330
18
100
AcDbEntity
  8
01
100
AcDbLine
 10
-232.7622476313816
 20
-750.2237981241936
 30
0.0
 11
-233.1622476313816
 21
-749.8237981241937
 31
0.0
  0
LINE
  5
1921F
330
18
100
AcDbEntity
  8
01
100
AcDbLine
 10
-233.1622476313816
 20
-749.8237981241937
 30
0.0
 11
-259.9122476313816
 21
-749.8237981241937
 31
0.0
  0
LINE
  5
19220
330
18
100
AcDbEntity
  8
01
100
AcDbLine
 10
-259.9122476313816
 20
-749.8237981241937
 30
0.0
 11
-262.4122476313817
 21
-747.3237981241937
 31
0.0
  0
LINE
  5
19221
330
18
100
AcDbEntity
  8
01
100
AcDbLine
 10
-262.4122476313817
 20
-747.3237981241937
 30
0.0
 11
-262.7622476313816
 21
-747.3237981241937
 31
0.0
  0
LINE
  5
19222
330
18
100
AcDbEntity
  8
01
100
AcDbLine
 10
-262.7622476313816
 20
-747.3237981241937
 30
0.0
 11
-262.7622476313816
 21
-757.3237981241937
 31
0.0
  0
LINE
  5
19223
330
18
100
AcDbEntity
  8
01
100
AcDbLine
 10
-262.7622476313816
 20
-757.3237981241937
 30
0.0
 11
-262.4122476313817
 21
-757.3237981241937
 31
0.0
  0
LINE
  5
19224
330
18
100
AcDbEntity
  8
01
100
AcDbLine
 10
-262.4122476313817
 20
-757.3237981241937
 30
0.0
 11
-259.9122476313817
 21
-754.8237981241937
 31
0.0
  0
LINE
  5
19225
330
18
100
AcDbEntity
  8
01
100
AcDbLine
 10
296.0877523686187
 20
-702.3237879777474
 30
0.0
 11
294.3377523686187
 21
-708.8548768909928
 31
0.0
  0
LINE
  5
19226
330
18
100
AcDbEntity
  8
01
100
AcDbLine
 10
294.3377523686187
 20
-708.8548768909928
 30
0.0
 11
294.3377523686187
 21
-742.3237879777474
 31
0.0
  0
LINE
  5
19227
330
18
100
AcDbEntity
  8
01
100
AcDbLine
 10
294.3377523686187
 20
-742.3237879777474
 30
0.0
 11
291.5877523686187
 21
-742.3237879777474
 31
0.0
  0
LINE
  5
19228
330
18
100
AcDbEntity
  8
01
100
AcDbLine
 10
291.5877523686187
 20
-742.3237879777474
 30
0.0
 11
291.5877523686187
 21
-743.1237879777473
 31
0.0
  0
ARC
  5
19229
330
18
100
AcDbEntity
  8
01
100
AcDbCircle
 10
294.0877523686187
 20
-743.1237879777474
 30
0.0
 40
2.5
100
AcDbArc
 50
179.9999999999974
 51
270.0
  0
LINE
  5
1922A
330
18
100
AcDbEntity
  8
01
100
AcDbLine
 10
294.0877523686187
 20
-745.6237879777474
 30
0.0
 11
298.0877523686187
 21
-745.6237879777475
 31
0.0
  0
ARC
  5
1922B
330
18
100
AcDbEntity
  8
01
100
AcDbCircle
 10
298.0877523686187
 20
-743.1237879777475
 30
0.0
 40
2.5
100
AcDbArc
 50
270.0
 51
0.0
  0
LINE
  5
1922C
330
18
100
AcDbEntity
  8
01
100
AcDbLine
 10
300.5877523686187
 20
-743.1237879777475
 30
0.0
 11
300.5877523686187
 21
-742.3237879777474
 31
0.0
  0
LINE
  5
1922D
330
18
100
AcDbEntity
  8
01
100
AcDbLine
 10
300.5877523686187
 20
-742.3237879777474
 30
0.0
 11
297.8377523686187
 21
-742.3237879777474
 31
0.0
  0
LINE
  5
1922E
330
18
100
AcDbEntity
  8
01
100
AcDbLine
 10
297.8377523686187
 20
-742.3237879777474
 30
0.0
 11
297.8377523686187
 21
-708.854876890993
 31
0.0
  0
LINE
  5
1922F
330
18
100
AcDbEntity
  8
01
100
AcDbLine
 10
297.8377523686187
 20
-708.854876890993
 30
0.0
 11
296.0877523686187
 21
-702.3237879777474
 31
0.0
  0
LINE
  5
19230
330
18
100
AcDbEntity
  8
01
100
AcDbLine
 10
251.0877523686183
 20
-702.3237879777474
 30
0.0
 11
249.3377523686183
 21
-708.8548768909928
 31
0.0
  0
LINE
  5
19231
330
18
100
AcDbEntity
  8
01
100
AcDbLine
 10
249.3377523686183
 20
-708.8548768909928
 30
0.0
 11
249.3377523686183
 21
-742.3237879777474
 31
0.0
  0
LINE
  5
19232
330
18
100
AcDbEntity
  8
01
100
AcDbLine
 10
249.3377523686183
 20
-742.3237879777474
 30
0.0
 11
246.5877523686183
 21
-742.3237879777474
 31
0.0
  0
LINE
  5
19233
330
18
100
AcDbEntity
  8
01
100
AcDbLine
 10
246.5877523686183
 20
-742.3237879777474
 30
0.0
 11
246.5877523686183
 21
-743.1237879777473
 31
0.0
  0
ARC
  5
19234
330
18
100
AcDbEntity
  8
01
100
AcDbCircle
 10
249.0877523686183
 20
-743.1237879777474
 30
0.0
 40
2.5
100
AcDbArc
 50
179.9999999999974
 51
270.0
  0
LINE
  5
19235
330
18
100
AcDbEntity
  8
01
100
AcDbLine
 10
249.0877523686183
 20
-745.6237879777474
 30
0.0
 11
253.0877523686183
 21
-745.6237879777475
 31
0.0
  0
ARC
  5
19236
330
18
100
AcDbEntity
  8
01
100
AcDbCircle
 10
253.0877523686183
 20
-743.1237879777475
 30
0.0
 40
2.5
100
AcDbArc
 50
270.0
 51
0.0
  0
LINE
  5
19237
330
18
100
AcDbEntity
  8
01
100
AcDbLine
 10
255.5877523686183
 20
-743.1237879777475
 30
0.0
 11
255.5877523686183
 21
-742.3237879777474
 31
0.0
  0
LINE
  5
19238
330
18
100
AcDbEntity
  8
01
100
AcDbLine
 10
255.5877523686183
 20
-742.3237879777474
 30
0.0
 11
252.8377523686183
 21
-742.3237879777474
 31
0.0
  0
LINE
  5
19239
330
18
100
AcDbEntity
  8
01
100
AcDbLine
 10
252.8377523686183
 20
-742.3237879777474
 30
0.0
 11
252.8377523686183
 21
-708.854876890993
 31
0.0
  0
LINE
  5
1923A
330
18
100
AcDbEntity
  8
01
100
AcDbLine
 10
252.8377523686183
 20
-708.854876890993
 30
0.0
 11
251.0877523686183
 21
-702.3237879777474
 31
0.0
  0
LINE
  5
1923B
330
18
100
AcDbEntity
  8
01
100
AcDbLine
 10
-182.9122476313819
 20
-702.3237879777456
 30
0.0
 11
-184.6622476313819
 21
-708.854876890991
 31
0.0
  0
LINE
  5
1923C
330
18
100
AcDbEntity
  8
01
100
AcDbLine
 10
-184.6622476313819
 20
-708.854876890991
 30
0.0
 11
-184.6622476313819
 21
-742.3237879777456
 31
0.0
  0
LINE
  5
1923D
330
18
100
AcDbEntity
  8
01
100
AcDbLine
 10
-184.6622476313819
 20
-742.3237879777456
 30
0.0
 11
-187.4122476313819
 21
-742.3237879777456
 31
0.0
  0
LINE
  5
1923E
330
18
100
AcDbEntity
  8
01
100
AcDbLine
 10
-187.4122476313819
 20
-742.3237879777456
 30
0.0
 11
-187.4122476313819
 21
-743.1237879777455
 31
0.0
  0
ARC
  5
1923F
330
18
100
AcDbEntity
  8
01
100
AcDbCircle
 10
-184.9122476313819
 20
-743.1237879777456
 30
0.0
 40
2.5
100
AcDbArc
 50
179.9999999999974
 51
270.0
  0
LINE
  5
19240
330
18
100
AcDbEntity
  8
01
100
AcDbLine
 10
-184.9122476313819
 20
-745.6237879777456
 30
0.0
 11
-180.9122476313819
 21
-745.6237879777457
 31
0.0
  0
ARC
  5
19241
330
18
100
AcDbEntity
  8
01
100
AcDbCircle
 10
-180.9122476313819
 20
-743.1237879777457
 30
0.0
 40
2.5
100
AcDbArc
 50
270.0
 51
0.0
  0
LINE
  5
19242
330
18
100
AcDbEntity
  8
01
100
AcDbLine
 10
-178.4122476313819
 20
-743.1237879777457
 30
0.0
 11
-178.4122476313819
 21
-742.3237879777456
 31
0.0
  0
LINE
  5
19243
330
18
100
AcDbEntity
  8
01
100
AcDbLine
 10
-178.4122476313819
 20
-742.3237879777456
 30
0.0
 11
-181.1622476313819
 21
-742.3237879777456
 31
0.0
  0
LINE
  5
19244
330
18
100
AcDbEntity
  8
01
100
AcDbLine
 10
-181.1622476313819
 20
-742.3237879777456
 30
0.0
 11
-181.1622476313819
 21
-708.8548768909911
 31
0.0
  0
LINE
  5
19245
330
18
100
AcDbEntity
  8
01
100
AcDbLine
 10
-181.1622476313819
 20
-708.8548768909911
 30
0.0
 11
-182.9122476313819
 21
-702.3237879777456
 31
0.0
  0
LINE
  5
19246
330
18
100
AcDbEntity
  8
01
100
AcDbLine
 10
-227.9122476313819
 20
-702.3237879777456
 30
0.0
 11
-229.6622476313819
 21
-708.854876890991
 31
0.0
  0
LINE
  5
19247
330
18
100
AcDbEntity
  8
01
100
AcDbLine
 10
-229.6622476313819
 20
-708.854876890991
 30
0.0
 11
-229.6622476313819
 21
-742.3237879777456
 31
0.0
  0
LINE
  5
19248
330
18
100
AcDbEntity
  8
01
100
AcDbLine
 10
-229.6622476313819
 20
-742.3237879777456
 30
0.0
 11
-232.4122476313819
 21
-742.3237879777456
 31
0.0
  0
LINE
  5
19249
330
18
100
AcDbEntity
  8
01
100
AcDbLine
 10
-232.4122476313819
 20
-742.3237879777456
 30
0.0
 11
-232.4122476313819
 21
-743.1237879777455
 31
0.0
  0
ARC
  5
1924A
330
18
100
AcDbEntity
  8
01
100
AcDbCircle
 10
-229.9122476313819
 20
-743.1237879777456
 30
0.0
 40
2.5
100
AcDbArc
 50
179.9999999999974
 51
270.0
  0
LINE
  5
1924B
330
18
100
AcDbEntity
  8
01
100
AcDbLine
 10
-229.9122476313819
 20
-745.6237879777456
 30
0.0
 11
-225.9122476313819
 21
-745.6237879777457
 31
0.0
  0
ARC
  5
1924C
330
18
100
AcDbEntity
  8
01
100
AcDbCircle
 10
-225.9122476313819
 20
-743.1237879777457
 30
0.0
 40
2.5
100
AcDbArc
 50
270.0
 51
0.0
  0
LINE
  5
1924D
330
18
100
AcDbEntity
  8
01
100
AcDbLine
 10
-223.4122476313819
 20
-743.1237879777457
 30
0.0
 11
-223.4122476313819
 21
-742.3237879777456
 31
0.0
  0
LINE
  5
1924E
330
18
100
AcDbEntity
  8
01
100
AcDbLine
 10
-223.4122476313819
 20
-742.3237879777456
 30
0.0
 11
-226.1622476313819
 21
-742.3237879777456
 31
0.0
  0
LINE
  5
1924F
330
18
100
AcDbEntity
  8
01
100
AcDbLine
 10
-226.1622476313819
 20
-742.3237879777456
 30
0.0
 11
-226.1622476313819
 21
-708.8548768909911
 31
0.0
  0
LINE
  5
19250
330
18
100
AcDbEntity
  8
01
100
AcDbLine
 10
-226.1622476313819
 20
-708.8548768909911
 30
0.0
 11
-227.9122476313819
 21
-702.3237879777456
 31
0.0
  0
LINE
  5
19251
330
18
100
AcDbEntity
  8
01
100
AcDbLine
 10
490.0551806515384
 20
-870.3301395584708
 30
0.0
 11
483.524091738293
 21
-868.5801395584708
 31
0.0
  0
LINE
  5
19252
330
18
100
AcDbEntity
  8
01
100
AcDbLine
 10
483.524091738293
 20
-868.5801395584708
 30
0.0
 11
450.0551806515384
 21
-868.5801395584708
 31
0.0
  0
LINE
  5
19253
330
18
100
AcDbEntity
  8
01
100
AcDbLine
 10
450.0551806515384
 20
-868.5801395584708
 30
0.0
 11
450.0551806515384
 21
-865.8301395584708
 31
0.0
  0
LINE
  5
19254
330
18
100
AcDbEntity
  8
01
100
AcDbLine
 10
450.0551806515384
 20
-865.8301395584708
 30
0.0
 11
449.2551806515386
 21
-865.8301395584708
 31
0.0
  0
ARC
  5
19255
330
18
100
AcDbEntity
  8
01
100
AcDbCircle
 10
449.2551806515384
 20
-868.3301395584708
 30
0.0
 40
2.5
100
AcDbArc
 50
89.99999999999609
 51
180.0
  0
LINE
  5
19256
330
18
100
AcDbEntity
  8
01
100
AcDbLine
 10
446.7551806515384
 20
-868.3301395584708
 30
0.0
 11
446.7551806515384
 21
-872.3301395584708
 31
0.0
  0
ARC
  5
19257
330
18
100
AcDbEntity
  8
01
100
AcDbCircle
 10
449.2551806515384
 20
-872.3301395584708
 30
0.0
 40
2.5
100
AcDbArc
 50
180.0
 51
270.0
  0
LINE
  5
19258
330
18
100
AcDbEntity
  8
01
100
AcDbLine
 10
449.2551806515384
 20
-874.8301395584708
 30
0.0
 11
450.0551806515384
 21
-874.8301395584708
 31
0.0
  0
LINE
  5
19259
330
18
100
AcDbEntity
  8
01
100
AcDbLine
 10
450.0551806515384
 20
-874.8301395584708
 30
0.0
 11
450.0551806515384
 21
-872.0801395584708
 31
0.0
  0
LINE
  5
1925A
330
18
100
AcDbEntity
  8
01
100
AcDbLine
 10
450.0551806515384
 20
-872.0801395584708
 30
0.0
 11
483.5240917382929
 21
-872.0801395584708
 31
0.0
  0
LINE
  5
1925B
330
18
100
AcDbEntity
  8
01
100
AcDbLine
 10
483.5240917382929
 20
-872.0801395584708
 30
0.0
 11
490.0551806515384
 21
-870.3301395584708
 31
0.0
  0
LINE
  5
1925C
330
18
100
AcDbEntity
  8
1DIM1
100
AcDbLine
 10
-263.8588562733916
 20
-857.8301422658674
 30
0.0
 11
-263.8588562733916
 21
-820.806662205242
 31
0.0
1001
ACAD
1000
DSTYLE
1002
{
1070
    40
1040
3.0
1002
}
  0
LINE
  5
1925D
330
18
100
AcDbEntity
  8
1DIM1
100
AcDbLine
 10
336.1411480030121
 20
-857.8301422658674
 30
0.0
 11
336.1411480030121
 21
-820.806662205242
 31
0.0
1001
ACAD
1000
DSTYLE
1002
{
1070
    40
1040
3.0
1002
}
  0
LINE
  5
1925E
330
18
100
AcDbEntity
  8
1DIM1
100
AcDbLine
 10
-257.8588562733916
 20
-823.806662205242
 30
0.0
 11
330.1411480030121
 21
-823.806662205242
 31
0.0
1001
ACAD
1000
DSTYLE
1002
{
1070
    40
1040
3.0
1002
}
  0
LINE
  5
19262
330
18
100
AcDbEntity
  8
1DIM1
100
AcDbLine
 10
-205.4122476313815
 20
-870.3301404324441
 30
0.0
 11
-205.4122476313815
 21
-841.1770357411517
 31
0.0
1001
ACAD
1000
DSTYLE
1002
{
1070
    40
1040
3.0
1002
}
  0
LINE
  5
19263
330
18
100
AcDbEntity
  8
1DIM1
100
AcDbLine
 10
273.5877523686183
 20
-870.3301404324445
 30
0.0
 11
273.5877523686183
 21
-841.1770357411517
 31
0.0
1001
ACAD
1000
DSTYLE
1002
{
1070
    40
1040
3.0
1002
}
  0
LINE
  5
19264
330
18
100
AcDbEntity
  8
1DIM1
100
AcDbLine
 10
-199.4122476313815
 20
-844.1770357411517
 30
0.0
 11
267.5877523686183
 21
-844.1770357411517
 31
0.0
1001
ACAD
1000
DSTYLE
1002
{
1070
    40
1040
3.0
1002
}
  0
LINE
  5
19268
330
18
100
AcDbEntity
  8
1DIM
100
AcDbLine
 10
335.1411427876057
 20
-800.3237981241957
 30
0.0
 11
364.488091456729
 21
-800.3237981241957
 31
0.0
  0
LINE
  5
19269
330
18
100
AcDbEntity
  8
1DIM
100
AcDbLine
 10
334.6411427876057
 20
-736.3237981241955
 30
0.0
 11
364.488091456729
 21
-736.3237981241955
 31
0.0
  0
LINE
  5
1926A
330
18
100
AcDbEntity
  8
1DIM
100
AcDbLine
 10
363.488091456729
 20
-798.3237981241957
 30
0.0
 11
363.488091456729
 21
-738.3237981241955
 31
0.0
  0
LINE
  5
1926E
330
18
100
AcDbEntity
  8
1DIM
100
AcDbLine
 10
334.6411427876057
 20
-768.3237981241955
 30
0.0
 11
352.1126836795726
 21
-768.3237981241955
 31
0.0
  0
LINE
  5
1926F
330
18
100
AcDbEntity
  8
1DIM
100
AcDbLine
 10
334.6411427876057
 20
-736.3237981241955
 30
0.0
 11
352.1126836795726
 21
-736.3237981241955
 31
0.0
  0
LINE
  5
19270
330
18
100
AcDbEntity
  8
1DIM
100
AcDbLine
 10
351.1126836795726
 20
-766.3237981241955
 30
0.0
 11
351.1126836795726
 21
-738.3237981241955
 31
0.0
  0
SOLID
  5
19274
330
18
100
AcDbEntity
  8
1DIM
100
AcDbTrace
 10
411.1076123611808
 20
-863.6718920864694
 30
0.0
 11
412.1993005333115
 21
-865.3804962085353
 31
0.0
 12
410.6124806552205
 22
-864.1183100948397
 32
0.0
 13
410.6124806552205
 23
-864.1183100948397
 33
0.0
  0
LINE
  5
19275
330
18
100
AcDbEntity
  8
1DIM
100
AcDbLine
 10
410.8600465082006
 20
-863.8951010906545
 30
0.0
 11
395.2253065384942
 21
-846.5542785245889
 31
0.0
  0
LINE
  5
19276
330
18
100
AcDbEntity
  8
1DIM
100
AcDbLine
 10
395.2253065384942
 20
-846.5542785245889
 30
0.0
 11
355.5419732051609
 21
-846.5542785245889
 31
0.0
  0
TEXT
  5
19277
330
18
100
AcDbEntity
  8
1DIM
  6
CONTINUOUS
100
AcDbText
 10
368.1419732051609
 20
-840.0209451912555
 30
0.0
 40
3.5
  1
材質：強化木
100
AcDbText
  0
TEXT
  5
19278
330
18
100
AcDbEntity
  8
1DIM
  6
CONTINUOUS
100
AcDbText
 10
355.4253065384942
 20
-845.8542785245888
 30
0.0
 40
3.5
  1
仕上げ：各種仕上げ
100
AcDbText
  0
SOLID
  5
19279
330
18
100
AcDbEntity
  8
1DIM
100
AcDbTrace
 10
438.1094738004686
 20
-856.169112244102
 30
0.0
 11
439.2276597527609
 21
-857.8604937171019
 31
0.0
 12
437.6213601309709
 22
-856.6231931731157
 32
0.0
 13
437.6213601309709
 23
-856.6231931731157
 33
0.0
  0
LINE
  5
1927A
330
18
100
AcDbEntity
  8
1DIM
100
AcDbLine
 10
437.8654169657198
 20
-856.3961527086088
 30
0.0
 11
407.3717242736245
 21
-823.6169997307386
 31
0.0
  0
LINE
  5
1927B
330
18
100
AcDbEntity
  8
1DIM
100
AcDbLine
 10
407.3717242736245
 20
-823.6169997307386
 30
0.0
 11
360.1050576069579
 21
-823.6169997307386
 31
0.0
  0
TEXT
  5
1927C
330
18
100
AcDbEntity
  8
1DIM
  6
CONTINUOUS
100
AcDbText
 10
359.8717242736245
 20
-817.0836663974052
 30
0.0
 40
3.5
  1
材質：亜鉛ダイキャスト
100
AcDbText
  0
TEXT
  5
1927D
330
18
100
AcDbEntity
  8
1DIM
  6
CONTINUOUS
100
AcDbText
 10
367.5717242736245
 20
-822.9169997307386
 30
0.0
 40
3.5
  1
仕上げ：各種仕上げ
100
AcDbText
  0
SOLID
  5
1927E
330
18
100
AcDbEntity
  8
1DIM
100
AcDbTrace
 10
438.6681261271381
 20
-876.7250822976123
 30
0.0
 11
440.3891823902365
 21
-875.6531324618638
 31
0.0
 12
439.1088156016024
 22
-877.225319472901
 32
0.0
 13
439.1088156016024
 23
-877.225319472901
 33
0.0
  0
LINE
  5
1927F
330
18
100
AcDbEntity
  8
1DIM
100
AcDbLine
 10
438.8884708643703
 20
-876.9752008852566
 30
0.0
 11
410.2584633885602
 21
-902.1971227489007
 31
0.0
  0
LINE
  5
19280
330
18
100
AcDbEntity
  8
1DIM
100
AcDbLine
 10
410.2584633885602
 20
-902.1971227489007
 30
0.0
 11
362.9917967218936
 21
-902.1971227489007
 31
0.0
  0
TEXT
  5
19281
330
18
100
AcDbEntity
  8
1DIM
  6
CONTINUOUS
100
AcDbText
 10
362.7584633885602
 20
-895.6637894155673
 30
0.0
 40
3.5
  1
材質：亜鉛ダイキャスト
100
AcDbText
  0
TEXT
  5
19282
330
18
100
AcDbEntity
  8
1DIM
  6
CONTINUOUS
100
AcDbText
 10
370.4584633885602
 20
-901.4971227489007
 30
0.0
 40
3.5
  1
仕上げ：各種仕上げ
100
AcDbText
  0
LINE
  5
19283
330
18
100
AcDbEntity
  8
1DIM
100
AcDbLine
 10
215.6411427876057
 20
-736.8237981241955
 30
0.0
 11
215.6411427876057
 21
-694.462096166887
 31
0.0
  0
LINE
  5
19284
330
18
100
AcDbEntity
  8
1DIM
100
AcDbLine
 10
335.6411427876058
 20
-736.8237981241955
 30
0.0
 11
335.6411427876058
 21
-694.462096166887
 31
0.0
  0
LINE
  5
19285
330
18
100
AcDbEntity
  8
1DIM
100
AcDbLine
 10
217.6411427876057
 20
-695.462096166887
 30
0.0
 11
333.6411427876058
 21
-695.462096166887
 31
0.0
  0
LINE
  5
19289
330
18
100
AcDbEntity
  8
1DIM
100
AcDbLine
 10
296.0877523686187
 20
-874.6802562596727
 30
0.0
 11
296.0877523686187
 21
-901.3694326842551
 31
0.0
  0
LINE
  5
1928A
330
18
100
AcDbEntity
  8
1DIM
100
AcDbLine
 10
251.0877523686183
 20
-874.6802562596729
 30
0.0
 11
251.0877523686183
 21
-901.3694326842551
 31
0.0
  0
LINE
  5
1928B
330
18
100
AcDbEntity
  8
1DIM
100
AcDbLine
 10
294.0877523686187
 20
-900.3694326842551
 30
0.0
 11
253.0877523686183
 21
-900.3694326842551
 31
0.0
  0
SOLID
  5
1928F
330
18
100
AcDbEntity
  8
1DIM
100
AcDbTrace
 10
473.6222040853361
 20
-831.8991147503066
 30
0.0
 11
472.1908417454355
 21
-833.3351902925485
 31
0.0
 12
473.0790789181279
 22
-831.5125148315411
 32
0.0
 13
473.0790789181279
 23
-831.5125148315411
 33
0.0
  0
LINE
  5
19290
330
18
100
AcDbEntity
  8
1DIM
100
AcDbLine
 10
473.350641501732
 20
-831.7058147909239
 30
0.0
 11
480.0051860764053
 21
-822.3570010447772
 31
0.0
  0
LINE
  5
19291
330
18
100
AcDbEntity
  8
1DIM
100
AcDbLine
 10
480.0051860764053
 20
-822.3570010447772
 30
0.0
 11
518.3885194097386
 21
-822.3570010447772
 31
0.0
  0
TEXT
  5
19292
330
18
100
AcDbEntity
  8
1DIM
  6
CONTINUOUS
100
AcDbText
 10
482.7051860764053
 20
-815.8188066003328
 30
0.0
 40
3.5
  1
合板12mm以上
100
AcDbText
  0
TEXT
  5
19293
330
18
100
AcDbEntity
  8
1DIM
  6
CONTINUOUS
100
AcDbText
 10
479.9051860764052
 20
-821.6570010447772
 30
0.0
 40
3.5
  1
（15mm以上推奨）
100
AcDbText
  0
SOLID
  5
19294
330
18
100
AcDbEntity
  8
1DIM
100
AcDbTrace
 10
461.8767423527733
 20
-831.4235026476487
 30
0.0
 11
460.4383835585193
 21
-832.8525705571979
 31
0.0
 12
461.3355117445815
 22
-831.034254817596
 32
0.0
 13
461.3355117445815
 23
-831.034254817596
 33
0.0
  0
LINE
  5
19295
330
18
100
AcDbEntity
  8
1DIM
100
AcDbLine
 10
461.6061270486774
 20
-831.2288787326223
 30
0.0
 11
480.4369473012367
 21
-805.0455181300354
 31
0.0
  0
LINE
  5
19296
330
18
100
AcDbEntity
  8
1DIM
100
AcDbLine
 10
480.4369473012367
 20
-805.0455181300354
 30
0.0
 11
488.9702806345701
 21
-805.0455181300354
 31
0.0
  0
TEXT
  5
19297
330
18
100
AcDbEntity
  8
1DIM
  6
CONTINUOUS
100
AcDbText
 10
483.1369473012367
 20
-804.3455181300353
 30
0.0
 40
3.5
  1
PB
100
AcDbText
  0
LINE
  5
19298
330
18
100
AcDbEntity
  8
1DIM
100
AcDbLine
 10
215.6411427876057
 20
-752.3237981241955
 30
0.0
 11
201.8086200957457
 21
-752.3237981241955
 31
0.0
  0
LINE
  5
19299
330
18
100
AcDbEntity
  8
1DIM
100
AcDbLine
 10
216.1411427876057
 20
-736.3237981241954
 30
0.0
 11
201.8086200957457
 21
-736.3237981241954
 31
0.0
  0
LINE
  5
1929A
330
18
100
AcDbEntity
  8
1DIM
100
AcDbLine
 10
202.8086200957457
 20
-750.3237981241955
 30
0.0
 11
202.8086200957457
 21
-738.3237981241954
 31
0.0
  0
LINE
  5
1929E
330
18
100
AcDbEntity
  8
1DIM
100
AcDbLine
 10
455.7551705050903
 20
-883.8301394196635
 30
0.0
 11
500.7962216962551
 21
-883.8301394196635
 31
0.0
  0
LINE
  5
1929F
330
18
100
AcDbEntity
  8
1DIM
100
AcDbLine
 10
454.6649284166556
 20
-856.8301394518621
 30
0.0
 11
500.7962216962551
 21
-856.8301394518621
 31
0.0
  0
LINE
  5
192A0
330
18
100
AcDbEntity
  8
1DIM
100
AcDbLine
 10
499.7962216962551
 20
-881.8301394196635
 30
0.0
 11
499.7962216962551
 21
-858.8301394518621
 31
0.0
  0
LINE
  5
192A4
330
18
100
AcDbEntity
  8
0
  6
BYBLOCK
100
AcDbLine
 10
-257.8588562733916
 20
-825.414357345242
 30
0.0
 11
-263.8588562733916
 21
-823.806662205242
 31
0.0
  0
LINE
  5
192A5
330
18
100
AcDbEntity
  8
0
  6
BYBLOCK
100
AcDbLine
 10
-263.8588562733916
 20
-823.806662205242
 30
0.0
 11
-257.8588562733916
 21
-822.198967065242
 31
0.0
  0
LINE
  5
192A6
330
18
100
AcDbEntity
  8
0
  6
BYBLOCK
100
AcDbLine
 10
-263.8588562733916
 20
-823.806662205242
 30
0.0
 11
-257.8588562733916
 21
-823.806662205242
 31
0.0
  0
LINE
  5
192A7
330
18
100
AcDbEntity
  8
0
  6
BYBLOCK
100
AcDbLine
 10
330.1411480030121
 20
-822.198967065242
 30
0.0
 11
336.1411480030121
 21
-823.806662205242
 31
0.0
  0
LINE
  5
192A8
330
18
100
AcDbEntity
  8
0
  6
BYBLOCK
100
AcDbLine
 10
336.1411480030121
 20
-823.806662205242
 30
0.0
 11
330.1411480030121
 21
-825.414357345242
 31
0.0
  0
LINE
  5
192A9
330
18
100
AcDbEntity
  8
0
  6
BYBLOCK
100
AcDbLine
 10
336.1411480030121
 20
-823.806662205242
 30
0.0
 11
330.1411480030121
 21
-823.806662205242
 31
0.0
  0
TEXT
  5
192AA
330
18
100
AcDbEntity
  8
1DIM1
  6
CONTINUOUS
100
AcDbText
 10
23.63593753147692
 20
-821.706662205242
 30
0.0
 40
10.5
  1
600
100
AcDbText
1001
ACAD
1000
DSTYLE
1002
{
1070
    40
1040
3.0
1002
}
  0
LINE
  5
192AB
330
18
100
AcDbEntity
  8
0
  6
BYBLOCK
100
AcDbLine
 10
-199.4122476313815
 20
-845.7847308811517
 30
0.0
 11
-205.4122476313815
 21
-844.1770357411517
 31
0.0
  0
LINE
  5
192AC
330
18
100
AcDbEntity
  8
0
  6
BYBLOCK
100
AcDbLine
 10
-205.4122476313815
 20
-844.1770357411517
 30
0.0
 11
-199.4122476313815
 21
-842.5693406011517
 31
0.0
  0
LINE
  5
192AD
330
18
100
AcDbEntity
  8
0
  6
BYBLOCK
100
AcDbLine
 10
-205.4122476313815
 20
-844.1770357411517
 30
0.0
 11
-199.4122476313815
 21
-844.1770357411517
 31
0.0
  0
LINE
  5
192AE
330
18
100
AcDbEntity
  8
0
  6
BYBLOCK
100
AcDbLine
 10
267.5877523686183
 20
-842.5693406011517
 30
0.0
 11
273.5877523686183
 21
-844.1770357411517
 31
0.0
  0
LINE
  5
192AF
330
18
100
AcDbEntity
  8
0
  6
BYBLOCK
100
AcDbLine
 10
273.5877523686183
 20
-844.1770357411517
 30
0.0
 11
267.5877523686183
 21
-845.7847308811517
 31
0.0
  0
LINE
  5
192B0
330
18
100
AcDbEntity
  8
0
  6
BYBLOCK
100
AcDbLine
 10
273.5877523686183
 20
-844.1770357411517
 30
0.0
 11
267.5877523686183
 21
-844.1770357411517
 31
0.0
  0
TEXT
  5
192B1
330
18
100
AcDbEntity
  8
1DIM1
  6
CONTINUOUS
100
AcDbText
 10
14.83532181306283
 20
-842.0770357411517
 30
0.0
 40
10.5
  1
P479
100
AcDbText
1001
ACAD
1000
DSTYLE
1002
{
1070
    40
1040
3.0
1002
}
  0
LINE
  5
192B2
330
18
100
AcDbEntity
  8
0
  6
BYBLOCK
100
AcDbLine
 10
364.023989836729
 20
-798.3237981241957
 30
0.0
 11
363.488091456729
 21
-800.3237981241957
 31
0.0
  0
LINE
  5
192B3
330
18
100
AcDbEntity
  8
0
  6
BYBLOCK
100
AcDbLine
 10
363.488091456729
 20
-800.3237981241957
 30
0.0
 11
362.952193076729
 21
-798.3237981241957
 31
0.0
  0
LINE
  5
192B4
330
18
100
AcDbEntity
  8
0
  6
BYBLOCK
100
AcDbLine
 10
363.488091456729
 20
-800.3237981241957
 30
0.0
 11
363.488091456729
 21
-798.3237981241957
 31
0.0
  0
LINE
  5
192B5
330
18
100
AcDbEntity
  8
0
  6
BYBLOCK
100
AcDbLine
 10
362.952193076729
 20
-738.3237981241955
 30
0.0
 11
363.488091456729
 21
-736.3237981241955
 31
0.0
  0
LINE
  5
192B6
330
18
100
AcDbEntity
  8
0
  6
BYBLOCK
100
AcDbLine
 10
363.488091456729
 20
-736.3237981241955
 30
0.0
 11
364.023989836729
 21
-738.3237981241955
 31
0.0
  0
LINE
  5
192B7
330
18
100
AcDbEntity
  8
0
  6
BYBLOCK
100
AcDbLine
 10
363.488091456729
 20
-736.3237981241955
 30
0.0
 11
363.488091456729
 21
-738.3237981241955
 31
0.0
  0
TEXT
  5
192B8
330
18
100
AcDbEntity
  8
1DIM
  6
CONTINUOUS
100
AcDbText
 10
362.788091456729
 20
-771.25261756864
 30
0.0
 40
3.5
  1
64
 50
90.0
100
AcDbText
  0
LINE
  5
192B9
330
18
100
AcDbEntity
  8
0
  6
BYBLOCK
100
AcDbLine
 10
351.6485820595726
 20
-766.3237981241955
 30
0.0
 11
351.1126836795726
 21
-768.3237981241955
 31
0.0
  0
LINE
  5
192BA
330
18
100
AcDbEntity
  8
0
  6
BYBLOCK
100
AcDbLine
 10
351.1126836795726
 20
-768.3237981241955
 30
0.0
 11
350.5767852995726
 21
-766.3237981241955
 31
0.0
  0
LINE
  5
192BB
330
18
100
AcDbEntity
  8
0
  6
BYBLOCK
100
AcDbLine
 10
351.1126836795726
 20
-768.3237981241955
 30
0.0
 11
351.1126836795726
 21
-766.3237981241955
 31
0.0
  0
LINE
  5
192BC
330
18
100
AcDbEntity
  8
0
  6
BYBLOCK
100
AcDbLine
 10
350.5767852995726
 20
-738.3237981241955
 30
0.0
 11
351.1126836795726
 21
-736.3237981241955
 31
0.0
  0
LINE
  5
192BD
330
18
100
AcDbEntity
  8
0
  6
BYBLOCK
100
AcDbLine
 10
351.1126836795726
 20
-736.3237981241955
 30
0.0
 11
351.6485820595726
 21
-738.3237981241955
 31
0.0
  0
LINE
  5
192BE
330
18
100
AcDbEntity
  8
0
  6
BYBLOCK
100
AcDbLine
 10
351.1126836795726
 20
-736.3237981241955
 30
0.0
 11
351.1126836795726
 21
-738.3237981241955
 31
0.0
  0
TEXT
  5
192BF
330
18
100
AcDbEntity
  8
1DIM
  6
CONTINUOUS
100
AcDbText
 10
350.4126836795726
 20
-755.2404647908622
 30
0.0
 40
3.5
  1
32
 50
90.0
100
AcDbText
  0
LINE
  5
192C0
330
18
100
AcDbEntity
  8
0
  6
BYBLOCK
100
AcDbLine
 10
217.6411427876057
 20
-695.9979945468871
 30
0.0
 11
215.6411427876057
 21
-695.462096166887
 31
0.0
  0
LINE
  5
192C1
330
18
100
AcDbEntity
  8
0
  6
BYBLOCK
100
AcDbLine
 10
215.6411427876057
 20
-695.462096166887
 30
0.0
 11
217.6411427876057
 21
-694.926197786887
 31
0.0
  0
LINE
  5
192C2
330
18
100
AcDbEntity
  8
0
  6
BYBLOCK
100
AcDbLine
 10
215.6411427876057
 20
-695.462096166887
 30
0.0
 11
217.6411427876057
 21
-695.462096166887
 31
0.0
  0
LINE
  5
192C3
330
18
100
AcDbEntity
  8
0
  6
BYBLOCK
100
AcDbLine
 10
333.6411427876058
 20
-694.926197786887
 30
0.0
 11
335.6411427876058
 21
-695.462096166887
 31
0.0
  0
LINE
  5
192C4
330
18
100
AcDbEntity
  8
0
  6
BYBLOCK
100
AcDbLine
 10
335.6411427876058
 20
-695.462096166887
 30
0.0
 11
333.6411427876058
 21
-695.9979945468871
 31
0.0
  0
LINE
  5
192C5
330
18
100
AcDbEntity
  8
0
  6
BYBLOCK
100
AcDbLine
 10
335.6411427876058
 20
-695.462096166887
 30
0.0
 11
333.6411427876058
 21
-695.462096166887
 31
0.0
  0
TEXT
  5
192C6
330
18
100
AcDbEntity
  8
1DIM
  6
CONTINUOUS
100
AcDbText
 10
270.3174820143552
 20
-694.762096166887
 30
0.0
 40
3.5
  1
120
100
AcDbText
  0
LINE
  5
192C7
330
18
100
AcDbEntity
  8
0
  6
BYBLOCK
100
AcDbLine
 10
294.0877523686187
 20
-899.8335343042551
 30
0.0
 11
296.0877523686187
 21
-900.3694326842551
 31
0.0
  0
LINE
  5
192C8
330
18
100
AcDbEntity
  8
0
  6
BYBLOCK
100
AcDbLine
 10
296.0877523686187
 20
-900.3694326842551
 30
0.0
 11
294.0877523686187
 21
-900.9053310642552
 31
0.0
  0
LINE
  5
192C9
330
18
100
AcDbEntity
  8
0
  6
BYBLOCK
100
AcDbLine
 10
296.0877523686187
 20
-900.3694326842551
 30
0.0
 11
294.0877523686187
 21
-900.3694326842551
 31
0.0
  0
LINE
  5
192CA
330
18
100
AcDbEntity
  8
0
  6
BYBLOCK
100
AcDbLine
 10
253.0877523686183
 20
-900.9053310642552
 30
0.0
 11
251.0877523686183
 21
-900.3694326842551
 31
0.0
  0
LINE
  5
192CB
330
18
100
AcDbEntity
  8
0
  6
BYBLOCK
100
AcDbLine
 10
251.0877523686183
 20
-900.3694326842551
 30
0.0
 11
253.0877523686183
 21
-899.8335343042551
 31
0.0
  0
LINE
  5
192CC
330
18
100
AcDbEntity
  8
0
  6
BYBLOCK
100
AcDbLine
 10
251.0877523686183
 20
-900.3694326842551
 30
0.0
 11
253.0877523686183
 21
-900.3694326842551
 31
0.0
  0
TEXT
  5
192CD
330
18
100
AcDbEntity
  8
1DIM
  6
CONTINUOUS
100
AcDbText
 10
268.996076289487
 20
-899.6694326842552
 30
0.0
 40
3.5
  1
P45
100
AcDbText
  0
LINE
  5
192CE
330
18
100
AcDbEntity
  8
0
  6
BYBLOCK
100
AcDbLine
 10
203.3445184757456
 20
-750.3237981241955
 30
0.0
 11
202.8086200957457
 21
-752.3237981241955
 31
0.0
  0
LINE
  5
192CF
330
18
100
AcDbEntity
  8
0
  6
BYBLOCK
100
AcDbLine
 10
202.8086200957457
 20
-752.3237981241955
 30
0.0
 11
202.2727217157457
 21
-750.3237981241955
 31
0.0
  0
LINE
  5
192D0
330
18
100
AcDbEntity
  8
0
  6
BYBLOCK
100
AcDbLine
 10
202.8086200957457
 20
-752.3237981241955
 30
0.0
 11
202.8086200957457
 21
-750.3237981241955
 31
0.0
  0
LINE
  5
192D1
330
18
100
AcDbEntity
  8
0
  6
BYBLOCK
100
AcDbLine
 10
202.2727217157457
 20
-738.3237981241954
 30
0.0
 11
202.8086200957457
 21
-736.3237981241954
 31
0.0
  0
LINE
  5
192D2
330
18
100
AcDbEntity
  8
0
  6
BYBLOCK
100
AcDbLine
 10
202.8086200957457
 20
-736.3237981241954
 30
0.0
 11
203.3445184757456
 21
-738.3237981241954
 31
0.0
  0
LINE
  5
192D3
330
18
100
AcDbEntity
  8
0
  6
BYBLOCK
100
AcDbLine
 10
202.8086200957457
 20
-736.3237981241954
 30
0.0
 11
202.8086200957457
 21
-738.3237981241954
 31
0.0
  0
TEXT
  5
192D4
330
18
100
AcDbEntity
  8
1DIM
  6
CONTINUOUS
100
AcDbText
 10
202.1086200957457
 20
-746.6571314575289
 30
0.0
 40
3.5
  1
16
 50
90.0
100
AcDbText
  0
LINE
  5
192D5
330
18
100
AcDbEntity
  8
0
  6
BYBLOCK
100
AcDbLine
 10
500.3321200762551
 20
-881.8301394196635
 30
0.0
 11
499.7962216962551
 21
-883.8301394196635
 31
0.0
  0
LINE
  5
192D6
330
18
100
AcDbEntity
  8
0
  6
BYBLOCK
100
AcDbLine
 10
499.7962216962551
 20
-883.8301394196635
 30
0.0
 11
499.2603233162551
 21
-881.8301394196635
 31
0.0
  0
LINE
  5
192D7
330
18
100
AcDbEntity
  8
0
  6
BYBLOCK
100
AcDbLine
 10
499.7962216962551
 20
-883.8301394196635
 30
0.0
 11
499.7962216962551
 21
-881.8301394196635
 31
0.0
  0
LINE
  5
192D8
330
18
100
AcDbEntity
  8
0
  6
BYBLOCK
100
AcDbLine
 10
499.2603233162551
 20
-858.8301394518621
 30
0.0
 11
499.7962216962551
 21
-856.8301394518621
 31
0.0
  0
LINE
  5
192D9
330
18
100
AcDbEntity
  8
0
  6
BYBLOCK
100
AcDbLine
 10
499.7962216962551
 20
-856.8301394518621
 30
0.0
 11
500.3321200762551
 21
-858.8301394518621
 31
0.0
  0
LINE
  5
192DA
330
18
100
AcDbEntity
  8
0
  6
BYBLOCK
100
AcDbLine
 10
499.7962216962551
 20
-856.8301394518621
 30
0.0
 11
499.7962216962551
 21
-858.8301394518621
 31
0.0
  0
TEXT
  5
192DB
330
18
100
AcDbEntity
  8
1DIM
  6
CONTINUOUS
100
AcDbText
 10
499.0962216962552
 20
-873.2468061024294
 30
0.0
 40
3.5
  1
27
 50
90.0
100
AcDbText
  0
VIEWPORT
  5
57
330
15
100
AcDbEntity
 67
     1
  8
0
100
AcDbViewport
 68
     1
 10
0.0
 20
0.0
 30
0.0
 40
535.5106132075472
 41
297.0
 68
     1
 69
     1
1001
ACAD
1000
MVIEW
1002
{
1070
    16
1010
0.0
1020
0.0
1030
0.0
1010
0.0
1020
0.0
1030
1.0
1040
0.0
1040
297.0
1040
-4.168151458535281
1040
12.93603032128692
1040
50.0
1040
0.0
1040
0.0
1070
    16
1070
   100
1070
     0
1070
     1
1070
     0
1070
     0
1070
     0
1070
     0
1040
0.0
1040
0.0
1040
0.0
1040
10.0
1040
10.0
1040
10.0
1040
10.0
1070
     0
1002
{
1002
}
1002
}
  0
ENDSEC
  0
SECTION
  2
OBJECTS
  0
DICTIONARY
  5
C
330
0
100
AcDbDictionary
  3
ACAD_CIP_PREVIOUS_PRODUCT_INFO
350
19044
  3
ACAD_COLOR
350
2D0
  3
ACAD_GROUP
350
D
  3
ACAD_LAYOUT
350
2D1
  3
ACAD_MATERIAL
350
2CF
  3
ACAD_MLEADERSTYLE
350
16390
  3
ACAD_MLINESTYLE
350
1B
  3
ACAD_PLOTSETTINGS
350
2D2
  3
ACAD_SCALELIST
350
1636E
  3
ACAD_VISUALSTYLE
350
1635D
  3
ACDBHEADERROUNDTRIPXREC
350
192DC
  3
ACDBVARIABLEDICTIONARY
350
37
  3
AEC_PROPERTY_SET_DEFS
350
179D9
  3
CONTENTDICTIONARY
350
D8
  3
DRAWINGVARIABLESDICT
350
20
  3
DWGPROPS
350
192DF
1001
ACAD
1000
TREAT_AS_HARD
1070
     0
  0
DICTIONARY
  5
15F92
330
2
100
AcDbDictionary
  3
ACAD_LAYERSTATES
360
15F93
1001
ACAD
1000
TREAT_AS_HARD
1070
     1
  0
DICTIONARY
  5
163AF
330
E
100
AcDbDictionary
  3
ADSK_XREC_LAYER_RECONCILED
360
163B0
1001
ACAD
1000
TREAT_AS_HARD
1070
     1
  0
DICTIONARY
  5
163B1
330
29
100
AcDbDictionary
  3
ADSK_XREC_LAYER_RECONCILED
360
163B2
1001
ACAD
1000
TREAT_AS_HARD
1070
     1
  0
DICTIONARY
  5
163B3
330
31
100
AcDbDictionary
  3
ADSK_XREC_LAYER_RECONCILED
360
163B4
1001
ACAD
1000
TREAT_AS_HARD
1070
     1
  0
DICTIONARY
  5
163BD
330
101
100
AcDbDictionary
  3
ADSK_XREC_LAYER_RECONCILED
360
163BE
1001
ACAD
1000
TREAT_AS_HARD
1070
     1
  0
DICTIONARY
  5
163C1
330
103
100
AcDbDictionary
  3
ADSK_XREC_LAYER_RECONCILED
360
163C2
1001
ACAD
1000
TREAT_AS_HARD
1070
     1
  0
DICTIONARY
  5
163C5
330
25F
100
AcDbDictionary
  3
ADSK_XREC_LAYER_RECONCILED
360
163C6
1001
ACAD
1000
TREAT_AS_HARD
1070
     1
  0
DICTIONARY
  5
163DB
330
26A
100
AcDbDictionary
  3
ADSK_XREC_LAYER_RECONCILED
360
163DC
1001
ACAD
1000
TREAT_AS_HARD
1070
     1
  0
DICTIONARY
  5
163E1
330
26D
100
AcDbDictionary
  3
ADSK_XREC_LAYER_RECONCILED
360
163E2
1001
ACAD
1000
TREAT_AS_HARD
1070
     1
  0
DICTIONARY
  5
6E9
330
18
100
AcDbDictionary
  3
ACAD_SORTENTS
360
6EA
1001
ACAD
1000
TREAT_AS_HARD
1070
     1
  0
DICTIONARY
  5
59B
330
15
100
AcDbDictionary
  3
ACAD_SORTENTS
360
59C
1001
ACAD
1000
TREAT_AS_HARD
1070
     1
  0
XRECORD
  5
19044
102
{ACAD_REACTORS
330
C
102
}
330
C
100
AcDbXrecord
300
ACDLT
300
2012
300
ACDLT_F_S
  0
DICTIONARY
  5
2D0
102
{ACAD_REACTORS
330
C
102
}
330
C
100
AcDbDictionary
1001
ACAD
1000
TREAT_AS_HARD
1070
     0
  0
DICTIONARY
  5
D
102
{ACAD_REACTORS
330
C
102
}
330
C
100
AcDbDictionary
  3
*A1
350
17895
  3
*A2
350
178AC
  3
*A3
350
178C3
  3
*A4
350
178DA
  3
*A5
350
17D5A
  3
*A6
350
17DDD
  3
*A7
350
17F2C
1001
ACAD
1000
TREAT_AS_HARD
1070
     0
  0
DICTIONARY
  5
2D1
102
{ACAD_REACTORS
330
C
102
}
330
C
100
AcDbDictionary
1001
ACAD
1000
TREAT_AS_HARD
1070
     0
  0
DICTIONARY
  5
2CF
102
{ACAD_REACTORS
330
C
102
}
330
C
100
AcDbDictionary
  3
BYBLOCK
350
1634D
  3
BYLAYER
350
16345
  3
GLOBAL
350
16355
1001
ACAD
1000
TREAT_AS_HARD
1070
     0
  0
DICTIONARY
  5
16390
102
{ACAD_REACTORS
330
C
102
}
330
C
100
AcDbDictionary
  3
STANDARD
350
16391
1001
ACAD
1000
TREAT_AS_HARD
1070
     0
  0
DICTIONARY
  5
1B
102
{ACAD_REACTORS
330
C
102
}
330
C
100
AcDbDictionary
  3
STANDARD
350
1C
1001
ACAD
1000
TREAT_AS_HARD
1070
     0
  0
DICTIONARY
  5
2D2
102
{ACAD_REACTORS
330
C
102
}
330
C
100
AcDbDictionary
1001
ACAD
1000
TREAT_AS_HARD
1070
     0
  0
DICTIONARY
  5
1636E
102
{ACAD_REACTORS
330
C
102
}
330
C
100
AcDbDictionary
  3
A0
350
1636F
  3
A1
350
16370
  3
A2
350
16371
  3
A3
350
16372
  3
A4
350
16373
  3
A5
350
16374
  3
A6
350
16375
  3
A7
350
16376
  3
A8
350
16377
  3
A9
350
16378
  3
B0
350
16379
  3
B1
350
1637A
  3
B2
350
1637B
  3
B3
350
1637C
  3
B4
350
1637D
  3
B5
350
1637E
  3
B6
350
1637F
  3
B7
350
16380
  3
B8
350
16381
  3
B9
350
16382
  3
C0
350
16383
  3
C1
350
16384
  3
C2
350
16385
  3
C3
350
16386
  3
C4
350
16387
  3
C5
350
16388
  3
C6
350
16389
  3
C7
350
1638A
  3
C8
350
1638B
  3
C9
350
1638C
  3
D0
350
1638D
  3
D1
350
1638E
  3
D2
350
1638F
1001
ACAD
1000
TREAT_AS_HARD
1070
     0
  0
DICTIONARY
  5
1635D
102
{ACAD_REACTORS
330
C
102
}
330
C
100
AcDbDictionary
  3
2DWIREFRAME
350
16363
  3
3D_HIDDEN
350
16365
  3
3DWIREFRAME
350
16364
  3
BASIC
350
16362
  3
BRIGHTEN
350
16369
  3
COLORCHANGE
350
1636D
  3
CONCEPTUAL
350
16366
  3
DIM
350
16368
  3
EDGECOLOROFF
350
16BB9
  3
FACEPATTERN
350
1636C
  3
FLAT
350
1635E
  3
FLATWITHEDGES
350
1635F
  3
GOURAUD
350
16360
  3
GOURAUDWITHEDGES
350
16361
  3
HIDDEN
350
184B0
  3
JITTEROFF
350
16BB7
  3
LINEPATTERN
350
1636B
  3
MODELING
350
184B6
  3
OVERHANGOFF
350
16BB8
  3
REALISTIC
350
16367
  3
SHADED
350
184B5
  3
SHADED_WITH_EDGES
350
184B4
  3
SHADES_OF_GRAY
350
184B1
  3
SKETCHY
350
184B2
  3
THICKEN
350
1636A
  3
WIREFRAME
350
184AF
  3
X-RAY
350
184B3
1001
ACAD
1000
TREAT_AS_HARD
1070
     0
  0
DICTIONARY
  5
192DC
102
{ACAD_REACTORS
330
C
102
}
330
C
100
AcDbDictionary
  3
COLORDICT
350
192DD
  3
MATERIALDICT
350
192DE
1001
ACAD
1000
TREAT_AS_HARD
1070
     0
  0
DICTIONARY
  5
37
102
{ACAD_REACTORS
330
C
102
}
330
C
100
AcDbDictionary
  3
CANNOSCALE
350
16AC7
  3
CMLEADERSTYLE
350
16AC6
  3
CTABLESTYLE
350
4F1
  3
DIMADEC
350
38
  3
DIMASSOC
350
408
  3
HIDETEXT
350
1891
  3
INDEXCTL
350
16AC9
  3
INTERSECTIONCOLOR
350
1895
  3
INTERSECTIONDISPLAY
350
1894
  3
MSLTSCALE
350
18577
  3
OBSCOLOR
350
1892
  3
OBSLTYPE
350
1893
  3
PROJECTNAME
350
409
  3
SORTENTS
350
16AC8
  3
XCLIPFRAME
350
19095
1001
ACAD
1000
TREAT_AS_HARD
1070
     0
  0
DICTIONARY
  5
179D9
102
{ACAD_REACTORS
330
C
102
}
330
C
100
AcDbDictionary
1001
ACAD
1000
TREAT_AS_HARD
1070
     0
  0
DICTIONARY
  5
D8
102
{ACAD_REACTORS
330
C
102
}
330
C
100
AcDbDictionary
1001
CONTENTTABDATA
1070
    11
1000
Child
1000
D:\ACLT\TABset\CHILDREN.dwg
1070
     0
1070
     0
1070
     1
1000
PK
1000
D:\ACLT\TABset\PK.dwg
1070
     0
1070
     0
1070
     1
1000
Lev1
1000
D:\ACLT\TABset\Lever01.dwg
1070
     0
1070
     0
1070
     1
1000
Lev2
1000
D:\ACLT\TABset\Lever02.dwg
1070
     0
1070
     0
1070
     1
1000
L3
1000
D:\Aclt\TABset\Lever03.dwg
1070
     0
1070
     0
1070
     1
1000
Form
1000
D:\ACLT\FORMAT
1070
     1
1070
     0
1070
     1
1000
Jnt
1000
D:\ACLT\TABset\JOINTPARTS.dwg
1070
     0
1070
     0
1070
     1
1000
ISO
1000
D:\ACLT\TABset\Isome01.dwg
1070
     0
1070
     0
1070
     1
1000
R
1000
D:\ACLT\TABset\REGION.dwg
1070
     0
1070
     0
1070
     1
1000
std
1000
D:\ACLT\TABset\std_sym_all.dwg
1070
     0
1070
     0
1070
     1
1000
丸
1000
D:\Aclt\TABset\MARU.dwg
1070
     0
1070
     0
1070
     1
1001
CONTENTCURRENTTAB
1070
     0
1001
ACAD
1000
TREAT_AS_HARD
1070
     0
  0
DICTIONARY
  5
20
102
{ACAD_REACTORS
330
C
102
}
330
C
100
AcDbDictionary
1001
DRAWINGVARIABLESXDATA
1000
POLARANG
1000
0.261799387799149410000000
1000
POLARMODE
1000
1
1000
POLARSTYLE
1000
1
1001
ACAD
1000
TREAT_AS_HARD
1070
     0
  0
XRECORD
  5
192DF
102
{ACAD_REACTORS
330
C
102
}
330
C
100
AcDbXrecord
  1
DWGPROPS COOKIE
  2

  3

  4

  6

  7

  8
3969
  9

300
=
301
=
302
=
303
=
304
=
305
=
306
=
307
=
308
=
309
=
 40
0.0
 41
2453033.357663484
 42
2458820.358907176
  1

 90
        0
  0
DICTIONARY
  5
15F93
102
{ACAD_REACTORS
330
15F92
102
}
330
15F92
100
AcDbDictionary
1001
ACAD
1000
TREAT_AS_HARD
1070
     0
  0
ACAD_PROXY_OBJECT
  5
163B0
102
{ACAD_REACTORS
330
163AF
102
}
330
163AF
100
AcDbZombieObject
 90
      499
 91
      519
 93
       34
310
40C8804040
  0
ACAD_PROXY_OBJECT
  5
163B2
102
{ACAD_REACTORS
330
163B1
102
}
330
163B1
100
AcDbZombieObject
 90
      499
 91
      519
 93
       34
310
40C8804040
  0
ACAD_PROXY_OBJECT
  5
163B4
102
{ACAD_REACTORS
330
163B3
102
}
330
163B3
100
AcDbZombieObject
 90
      499
 91
      519
 93
       34
310
40C8804040
  0
ACAD_PROXY_OBJECT
  5
163BE
102
{ACAD_REACTORS
330
163BD
102
}
330
163BD
100
AcDbZombieObject
 90
      499
 91
      519
 93
       34
310
40C8804040
  0
ACAD_PROXY_OBJECT
  5
163C2
102
{ACAD_REACTORS
330
163C1
102
}
330
163C1
100
AcDbZombieObject
 90
      499
 91
      519
 93
       34
310
40C8804040
  0
ACAD_PROXY_OBJECT
  5
163C6
102
{ACAD_REACTORS
330
163C5
102
}
330
163C5
100
AcDbZombieObject
 90
      499
 91
      519
 93
       34
310
40C8804040
  0
ACAD_PROXY_OBJECT
  5
163DC
102
{ACAD_REACTORS
330
163DB
102
}
330
163DB
100
AcDbZombieObject
 90
      499
 91
      519
 93
       34
310
40C8804040
  0
ACAD_PROXY_OBJECT
  5
163E2
102
{ACAD_REACTORS
330
163E1
102
}
330
163E1
100
AcDbZombieObject
 90
      499
 91
      519
 93
       34
310
40C8804040
  0
SORTENTSTABLE
  5
6EA
102
{ACAD_REACTORS
330
6E9
102
}
330
6E9
100
AcDbSortentsTable
330
18
331
0
  5
99AB
331
0
  5
AB53
331
0
  5
AB54
331
0
  5
ECB5
331
0
  5
149CB
331
1776A
  5
17B84
331
17774
  5
17B85
331
17775
  5
17B86
331
1788F
  5
17D9F
331
17890
  5
17DA0
331
17891
  5
17DA1
331
17892
  5
17DA2
331
17893
  5
17DA3
331
17894
  5
17DA4
331
178A4
  5
17DA5
331
178A6
  5
17F32
331
178A7
  5
17F33
331
178A8
  5
17F34
331
178A9
  5
17F35
331
178AA
  5
17F36
331
178AB
  5
17F37
331
178BB
  5
17F38
331
178BD
  5
190D7
331
178BE
  5
190D8
331
178BF
  5
190D9
331
178C0
  5
190DA
331
178C1
  5
190DB
331
178C2
  5
190DC
331
178D2
  5
190DD
331
178D4
  5
19127
331
178D5
  5
19128
331
178D6
  5
19129
331
178D7
  5
1912A
331
178D8
  5
1912B
331
178D9
  5
1912C
331
0
  5
1912D
331
0
  5
1912E
331
0
  5
1912F
331
0
  5
19130
331
0
  5
19131
331
0
  5
19132
331
0
  5
19133
331
0
  5
19134
331
0
  5
19135
331
0
  5
19136
331
17B83
  5
1917A
331
17B84
  5
1917B
331
17B85
  5
1917C
331
17B86
  5
1917D
331
17B87
  5
1917E
331
17B88
  5
1917F
331
17B89
  5
19180
331
17B8A
  5
19181
331
17B8B
  5
19182
331
17B8C
  5
19183
331
17B8D
  5
19184
331
17B8E
  5
19185
331
17B8F
  5
19186
331
17B90
  5
19187
331
17B91
  5
19188
331
17B92
  5
19189
331
17B93
  5
1918A
331
17B94
  5
1918B
331
17B95
  5
1918C
331
17B96
  5
1918D
331
17B97
  5
1918E
331
17B98
  5
1918F
331
17B99
  5
19190
331
17B9A
  5
19191
331
17B9B
  5
19192
331
17B9C
  5
19193
331
17B9D
  5
19194
331
17B9E
  5
19196
331
17B9F
  5
19197
331
17BA0
  5
19198
331
17BA1
  5
19199
331
17BA2
  5
1919A
331
17BA3
  5
1919B
331
17BA4
  5
1919C
331
17BA5
  5
1919D
331
17BA6
  5
1919E
331
17BA7
  5
1919F
331
17BA8
  5
191A0
331
17BBA
  5
191A1
331
17BBC
  5
191A2
331
17BC1
  5
191A3
331
17BC2
  5
191A4
331
17BC5
  5
191A5
331
17BC7
  5
191A6
331
17BC8
  5
191A7
331
17BC9
  5
191A8
331
17BCA
  5
191A9
331
17BCB
  5
191AA
331
17BCC
  5
191AB
331
17BCD
  5
191AC
331
17BCE
  5
191AD
331
17BD0
  5
191AE
331
17BD1
  5
191AF
331
17BDC
  5
191B0
331
17BDD
  5
191B1
331
17BDE
  5
191B2
331
17BDF
  5
191B3
331
17BE0
  5
191B4
331
17BE1
  5
191B5
331
17BE2
  5
191B6
331
17BE3
  5
191B7
331
17BE4
  5
191B8
331
17BE5
  5
191B9
331
17BE6
  5
191BA
331
17BE7
  5
191BB
331
17BE8
  5
191BC
331
17BE9
  5
191BD
331
17BEA
  5
191BE
331
17BEB
  5
191BF
331
17BEC
  5
191C0
331
17BED
  5
191C1
331
17BEE
  5
191C2
331
17BEF
  5
191C3
331
17BF0
  5
191C4
331
17BFD
  5
191C5
331
17BFE
  5
191C6
331
17BFF
  5
191C7
331
17C14
  5
191CA
331
17D9F
  5
191CE
331
17DA0
  5
191CF
331
17DA1
  5
191D0
331
17DA2
  5
191D1
331
17DA3
  5
191D6
331
17DA4
  5
191D7
331
17DA5
  5
191D8
331
17DA6
  5
191D9
331
17DA7
  5
191DA
331
17DA8
  5
191DB
331
17DA9
  5
191DC
331
17DAA
  5
191DD
331
17DAB
  5
191DE
331
17DAC
  5
191DF
331
17DAD
  5
191E0
331
17DAE
  5
191E1
331
17DAF
  5
191E2
331
17DB0
  5
191E3
331
17DB1
  5
191E4
331
17DB2
  5
191E5
331
17DB3
  5
191E6
331
17DB4
  5
191E7
331
17DB5
  5
191E8
331
17DB6
  5
191E9
331
17DB7
  5
191EA
331
17DB8
  5
191EB
331
17DB9
  5
191EC
331
17DBA
  5
191ED
331
17DBB
  5
191EE
331
17DBC
  5
191EF
331
17DBD
  5
191F0
331
17DBE
  5
191F1
331
17DBF
  5
191F2
331
17DC0
  5
191F3
331
17DC1
  5
191F4
331
17DC2
  5
191F5
331
17DC3
  5
191F6
331
17DC4
  5
191F7
331
17DC5
  5
191FB
331
17DC6
  5
191FC
331
17DC7
  5
191FD
331
17DC8
  5
19201
331
17DC9
  5
19202
331
17DCA
  5
19203
331
17DCB
  5
19204
331
17DCC
  5
19205
331
17DCD
  5
19206
331
17DCE
  5
19207
331
17DCF
  5
19208
331
17DD0
  5
19209
331
17DD1
  5
1920A
331
17DD2
  5
1920B
331
17DD3
  5
1920C
331
17DD4
  5
1920D
331
17DD5
  5
1920E
331
17DD6
  5
1920F
331
17DD7
  5
19210
331
17DD8
  5
19211
331
17DD9
  5
19212
331
17DDA
  5
19213
331
17DDB
  5
19214
331
17DDC
  5
19215
331
17DE2
  5
19216
331
0
  5
191C8
331
0
  5
191C9
331
17EDE
  5
1922B
331
17EDF
  5
1922D
331
17EE0
  5
1922E
331
0
  5
191D2
331
0
  5
191D3
331
0
  5
191D4
331
0
  5
191D5
331
0
  5
17F30
331
17F26
  5
1928D
331
17F27
  5
1928E
331
17F28
  5
1928F
331
17F29
  5
19290
331
17F2A
  5
19291
331
17F2B
  5
19292
331
17F2F
  5
1922F
331
17F30
  5
19232
331
17F31
  5
191CD
331
17F32
  5
191CB
331
17F33
  5
19293
331
17F34
  5
19296
331
17F35
  5
19297
331
17F36
  5
19299
331
17F37
  5
19298
331
17F38
  5
19231
331
17F39
  5
191CC
331
17F3A
  5
19230
331
17F3B
  5
19295
331
17F3C
  5
19233
331
17F3D
  5
19294
331
0
  5
1922C
331
180B3
  5
192A4
331
180B4
  5
192A5
331
180B5
  5
192A6
331
180B6
  5
192A7
331
180B7
  5
192A8
331
180B8
  5
192A9
331
180B9
  5
192AA
331
180BA
  5
192AB
331
180BB
  5
192AC
331
180BC
  5
192AD
331
180BE
  5
192AE
331
180BF
  5
192AF
331
180C1
  5
192B0
331
180C3
  5
192B1
331
180F8
  5
192B2
331
0
  5
1923C
331
182CB
  5
192BD
331
182CC
  5
192BE
331
182CF
  5
192BF
331
182D0
  5
192C0
331
182D1
  5
192C1
331
182D2
  5
192C2
331
18FB9
  5
192C3
331
18FBA
  5
192C4
331
18FBB
  5
192C5
331
18FBC
  5
192C6
331
18FBD
  5
192C7
331
18FBE
  5
192C8
331
18FBF
  5
192C9
331
18FC0
  5
192CA
331
18FC1
  5
192CB
331
18FC2
  5
192CC
331
18FC3
  5
192CD
331
18FC4
  5
192CE
331
18FC5
  5
192CF
331
1904C
  5
192D0
331
1904D
  5
192D1
331
1904E
  5
192D2
331
1904F
  5
192D3
331
19050
  5
192D4
331
19051
  5
192D5
331
19052
  5
192D6
331
19053
  5
192D7
331
19054
  5
192D8
331
19055
  5
192D9
331
19056
  5
192DA
331
19057
  5
192DB
331
0
  5
1776A
331
190C3
  5
178A8
331
190C4
  5
178A9
331
190C5
  5
178AA
331
190C6
  5
178AB
331
190C7
  5
178BB
331
190C8
  5
178BD
331
190C9
  5
178BE
331
190CA
  5
178BF
331
190CB
  5
178C0
331
0
  5
178A6
331
190CD
  5
17960
331
190CE
  5
17978
331
190CF
  5
179D0
331
190D0
  5
179D1
331
190D1
  5
179DB
331
190D2
  5
179DC
331
190D3
  5
179E5
331
190D4
  5
179E6
331
190D5
  5
17B83
331
0
  5
178D2
331
190D7
  5
17B92
331
190D8
  5
17B93
331
190D9
  5
17B94
331
190DA
  5
17B95
331
190DB
  5
17B96
331
190DC
  5
17B97
331
190DD
  5
17B98
331
190DE
  5
17B99
331
190DF
  5
17B9A
331
190E0
  5
17B9B
331
190E1
  5
17B9C
331
190E2
  5
17B9D
331
190E3
  5
17B9E
331
190E4
  5
17B9F
331
190E5
  5
17BA0
331
190E6
  5
17BA1
331
190E7
  5
17BA2
331
190E8
  5
17BA3
331
190E9
  5
17BA4
331
190EA
  5
17BA5
331
190EB
  5
17BA6
331
190EC
  5
17BA7
331
190ED
  5
17BA8
331
190EE
  5
17BBA
331
190EF
  5
17BBC
331
190F0
  5
17BC1
331
190F1
  5
17BC2
331
190F2
  5
17BC5
331
190F3
  5
17BC7
331
190F4
  5
17BC8
331
190F5
  5
17BC9
331
190F6
  5
17BCA
331
190F7
  5
17BCB
331
190F8
  5
17BCC
331
190F9
  5
17BCD
331
190FA
  5
17BCE
331
190FB
  5
17BD0
331
190FC
  5
17BD1
331
190FD
  5
17BDD
331
190FE
  5
17BDE
331
190FF
  5
17BDF
331
19100
  5
17BE0
331
19101
  5
17BE1
331
19102
  5
17BE2
331
19103
  5
17BE3
331
19104
  5
17BE4
331
19105
  5
17BE5
331
19106
  5
17BE6
331
19107
  5
17BE7
331
19108
  5
17BE8
331
19109
  5
17BE9
331
1910A
  5
17BEA
331
1910B
  5
17BEB
331
1910C
  5
17BEC
331
1910D
  5
17BED
331
1910E
  5
17BEE
331
1910F
  5
17BEF
331
19110
  5
17BF0
331
19111
  5
17BFD
331
19112
  5
17BFE
331
19113
  5
17BFF
331
19114
  5
17C14
331
0
  5
17BDC
331
19116
  5
17DB1
331
19117
  5
17DB2
331
19118
  5
17DB3
331
19119
  5
17DB4
331
1911A
  5
17DB5
331
1911B
  5
17DB6
331
1911C
  5
17DB7
331
1911D
  5
17DB8
331
1911E
  5
17DB9
331
1911F
  5
17DBA
331
19120
  5
17DBB
331
19121
  5
17DBC
331
19122
  5
17DBD
331
19123
  5
17DBE
331
19124
  5
17DBF
331
19125
  5
17DC0
331
19126
  5
17DC1
331
19127
  5
17DC2
331
19128
  5
17DC3
331
19129
  5
17DC4
331
1912A
  5
17DC5
331
1912B
  5
17DC6
331
1912C
  5
17DC7
331
1912D
  5
17DC8
331
1912E
  5
17DC9
331
1912F
  5
17DCA
331
19130
  5
17DCB
331
19131
  5
17DCD
331
19132
  5
17DCE
331
19133
  5
17DCF
331
19134
  5
17DD0
331
19135
  5
17DD1
331
19136
  5
17DD2
331
19137
  5
17DD3
331
19138
  5
17DD4
331
19139
  5
17DD5
331
1913A
  5
17DD6
331
1913B
  5
17DD7
331
1913C
  5
17DD8
331
1913D
  5
17DD9
331
1913E
  5
17DDA
331
1913F
  5
17DDB
331
19140
  5
17DDC
331
19141
  5
17DE2
331
19142
  5
17E02
331
19143
  5
17E2D
331
19144
  5
17EDE
331
19145
  5
17EDF
331
19146
  5
17EE0
331
19147
  5
17EE3
331
19148
  5
17EE4
331
19149
  5
17EE5
331
1914A
  5
17F25
331
1914B
  5
17F26
331
1914C
  5
17F27
331
1914D
  5
17F28
331
1914E
  5
17F29
331
1914F
  5
17F2A
331
19150
  5
17F2B
331
19151
  5
17F2D
331
19152
  5
17F2F
331
19153
  5
17F31
331
0
  5
17DCC
331
19155
  5
180B8
331
19156
  5
180B9
331
19157
  5
180BA
331
19158
  5
180BB
331
19159
  5
180BC
331
1915A
  5
180BE
331
1915B
  5
180BF
331
1915C
  5
180C1
331
1915D
  5
180C3
331
1915E
  5
180F8
331
1915F
  5
181D8
331
19160
  5
182CB
331
19161
  5
182CC
331
19162
  5
182CF
331
19163
  5
182D0
331
19164
  5
182D1
331
19165
  5
18FB9
331
19166
  5
18FBA
331
19167
  5
18FBB
331
19168
  5
18FBC
331
19169
  5
18FBD
331
1916A
  5
18FBE
331
1916B
  5
18FBF
331
1916C
  5
18FC0
331
1916D
  5
18FC1
331
1916E
  5
18FC2
331
1916F
  5
18FC3
331
19170
  5
18FC4
331
19171
  5
18FC5
331
19172
  5
1904C
331
19173
  5
1904D
331
19174
  5
1904E
331
19175
  5
1904F
331
19176
  5
19050
331
19177
  5
19051
331
19178
  5
19052
331
19179
  5
19053
331
1917A
  5
19054
331
1917B
  5
19055
331
1917C
  5
19056
331
1917D
  5
19057
331
1917E
  5
190C2
331
1917F
  5
190C3
331
19180
  5
190C4
331
19181
  5
190C5
331
19182
  5
190C6
331
19183
  5
190C7
331
19184
  5
190C8
331
19185
  5
190C9
331
19186
  5
190CA
331
19187
  5
190CB
331
19188
  5
190CC
331
19189
  5
190CD
331
1918A
  5
190CE
331
1918B
  5
190CF
331
1918C
  5
190D0
331
1918D
  5
190D1
331
1918E
  5
190D2
331
1918F
  5
190D3
331
19190
  5
190D4
331
19191
  5
190D5
331
19192
  5
190D6
331
0
  5
182D2
331
19194
  5
190E9
331
19195
  5
190EA
331
19196
  5
190EB
331
19197
  5
190EC
331
19198
  5
190ED
331
19199
  5
190EE
331
1919A
  5
190EF
331
1919B
  5
190F0
331
1919C
  5
190F1
331
1919D
  5
190F2
331
1919E
  5
190F3
331
1919F
  5
190F4
331
191A0
  5
190F5
331
191A1
  5
190F6
331
191A2
  5
190F7
331
191A3
  5
190F8
331
191A4
  5
190F9
331
191A5
  5
190FA
331
191A6
  5
190FB
331
191A7
  5
190FC
331
191A8
  5
190FD
331
191A9
  5
190FE
331
191AA
  5
190FF
331
191AB
  5
19100
331
191AC
  5
19101
331
191AD
  5
19102
331
191AE
  5
19103
331
191AF
  5
19104
331
191B0
  5
19105
331
191B1
  5
19106
331
191B2
  5
19107
331
191B3
  5
19108
331
191B4
  5
19109
331
191B5
  5
1910A
331
191B6
  5
1910B
331
191B7
  5
1910C
331
191B8
  5
1910D
331
191B9
  5
1910E
331
191BA
  5
1910F
331
191BB
  5
19110
331
191BC
  5
19111
331
191BD
  5
19112
331
191BE
  5
19113
331
191BF
  5
19114
331
191C0
  5
19115
331
191C1
  5
19116
331
191C2
  5
19117
331
191C3
  5
19118
331
191C4
  5
19119
331
191C5
  5
1911A
331
191C6
  5
1911B
331
191C7
  5
1911C
331
191C8
  5
1911D
331
191C9
  5
1911E
331
191CA
  5
1911F
331
191CB
  5
19120
331
191CC
  5
19121
331
191CD
  5
19122
331
191CE
  5
19123
331
191CF
  5
19124
331
191D0
  5
19125
331
191D1
  5
19126
331
0
  5
19195
331
191D3
  5
19249
331
191D4
  5
1924A
331
191D5
  5
1924B
331
191D6
  5
1924C
331
191D7
  5
1924D
331
191D8
  5
1924E
331
191D9
  5
1924F
331
191DA
  5
19250
331
191DB
  5
19251
331
191DC
  5
19252
331
191DD
  5
19253
331
191DE
  5
19254
331
191DF
  5
19255
331
191E0
  5
19256
331
191E1
  5
19257
331
191E2
  5
19258
331
191E3
  5
19259
331
191E4
  5
1925A
331
191E5
  5
1925B
331
191E6
  5
1925C
331
191E7
  5
1925D
331
191E8
  5
1925E
331
191E9
  5
1925F
331
191EA
  5
19260
331
191EB
  5
19261
331
191EC
  5
19262
331
191ED
  5
19263
331
191EE
  5
19264
331
191EF
  5
19265
331
191F0
  5
19266
331
191F1
  5
19267
331
191F2
  5
19268
331
191F3
  5
19269
331
191F4
  5
1926A
331
191F5
  5
1926B
331
191F6
  5
1926C
331
191F7
  5
19270
331
191F8
  5
19271
331
191F9
  5
19272
331
191FA
  5
19273
331
191FB
  5
19274
331
191FC
  5
19275
331
191FD
  5
19276
331
191FE
  5
19277
331
191FF
  5
19278
331
19200
  5
19279
331
19201
  5
1927A
331
19202
  5
1927B
331
19203
  5
1927C
331
19204
  5
1927D
331
19205
  5
1927E
331
19206
  5
1927F
331
19207
  5
19280
331
19208
  5
19281
331
19209
  5
19285
331
1920A
  5
19286
331
1920B
  5
19287
331
1920C
  5
19288
331
1920D
  5
19289
331
1920E
  5
1928A
331
1920F
  5
1928B
331
19210
  5
1928C
331
19211
  5
17774
331
19212
  5
17775
331
19213
  5
1788F
331
19214
  5
17890
331
19215
  5
17891
331
19216
  5
17892
331
19217
  5
17893
331
19218
  5
17894
331
19219
  5
178A4
331
1921A
  5
178A7
331
1921B
  5
178C1
331
1921C
  5
178C2
331
1921D
  5
178D4
331
1921E
  5
178D5
331
1921F
  5
178D6
331
19220
  5
178D7
331
19221
  5
178D8
331
19222
  5
178D9
331
19223
  5
17913
331
19224
  5
17914
331
19225
  5
17B87
331
19226
  5
17B88
331
19227
  5
17B89
331
19228
  5
17B8A
331
19229
  5
17B8B
331
1922A
  5
17B8C
331
1922B
  5
17B8D
331
1922C
  5
17B8E
331
1922D
  5
17B8F
331
1922E
  5
17B90
331
1922F
  5
17B91
331
19230
  5
17DA6
331
19231
  5
17DA7
331
19232
  5
17DA8
331
19233
  5
17DA9
331
19234
  5
17DAA
331
19235
  5
17DAB
331
19236
  5
17DAC
331
19237
  5
17DAD
331
19238
  5
17DAE
331
19239
  5
17DAF
331
1923A
  5
17DB0
331
1923B
  5
17F39
331
1923C
  5
17F3A
331
1923D
  5
17F3B
331
1923E
  5
17F3C
331
1923F
  5
17F3D
331
19240
  5
17F81
331
19241
  5
180B3
331
19242
  5
180B4
331
19243
  5
180B5
331
19244
  5
180B6
331
19245
  5
180B7
331
19246
  5
190DE
331
19247
  5
190DF
331
19248
  5
190E0
331
19249
  5
190E1
331
1924A
  5
190E2
331
1924B
  5
190E3
331
1924C
  5
190E4
331
1924D
  5
190E5
331
1924E
  5
190E6
331
1924F
  5
190E7
331
19250
  5
190E8
331
19251
  5
1923E
331
19252
  5
1923F
331
19253
  5
19240
331
19254
  5
19241
331
19255
  5
19242
331
19256
  5
19243
331
19257
  5
19244
331
19258
  5
19245
331
19259
  5
19246
331
1925A
  5
19247
331
1925B
  5
19248
331
1925C
  5
19137
331
1925D
  5
19138
331
1925E
  5
19139
331
0
  5
1913A
331
0
  5
1913B
331
0
  5
1913C
331
19262
  5
1914A
331
19263
  5
1914B
331
19264
  5
1914F
331
0
  5
19140
331
0
  5
19141
331
0
  5
19142
331
19268
  5
19157
331
19269
  5
19158
331
1926A
  5
19159
331
0
  5
19146
331
0
  5
19147
331
0
  5
19148
331
1926E
  5
19161
331
1926F
  5
19162
331
19270
  5
19163
331
0
  5
1914C
331
0
  5
1914D
331
0
  5
1914E
331
19274
  5
1916B
331
19275
  5
1916C
331
19276
  5
1916D
331
19277
  5
1916E
331
19278
  5
1916F
331
19279
  5
19170
331
1927A
  5
19171
331
1927B
  5
19172
331
1927C
  5
19173
331
1927D
  5
19174
331
1927E
  5
19175
331
1927F
  5
19176
331
19280
  5
19177
331
19281
  5
19178
331
19282
  5
19179
331
19283
  5
19217
331
19284
  5
19218
331
19285
  5
19219
331
0
  5
191F8
331
0
  5
191F9
331
0
  5
191FA
331
19289
  5
19221
331
1928A
  5
19222
331
1928B
  5
19223
331
0
  5
191FE
331
0
  5
191FF
331
0
  5
19200
331
1928F
  5
19234
331
19290
  5
19235
331
19291
  5
19236
331
19292
  5
19237
331
19293
  5
19238
331
19294
  5
19239
331
19295
  5
1923A
331
19296
  5
1923B
331
19297
  5
1923D
331
19298
  5
1929A
331
19299
  5
1929B
331
1929A
  5
1929C
331
0
  5
1926D
331
0
  5
1926E
331
0
  5
1926F
331
1929E
  5
192B3
331
1929F
  5
192B4
331
192A0
  5
192B5
331
0
  5
19282
331
0
  5
19283
331
0
  5
19284
331
192A4
  5
1913D
331
192A5
  5
1913E
331
192A6
  5
1913F
331
192A7
  5
19143
331
192A8
  5
19144
331
192A9
  5
19145
331
192AA
  5
19149
331
192AB
  5
19150
331
192AC
  5
19151
331
192AD
  5
19152
331
192AE
  5
19153
331
192AF
  5
19154
331
192B0
  5
19155
331
192B1
  5
19156
331
192B2
  5
1915A
331
192B3
  5
1915B
331
192B4
  5
1915C
331
192B5
  5
1915D
331
192B6
  5
1915E
331
192B7
  5
1915F
331
192B8
  5
19160
331
192B9
  5
19164
331
192BA
  5
19165
331
192BB
  5
19166
331
192BC
  5
19167
331
192BD
  5
19168
331
192BE
  5
19169
331
192BF
  5
1916A
331
192C0
  5
1921A
331
192C1
  5
1921B
331
192C2
  5
1921C
331
192C3
  5
1921D
331
192C4
  5
1921E
331
192C5
  5
1921F
331
192C6
  5
19220
331
192C7
  5
19224
331
192C8
  5
19225
331
192C9
  5
19226
331
192CA
  5
19227
331
192CB
  5
19228
331
192CC
  5
19229
331
192CD
  5
1922A
331
192CE
  5
1929D
331
192CF
  5
1929E
331
192D0
  5
1929F
331
192D1
  5
192A0
331
192D2
  5
192A1
331
192D3
  5
192A2
331
192D4
  5
192A3
331
192D5
  5
192B6
331
192D6
  5
192B7
331
192D7
  5
192B8
331
192D8
  5
192B9
331
192D9
  5
192BA
331
192DA
  5
192BB
331
192DB
  5
192BC
  0
SORTENTSTABLE
  5
59C
102
{ACAD_REACTORS
330
59B
102
}
330
59B
100
AcDbSortentsTable
330
15
331
0
  5
18E0F
331
57
  5
57
331
0
  5
70
331
0
  5
124EA
331
0
  5
149C6
331
0
  5
18E08
331
0
  5
18E09
331
0
  5
18E0A
331
0
  5
18E0B
331
0
  5
18E0C
331
0
  5
18E0D
331
0
  5
18E0E
331
0
  5
19079
331
0
  5
1907A
331
0
  5
1907B
331
0
  5
1907C
331
0
  5
1907D
331
0
  5
18E10
331
0
  5
18E11
331
0
  5
18E12
331
0
  5
18E13
331
0
  5
18E14
331
0
  5
19078
  0
GROUP
  5
17895
102
{ACAD_REACTORS
330
D
102
}
330
D
100
AcDbGroup
300

 70
     1
 71
     1
340
17894
340
17893
340
17892
340
17891
340
17890
340
1788F
  0
GROUP
  5
178AC
102
{ACAD_REACTORS
330
D
102
}
330
D
100
AcDbGroup
300

 70
     1
 71
     1
340
178AB
340
178AA
340
178A9
340
178A8
340
178A7
340
178A6
340
178A4
  0
GROUP
  5
178C3
102
{ACAD_REACTORS
330
D
102
}
330
D
100
AcDbGroup
300

 70
     1
 71
     1
340
178C2
340
178C1
340
178C0
340
178BF
340
178BE
340
178BD
340
178BB
  0
GROUP
  5
178DA
102
{ACAD_REACTORS
330
D
102
}
330
D
100
AcDbGroup
300

 70
     1
 71
     1
340
178D9
340
178D8
340
178D7
340
178D6
340
178D5
340
178D4
340
178D2
  0
GROUP
  5
17D5A
102
{ACAD_REACTORS
330
D
102
}
330
D
100
AcDbGroup
300

 70
     1
 71
     1
340
17BF0
340
17BEF
340
17BEE
340
17BED
340
17BEC
340
17BEB
340
17BEA
340
17BE9
340
17BE8
340
17BE7
340
17BE6
340
17BE5
340
17BE4
340
17BE3
340
17BE2
340
17BE1
340
17BE0
340
17BDF
340
17BDE
340
17BDD
340
17BDC
340
17BD1
340
17BD0
340
17BCE
340
17BA8
340
17BA7
340
17BA6
340
17BA5
340
17BA4
340
17BA3
340
17BA2
340
17BA1
340
17BA0
340
17B9F
340
17B9E
340
17B9D
340
17B9C
340
17B9B
340
17B9A
340
17B99
340
17B98
340
17B97
340
17B96
340
17B95
340
17B94
340
17B93
340
17B92
340
17B91
340
17B90
340
17B8F
340
17B8E
340
17B8D
340
17B8C
340
17B8B
340
17B8A
340
17B89
340
17B88
340
17B87
340
17B86
340
17B85
340
17B84
340
17B83
  0
GROUP
  5
17DDD
102
{ACAD_REACTORS
330
D
102
}
330
D
100
AcDbGroup
300

 70
     1
 71
     1
340
17DDC
340
17DDB
340
17DDA
340
17DD9
340
17DD8
340
17DD7
340
17DD6
340
17DD5
340
17DD4
340
17DD3
340
17DD2
340
17DD1
340
17DD0
340
17DCF
340
17DCE
340
17DCD
340
17DCC
340
17DCB
340
17DCA
340
17DC9
340
17DC8
340
17DC7
340
17DC6
340
17DC5
340
17DC4
340
17DC3
340
17DC2
340
17DC1
340
17DC0
340
17DBF
340
17DBE
340
17DBD
340
17DBC
340
17DBB
340
17DBA
340
17DB9
340
17DB8
340
17DB7
340
17DB6
340
17DB5
340
17DB4
340
17DB3
340
17DB2
340
17DB1
340
17DB0
340
17DAF
340
17DAE
340
17DAD
340
17DAC
340
17DAB
340
17DAA
340
17DA9
340
17DA8
340
17DA7
340
17DA6
340
17DA5
340
17DA4
340
17DA3
340
17DA2
340
17DA1
340
17DA0
340
17D9F
  0
GROUP
  5
17F2C
102
{ACAD_REACTORS
330
D
102
}
330
D
100
AcDbGroup
300

 70
     1
 71
     1
340
17F2B
340
17F2A
340
17F29
340
17F28
340
17F27
340
17F26
  0
MATERIAL
  5
1634D
102
{ACAD_REACTORS
330
2CF
102
}
102
{ACAD_XDICTIONARY
360
1947A
102
}
330
2CF
100
AcDbMaterial
  1
BYBLOCK
 72
     0
 73
     2
 43
0.0208333333333333
 43
0.0
 43
0.0
 43
0.0
 43
0.0
 43
0.0208333333333333
 43
0.0
 43
0.0
 43
0.0
 43
0.0
 43
1.0
 43
0.0
 43
0.0
 43
0.0
 43
0.0
 43
1.0
 77
     0
 78
     2
 47
0.0208333333333333
 47
0.0
 47
0.0
 47
0.0
 47
0.0
 47
0.0208333333333333
 47
0.0
 47
0.0
 47
0.0
 47
0.0
 47
1.0
 47
0.0
 47
0.0
 47
0.0
 47
0.0
 47
1.0
171
     0
172
     2
 49
0.0208333333333333
 49
0.0
 49
0.0
 49
0.0
 49
0.0
 49
0.0208333333333333
 49
0.0
 49
0.0
 49
0.0
 49
0.0
 49
1.0
 49
0.0
 49
0.0
 49
0.0
 49
0.0
 49
1.0
175
     0
176
     2
142
0.0208333333333333
142
0.0
142
0.0
142
0.0
142
0.0
142
0.0208333333333333
142
0.0
142
0.0
142
0.0
142
0.0
142
1.0
142
0.0
142
0.0
142
0.0
142
0.0
142
1.0
179
     0
270
     2
144
0.0208333333333333
144
0.0
144
0.0
144
0.0
144
0.0
144
0.0208333333333333
144
0.0
144
0.0
144
0.0
144
0.0
144
1.0
144
0.0
144
0.0
144
0.0
144
0.0
144
1.0
274
     2
147
0.0208333333333333
147
0.0
147
0.0
147
0.0
147
0.0
147
0.0208333333333333
147
0.0
147
0.0
147
0.0
147
0.0
147
1.0
147
0.0
147
0.0
147
0.0
147
0.0
147
1.0
  0
MATERIAL
  5
16345
102
{ACAD_REACTORS
330
2CF
102
}
102
{ACAD_XDICTIONARY
360
1947C
102
}
330
2CF
100
AcDbMaterial
  1
BYLAYER
 72
     0
 73
     2
 43
0.0208333333333333
 43
0.0
 43
0.0
 43
0.0
 43
0.0
 43
0.0208333333333333
 43
0.0
 43
0.0
 43
0.0
 43
0.0
 43
1.0
 43
0.0
 43
0.0
 43
0.0
 43
0.0
 43
1.0
 77
     0
 78
     2
 47
0.0208333333333333
 47
0.0
 47
0.0
 47
0.0
 47
0.0
 47
0.0208333333333333
 47
0.0
 47
0.0
 47
0.0
 47
0.0
 47
1.0
 47
0.0
 47
0.0
 47
0.0
 47
0.0
 47
1.0
171
     0
172
     2
 49
0.0208333333333333
 49
0.0
 49
0.0
 49
0.0
 49
0.0
 49
0.0208333333333333
 49
0.0
 49
0.0
 49
0.0
 49
0.0
 49
1.0
 49
0.0
 49
0.0
 49
0.0
 49
0.0
 49
1.0
175
     0
176
     2
142
0.0208333333333333
142
0.0
142
0.0
142
0.0
142
0.0
142
0.0208333333333333
142
0.0
142
0.0
142
0.0
142
0.0
142
1.0
142
0.0
142
0.0
142
0.0
142
0.0
142
1.0
179
     0
270
     2
144
0.0208333333333333
144
0.0
144
0.0
144
0.0
144
0.0
144
0.0208333333333333
144
0.0
144
0.0
144
0.0
144
0.0
144
1.0
144
0.0
144
0.0
144
0.0
144
0.0
144
1.0
274
     2
147
0.0208333333333333
147
0.0
147
0.0
147
0.0
147
0.0
147
0.0208333333333333
147
0.0
147
0.0
147
0.0
147
0.0
147
1.0
147
0.0
147
0.0
147
0.0
147
0.0
147
1.0
  0
MATERIAL
  5
16355
102
{ACAD_REACTORS
330
2CF
102
}
102
{ACAD_XDICTIONARY
360
1947E
102
}
330
2CF
100
AcDbMaterial
  1
GLOBAL
 72
     0
 73
     2
 43
0.0208333333333333
 43
0.0
 43
0.0
 43
0.0
 43
0.0
 43
0.0208333333333333
 43
0.0
 43
0.0
 43
0.0
 43
0.0
 43
1.0
 43
0.0
 43
0.0
 43
0.0
 43
0.0
 43
1.0
 77
     0
 78
     2
 47
0.0208333333333333
 47
0.0
 47
0.0
 47
0.0
 47
0.0
 47
0.0208333333333333
 47
0.0
 47
0.0
 47
0.0
 47
0.0
 47
1.0
 47
0.0
 47
0.0
 47
0.0
 47
0.0
 47
1.0
171
     0
172
     2
 49
0.0208333333333333
 49
0.0
 49
0.0
 49
0.0
 49
0.0
 49
0.0208333333333333
 49
0.0
 49
0.0
 49
0.0
 49
0.0
 49
1.0
 49
0.0
 49
0.0
 49
0.0
 49
0.0
 49
1.0
175
     0
176
     2
142
0.0208333333333333
142
0.0
142
0.0
142
0.0
142
0.0
142
0.0208333333333333
142
0.0
142
0.0
142
0.0
142
0.0
142
1.0
142
0.0
142
0.0
142
0.0
142
0.0
142
1.0
179
     0
270
     2
144
0.0208333333333333
144
0.0
144
0.0
144
0.0
144
0.0
144
0.0208333333333333
144
0.0
144
0.0
144
0.0
144
0.0
144
1.0
144
0.0
144
0.0
144
0.0
144
0.0
144
1.0
274
     2
147
0.0208333333333333
147
0.0
147
0.0
147
0.0
147
0.0
147
0.0208333333333333
147
0.0
147
0.0
147
0.0
147
0.0
147
1.0
147
0.0
147
0.0
147
0.0
147
0.0
147
1.0
  0
ACAD_PROXY_OBJECT
  5
16391
102
{ACAD_REACTORS
330
16390
102
}
330
16390
100
AcDbZombieObject
 90
      499
 91
      512
 93
      610
310
40901902A4063FBFFFFFE000000000000002040AD7A3703D0AD73F4214DD185B99185C990000000000000104090141901A00000000000004100000000000000041025764000000000000300FC0
340
12
340
0
340
F
340
0
 94
        0
1001
ACAD_MLEADERVER
1070
     2
  0
MLINESTYLE
  5
1C
102
{ACAD_REACTORS
330
1B
102
}
330
1B
100
AcDbMlineStyle
  2
STANDARD
 70
     0
  3

 62
   256
 51
90.0
 52
90.0
 71
     2
 49
0.5
 62
   256
  6
BYLAYER
 49
-0.5
 62
   256
  6
BYLAYER
  0
ACAD_PROXY_OBJECT
  5
1636F
102
{ACAD_REACTORS
330
1636E
102
}
330
1636E
100
AcDbZombieObject
 90
      499
 91
      511
 93
       41
310
903313A31580
  0
ACAD_PROXY_OBJECT
  5
16370
102
{ACAD_REACTORS
330
1636E
102
}
330
1636E
100
AcDbZombieObject
 90
      499
 91
      511
 93
      105
310
903313A324000000000000004000
  0
ACAD_PROXY_OBJECT
  5
16371
102
{ACAD_REACTORS
330
1636E
102
}
330
1636E
100
AcDbZombieObject
 90
      499
 91
      511
 93
      105
310
903313A344000000000000104000
  0
ACAD_PROXY_OBJECT
  5
16372
102
{ACAD_REACTORS
330
1636E
102
}
330
1636E
100
AcDbZombieObject
 90
      499
 91
      511
 93
      105
310
903313A354000000000000144000
  0
ACAD_PROXY_OBJECT
  5
16373
102
{ACAD_REACTORS
330
1636E
102
}
330
1636E
100
AcDbZombieObject
 90
      499
 91
      511
 93
      105
310
903313A384000000000000204000
  0
ACAD_PROXY_OBJECT
  5
16374
102
{ACAD_REACTORS
330
1636E
102
}
330
1636E
100
AcDbZombieObject
 90
      499
 91
      511
 93
      113
310
904313A31304000000000000244000
  0
ACAD_PROXY_OBJECT
  5
16375
102
{ACAD_REACTORS
330
1636E
102
}
330
1636E
100
AcDbZombieObject
 90
      499
 91
      511
 93
      113
310
904313A31364000000000000304000
  0
ACAD_PROXY_OBJECT
  5
16376
102
{ACAD_REACTORS
330
1636E
102
}
330
1636E
100
AcDbZombieObject
 90
      499
 91
      511
 93
      113
310
904313A32304000000000000344000
  0
ACAD_PROXY_OBJECT
  5
16377
102
{ACAD_REACTORS
330
1636E
102
}
330
1636E
100
AcDbZombieObject
 90
      499
 91
      511
 93
      113
310
904313A333040000000000003E4000
  0
ACAD_PROXY_OBJECT
  5
16378
102
{ACAD_REACTORS
330
1636E
102
}
330
1636E
100
AcDbZombieObject
 90
      499
 91
      511
 93
      113
310
904313A34304000000000000444000
  0
ACAD_PROXY_OBJECT
  5
16379
102
{ACAD_REACTORS
330
1636E
102
}
330
1636E
100
AcDbZombieObject
 90
      499
 91
      511
 93
      113
310
904313A35304000000000000494000
  0
ACAD_PROXY_OBJECT
  5
1637A
102
{ACAD_REACTORS
330
1636E
102
}
330
1636E
100
AcDbZombieObject
 90
      499
 91
      511
 93
      121
310
905313A3130304000000000000594000
  0
ACAD_PROXY_OBJECT
  5
1637B
102
{ACAD_REACTORS
330
1636E
102
}
330
1636E
100
AcDbZombieObject
 90
      499
 91
      511
 93
      105
310
903323A310000000000000010100
  0
ACAD_PROXY_OBJECT
  5
1637C
102
{ACAD_REACTORS
330
1636E
102
}
330
1636E
100
AcDbZombieObject
 90
      499
 91
      511
 93
      105
310
903343A310000000000000410100
  0
ACAD_PROXY_OBJECT
  5
1637D
102
{ACAD_REACTORS
330
1636E
102
}
330
1636E
100
AcDbZombieObject
 90
      499
 91
      511
 93
      105
310
903383A310000000000000810100
  0
ACAD_PROXY_OBJECT
  5
1637E
102
{ACAD_REACTORS
330
1636E
102
}
330
1636E
100
AcDbZombieObject
 90
      499
 91
      511
 93
      113
310
90431303A310000000000000910100
  0
ACAD_PROXY_OBJECT
  5
1637F
102
{ACAD_REACTORS
330
1636E
102
}
330
1636E
100
AcDbZombieObject
 90
      499
 91
      511
 93
      121
310
9053130303A310000000000001650100
  0
ACAD_PROXY_OBJECT
  5
16380
102
{ACAD_REACTORS
330
1636E
102
}
330
1636E
100
AcDbZombieObject
 90
      499
 91
      511
 93
      257
310
90E312F31323822203D2031272D3022000000000000200FC000000000000284000
  0
ACAD_PROXY_OBJECT
  5
16381
102
{ACAD_REACTORS
330
1636E
102
}
330
1636E
100
AcDbZombieObject
 90
      499
 91
      511
 93
      249
310
90D312F363422203D2031272D3022000000000000240FC000000000000284000
  0
ACAD_PROXY_OBJECT
  5
16382
102
{ACAD_REACTORS
330
1636E
102
}
330
1636E
100
AcDbZombieObject
 90
      499
 91
      511
 93
      249
310
90D312F333222203D2031272D3022000000000000280FC000000000000284000
  0
ACAD_PROXY_OBJECT
  5
16383
102
{ACAD_REACTORS
330
1636E
102
}
330
1636E
100
AcDbZombieObject
 90
      499
 91
      511
 93
      249
310
90D312F313622203D2031272D30220000000000002C0FC000000000000284000
  0
ACAD_PROXY_OBJECT
  5
16384
102
{ACAD_REACTORS
330
1636E
102
}
330
1636E
100
AcDbZombieObject
 90
      499
 91
      511
 93
      249
310
90D332F333222203D2031272D30220000000000002E0FC000000000000284000
  0
ACAD_PROXY_OBJECT
  5
16385
102
{ACAD_REACTORS
330
1636E
102
}
330
1636E
100
AcDbZombieObject
 90
      499
 91
      511
 93
      241
310
90C312F3822203D2031272D3022000000000000300FC000000000000284000
  0
ACAD_PROXY_OBJECT
  5
16386
102
{ACAD_REACTORS
330
1636E
102
}
330
1636E
100
AcDbZombieObject
 90
      499
 91
      511
 93
      249
310
90D332F313622203D2031272D3022000000000000320FC000000000000284000
  0
ACAD_PROXY_OBJECT
  5
16387
102
{ACAD_REACTORS
330
1636E
102
}
330
1636E
100
AcDbZombieObject
 90
      499
 91
      511
 93
      241
310
90C312F3422203D2031272D3022000000000000340FC000000000000284000
  0
ACAD_PROXY_OBJECT
  5
16388
102
{ACAD_REACTORS
330
1636E
102
}
330
1636E
100
AcDbZombieObject
 90
      499
 91
      511
 93
      241
310
90C332F3822203D2031272D3022000000000000360FC000000000000284000
  0
ACAD_PROXY_OBJECT
  5
16389
102
{ACAD_REACTORS
330
1636E
102
}
330
1636E
100
AcDbZombieObject
 90
      499
 91
      511
 93
      241
310
90C312F3222203D2031272D3022000000000000380FC000000000000284000
  0
ACAD_PROXY_OBJECT
  5
1638A
102
{ACAD_REACTORS
330
1636E
102
}
330
1636E
100
AcDbZombieObject
 90
      499
 91
      511
 93
      241
310
90C332F3422203D2031272D30220000000000003A0FC000000000000284000
  0
ACAD_PROXY_OBJECT
  5
1638B
102
{ACAD_REACTORS
330
1636E
102
}
330
1636E
100
AcDbZombieObject
 90
      499
 91
      511
 93
      161
310
90A3122203D2031272D30224000000000000284000
  0
ACAD_PROXY_OBJECT
  5
1638C
102
{ACAD_REACTORS
330
1636E
102
}
330
1636E
100
AcDbZombieObject
 90
      499
 91
      511
 93
      257
310
90E312D312F3222203D2031272D30220000000000003E0FC000000000000284000
  0
ACAD_PROXY_OBJECT
  5
1638D
102
{ACAD_REACTORS
330
1636E
102
}
330
1636E
100
AcDbZombieObject
 90
      499
 91
      511
 93
      225
310
90A3322203D2031272D302200000000000002100000000000000284000
  0
ACAD_PROXY_OBJECT
  5
1638E
102
{ACAD_REACTORS
330
1636E
102
}
330
1636E
100
AcDbZombieObject
 90
      499
 91
      511
 93
      225
310
90A3622203D2031272D302200000000000006100000000000000284000
  0
ACAD_PROXY_OBJECT
  5
1638F
102
{ACAD_REACTORS
330
1636E
102
}
330
1636E
100
AcDbZombieObject
 90
      499
 91
      511
 93
      249
310
90D31272D3022203D2031272D30220000000000000A100000000000000284000
  0
ACAD_PROXY_OBJECT
  5
16363
102
{ACAD_REACTORS
330
1635D
102
}
330
1635D
100
AcDbZombieObject
 90
      499
 91
      510
 93
      436
310
42CC9915DA5C99599C985B595049028333333333333E3BF0000000000000FB0107901411070040501600405405064090741402480A0340
1001
ACAD
1000
AcDbSavedByObjectVersion
1070
     0
  0
ACAD_PROXY_OBJECT
  5
16365
102
{ACAD_REACTORS
330
1635D
102
}
330
1635D
100
AcDbZombieObject
 90
      499
 91
      510
 93
      500
310
424CD108121A5919195B90640502408333333333333E3BF0000000000000FB01079024090700405020000000000001110200405405064090740C02480A0340
1001
ACAD
1000
AcDbSavedByObjectVersion
1070
     0
  0
ACAD_PROXY_OBJECT
  5
16364
102
{ACAD_REACTORS
330
1635D
102
}
330
1635D
100
AcDbZombieObject
 90
      499
 91
      510
 93
      436
310
42CCD915DA5C99599C985B595059028333333333333E3BF0000000000000FB0107901411070040501600405405064090741402480A0340
1001
ACAD
1000
AcDbSavedByObjectVersion
1070
     0
  0
ACAD_PROXY_OBJECT
  5
16362
102
{ACAD_REACTORS
330
1635D
102
}
330
1635D
100
AcDbZombieObject
 90
      499
 91
      510
 93
      388
310
4150985CDA58D07406404333333333333E3BF0000000000000FB0107A41107004050150841D405064090741402480A0350
1001
ACAD
1000
AcDbSavedByObjectVersion
1070
     0
  0
ACAD_PROXY_OBJECT
  5
16369
102
{ACAD_REACTORS
330
1635D
102
}
330
1635D
100
AcDbZombieObject
 90
      499
 91
      510
 93
      428
310
42109C9A59DA1D195B90C409028333333333333E3BF0000000000000FB010790141107004050150841D405064090741402480A029950
1001
ACAD
1000
AcDbSavedByObjectVersion
1070
     0
  0
ACAD_PROXY_OBJECT
  5
1636D
102
{ACAD_REACTORS
330
1635D
102
}
330
1635D
100
AcDbZombieObject
 90
      499
 91
      510
 93
      452
310
42D0DBDB1BDC90DA185B99D95104090240C333333333333E3BF0000000000000FB0108901411070040501508421405064090741402480A0350
1001
ACAD
1000
AcDbSavedByObjectVersion
1070
     0
  0
ACAD_PROXY_OBJECT
  5
16366
102
{ACAD_REACTORS
330
1635D
102
}
330
1635D
100
AcDbZombieObject
 90
      499
 91
      510
 93
      500
310
4290DBDB98D95C1D1D585B10940D028333333333333E3BF0000000000000FB0107902409070040501000000000000111010841D405064090740C02480A0340
1001
ACAD
1000
AcDbSavedByObjectVersion
1070
     0
  0
ACAD_PROXY_OBJECT
  5
16368
102
{ACAD_REACTORS
330
1635D
102
}
330
1635D
100
AcDbZombieObject
 90
      499
 91
      510
 93
      412
310
40D11A5B50B409028333333333333E3BF0000000000000FB010790141107004050150841D405064090741402480A02677FFFFFD0
1001
ACAD
1000
AcDbSavedByObjectVersion
1070
     0
  0
ACAD_PROXY_OBJECT
  5
16BB9
102
{ACAD_REACTORS
330
1635D
102
}
330
1635D
100
AcDbZombieObject
 90
      499
 91
      510
 93
      452
310
43115919D950DBDB1BDC93D999916409028333333333333E3BF0000000000000FB010790141107004050150841D405064090741402480A0350
1001
ACAD
1000
AcDbSavedByObjectVersion
1070
     0
  0
ACAD_PROXY_OBJECT
  5
1636C
102
{ACAD_REACTORS
330
1635D
102
}
330
1635D
100
AcDbZombieObject
 90
      499
 91
      510
 93
      444
310
42D19858D95C185D1D195C9B90F409028333333333333E3BF0000000000000FB010790141107004050150841D405064090741402480A0350
1001
ACAD
1000
AcDbSavedByObjectVersion
1070
     0
  0
ACAD_PROXY_OBJECT
  5
1635E
102
{ACAD_REACTORS
330
1635D
102
}
330
1635D
100
AcDbZombieObject
 90
      499
 91
      510
 93
      388
310
41119B185D240901404333333333333E3BF0000000000000F9010740A41107004050150841D405064090741402480A1B50
1001
ACAD
1000
AcDbSavedByObjectVersion
1070
     0
  0
ACAD_PROXY_OBJECT
  5
1635F
102
{ACAD_REACTORS
330
1635D
102
}
330
1635D
100
AcDbZombieObject
 90
      499
 91
      510
 93
      476
310
43519B185D15DA5D1A115919D95CD0140901404333333333333E3BF0000000000000F9010740901411070040501600405405064090741402480A1B50
1001
ACAD
1000
AcDbSavedByObjectVersion
1070
     0
  0
ACAD_PROXY_OBJECT
  5
16360
102
{ACAD_REACTORS
330
1635D
102
}
330
1635D
100
AcDbZombieObject
 90
      499
 91
      510
 93
      412
310
41D1DBDD5C985D5910240902404333333333333E3BF0000000000000F9010740A411070040501641D405064090741402480A1B50
1001
ACAD
1000
AcDbSavedByObjectVersion
1070
     0
  0
ACAD_PROXY_OBJECT
  5
16361
102
{ACAD_REACTORS
330
1635D
102
}
330
1635D
100
AcDbZombieObject
 90
      499
 91
      510
 93
      500
310
4411DBDD5C985D5915DA5D1A115919D95CD0340902404333333333333E3BF0000000000000F9010740901411070040501600405405064090741402480A1B50
1001
ACAD
1000
AcDbSavedByObjectVersion
1070
     0
  0
ACAD_PROXY_OBJECT
  5
184B0
102
{ACAD_REACTORS
330
1635D
102
}
330
1635D
100
AcDbZombieObject
 90
      499
 91
      510
 93
      476
310
41921A5919195B90640502408333333333333E3BF0000000000000FB01079024090700405020000000000001110200405405064090740C02480A0340
1001
ACAD
1000
AcDbSavedByObjectVersion
1070
     0
  0
ACAD_PROXY_OBJECT
  5
16BB7
102
{ACAD_REACTORS
330
1635D
102
}
330
1635D
100
AcDbZombieObject
 90
      499
 91
      510
 93
      428
310
42529A5D1D195C93D999914409028333333333333E3BF0000000000000FB010790141107004050150A41D405064090741402480A0350
1001
ACAD
1000
AcDbSavedByObjectVersion
1070
     0
  0
ACAD_PROXY_OBJECT
  5
1636B
102
{ACAD_REACTORS
330
1635D
102
}
330
1635D
100
AcDbZombieObject
 90
      499
 91
      510
 93
      444
310
42D31A5B995C185D1D195C9B90E409028333333333333E3BF0000000000000FB010790141107004050750841D405064090741402483A0350
1001
ACAD
1000
AcDbSavedByObjectVersion
1070
     0
  0
ACAD_PROXY_OBJECT
  5
184B6
102
{ACAD_REACTORS
330
1635D
102
}
330
1635D
100
AcDbZombieObject
 90
      499
 91
      510
 93
      484
310
42135BD9195B1A5B99D0A409028333333333333E3BF0000000000000F901074090290700405010000000000201990108421405064090741402480A1B40
1001
ACAD
1000
AcDbSavedByObjectVersion
1070
     0
  0
ACAD_PROXY_OBJECT
  5
16BB8
102
{ACAD_REACTORS
330
1635D
102
}
330
1635D
100
AcDbZombieObject
 90
      499
 91
      510
 93
      444
310
42D3DD995C9A185B99D3D999915409028333333333333E3BF0000000000000FB010790141107004050150941D405064090741402480A0350
1001
ACAD
1000
AcDbSavedByObjectVersion
1070
     0
  0
ACAD_PROXY_OBJECT
  5
16367
102
{ACAD_REACTORS
330
1635D
102
}
330
1635D
100
AcDbZombieObject
 90
      499
 91
      510
 93
      420
310
425499585B1A5CDD1A58D08409028333333333333E3BF0000000000000FB01079019070040501508421405064090741402480A1B40
1001
ACAD
1000
AcDbSavedByObjectVersion
1070
     0
  0
ACAD_PROXY_OBJECT
  5
184B5
102
{ACAD_REACTORS
330
1635D
102
}
330
1635D
100
AcDbZombieObject
 90
      499
 91
      510
 93
      420
310
4194DA1859195911B40902404333333333333E3BF0000000000000F9010740A41107004050150800405405064090840C02480A0B40
1001
ACAD
1000
AcDbSavedByObjectVersion
1070
     0
  0
ACAD_PROXY_OBJECT
  5
184B4
102
{ACAD_REACTORS
330
1635D
102
}
330
1635D
100
AcDbZombieObject
 90
      499
 91
      510
 93
      516
310
4454DA18591959081DDA5D1A08195919D95CD1A40902404333333333333E3BF0000000000000F901074090142907004050250800405405064090740C02480A0B40
1001
ACAD
1000
AcDbSavedByObjectVersion
1070
     0
  0
ACAD_PROXY_OBJECT
  5
184B1
102
{ACAD_REACTORS
330
1635D
102
}
330
1635D
100
AcDbZombieObject
 90
      499
 91
      510
 93
      532
310
4394DA1859195CC81BD98811DC985E5174090240C333333333333E3BF0000000000000FB01079024090741D01000000000000111010841D405064090740C02480A0340
1001
ACAD
1000
AcDbSavedByObjectVersion
1070
     0
  0
ACAD_PROXY_OBJECT
  5
184B2
102
{ACAD_REACTORS
330
1635D
102
}
330
1635D
100
AcDbZombieObject
 90
      499
 91
      510
 93
      476
310
41D4DAD95D18DA1E51840502408333333333333E3BF0000000000000FB01079024090741D01000000000000111010B41D405064090741802480A0340
1001
ACAD
1000
AcDbSavedByObjectVersion
1070
     0
  0
ACAD_PROXY_OBJECT
  5
1636A
102
{ACAD_REACTORS
330
1635D
102
}
330
1635D
100
AcDbZombieObject
 90
      499
 91
      510
 93
      412
310
41D51A1A58DAD95B90D409028333333333333E3BF0000000000000FB010790141107004050150C41D405064090741402480A0350
1001
ACAD
1000
AcDbSavedByObjectVersion
1070
     0
  0
ACAD_PROXY_OBJECT
  5
184AF
102
{ACAD_REACTORS
330
1635D
102
}
330
1635D
100
AcDbZombieObject
 90
      499
 91
      510
 93
      420
310
4255DA5C99599C985B595059028333333333333E3BF0000000000000FB0107901411070040501600405405064090740C02480A0340
1001
ACAD
1000
AcDbSavedByObjectVersion
1070
     0
  0
ACAD_PROXY_OBJECT
  5
184B3
102
{ACAD_REACTORS
330
1635D
102
}
330
1635D
100
AcDbZombieObject
 90
      499
 91
      510
 93
      404
310
41560B54985E51940902404000000000000E03F0000000000000FB010740501907004050150841D405064090740C02480A1B40
1001
ACAD
1000
AcDbSavedByObjectVersion
1070
     0
  0
XRECORD
  5
192DD
102
{ACAD_REACTORS
330
192DC
102
}
330
192DC
100
AcDbXrecord
340
2D0
  0
XRECORD
  5
192DE
102
{ACAD_REACTORS
330
192DC
102
}
330
192DC
100
AcDbXrecord
340
2CF
  0
DICTIONARYVAR
  5
16AC7
102
{ACAD_REACTORS
330
37
102
}
330
37
100
DictionaryVariables
280
     0
  1
1:1
  0
DICTIONARYVAR
  5
16AC6
102
{ACAD_REACTORS
330
37
102
}
330
37
100
DictionaryVariables
280
     0
  1
Standard
  0
DICTIONARYVAR
  5
4F1
102
{ACAD_REACTORS
330
37
102
}
330
37
100
DictionaryVariables
280
     0
  1
Standard
  0
DICTIONARYVAR
  5
38
102
{ACAD_REACTORS
330
37
102
}
330
37
100
DictionaryVariables
280
     0
  1
-1
  0
DICTIONARYVAR
  5
408
102
{ACAD_REACTORS
330
37
102
}
330
37
100
DictionaryVariables
280
     0
  1
2
  0
DICTIONARYVAR
  5
1891
102
{ACAD_REACTORS
330
37
102
}
330
37
100
DictionaryVariables
280
     0
  1
1
  0
DICTIONARYVAR
  5
16AC9
102
{ACAD_REACTORS
330
37
102
}
330
37
100
DictionaryVariables
280
     0
  1
0
  0
DICTIONARYVAR
  5
1895
102
{ACAD_REACTORS
330
37
102
}
330
37
100
DictionaryVariables
280
     0
  1
8
  0
DICTIONARYVAR
  5
1894
102
{ACAD_REACTORS
330
37
102
}
330
37
100
DictionaryVariables
280
     0
  1
1
  0
DICTIONARYVAR
  5
18577
102
{ACAD_REACTORS
330
37
102
}
330
37
100
DictionaryVariables
280
     0
  1
0
  0
DICTIONARYVAR
  5
1892
102
{ACAD_REACTORS
330
37
102
}
330
37
100
DictionaryVariables
280
     0
  1
8
  0
DICTIONARYVAR
  5
1893
102
{ACAD_REACTORS
330
37
102
}
330
37
100
DictionaryVariables
280
     0
  1
2
  0
DICTIONARYVAR
  5
409
102
{ACAD_REACTORS
330
37
102
}
330
37
100
DictionaryVariables
280
     0
  1

  0
DICTIONARYVAR
  5
16AC8
102
{ACAD_REACTORS
330
37
102
}
330
37
100
DictionaryVariables
280
     0
  1
127
  0
DICTIONARYVAR
  5
19095
102
{ACAD_REACTORS
330
37
102
}
330
37
100
DictionaryVariables
280
     0
  1
2
  0
DICTIONARY
  5
1947A
330
1634D
100
AcDbDictionary
  3
ACAD_XREC_ROUNDTRIP
360
1947B
1001
ACAD
1000
TREAT_AS_HARD
1070
     1
  0
DICTIONARY
  5
1947C
330
16345
100
AcDbDictionary
  3
ACAD_XREC_ROUNDTRIP
360
1947D
1001
ACAD
1000
TREAT_AS_HARD
1070
     1
  0
DICTIONARY
  5
1947E
330
16355
100
AcDbDictionary
  3
ACAD_XREC_ROUNDTRIP
360
1947F
1001
ACAD
1000
TREAT_AS_HARD
1070
     1
  0
XRECORD
  5
1947B
102
{ACAD_REACTORS
330
1947A
102
}
330
1947A
100
AcDbXrecord
102
MATERIAL
148
0.0
149
0.0
149
0.0
 93
        0
 94
      127
282
     0
 72
     0
 77
     0
171
     0
175
     0
179
     0
273
     0
  0
XRECORD
  5
1947D
102
{ACAD_REACTORS
330
1947C
102
}
330
1947C
100
AcDbXrecord
102
MATERIAL
148
0.0
149
0.0
149
0.0
 93
        0
 94
      127
282
     0
 72
     0
 77
     0
171
     0
175
     0
179
     0
273
     0
  0
XRECORD
  5
1947F
102
{ACAD_REACTORS
330
1947E
102
}
330
1947E
100
AcDbXrecord
102
MATERIAL
148
0.0
149
0.0
149
0.0
 93
        0
 94
      127
282
     0
 72
     0
 77
     0
171
     0
175
     0
179
     0
273
     0
  0
ENDSEC
  0
EOF
