  0
SECTION
  2
HEADER
  9
$ACADVER
  1
AC1009
  9
$DWGCODEPAGE
  3
ansi_932
  9
$INSBASE
 10
0.0
 20
0.0
 30
0.0
  9
$EXTMIN
 10
-127.8611708934978
 20
-940.613024374233
 30
0.0
  9
$EXTMAX
 10
514.904818989799
 20
-696.9140384076236
 30
0.0
  9
$LIMMIN
 10
0.0
 20
0.0
  9
$LIMMAX
 10
420.0
 20
297.0
  9
$ORTHOMODE
 70
     0
  9
$REGENMODE
 70
     1
  9
$FILLMODE
 70
     1
  9
$QTEXTMODE
 70
     0
  9
$MIRRTEXT
 70
     0
  9
$DRAGMODE
 70
     2
  9
$LTSCALE
 40
0.5
  9
$OSMODE
 70
 14591
  9
$ATTMODE
 70
     1
  9
$TEXTSIZE
 40
4.0
  9
$TRACEWID
 40
1.0
  9
$TEXTSTYLE
  7
STANDARD
  9
$CLAYER
  8
1TEXT
  9
$CELTYPE
  6
BYLAYER
  9
$CECOLOR
 62
   256
  9
$DIMSCALE
 40
1.0
  9
$DIMASZ
 40
2.0
  9
$DIMEXO
 40
0.0
  9
$DIMDLI
 40
7.0
  9
$DIMRND
 40
0.0
  9
$DIMDLE
 40
0.0
  9
$DIMEXE
 40
1.0
  9
$DIMTP
 40
0.0
  9
$DIMTM
 40
0.0
  9
$DIMTXT
 40
3.5
  9
$DIMCEN
 40
0.0
  9
$DIMTSZ
 40
0.0
  9
$DIMTOL
 70
     0
  9
$DIMLIM
 70
     0
  9
$DIMTIH
 70
     0
  9
$DIMTOH
 70
     0
  9
$DIMSE1
 70
     0
  9
$DIMSE2
 70
     0
  9
$DIMTAD
 70
     1
  9
$DIMZIN
 70
     8
  9
$DIMBLK
  1

  9
$DIMASO
 70
     1
  9
$DIMSHO
 70
     1
  9
$DIMPOST
  1
 
  9
$DIMAPOST
  1

  9
$DIMALT
 70
     0
  9
$DIMALTD
 70
     2
  9
$DIMALTF
 40
25.4
  9
$DIMLFAC
 40
1.0
  9
$DIMTOFL
 70
     1
  9
$DIMTVP
 40
0.0
  9
$DIMTIX
 70
     0
  9
$DIMSOXD
 70
     0
  9
$DIMSAH
 70
     1
  9
$DIMBLK1
  1
OPEN30
  9
$DIMBLK2
  1
OPEN30
  9
$DIMSTYLE
  2
NEWX10
  9
$DIMCLRD
 70
   256
  9
$DIMCLRE
 70
   256
  9
$DIMCLRT
 70
   201
  9
$DIMTFAC
 40
0.7
  9
$DIMGAP
 40
0.7
  9
$LUNITS
 70
     2
  9
$LUPREC
 70
     4
  9
$SKETCHINC
 40
1.0
  9
$FILLETRAD
 40
1.5
  9
$AUNITS
 70
     0
  9
$AUPREC
 70
     2
  9
$MENU
  1
acad
  9
$ELEVATION
 40
0.0
  9
$PELEVATION
 40
0.0
  9
$THICKNESS
 40
0.0
  9
$LIMCHECK
 70
     0
  9
$CHAMFERA
 40
10.0
  9
$CHAMFERB
 40
10.0
  9
$SKPOLY
 70
     0
  9
$TDCREATE
 40
2453033.732663484
  9
$TDUPDATE
 40
2460046.459234676
  9
$TDINDWG
 40
2.099438287
  9
$TDUSRTIMER
 40
2.099438287
  9
$USRTIMER
 70
     1
  9
$ANGBASE
 50
0.0
  9
$ANGDIR
 70
     0
  9
$PDMODE
 70
     0
  9
$PDSIZE
 40
0.0
  9
$PLINEWID
 40
0.0
  9
$COORDS
 70
     2
  9
$SPLFRAME
 70
     0
  9
$SPLINETYPE
 70
     6
  9
$SPLINESEGS
 70
     8
  9
$ATTDIA
 70
     0
  9
$ATTREQ
 70
     1
  9
$HANDLING
 70
     1
  9
$HANDSEED
  5
1A8FC
  9
$SURFTAB1
 70
     6
  9
$SURFTAB2
 70
     6
  9
$SURFTYPE
 70
     6
  9
$SURFU
 70
     6
  9
$SURFV
 70
     6
  9
$UCSNAME
  2

  9
$UCSORG
 10
0.0
 20
0.0
 30
0.0
  9
$UCSXDIR
 10
1.0
 20
0.0
 30
0.0
  9
$UCSYDIR
 10
0.0
 20
1.0
 30
0.0
  9
$PUCSNAME
  2

  9
$PUCSORG
 10
0.0
 20
0.0
 30
0.0
  9
$PUCSXDIR
 10
1.0
 20
0.0
 30
0.0
  9
$PUCSYDIR
 10
0.0
 20
1.0
 30
0.0
  9
$USERI1
 70
     0
  9
$USERI2
 70
     0
  9
$USERI3
 70
     0
  9
$USERI4
 70
     0
  9
$USERI5
 70
     0
  9
$USERR1
 40
0.0
  9
$USERR2
 40
0.0
  9
$USERR3
 40
0.0
  9
$USERR4
 40
0.0
  9
$USERR5
 40
0.0
  9
$WORLDVIEW
 70
     1
  9
$SHADEDGE
 70
     3
  9
$SHADEDIF
 70
    70
  9
$TILEMODE
 70
     1
  9
$MAXACTVP
 70
    48
  9
$PLIMCHECK
 70
     0
  9
$PEXTMIN
 10
1.000000000000000E+20
 20
1.000000000000000E+20
 30
1.000000000000000E+20
  9
$PEXTMAX
 10
-1.000000000000000E+20
 20
-1.000000000000000E+20
 30
-1.000000000000000E+20
  9
$PLIMMIN
 10
0.0
 20
0.0
  9
$PLIMMAX
 10
420.0
 20
297.0
  9
$UNITMODE
 70
     0
  9
$VISRETAIN
 70
     1
  9
$PLINEGEN
 70
     0
  9
$PSLTSCALE
 70
     1
  0
ENDSEC
  0
SECTION
  2
TABLES
  0
TABLE
  2
VPORT
 70
     1
  0
VPORT
  2
*ACTIVE
 70
     0
 10
0.0
 20
0.0
 11
1.0
 21
1.0
 12
193.5218240481506
 22
-818.7635313909283
 13
0.0
 23
0.0
 14
10.0
 24
10.0
 15
10.0
 25
10.0
 16
0.0
 26
0.0
 36
1.0
 17
0.0
 27
0.0
 37
0.0
 40
378.3257393568834
 41
1.824162679425837
 42
50.0
 43
0.0
 44
0.0
 50
0.0
 51
0.0
 71
    16
 72
   100
 73
     1
 74
     1
 75
     0
 76
     0
 77
     0
 78
     0
  0
ENDTAB
  0
TABLE
  2
LTYPE
 70
    13
  0
LTYPE
  2
CONTINUOUS
 70
     0
  3
Solid line
 72
    65
 73
     0
 40
0.0
  0
LTYPE
  2
PHANTOM2
 70
     0
  3
Phantom (0.5x) ___ _ _ ___ _ _ ___ _ _ ___ _ _
 72
    65
 73
     6
 40
31.75
 49
15.875
 49
-3.175
 49
3.175
 49
-3.175
 49
3.175
 49
-3.175
  0
LTYPE
  2
CENTER2
 70
     0
  3
Center (.5x) ___ _ ___ _ ___ _ ___ _ ___ _ ___
 72
    65
 73
     4
 40
28.575
 49
19.05
 49
-3.175
 49
3.175
 49
-3.175
  0
ENDTAB
  0
TABLE
  2
LAYER
 70
    40
  0
LAYER
  2
0
 70
     0
 62
     7
  6
CONTINUOUS
  0
LAYER
  2
1CENTER
 70
     0
 62
     7
  6
CENTER2
  0
LAYER
  2
1TEXT
 70
     0
 62
     7
  6
CONTINUOUS
  0
LAYER
  2
1DIM
 70
     0
 62
     7
  6
CONTINUOUS
  0
LAYER
  2
1PHANTOM
 70
     0
 62
     7
  6
PHANTOM2
  0
LAYER
  2
01
 70
     0
 62
     1
  6
CONTINUOUS
  0
LAYER
  2
1DIM1
 70
     0
 62
     7
  6
CONTINUOUS
  0
LAYER
  2
1HATCH
 70
     0
 62
     7
  6
CONTINUOUS
  0
ENDTAB
  0
TABLE
  2
STYLE
 70
    19
  0
STYLE
  2
STANDARD
 70
     0
 40
0.0
 41
1.0
 50
0.0
 71
     0
 42
4.0
  3
txt.shx
  4
extfont.shx
  0
ENDTAB
  0
TABLE
  2
VIEW
 70
     0
  0
ENDTAB
  0
TABLE
  2
UCS
 70
     0
  0
ENDTAB
  0
TABLE
  2
APPID
 70
    17
  0
APPID
  2
ACAD
 70
     0
  0
APPID
  2
DRAWINGVARIABLESXDATA
 70
     0
  0
APPID
  2
CONTENTTABDATA
 70
     0
  0
APPID
  2
CONTENTCURRENTTAB
 70
     0
  0
APPID
  2
CONTENTBLOCKDESCRIPTION
 70
     0
  0
APPID
  2
CONTENTBLOCKICON
 70
     0
  0
APPID
  2
CONTENTLONGBLOCKNAME
 70
     0
  0
APPID
  2
ACAD_PSEXT
 70
     0
  0
APPID
  2
ACAD_DSTYLE_DIMTEXT_FILL
 70
     0
  0
APPID
  2
ACAD_MLEADERVER
 70
     0
  0
APPID
  2
ACAD_DSTYLE_DIMRADIAL_EXTE
 70
     0
  0
APPID
  2
ACLAYERTOOLS
 70
     0
  0
APPID
  2
ACAD_EXEMPT_FROM_CAD_STAND
 70
     0
  0
APPID
  2
ACAD_NAV_VCDISPLAY
 70
     0
  0
APPID
  2
ACAD_OBJECT_CHANGE_GUID
 70
     0
  0
APPID
  2
ACADANNOTATIVE
 70
     0
  0
APPID
  2
ACDBBLOCKREPETAG
 70
     0
  0
ENDTAB
  0
TABLE
  2
DIMSTYLE
 70
     3
  0
DIMSTYLE
  2
NEWX10
 70
     0
  3
 
  4

  5

  6
OPEN30
  7
OPEN30
 40
1.0
 41
2.0
 42
0.0
 43
7.0
 44
1.0
 45
0.0
 46
0.0
 47
0.0
 48
0.0
140
3.5
141
0.0
142
0.0
143
25.4
144
1.0
145
0.0
146
0.7
147
0.7
 71
     0
 72
     0
 73
     0
 74
     0
 75
     0
 76
     0
 77
     1
 78
     8
170
     0
171
     2
172
     1
173
     1
174
     0
175
     0
176
   256
177
   256
178
   201
  0
ENDTAB
  0
ENDSEC
  0
SECTION
  2
BLOCKS
  0
BLOCK
  8
0
  2
$MODEL_SPACE
 70
     0
 10
0.0
 20
0.0
 30
0.0
  3
$MODEL_SPACE
  1

  0
ENDBLK
  5
1A
  8
0
  0
BLOCK
 67
     1
  8
0
  2
$PAPER_SPACE
 70
     0
 10
0.0
 20
0.0
 30
0.0
  3
$PAPER_SPACE
  1

  0
ENDBLK
  5
17
 67
     1
  8
0
  0
BLOCK
  8
0
  2
_OPEN30
 70
     0
 10
0.0
 20
0.0
 30
0.0
  3
_OPEN30
  1

  0
LINE
  5
44
  8
0
  6
BYBLOCK
 62
     0
 10
-1.0
 20
0.26794919
 30
0.0
 11
0.0
 21
0.0
 31
0.0
  0
LINE
  5
45
  8
0
  6
BYBLOCK
 62
     0
 10
0.0
 20
0.0
 30
0.0
 11
-1.0
 21
-0.26794919
 31
0.0
  0
LINE
  5
46
  8
0
  6
BYBLOCK
 62
     0
 10
0.0
 20
0.0
 30
0.0
 11
-1.0
 21
0.0
 31
0.0
  0
ENDBLK
  5
47
  8
0
  0
BLOCK
  8
0
  2
A3WAKUKAWAJUN2017_HYOUDAI_
 70
     0
 10
0.0
 20
0.0
 30
0.0
  3
A3WAKUKAWAJUN2017_HYOUDAI_
  1

  0
LINE
  5
186F4
  8
0
 10
13.26299999998673
 20
-0.0001000000000317
 30
0.0
 11
9.236999999990758
 21
8.999899999990987
 31
0.0
1001
ACAD
1000
ASC_BOUNDS
1002
{
1070
    19
1005
18735
1002
}
  0
LINE
  5
186F5
  8
0
 10
5.657999999994331
 20
0.9999999999989768
 30
0.0
 11
9.236999999990758
 21
8.999999999991019
 31
0.0
1001
ACAD
1000
ASC_BOUNDS
1002
{
1070
    19
1005
18735
1002
}
  0
LINE
  5
186F6
  8
0
 10
18.59199999998134
 20
-0.2368999999997641
 30
0.0
 11
16.46099999998353
 21
5.432899999994561
 31
0.0
1001
ACAD
1000
ASC_BOUNDS
1002
{
1070
    19
1005
18736
1002
}
  0
LINE
  5
186F7
  8
0
 10
18.59199999998134
 20
-0.2368999999997641
 30
0.0
 11
22.38199999997767
 21
8.763099999991255
 31
0.0
1001
ACAD
1000
ASC_BOUNDS
1002
{
1070
    19
1005
18736
1002
}
  0
LINE
  5
186F8
  8
0
 10
14.32899999998563
 20
-0.2368999999997641
 30
0.0
 11
16.46099999998353
 21
5.432899999994561
 31
0.0
1001
ACAD
1000
ASC_BOUNDS
1002
{
1070
    19
1005
18736
1002
}
  0
LINE
  5
186F9
  8
0
 10
14.32899999998563
 20
-0.2368999999997641
 30
0.0
 11
10.53899999998941
 21
8.763099999991255
 31
0.0
1001
ACAD
1000
ASC_BOUNDS
1002
{
1070
    19
1005
18736
1002
}
  0
LINE
  5
186FA
  8
0
 10
19.53899999998043
 20
-0.0001000000000317
 30
0.0
 11
23.56599999997638
 21
8.999899999990987
 31
0.0
1001
ACAD
1000
ASC_BOUNDS
1002
{
1070
    19
1005
18737
1002
}
  0
LINE
  5
186FB
  8
0
 10
26.97358892824991
 20
1.383099999991202
 30
0.0
 11
23.56599999997638
 21
8.999899999990987
 31
0.0
1001
ACAD
1000
ASC_BOUNDS
1002
{
1070
    19
1005
18737
1002
}
  0
LINE
  5
186FC
  8
0
 10
5.657999999994331
 20
0.9999999999989768
 30
0.0
 11
3.181999999996833
 21
4.668599999995308
 31
0.0
1001
ACAD
1000
ASC_BOUNDS
1002
{
1070
    19
1005
18735
1002
}
  0
LINE
  5
186FD
  8
0
 10
4.617999999995391
 20
-0.0001000000000317
 30
0.0
 11
1.420999999998571
 21
4.736799999995242
 31
0.0
1001
ACAD
1000
ASC_BOUNDS
1002
{
1070
    19
1005
18735
1002
}
  0
LINE
  5
186FE
  8
0
 10
1.420999999998571
 20
8.763099999991255
 30
0.0
 11
1.420999999998571
 21
0.0
 31
0.0
1001
ACAD
1000
ASC_BOUNDS
1002
{
1070
    19
1005
1873A
1002
}
  0
LINE
  5
186FF
  8
0
 10
0.0
 20
8.763099999991255
 30
0.0
 11
0.0
 21
0.0
 31
0.0
1001
ACAD
1000
ASC_BOUNDS
1002
{
1070
    19
1005
1873A
1002
}
  0
LINE
  5
18700
  8
0
 10
6.766999999993232
 20
-0.0001000000000317
 30
0.0
 11
7.826999999992154
 21
2.368399999997621
 31
0.0
1001
ACAD
1000
ASC_BOUNDS
1002
{
1070
    19
1005
18735
1002
}
  0
LINE
  5
18701
  8
0
 10
0.0
 20
0.0
 30
0.0
 11
1.420999999998571
 21
0.0
 31
0.0
1001
ACAD
1000
ASC_BOUNDS
1002
{
1070
    19
1005
1873A
1002
}
  0
LINE
  5
18702
  8
0
 10
4.617999999995391
 20
0.0
 30
0.0
 11
6.766999999993232
 21
0.0
 31
0.0
1001
ACAD
1000
ASC_BOUNDS
1002
{
1070
    19
1005
18735
1002
}
  0
LINE
  5
18703
  8
0
 10
11.70599999998831
 20
-0.0001000000000317
 30
0.0
 11
10.64699999998936
 21
2.368399999997621
 31
0.0
1001
ACAD
1000
ASC_BOUNDS
1002
{
1070
    19
1005
18735
1002
}
  0
LINE
  5
18704
  8
0
 10
7.826999999992154
 20
2.368399999997621
 30
0.0
 11
10.64699999998936
 21
2.368399999997621
 31
0.0
1001
ACAD
1000
ASC_BOUNDS
1002
{
1070
    19
1005
18735
1002
}
  0
LINE
  5
18705
  8
0
 10
11.70599999998831
 20
0.0
 30
0.0
 11
13.26299999998673
 21
0.0
 31
0.0
1001
ACAD
1000
ASC_BOUNDS
1002
{
1070
    19
1005
18735
1002
}
  0
LINE
  5
18706
  8
0
 10
22.15599999997789
 20
2.368399999997621
 30
0.0
 11
24.97599999997499
 21
2.368399999997621
 31
0.0
1001
ACAD
1000
ASC_BOUNDS
1002
{
1070
    19
1005
18737
1002
}
  0
LINE
  5
18707
  8
0
 10
19.53899999998043
 20
0.0
 30
0.0
 11
21.09599999997886
 21
0.0
 31
0.0
1001
ACAD
1000
ASC_BOUNDS
1002
{
1070
    19
1005
18737
1002
}
  0
LINE
  5
18708
  8
0
 10
21.09599999997886
 20
-0.0001000000000317
 30
0.0
 11
22.15599999997789
 21
2.368399999997621
 31
0.0
1001
ACAD
1000
ASC_BOUNDS
1002
{
1070
    19
1005
18737
1002
}
  0
LINE
  5
18709
  8
0
 10
26.02015566812236
 20
0.0330999999912365
 30
0.0
 11
24.97599999997499
 21
2.368399999997621
 31
0.0
1001
ACAD
1000
ASC_BOUNDS
1002
{
1070
    19
1005
18737
1002
}
  0
LINE
  5
1870A
  8
0
 10
14.32399999998563
 20
3.315799999996671
 30
0.0
 11
16.46099999998353
 21
8.999899999990987
 31
0.0
1001
ACAD
1000
ASC_BOUNDS
1002
{
1070
    19
1005
18736
1002
}
  0
LINE
  5
1870B
  8
0
 10
6.432999999993513
 20
8.763099999991255
 30
0.0
 11
3.181999999996833
 21
4.668599999995308
 31
0.0
1001
ACAD
1000
ASC_BOUNDS
1002
{
1070
    19
1005
18735
1002
}
  0
LINE
  5
1870C
  8
0
 10
4.617999999995391
 20
8.763099999991255
 30
0.0
 11
1.420999999998571
 21
4.736799999995242
 31
0.0
1001
ACAD
1000
ASC_BOUNDS
1002
{
1070
    19
1005
18735
1002
}
  0
LINE
  5
1870D
  8
0
 10
0.0
 20
8.763099999991255
 30
0.0
 11
1.420999999998571
 21
8.763099999991255
 31
0.0
1001
ACAD
1000
ASC_BOUNDS
1002
{
1070
    19
1005
1873A
1002
}
  0
LINE
  5
1870E
  8
0
 10
4.617999999995391
 20
8.763099999991255
 30
0.0
 11
6.432999999993513
 21
8.763099999991255
 31
0.0
1001
ACAD
1000
ASC_BOUNDS
1002
{
1070
    19
1005
18735
1002
}
  0
LINE
  5
1870F
  8
0
 10
14.32399999998563
 20
3.315799999996671
 30
0.0
 11
12.02999999998792
 21
8.763099999991255
 31
0.0
1001
ACAD
1000
ASC_BOUNDS
1002
{
1070
    19
1005
18736
1002
}
  0
LINE
  5
18710
  8
0
 10
10.06399999998996
 20
3.670999999996297
 30
0.0
 11
9.236999999990758
 21
5.5200999999945
 31
0.0
1001
ACAD
1000
ASC_BOUNDS
1002
{
1070
    19
1005
18735
1002
}
  0
LINE
  5
18711
  8
0
 10
8.409999999991555
 20
3.670999999996297
 30
0.0
 11
9.236999999990758
 21
5.5200999999945
 31
0.0
1001
ACAD
1000
ASC_BOUNDS
1002
{
1070
    19
1005
18735
1002
}
  0
LINE
  5
18712
  8
0
 10
8.409999999991555
 20
3.670999999996297
 30
0.0
 11
10.06399999998996
 21
3.670999999996297
 31
0.0
1001
ACAD
1000
ASC_BOUNDS
1002
{
1070
    19
1005
18735
1002
}
  0
LINE
  5
18713
  8
0
 10
10.53899999998941
 20
8.763099999991255
 30
0.0
 11
12.02999999998792
 21
8.763099999991255
 31
0.0
1001
ACAD
1000
ASC_BOUNDS
1002
{
1070
    19
1005
18736
1002
}
  0
LINE
  5
18714
  8
0
 10
22.7389999999773
 20
3.670999999996297
 30
0.0
 11
23.56599999997638
 21
5.5200999999945
 31
0.0
1001
ACAD
1000
ASC_BOUNDS
1002
{
1070
    19
1005
18737
1002
}
  0
LINE
  5
18715
  8
0
 10
22.7389999999773
 20
3.670999999996297
 30
0.0
 11
24.39299999997559
 21
3.670999999996297
 31
0.0
1001
ACAD
1000
ASC_BOUNDS
1002
{
1070
    19
1005
18737
1002
}
  0
LINE
  5
18716
  8
0
 10
18.59799999998143
 20
3.315799999996671
 30
0.0
 11
20.89099999997916
 21
8.763099999991255
 31
0.0
1001
ACAD
1000
ASC_BOUNDS
1002
{
1070
    19
1005
18736
1002
}
  0
LINE
  5
18717
  8
0
 10
18.59799999998143
 20
3.315799999996671
 30
0.0
 11
16.46099999998353
 21
8.999899999990987
 31
0.0
1001
ACAD
1000
ASC_BOUNDS
1002
{
1070
    19
1005
18736
1002
}
  0
LINE
  5
18718
  8
0
 10
20.89099999997916
 20
8.763099999991255
 30
0.0
 11
22.38199999997767
 21
8.763099999991255
 31
0.0
1001
ACAD
1000
ASC_BOUNDS
1002
{
1070
    19
1005
18736
1002
}
  0
LINE
  5
18719
  8
0
 10
24.39299999997559
 20
3.670999999996297
 30
0.0
 11
23.56599999997638
 21
5.5200999999945
 31
0.0
1001
ACAD
1000
ASC_BOUNDS
1002
{
1070
    19
1005
18737
1002
}
  0
LINE
  5
1871A
  8
0
 10
44.99999999995498
 20
-0.2368999999997641
 30
0.0
 11
40.02599999995994
 21
5.341799999994635
 31
0.0
1001
ACAD
1000
ASC_BOUNDS
1002
{
1070
    19
1005
18739
1002
}
  0
LINE
  5
1871B
  8
0
 10
40.02599999995994
 20
5.341799999994635
 30
0.0
 11
40.02599999995994
 21
0.0
 31
0.0
1001
ACAD
1000
ASC_BOUNDS
1002
{
1070
    19
1005
18739
1002
}
  0
LINE
  5
1871C
  8
0
 10
38.60499999996136
 20
8.999999999991019
 30
0.0
 11
38.60499999996136
 21
0.0
 31
0.0
1001
ACAD
1000
ASC_BOUNDS
1002
{
1070
    19
1005
18739
1002
}
  0
LINE
  5
1871D
  8
0
 10
44.99999999995498
 20
8.763099999991255
 30
0.0
 11
44.99999999995498
 21
-0.2368999999997641
 31
0.0
1001
ACAD
1000
ASC_BOUNDS
1002
{
1070
    19
1005
18739
1002
}
  0
LINE
  5
1871E
  8
0
 10
38.60499999996136
 20
0.0
 30
0.0
 11
40.02599999995994
 21
0.0
 31
0.0
1001
ACAD
1000
ASC_BOUNDS
1002
{
1070
    19
1005
18739
1002
}
  0
LINE
  5
1871F
  8
0
 10
43.57899999995641
 20
3.421199999996588
 30
0.0
 11
38.60499999996136
 21
8.999899999990987
 31
0.0
1001
ACAD
1000
ASC_BOUNDS
1002
{
1070
    19
1005
18739
1002
}
  0
LINE
  5
18720
  8
0
 10
43.57899999995641
 20
8.763099999991255
 30
0.0
 11
43.57899999995641
 21
3.421199999996588
 31
0.0
1001
ACAD
1000
ASC_BOUNDS
1002
{
1070
    19
1005
18739
1002
}
  0
LINE
  5
18721
  8
0
 10
43.57899999995641
 20
8.763099999991255
 30
0.0
 11
44.99999999995498
 21
8.763099999991255
 31
0.0
1001
ACAD
1000
ASC_BOUNDS
1002
{
1070
    19
1005
18739
1002
}
  0
LINE
  5
18722
  8
0
 10
37.67199999996831
 20
8.763099999991255
 30
0.0
 11
36.23199999996837
 21
8.763099999991255
 31
0.0
  0
LINE
  5
18723
  8
0
 10
31.64199999996833
 20
8.763099999991255
 30
0.0
 11
31.64199999996833
 21
2.481619422925121
 31
0.0
  0
LINE
  5
18724
  8
0
 10
37.67199999996831
 20
8.763099999991255
 30
0.0
 11
37.67199999996831
 21
2.481619422925121
 31
0.0
  0
LINE
  5
18725
  8
0
 10
36.23199999996837
 20
8.763099999991255
 30
0.0
 11
36.23199999996837
 21
2.481619422925064
 31
0.0
  0
LINE
  5
18726
  8
0
 10
33.08199999996839
 20
8.763099999991255
 30
0.0
 11
33.08199999996839
 21
2.481619422925121
 31
0.0
  0
ARC
  5
18727
  8
0
 10
34.65699999996832
 20
3.183099999991214
 30
0.0
 40
3.420000000000007
 50
240.0000000000255
 51
299.9999999999766
  0
ARC
  5
18728
  8
0
 10
34.65699999996832
 20
3.183099999991214
 30
0.0
 40
1.97999999999999
 50
240.000000000026
 51
299.9999999999703
  0
LINE
  5
18729
  8
0
 10
33.08199999996828
 20
8.763099999991255
 30
0.0
 11
31.64199999996833
 21
8.763099999991255
 31
0.0
  0
ARC
  5
1872A
  8
0
 10
35.06199999996829
 20
2.481619422925064
 30
0.0
 40
1.17
 50
299.9999999999699
 51
0.0
  0
ARC
  5
1872B
  8
0
 10
34.25199999996835
 20
2.481619422925121
 30
0.0
 40
1.17
 50
180.0
 51
240.0000000000238
  0
ARC
  5
1872C
  8
0
 10
35.06199999996841
 20
2.481619422925121
 30
0.0
 40
2.61
 50
299.9999999999756
 51
0.0
  0
ARC
  5
1872D
  8
0
 10
34.25199999996835
 20
2.481619422925121
 30
0.0
 40
2.61
 50
180.0
 51
240.0000000000244
  0
LINE
  5
1872E
  8
0
 10
29.30199999996933
 20
8.763099999991255
 30
0.0
 11
30.74199999996927
 21
8.763099999991255
 31
0.0
1001
ACAD
1000
ASC_BOUNDS
1002
{
1070
    19
1005
18737
1002
}
  0
LINE
  5
1872F
  8
0
 10
30.74199999996927
 20
8.763099999991255
 30
0.0
 11
30.74199999996927
 21
2.373099999991211
 31
0.0
1001
ACAD
1000
ASC_BOUNDS
1002
{
1070
    19
1005
18737
1002
}
  0
LINE
  5
18730
  8
0
 10
26.02015566812236
 20
0.0330999999912365
 30
0.0
 11
28.40199999996923
 21
0.0330999999912365
 31
0.0
1001
ACAD
1000
ASC_BOUNDS
1002
{
1070
    19
1005
18737
1002
}
  0
LINE
  5
18731
  8
0
 10
29.30199999996933
 20
8.763099999991255
 30
0.0
 11
29.30199999996933
 21
2.283099999991236
 31
0.0
1001
ACAD
1000
ASC_BOUNDS
1002
{
1070
    19
1005
18737
1002
}
  0
LINE
  5
18732
  8
0
 10
26.97358892824991
 20
1.383099999991202
 30
0.0
 11
28.40199999996923
 21
1.383099999991202
 31
0.0
1001
ACAD
1000
ASC_BOUNDS
1002
{
1070
    19
1005
18737
1002
}
  0
ARC
  5
18733
  8
0
 10
28.40199999996923
 20
2.283099999991236
 30
0.0
 40
0.9
 50
270.0
 51
0.0
1001
ACAD
1000
ASC_BOUNDS
1002
{
1070
    19
1005
18737
1002
}
  0
ARC
  5
18734
  8
0
 10
28.40199999996923
 20
2.373099999991211
 30
0.0
 40
2.34
 50
270.0
 51
0.0
1001
ACAD
1000
ASC_BOUNDS
1002
{
1070
    19
1005
18737
1002
}
  0
INSERT
  5
18735
  8
0
  2
*X124
 10
0.0
 20
0.0
 30
0.0
1001
ACAD
1000
HATCH
1002
{
1070
    19
1000
ANSI37
1040
0.15
1040
0.0
1000
ASC_BOUNDS
1070
     2
1070
     2
1070
    12
1005
186F4
1005
186F5
1005
186FC
1005
1870B
1005
1870E
1005
1870C
1005
186FD
1005
18702
1005
18700
1005
18704
1005
18703
1005
18705
1070
     2
1070
     3
1005
18710
1005
18712
1005
18711
1000
ASC_SEEDPOINT
1011
3.614004224891801
1021
2.996669441146025
1031
0.0
1021
2.996669441146025
1031
0.0
1000
R14_HATCH_DATA
1000
18735
1011
1.0
1021
0.0
1031
0.0
1021
0.0
1031
0.0
1011
0.0
1021
1.0
1031
0.0
1021
1.0
1031
0.0
1011
0.0
1021
0.0
1031
1.0
1021
0.0
1031
1.0
1040
0.0
1010
0.0
1020
0.0
1030
1.0
1000
ANSI37
1070
     0
1070
     1
1071
        2
1071
        7
1070
     0
1070
     1
1071
       17
1040
13.26299999998673
1040
-0.0001000000000317
1040
9.236999999990758
1040
8.999899999990987
1040
9.236999999990758
1040
8.999999999991019
1040
5.657999999994331
1040
0.9999999999989768
1040
3.181999999996833
1040
4.668599999995308
1040
6.432999999993513
1040
8.763099999991255
1040
4.617999999995391
1040
8.763099999991255
1040
1.420999999998571
1040
4.736799999995242
1040
4.617999999995391
1040
-0.0001000000000317
1040
4.617999999995391
1040
0.0
1040
6.766999999993232
1040
0.0
1040
6.766999999993232
1040
-0.0001000000000317
1040
7.826999999992154
1040
2.368399999997621
1040
10.64699999998936
1040
2.368399999997621
1040
11.70599999998831
1040
-0.0001000000000317
1040
11.70599999998831
1040
0.0
1040
13.26299999998673
1040
0.0
1071
       12
1005
186F4
1005
186F5
1005
186FC
1005
1870B
1005
1870E
1005
1870C
1005
186FD
1005
18702
1005
18700
1005
18704
1005
18703
1005
18705
1071
       22
1070
     0
1070
     1
1071
        3
1040
9.236999999990758
1040
5.5200999999945
1040
10.06399999998996
1040
3.670999999996297
1040
8.409999999991555
1040
3.670999999996297
1071
        3
1005
18710
1005
18712
1005
18711
1070
     0
1070
     1
1040
0.0
1040
0.15
1070
     0
1070
     2
1040
0.7853981633974483
1040
49.29960901727088
1040
-10.17736998311392
1040
-0.3367596045400932
1040
0.3367596045400932
1070
     0
1040
2.356194490192345
1040
49.29960901727088
1040
-10.17736998311392
1040
-0.3367596045400932
1040
-0.3367596045400932
1070
     0
1040
0.0110235143455945
1071
        2
1040
3.614004224891801
1040
2.996669441146025
1040
0.0
1040
3.614004224891801
1040
2.996669441146025
1040
0.0
1002
}
  0
INSERT
  5
18736
  8
0
  2
*X125
 10
0.0
 20
0.0
 30
0.0
1001
ACAD
1000
HATCH
1002
{
1070
    19
1000
ANSI37
1040
0.15
1040
0.0
1000
ASC_BOUNDS
1070
     1
1070
     2
1070
    10
1005
186F6
1005
186F7
1005
18718
1005
18716
1005
18717
1005
1870A
1005
1870F
1005
18713
1005
186F9
1005
186F8
1000
ASC_SEEDPOINT
1011
14.73245321214324
1021
2.798246178283421
1031
0.0
1021
2.798246178283421
1031
0.0
1000
R14_HATCH_DATA
1000
18736
1011
1.0
1021
0.0
1031
0.0
1021
0.0
1031
0.0
1011
0.0
1021
1.0
1031
0.0
1021
1.0
1031
0.0
1011
0.0
1021
0.0
1031
1.0
1021
0.0
1031
1.0
1040
0.0
1010
0.0
1020
0.0
1030
1.0
1000
ANSI37
1070
     0
1070
     1
1071
        1
1071
        7
1070
     0
1070
     1
1071
       10
1040
16.46099999998353
1040
5.432899999994561
1040
18.59199999998134
1040
-0.2368999999997641
1040
22.38199999997767
1040
8.763099999991255
1040
20.89099999997916
1040
8.763099999991255
1040
18.59799999998143
1040
3.315799999996671
1040
16.46099999998353
1040
8.999899999990987
1040
14.32399999998563
1040
3.315799999996671
1040
12.02999999998792
1040
8.763099999991255
1040
10.53899999998941
1040
8.763099999991255
1040
14.32899999998563
1040
-0.2368999999997641
1071
       10
1005
186F6
1005
186F7
1005
18718
1005
18716
1005
18717
1005
1870A
1005
1870F
1005
18713
1005
186F9
1005
186F8
1070
     0
1070
     1
1040
0.0
1040
0.15
1070
     0
1070
     2
1040
0.7853981633974483
1040
49.29960901727088
1040
-10.17736998311392
1040
-0.3367596045400932
1040
0.3367596045400932
1070
     0
1040
2.356194490192345
1040
49.29960901727088
1040
-10.17736998311392
1040
-0.3367596045400932
1040
-0.3367596045400932
1070
     0
1040
0.0110235143455945
1071
        1
1040
14.73245321214324
1040
2.798246178283421
1040
0.0
1002
}
  0
INSERT
  5
18737
  8
0
  2
*X126
 10
0.0
 20
0.0
 30
0.0
1001
ACAD
1000
HATCH
1002
{
1070
    19
1000
ANSI37
1040
0.15
1040
0.0
1000
ASC_BOUNDS
1070
     2
1070
     2
1070
    13
1005
186FA
1005
18707
1005
18708
1005
18706
1005
18709
1005
18730
1005
18734
1005
1872F
1005
1872E
1005
18731
1005
18733
1005
18732
1005
186FB
1070
     2
1070
     3
1005
18714
1005
18719
1005
18715
1000
ASC_SEEDPOINT
1011
21.97929957367762
1021
3.294304244259308
1031
0.0
1021
3.294304244259308
1031
0.0
1000
R14_HATCH_DATA
1000
18737
1011
1.0
1021
0.0
1031
0.0
1021
0.0
1031
0.0
1011
0.0
1021
1.0
1031
0.0
1021
1.0
1031
0.0
1011
0.0
1021
0.0
1031
1.0
1021
0.0
1031
1.0
1040
0.0
1010
0.0
1020
0.0
1030
1.0
1000
ANSI37
1070
     0
1070
     1
1071
        2
1071
        7
1070
     1
1070
     1
1071
       15
1040
23.56599999997638
1040
8.999899999990987
1040
0.0
1040
19.53899999998043
1040
-0.0001000000000317
1040
0.0
1040
19.53899999998043
1040
0.0
1040
0.0
1040
21.09599999997886
1040
0.0
1040
0.0
1040
21.09599999997886
1040
-0.0001000000000317
1040
0.0
1040
22.15599999997789
1040
2.368399999997621
1040
0.0
1040
24.97599999997499
1040
2.368399999997621
1040
0.0
1040
26.02015566812236
1040
0.0330999999912365
1040
0.0
1040
28.40199999996923
1040
0.0330999999912365
1040
0.414213562373095
1040
30.74199999996923
1040
2.373099999991211
1040
0.0
1040
30.74199999996927
1040
8.763099999991255
1040
0.0
1040
29.30199999996933
1040
8.763099999991255
1040
0.0
1040
29.30199999996933
1040
2.283099999991236
1040
-0.414213562373095
1040
28.40199999996923
1040
1.383099999991237
1040
0.0
1040
26.97358892824991
1040
1.383099999991202
1040
0.0
1071
       13
1005
186FA
1005
18707
1005
18708
1005
18706
1005
18709
1005
18730
1005
18734
1005
1872F
1005
1872E
1005
18731
1005
18733
1005
18732
1005
186FB
1071
       22
1070
     0
1070
     1
1071
        3
1040
22.7389999999773
1040
3.670999999996297
1040
23.56599999997638
1040
5.5200999999945
1040
24.39299999997559
1040
3.670999999996297
1071
        3
1005
18714
1005
18719
1005
18715
1070
     0
1070
     1
1040
0.0
1040
0.15
1070
     0
1070
     2
1040
0.7853981633974483
1040
49.29960901727088
1040
-10.17736998311392
1040
-0.3367596045400932
1040
0.3367596045400932
1070
     0
1040
2.356194490192345
1040
49.29960901727088
1040
-10.17736998311392
1040
-0.3367596045400932
1040
-0.3367596045400932
1070
     0
1040
0.0110235143455945
1071
        2
1040
21.97929957367762
1040
3.294304244259308
1040
0.0
1040
21.97929957367762
1040
3.294304244259308
1040
0.0
1002
}
  0
INSERT
  5
18738
  8
0
  2
*X127
 10
0.0
 20
0.0
 30
0.0
1001
ACAD
1000
HATCH
1002
{
1070
    19
1000
ANSI37
1040
0.15
1040
0.0
1000
R14_HATCH_DATA
1000
18738
1011
1.0
1021
0.0
1031
0.0
1021
0.0
1031
0.0
1011
0.0
1021
1.0
1031
0.0
1021
1.0
1031
0.0
1011
0.0
1021
0.0
1031
1.0
1021
0.0
1031
1.0
1040
0.0
1010
0.0
1020
0.0
1030
1.0
1000
ANSI37
1070
     0
1070
     1
1071
        1
1071
        7
1070
     1
1070
     1
1071
       12
1040
31.64199999996833
1040
2.481619422925121
1040
0.2679491924310942
1040
32.94699999997067
1040
0.2212931190493919
1040
0.2679491924301353
1040
36.36699999995983
1040
0.2212931190459813
1040
0.2679491924321411
1040
37.67199999996831
1040
2.481619422928361
1040
0.0
1040
37.67199999996831
1040
8.763099999991255
1040
0.0
1040
36.23199999996837
1040
8.763099999991255
1040
0.0
1040
36.23199999996837
1040
2.481619422925064
1040
-0.2679491924310291
1040
35.64699999996708
1040
1.468369700498386
1040
-0.267949192430519
1040
33.66699999997093
1040
1.468369700497703
1040
-0.267949192431809
1040
33.08199999996839
1040
2.481619422926997
1040
0.0
1040
33.08199999996839
1040
8.763099999991255
1040
0.0
1040
31.64199999996833
1040
8.763099999991255
1040
0.0
1071
        0
1070
     0
1070
     1
1040
0.0
1040
0.15
1070
     0
1070
     2
1040
0.7853981633974483
1040
49.29960901727088
1040
-10.17736998311392
1040
-0.3367596045400932
1040
0.3367596045400932
1070
     0
1040
2.356194490192345
1040
49.29960901727088
1040
-10.17736998311392
1040
-0.3367596045400932
1040
-0.3367596045400932
1070
     0
1040
0.0110235143455945
1071
        1
1040
32.30357378967278
1040
3.988785755459219
1040
0.0
1002
}
  0
INSERT
  5
18739
  8
0
  2
*X128
 10
0.0
 20
0.0
 30
0.0
1001
ACAD
1000
HATCH
1002
{
1070
    19
1000
ANSI37
1040
0.15
1040
0.0
1000
ASC_BOUNDS
1070
     1
1070
     2
1070
     8
1005
1871A
1005
1871D
1005
18721
1005
18720
1005
1871F
1005
1871C
1005
1871E
1005
1871B
1000
ASC_SEEDPOINT
1011
39.74896370716704
1021
4.484843821435049
1031
0.0
1021
4.484843821435049
1031
0.0
1000
R14_HATCH_DATA
1000
18739
1011
1.0
1021
0.0
1031
0.0
1021
0.0
1031
0.0
1011
0.0
1021
1.0
1031
0.0
1021
1.0
1031
0.0
1011
0.0
1021
0.0
1031
1.0
1021
0.0
1031
1.0
1040
0.0
1010
0.0
1020
0.0
1030
1.0
1000
ANSI37
1070
     0
1070
     1
1071
        1
1071
        7
1070
     0
1070
     1
1071
        9
1040
40.02599999995994
1040
5.341799999994635
1040
44.99999999995498
1040
-0.2368999999997641
1040
44.99999999995498
1040
8.763099999991255
1040
43.57899999995641
1040
8.763099999991255
1040
43.57899999995641
1040
3.421199999996588
1040
38.60499999996136
1040
8.999899999990987
1040
38.60499999996136
1040
8.999999999991019
1040
38.60499999996136
1040
0.0
1040
40.02599999995994
1040
0.0
1071
        8
1005
1871A
1005
1871D
1005
18721
1005
18720
1005
1871F
1005
1871C
1005
1871E
1005
1871B
1070
     0
1070
     1
1040
0.0
1040
0.15
1070
     0
1070
     2
1040
0.7853981633974483
1040
49.29960901727088
1040
-10.17736998311392
1040
-0.3367596045400932
1040
0.3367596045400932
1070
     0
1040
2.356194490192345
1040
49.29960901727088
1040
-10.17736998311392
1040
-0.3367596045400932
1040
-0.3367596045400932
1070
     0
1040
0.0110235143455945
1071
        1
1040
39.74896370716704
1040
4.484843821435049
1040
0.0
1002
}
  0
INSERT
  5
1873A
  8
0
  2
*X129
 10
0.0
 20
0.0
 30
0.0
1001
ACAD
1000
HATCH
1002
{
1070
    19
1000
ANSI37
1040
0.15
1040
0.0
1000
ASC_BOUNDS
1070
     1
1070
     2
1070
     4
1005
186FE
1005
1870D
1005
186FF
1005
18701
1000
ASC_SEEDPOINT
1011
1.079051535452663
1021
4.148538732891836
1031
0.0
1021
4.148538732891836
1031
0.0
1000
R14_HATCH_DATA
1000
1873A
1011
1.0
1021
0.0
1031
0.0
1021
0.0
1031
0.0
1011
0.0
1021
1.0
1031
0.0
1021
1.0
1031
0.0
1011
0.0
1021
0.0
1031
1.0
1021
0.0
1031
1.0
1040
0.0
1010
0.0
1020
0.0
1030
1.0
1000
ANSI37
1070
     0
1070
     1
1071
        1
1071
        7
1070
     0
1070
     1
1071
        4
1040
1.420999999998571
1040
0.0
1040
1.420999999998571
1040
8.763099999991255
1040
0.0
1040
8.763099999991255
1040
0.0
1040
0.0
1071
        4
1005
186FE
1005
1870D
1005
186FF
1005
18701
1070
     0
1070
     1
1040
0.0
1040
0.15
1070
     0
1070
     2
1040
0.7853981633974483
1040
49.29960901727088
1040
-10.17736998311392
1040
-0.3367596045400932
1040
0.3367596045400932
1070
     0
1040
2.356194490192345
1040
49.29960901727088
1040
-10.17736998311392
1040
-0.3367596045400932
1040
-0.3367596045400932
1070
     0
1040
0.0053004257112761
1071
        1
1040
1.079051535452663
1040
4.148538732891836
1040
0.0
1002
}
  0
ENDBLK
  5
18E01
  8
0
  0
BLOCK
  8
0
  2
*X124
 70
     1
 10
0.0
 20
0.0
 30
0.0
  3
*X124
  1

  0
LINE
  5
1A763
  8
0
  6
CONTINUOUS
 10
3.418023043697893
 20
7.251849696850613
 30
0.0
 11
4.929273346838536
 21
8.763099999991255
 31
0.0
  0
LINE
  5
1A764
  8
0
  6
CONTINUOUS
 10
1.483656411257782
 20
4.643963855330318
 30
0.0
 11
5.60279255591872
 21
8.763099999991255
 31
0.0
  0
LINE
  5
1A765
  8
0
  6
CONTINUOUS
 10
1.755053947328235
 20
4.241842182320584
 30
0.0
 11
6.276311764998907
 21
8.763099999991255
 31
0.0
  0
LINE
  5
1A766
  8
0
  6
CONTINUOUS
 10
2.026451483398688
 20
3.839720509310849
 30
0.0
 11
4.441040904851878
 21
6.254309930764039
 31
0.0
  0
LINE
  5
1A767
  8
0
  6
CONTINUOUS
 10
2.297849019469139
 20
3.437598836301114
 30
0.0
 11
3.321765168359338
 21
4.461514985191313
 31
0.0
  0
LINE
  5
1A768
  8
0
  6
CONTINUOUS
 10
2.569246555539591
 20
3.03547716329138
 30
0.0
 11
3.593163397972743
 21
4.059394005724531
 31
0.0
  0
LINE
  5
1A769
  8
0
  6
CONTINUOUS
 10
2.840644091610043
 20
2.633355490281646
 30
0.0
 11
3.864561627586149
 21
3.657273026257751
 31
0.0
  0
LINE
  5
1A76A
  8
0
  6
CONTINUOUS
 10
3.112041627680496
 20
2.231233817271911
 30
0.0
 11
4.135959857199554
 21
3.25515204679097
 31
0.0
  0
LINE
  5
1A76B
  8
0
  6
CONTINUOUS
 10
3.383439163750948
 20
1.829112144262177
 30
0.0
 11
4.40735808681296
 21
2.853031067324189
 31
0.0
  0
LINE
  5
1A76C
  8
0
  6
CONTINUOUS
 10
3.654836699821399
 20
1.426990471252442
 30
0.0
 11
4.678756316426365
 21
2.450910087857407
 31
0.0
  0
LINE
  5
1A76D
  8
0
  6
CONTINUOUS
 10
3.926234235891853
 20
1.024868798242709
 30
0.0
 11
4.95015454603977
 21
2.048789108390626
 31
0.0
  0
LINE
  5
1A76E
  8
0
  6
CONTINUOUS
 10
4.197631771962304
 20
0.6227471252329737
 30
0.0
 11
5.221552775653176
 21
1.646668128923846
 31
0.0
  0
LINE
  5
1A76F
  8
0
  6
CONTINUOUS
 10
8.715877546767851
 20
7.835069736359266
 30
0.0
 11
9.435953450375058
 21
8.555145639966472
 31
0.0
  0
LINE
  5
1A770
  8
0
  6
CONTINUOUS
 10
8.170620868422267
 20
6.616293848933497
 30
0.0
 11
9.644120833743461
 21
8.08979381425469
 31
0.0
  0
LINE
  5
1A771
  8
0
  6
CONTINUOUS
 10
7.625364190076684
 20
5.397517961507727
 30
0.0
 11
9.852288217111864
 21
7.624441988542907
 31
0.0
  0
LINE
  5
1A772
  8
0
  6
CONTINUOUS
 10
7.080107511731101
 20
4.178742074081957
 30
0.0
 11
10.06045560048027
 21
7.159090162831124
 31
0.0
  0
LINE
  5
1A773
  8
0
  6
CONTINUOUS
 10
6.534850833385518
 20
2.959966186656187
 30
0.0
 11
10.26862298384867
 21
6.693738337119342
 31
0.0
  0
LINE
  5
1A774
  8
0
  6
CONTINUOUS
 10
4.469029308032756
 20
0.2206254522232385
 30
0.0
 11
5.492951005266582
 21
1.244547149457064
 31
0.0
  0
LINE
  5
1A775
  8
0
  6
CONTINUOUS
 10
5.989594155039935
 20
1.741190299230417
 30
0.0
 11
8.806950407233131
 21
4.558546551423613
 31
0.0
  0
LINE
  5
1A776
  8
0
  6
CONTINUOUS
 10
9.401251593263643
 20
5.152847737454126
 30
0.0
 11
10.47679036721708
 21
6.228386511407559
 31
0.0
  0
LINE
  5
1A777
  8
0
  6
CONTINUOUS
 10
4.921837203428691
 20
-0.0000858614610131
 30
0.0
 11
8.592923064886001
 21
3.670999999996297
 31
0.0
  0
LINE
  5
1A778
  8
0
  6
CONTINUOUS
 10
9.609390446785305
 20
4.6874673818956
 30
0.0
 11
10.68495775058548
 21
5.763034685695775
 31
0.0
  0
LINE
  5
1A779
  8
0
  6
CONTINUOUS
 10
5.595387755019432
 20
-0.0000545189504582
 30
0.0
 11
7.716137258923768
 21
2.120694984953879
 31
0.0
  0
LINE
  5
1A77A
  8
0
  6
CONTINUOUS
 10
6.268938306610172
 20
-0.000023176439905
 30
0.0
 11
7.170485805526503
 21
0.9015243224764267
 31
0.0
  0
LINE
  5
1A77B
  8
0
  6
CONTINUOUS
 10
7.963842273967511
 20
2.368399999997621
 30
0.0
 11
9.266442273966188
 21
3.670999999996297
 31
0.0
  0
LINE
  5
1A77C
  8
0
  6
CONTINUOUS
 10
8.637361483047696
 20
2.368399999997621
 30
0.0
 11
9.939961483046375
 21
3.670999999996297
 31
0.0
  0
LINE
  5
1A77D
  8
0
  6
CONTINUOUS
 10
9.817529300306965
 20
4.222087026337075
 30
0.0
 11
10.89312513395388
 21
5.297682859983993
 31
0.0
  0
LINE
  5
1A77E
  8
0
  6
CONTINUOUS
 10
10.02566815382863
 20
3.756706670778549
 30
0.0
 11
11.10129251732229
 21
4.832331034272211
 31
0.0
  0
LINE
  5
1A77F
  8
0
  6
CONTINUOUS
 10
9.310880692127883
 20
2.368399999997621
 30
0.0
 11
11.30945990069069
 21
4.366979208560428
 31
0.0
  0
LINE
  5
1A780
  8
0
  6
CONTINUOUS
 10
9.98439990120807
 20
2.36839999999762
 30
0.0
 11
11.5176272840591
 21
3.901627382848645
 31
0.0
  0
LINE
  5
1A781
  8
0
  6
CONTINUOUS
 10
10.65037369446246
 20
2.36085458417182
 30
0.0
 11
11.7257946674275
 21
3.436275557136862
 31
0.0
  0
LINE
  5
1A782
  8
0
  6
CONTINUOUS
 10
10.85847197087848
 20
1.895433651507656
 30
0.0
 11
11.9339620507959
 21
2.97092373142508
 31
0.0
  0
LINE
  5
1A783
  8
0
  6
CONTINUOUS
 10
11.0665702472945
 20
1.430012718843491
 30
0.0
 11
12.14212943416431
 21
2.505571905713296
 31
0.0
  0
LINE
  5
1A784
  8
0
  6
CONTINUOUS
 10
11.27466852371052
 20
0.9645917861793256
 30
0.0
 11
12.35029681753271
 21
2.040220080001513
 31
0.0
  0
LINE
  5
1A785
  8
0
  6
CONTINUOUS
 10
11.48276680012654
 20
0.4991708535151611
 30
0.0
 11
12.55846420090111
 21
1.57486825428973
 31
0.0
  0
LINE
  5
1A786
  8
0
  6
CONTINUOUS
 10
11.69086507654257
 20
0.0337499208509957
 30
0.0
 11
12.76663158426952
 21
1.109516428577947
 31
0.0
  0
LINE
  5
1A787
  8
0
  6
CONTINUOUS
 10
12.33057447873954
 20
-0.0000598860322123
 30
0.0
 11
12.97479896763792
 21
0.6441646028661663
 31
0.0
  0
LINE
  5
1A788
  8
0
  6
CONTINUOUS
 10
13.00413694809395
 20
-0.0000166257579952
 30
0.0
 11
13.18296635100632
 21
0.1788127771543824
 31
0.0
  0
LINE
  5
1A789
  8
0
  6
CONTINUOUS
 10
4.772852165289667
 20
-0.000092794222212
 30
0.0
 11
4.296495091028902
 21
0.4762642800385528
 31
0.0
  0
LINE
  5
1A78A
  8
0
  6
CONTINUOUS
 10
5.446340034776103
 20
-0.0000614546284616
 30
0.0
 11
2.898195908335625
 21
2.548082671812017
 31
0.0
  0
LINE
  5
1A78B
  8
0
  6
CONTINUOUS
 10
6.119827904262539
 20
-0.0000301150347113
 30
0.0
 11
1.499896725642348
 21
4.61990106358548
 31
0.0
  0
LINE
  5
1A78C
  8
0
  6
CONTINUOUS
 10
6.775136745476159
 20
0.0181802528318542
 30
0.0
 11
5.699826040202669
 21
1.093490958105344
 31
0.0
  0
LINE
  5
1A78D
  8
0
  6
CONTINUOUS
 10
6.983376846288489
 20
0.4834593610997118
 30
0.0
 11
5.908008617934405
 21
1.558827589453796
 31
0.0
  0
LINE
  5
1A78E
  8
0
  6
CONTINUOUS
 10
5.377063484962296
 20
1.416253513345719
 30
0.0
 11
1.702276957014131
 21
5.091040041293883
 31
0.0
  0
LINE
  5
1A78F
  8
0
  6
CONTINUOUS
 10
3.978745891735324
 20
3.488090315652877
 30
0.0
 11
2.000373521109399
 21
5.466462686278803
 31
0.0
  0
LINE
  5
1A790
  8
0
  6
CONTINUOUS
 10
7.191616947100819
 20
0.948738469367568
 30
0.0
 11
6.11619119566614
 21
2.024164220802247
 31
0.0
  0
LINE
  5
1A791
  8
0
  6
CONTINUOUS
 10
7.399857047913149
 20
1.414017577635424
 30
0.0
 11
6.324373773397875
 21
2.489500852150698
 31
0.0
  0
LINE
  5
1A792
  8
0
  6
CONTINUOUS
 10
7.608097148725479
 20
1.879296685903281
 30
0.0
 11
6.53255635112961
 21
2.95483748349915
 31
0.0
  0
LINE
  5
1A793
  8
0
  6
CONTINUOUS
 10
7.816337249537808
 20
2.344575794171138
 30
0.0
 11
6.740738928861345
 21
3.420174114847601
 31
0.0
  0
LINE
  5
1A794
  8
0
  6
CONTINUOUS
 10
3.310241080789734
 20
4.830114335678653
 30
0.0
 11
2.298470085204666
 21
5.84188533126372
 31
0.0
  0
LINE
  5
1A795
  8
0
  6
CONTINUOUS
 10
3.60832983563551
 20
5.205544789913063
 30
0.0
 11
2.596566649299935
 21
6.217307976248638
 31
0.0
  0
LINE
  5
1A796
  8
0
  6
CONTINUOUS
 10
3.906418590481286
 20
5.580975244147473
 30
0.0
 11
2.894663213395203
 21
6.592730621233557
 31
0.0
  0
LINE
  5
1A797
  8
0
  6
CONTINUOUS
 10
4.204507345327062
 20
5.956405698381884
 30
0.0
 11
3.192759777490472
 21
6.968153266218474
 31
0.0
  0
LINE
  5
1A798
  8
0
  6
CONTINUOUS
 10
8.466032252791512
 20
2.368399999997621
 30
0.0
 11
6.948921506593081
 21
3.885510746196053
 31
0.0
  0
LINE
  5
1A799
  8
0
  6
CONTINUOUS
 10
9.139551461871699
 20
2.36839999999762
 30
0.0
 11
7.157104084324816
 21
4.350847377544504
 31
0.0
  0
LINE
  5
1A79A
  8
0
  6
CONTINUOUS
 10
4.502596100172839
 20
6.331836152616295
 30
0.0
 11
3.49085634158574
 21
7.343575911203393
 31
0.0
  0
LINE
  5
1A79B
  8
0
  6
CONTINUOUS
 10
4.800684855018615
 20
6.707266606850705
 30
0.0
 11
3.788952905681008
 21
7.718998556188312
 31
0.0
  0
LINE
  5
1A79C
  8
0
  6
CONTINUOUS
 10
12.18154012887317
 20
-0.0000694579236642
 30
0.0
 11
11.32140332908496
 21
0.8600673418645499
 31
0.0
  0
LINE
  5
1A79D
  8
0
  6
CONTINUOUS
 10
12.85501608323566
 20
-0.0000262032059659
 30
0.0
 11
10.77672456435345
 21
2.078265315676246
 31
0.0
  0
LINE
  5
1A79E
  8
0
  6
CONTINUOUS
 10
9.813070670951886
 20
2.36839999999762
 30
0.0
 11
8.51047067095321
 21
3.670999999996297
 31
0.0
  0
LINE
  5
1A79F
  8
0
  6
CONTINUOUS
 10
10.48658988003207
 20
2.36839999999762
 30
0.0
 11
9.183989880033396
 21
3.670999999996297
 31
0.0
  0
LINE
  5
1A7A0
  8
0
  6
CONTINUOUS
 10
8.441048632286794
 20
3.740422038662712
 30
0.0
 11
7.365286662056551
 21
4.816184008892956
 31
0.0
  0
LINE
  5
1A7A1
  8
0
  6
CONTINUOUS
 10
8.649187485808454
 20
4.205802394221237
 30
0.0
 11
7.573469239788285
 21
5.281520640241407
 31
0.0
  0
LINE
  5
1A7A2
  8
0
  6
CONTINUOUS
 10
5.098773609864391
 20
7.082697061085115
 30
0.0
 11
4.087049469776277
 21
8.09442120117323
 31
0.0
  0
LINE
  5
1A7A3
  8
0
  6
CONTINUOUS
 10
5.396862364710167
 20
7.458127515319526
 30
0.0
 11
4.385146033871544
 21
8.469843846158149
 31
0.0
  0
LINE
  5
1A7A4
  8
0
  6
CONTINUOUS
 10
13.04801363231285
 20
0.4804954567970334
 30
0.0
 11
9.85750908911358
 21
3.670999999996297
 31
0.0
  0
LINE
  5
1A7A5
  8
0
  6
CONTINUOUS
 10
8.857326339330116
 20
4.671182749779763
 30
0.0
 11
7.781651817520021
 21
5.746857271589858
 31
0.0
  0
LINE
  5
1A7A6
  8
0
  6
CONTINUOUS
 10
5.694951119555943
 20
7.833557969553937
 30
0.0
 11
4.765409089118624
 21
8.763099999991255
 31
0.0
  0
LINE
  5
1A7A7
  8
0
  6
CONTINUOUS
 10
12.50286117236978
 20
1.699167125820288
 30
0.0
 11
9.68611877250287
 21
4.515909525687196
 31
0.0
  0
LINE
  5
1A7A8
  8
0
  6
CONTINUOUS
 10
9.065465192851777
 20
5.136563105338288
 30
0.0
 11
7.989834395251757
 21
6.21219390293831
 31
0.0
  0
LINE
  5
1A7A9
  8
0
  6
CONTINUOUS
 10
5.993039874401719
 20
8.208988423788346
 30
0.0
 11
5.43892829819881
 21
8.763099999991255
 31
0.0
  0
LINE
  5
1A7AA
  8
0
  6
CONTINUOUS
 10
11.95770871242671
 20
2.917838794843543
 30
0.0
 11
8.19801697298349
 21
6.677530534286761
 31
0.0
  0
LINE
  5
1A7AB
  8
0
  6
CONTINUOUS
 10
6.291128629247495
 20
8.584418878022756
 30
0.0
 11
6.112447507278997
 21
8.763099999991255
 31
0.0
  0
LINE
  5
1A7AC
  8
0
  6
CONTINUOUS
 10
11.41255625248364
 20
4.136510463866797
 30
0.0
 11
8.406199550715227
 21
7.142867165635211
 31
0.0
  0
LINE
  5
1A7AD
  8
0
  6
CONTINUOUS
 10
10.86740379254057
 20
5.355182132890051
 30
0.0
 11
8.614382128446962
 21
7.608203796983664
 31
0.0
  0
LINE
  5
1A7AE
  8
0
  6
CONTINUOUS
 10
10.3222513325975
 20
6.573853801913305
 30
0.0
 11
8.822564706178696
 21
8.073540428332114
 31
0.0
  0
LINE
  5
1A7AF
  8
0
  6
CONTINUOUS
 10
9.777098872654436
 20
7.792525470936562
 30
0.0
 11
9.030747283910433
 21
8.538877059680566
 31
0.0
  0
ENDBLK
  5
1A8F1
  8
0
  0
BLOCK
  8
0
  2
*X125
 70
     1
 10
0.0
 20
0.0
 30
0.0
  3
*X125
  1

  0
LINE
  5
1A7B1
  8
0
  6
CONTINUOUS
 10
10.67292308101235
 20
8.445076852443387
 30
0.0
 11
10.99094622856022
 21
8.763099999991255
 31
0.0
  0
LINE
  5
1A7B2
  8
0
  6
CONTINUOUS
 10
10.87250383178748
 20
7.971138394138331
 30
0.0
 11
11.6644654376404
 21
8.763099999991255
 31
0.0
  0
LINE
  5
1A7B3
  8
0
  6
CONTINUOUS
 10
11.07208458256261
 20
7.497199935833273
 30
0.0
 11
12.12126590876355
 21
8.546381262034211
 31
0.0
  0
LINE
  5
1A7B4
  8
0
  6
CONTINUOUS
 10
11.27166533333774
 20
7.023261477528216
 30
0.0
 11
12.32085164573666
 21
8.072447789927136
 31
0.0
  0
LINE
  5
1A7B5
  8
0
  6
CONTINUOUS
 10
11.47124608411287
 20
6.549323019223158
 30
0.0
 11
12.52043738270977
 21
7.59851431782006
 31
0.0
  0
LINE
  5
1A7B6
  8
0
  6
CONTINUOUS
 10
11.670826834888
 20
6.075384560918101
 30
0.0
 11
12.72002311968288
 21
7.124580845712984
 31
0.0
  0
LINE
  5
1A7B7
  8
0
  6
CONTINUOUS
 10
11.87040758566313
 20
5.601446102613043
 30
0.0
 11
12.91960885665599
 21
6.650647373605907
 31
0.0
  0
LINE
  5
1A7B8
  8
0
  6
CONTINUOUS
 10
12.06998833643825
 20
5.127507644307986
 30
0.0
 11
13.1191945936291
 21
6.176713901498832
 31
0.0
  0
LINE
  5
1A7B9
  8
0
  6
CONTINUOUS
 10
12.26956908721338
 20
4.65356918600293
 30
0.0
 11
13.31878033060221
 21
5.702780429391757
 31
0.0
  0
LINE
  5
1A7BA
  8
0
  6
CONTINUOUS
 10
12.46914983798851
 20
4.179630727697873
 30
0.0
 11
13.51836606757532
 21
5.228846957284683
 31
0.0
  0
LINE
  5
1A7BB
  8
0
  6
CONTINUOUS
 10
12.66873058876364
 20
3.705692269392816
 30
0.0
 11
13.71795180454843
 21
4.754913485177607
 31
0.0
  0
LINE
  5
1A7BC
  8
0
  6
CONTINUOUS
 10
12.86831133953877
 20
3.231753811087759
 30
0.0
 11
13.91753754152154
 21
4.280980013070531
 31
0.0
  0
LINE
  5
1A7BD
  8
0
  6
CONTINUOUS
 10
13.0678920903139
 20
2.757815352782702
 30
0.0
 11
14.11712327849465
 21
3.807046540963456
 31
0.0
  0
LINE
  5
1A7BE
  8
0
  6
CONTINUOUS
 10
13.26747284108903
 20
2.283876894477644
 30
0.0
 11
14.31670901546777
 21
3.333113068856379
 31
0.0
  0
LINE
  5
1A7BF
  8
0
  6
CONTINUOUS
 10
16.36767838827179
 20
8.751678487061342
 30
0.0
 11
16.50332410898388
 21
8.887324207773432
 31
0.0
  0
LINE
  5
1A7C0
  8
0
  6
CONTINUOUS
 10
15.96190732182191
 20
7.67238821153127
 30
0.0
 11
16.68735328004734
 21
8.397834169756699
 31
0.0
  0
LINE
  5
1A7C1
  8
0
  6
CONTINUOUS
 10
15.55613625537202
 20
6.593097936001196
 30
0.0
 11
16.87138245111079
 21
7.908344131739965
 31
0.0
  0
LINE
  5
1A7C2
  8
0
  6
CONTINUOUS
 10
15.15036518892213
 20
5.513807660471122
 30
0.0
 11
17.05541162217424
 21
7.418854093723231
 31
0.0
  0
LINE
  5
1A7C3
  8
0
  6
CONTINUOUS
 10
14.74459412247225
 20
4.434517384941048
 30
0.0
 11
17.2394407932377
 21
6.929364055706499
 31
0.0
  0
LINE
  5
1A7C4
  8
0
  6
CONTINUOUS
 10
14.33882305602236
 20
3.355227109410975
 30
0.0
 11
17.42346996430115
 21
6.439874017689766
 31
0.0
  0
LINE
  5
1A7C5
  8
0
  6
CONTINUOUS
 10
13.46705359186416
 20
1.809938436172586
 30
0.0
 11
16.0819338255367
 21
4.424818669845129
 31
0.0
  0
LINE
  5
1A7C6
  8
0
  6
CONTINUOUS
 10
16.63283254238972
 20
4.975717386698149
 30
0.0
 11
17.60749913536461
 21
5.950383979673033
 31
0.0
  0
LINE
  5
1A7C7
  8
0
  6
CONTINUOUS
 10
13.66663434263929
 20
1.335999977867529
 30
0.0
 11
15.67604797733754
 21
3.345413612565779
 31
0.0
  0
LINE
  5
1A7C8
  8
0
  6
CONTINUOUS
 10
13.86621509341442
 20
0.8620615195624723
 30
0.0
 11
15.27016212913838
 21
2.26600855528643
 31
0.0
  0
LINE
  5
1A7C9
  8
0
  6
CONTINUOUS
 10
16.81682257348267
 20
4.486188208710908
 30
0.0
 11
17.79152830642806
 21
5.460893941656299
 31
0.0
  0
LINE
  5
1A7CA
  8
0
  6
CONTINUOUS
 10
17.00081260457561
 20
3.996659030723667
 30
0.0
 11
17.97555747749151
 21
4.971403903639565
 31
0.0
  0
LINE
  5
1A7CB
  8
0
  6
CONTINUOUS
 10
20.74362343514722
 20
8.412989070375462
 30
0.0
 11
21.09373436476302
 21
8.763099999991256
 31
0.0
  0
LINE
  5
1A7CC
  8
0
  6
CONTINUOUS
 10
20.25401257174777
 20
7.249858997895826
 30
0.0
 11
21.7672535738432
 21
8.763099999991255
 31
0.0
  0
LINE
  5
1A7CD
  8
0
  6
CONTINUOUS
 10
14.06579584418955
 20
0.3881230612574149
 30
0.0
 11
14.86427628093921
 21
1.186603498007082
 31
0.0
  0
LINE
  5
1A7CE
  8
0
  6
CONTINUOUS
 10
14.26537659496467
 20
-0.0858153970476412
 30
0.0
 11
14.45839043274005
 21
0.1071984407277329
 31
0.0
  0
LINE
  5
1A7CF
  8
0
  6
CONTINUOUS
 10
17.18480263566856
 20
3.507129852736426
 30
0.0
 11
18.15958664855496
 21
4.481913865622833
 31
0.0
  0
LINE
  5
1A7D0
  8
0
  6
CONTINUOUS
 10
17.3687926667615
 20
3.017600674749186
 30
0.0
 11
18.34361581961842
 21
3.9924238276061
 31
0.0
  0
LINE
  5
1A7D1
  8
0
  6
CONTINUOUS
 10
19.76440170834832
 20
6.086728925416191
 30
0.0
 11
22.33924590259489
 21
8.661573119662755
 31
0.0
  0
LINE
  5
1A7D2
  8
0
  6
CONTINUOUS
 10
19.27479084494887
 20
4.923598852936555
 30
0.0
 11
21.84929622842713
 21
7.498104236414807
 31
0.0
  0
LINE
  5
1A7D3
  8
0
  6
CONTINUOUS
 10
17.55278269785445
 20
2.528071496761945
 30
0.0
 11
18.52764499068187
 21
3.502933789589366
 31
0.0
  0
LINE
  5
1A7D4
  8
0
  6
CONTINUOUS
 10
18.78517998154942
 20
3.760468780456919
 30
0.0
 11
21.35934655425936
 21
6.33463535316686
 31
0.0
  0
LINE
  5
1A7D5
  8
0
  6
CONTINUOUS
 10
17.73677272894739
 20
2.038542318774704
 30
0.0
 11
20.8693968800916
 21
5.171166469918914
 31
0.0
  0
LINE
  5
1A7D6
  8
0
  6
CONTINUOUS
 10
17.92076276004034
 20
1.549013140787464
 30
0.0
 11
20.37944720592384
 21
4.007697586670968
 31
0.0
  0
LINE
  5
1A7D7
  8
0
  6
CONTINUOUS
 10
18.10475279113329
 20
1.059483962800223
 30
0.0
 11
19.88949753175608
 21
2.84422870342302
 31
0.0
  0
LINE
  5
1A7D8
  8
0
  6
CONTINUOUS
 10
18.28874282222623
 20
0.5699547848129822
 30
0.0
 11
19.39954785758832
 21
1.680759820175074
 31
0.0
  0
LINE
  5
1A7D9
  8
0
  6
CONTINUOUS
 10
18.47273285331918
 20
0.0804256068257416
 30
0.0
 11
18.90959818342056
 21
0.517290936927127
 31
0.0
  0
LINE
  5
1A7DA
  8
0
  6
CONTINUOUS
 10
14.3590401358224
 20
-0.1570118376323384
 30
0.0
 11
14.24903296539946
 21
-0.0470046672093929
 31
0.0
  0
LINE
  5
1A7DB
  8
0
  6
CONTINUOUS
 10
14.54309291258661
 20
0.332454594683643
 30
0.0
 11
13.75908329123172
 21
1.116464216038529
 31
0.0
  0
LINE
  5
1A7DC
  8
0
  6
CONTINUOUS
 10
14.72714568935081
 20
0.8219210269996244
 30
0.0
 11
13.26913361706399
 21
2.27993309928645
 31
0.0
  0
LINE
  5
1A7DD
  8
0
  6
CONTINUOUS
 10
14.91119846611502
 20
1.311387459315606
 30
0.0
 11
12.77918394289625
 21
3.443401982534371
 31
0.0
  0
LINE
  5
1A7DE
  8
0
  6
CONTINUOUS
 10
15.09525124287922
 20
1.800853891631587
 30
0.0
 11
12.28923426872852
 21
4.606870865782293
 31
0.0
  0
LINE
  5
1A7DF
  8
0
  6
CONTINUOUS
 10
15.27930401964343
 20
2.290320323947569
 30
0.0
 11
11.79928459456078
 21
5.770339749030213
 31
0.0
  0
LINE
  5
1A7E0
  8
0
  6
CONTINUOUS
 10
15.46335679640763
 20
2.77978675626355
 30
0.0
 11
14.48885470994921
 21
3.754288842721972
 31
0.0
  0
LINE
  5
1A7E1
  8
0
  6
CONTINUOUS
 10
13.88507249233704
 20
4.358071060334137
 30
0.0
 11
11.30933492039305
 21
6.933808632278135
 31
0.0
  0
LINE
  5
1A7E2
  8
0
  6
CONTINUOUS
 10
18.75840522805855
 20
0.1582575336928151
 30
0.0
 11
18.25383727664818
 21
0.6628254851031863
 31
0.0
  0
LINE
  5
1A7E3
  8
0
  6
CONTINUOUS
 10
15.64740957317184
 20
3.269253188579531
 30
0.0
 11
14.67288388101266
 21
4.243778880738705
 31
0.0
  0
LINE
  5
1A7E4
  8
0
  6
CONTINUOUS
 10
13.39509276772158
 20
5.521569994029786
 30
0.0
 11
10.81938524622531
 21
8.097277515526056
 31
0.0
  0
LINE
  5
1A7E5
  8
0
  6
CONTINUOUS
 10
18.95798597883369
 20
0.6321959919978686
 30
0.0
 11
17.84825644852853
 21
1.741925522303024
 31
0.0
  0
LINE
  5
1A7E6
  8
0
  6
CONTINUOUS
 10
19.15756672960882
 20
1.106134450302922
 30
0.0
 11
17.44267562040888
 21
2.821025559502861
 31
0.0
  0
LINE
  5
1A7E7
  8
0
  6
CONTINUOUS
 10
15.83146234993604
 20
3.758719620895513
 30
0.0
 11
14.85691305207612
 21
4.733268918755439
 31
0.0
  0
LINE
  5
1A7E8
  8
0
  6
CONTINUOUS
 10
16.01551512670025
 20
4.248186053211494
 30
0.0
 11
15.04094222313957
 21
5.222758956772172
 31
0.0
  0
LINE
  5
1A7E9
  8
0
  6
CONTINUOUS
 10
12.90511304310612
 20
6.685068927725435
 30
0.0
 11
10.8270819708403
 21
8.763099999991255
 31
0.0
  0
LINE
  5
1A7EA
  8
0
  6
CONTINUOUS
 10
12.41513331849066
 20
7.848567861421083
 30
0.0
 11
11.50060117992049
 21
8.763099999991255
 31
0.0
  0
LINE
  5
1A7EB
  8
0
  6
CONTINUOUS
 10
19.35714748038395
 20
1.580072908607975
 30
0.0
 11
17.03709479228923
 21
3.900125596702697
 31
0.0
  0
LINE
  5
1A7EC
  8
0
  6
CONTINUOUS
 10
19.55672823115909
 20
2.054011366913028
 30
0.0
 11
16.63151396416958
 21
4.979225633902534
 31
0.0
  0
LINE
  5
1A7ED
  8
0
  6
CONTINUOUS
 10
16.19956790346445
 20
4.737652485527476
 30
0.0
 11
15.22497139420302
 21
5.712248994788904
 31
0.0
  0
LINE
  5
1A7EE
  8
0
  6
CONTINUOUS
 10
16.38362068022866
 20
5.227118917843457
 30
0.0
 11
15.40900056526648
 21
6.201739032805637
 31
0.0
  0
LINE
  5
1A7EF
  8
0
  6
CONTINUOUS
 10
19.75630898193422
 20
2.527949825218081
 30
0.0
 11
18.70774536448286
 21
3.576513442669441
 31
0.0
  0
LINE
  5
1A7F0
  8
0
  6
CONTINUOUS
 10
19.95588973270936
 20
3.001888283523134
 30
0.0
 11
18.90726987211446
 21
4.050508144118028
 31
0.0
  0
LINE
  5
1A7F1
  8
0
  6
CONTINUOUS
 10
20.15547048348449
 20
3.475826741828186
 30
0.0
 11
19.10679437974606
 21
4.524502845566614
 31
0.0
  0
LINE
  5
1A7F2
  8
0
  6
CONTINUOUS
 10
20.35505123425962
 20
3.94976520013324
 30
0.0
 11
19.30631888737766
 21
4.998497547015201
 31
0.0
  0
LINE
  5
1A7F3
  8
0
  6
CONTINUOUS
 10
20.55463198503475
 20
4.423703658438292
 30
0.0
 11
19.50584339500926
 21
5.472492248463787
 31
0.0
  0
LINE
  5
1A7F4
  8
0
  6
CONTINUOUS
 10
18.37481191085755
 20
3.909446896294752
 30
0.0
 11
15.59302973632993
 21
6.691229070822371
 31
0.0
  0
LINE
  5
1A7F5
  8
0
  6
CONTINUOUS
 10
17.96904084440766
 20
4.988737171824825
 30
0.0
 11
15.77705890739338
 21
7.180719108839104
 31
0.0
  0
LINE
  5
1A7F6
  8
0
  6
CONTINUOUS
 10
17.56326977795777
 20
6.068027447354899
 30
0.0
 11
15.96108807845684
 21
7.670209146855838
 31
0.0
  0
LINE
  5
1A7F7
  8
0
  6
CONTINUOUS
 10
17.15749871150789
 20
7.147317722884972
 30
0.0
 11
16.14511724952029
 21
8.15969918487257
 31
0.0
  0
LINE
  5
1A7F8
  8
0
  6
CONTINUOUS
 10
16.751727645058
 20
8.226607998415046
 30
0.0
 11
16.32914642058374
 21
8.649189222889303
 31
0.0
  0
LINE
  5
1A7F9
  8
0
  6
CONTINUOUS
 10
20.75421273580989
 20
4.897642116743345
 30
0.0
 11
19.70536790264086
 21
5.946486949912374
 31
0.0
  0
LINE
  5
1A7FA
  8
0
  6
CONTINUOUS
 10
20.95379348658502
 20
5.371580575048398
 30
0.0
 11
19.90489241027246
 21
6.42048165136096
 31
0.0
  0
LINE
  5
1A7FB
  8
0
  6
CONTINUOUS
 10
21.15337423736015
 20
5.845519033353452
 30
0.0
 11
20.10441691790406
 21
6.894476352809547
 31
0.0
  0
LINE
  5
1A7FC
  8
0
  6
CONTINUOUS
 10
21.35295498813529
 20
6.319457491658505
 30
0.0
 11
20.30394142553566
 21
7.368471054258134
 31
0.0
  0
LINE
  5
1A7FD
  8
0
  6
CONTINUOUS
 10
21.55253573891042
 20
6.793395949963558
 30
0.0
 11
20.50346593316726
 21
7.842465755706721
 31
0.0
  0
LINE
  5
1A7FE
  8
0
  6
CONTINUOUS
 10
21.75211648968556
 20
7.267334408268612
 30
0.0
 11
20.70299044079886
 21
8.316460457155308
 31
0.0
  0
LINE
  5
1A7FF
  8
0
  6
CONTINUOUS
 10
21.95169724046069
 20
7.741272866573663
 30
0.0
 11
20.9298701070431
 21
8.763099999991256
 31
0.0
  0
LINE
  5
1A800
  8
0
  6
CONTINUOUS
 10
22.15127799123582
 20
8.215211324878716
 30
0.0
 11
21.60338931612328
 21
8.763099999991256
 31
0.0
  0
LINE
  5
1A801
  8
0
  6
CONTINUOUS
 10
22.35085874201096
 20
8.689149783183769
 30
0.0
 11
22.27690852520347
 21
8.763099999991255
 31
0.0
  0
ENDBLK
  5
1A8F3
  8
0
  0
BLOCK
  8
0
  2
*X126
 70
     1
 10
0.0
 20
0.0
 30
0.0
  3
*X126
  1

  0
LINE
  5
1A803
  8
0
  6
CONTINUOUS
 10
23.19462913593892
 20
8.169917934846424
 30
0.0
 11
23.70775465517246
 21
8.683043454079957
 31
0.0
  0
LINE
  5
1A804
  8
0
  6
CONTINUOUS
 10
22.64923161835078
 20
6.951001208178088
 30
0.0
 11
23.9159364069932
 21
8.217705996820516
 31
0.0
  0
LINE
  5
1A805
  8
0
  6
CONTINUOUS
 10
22.10383410076263
 20
5.732084481509751
 30
0.0
 11
24.12411815881395
 21
7.752368539561078
 31
0.0
  0
LINE
  5
1A806
  8
0
  6
CONTINUOUS
 10
21.55843658317447
 20
4.513167754841414
 30
0.0
 11
24.3322999106347
 21
7.287031082301639
 31
0.0
  0
LINE
  5
1A807
  8
0
  6
CONTINUOUS
 10
21.01303906558632
 20
3.294251028173077
 30
0.0
 11
24.54048166245544
 21
6.821693625042199
 31
0.0
  0
LINE
  5
1A808
  8
0
  6
CONTINUOUS
 10
20.46764154799817
 20
2.075334301504738
 30
0.0
 11
23.28571549467848
 21
4.89340824818505
 31
0.0
  0
LINE
  5
1A809
  8
0
  6
CONTINUOUS
 10
19.92224403041002
 20
0.8564175748364002
 30
0.0
 11
22.74075865492779
 21
3.674932199354171
 31
0.0
  0
LINE
  5
1A80A
  8
0
  6
CONTINUOUS
 10
23.67305085490148
 20
5.280743608408048
 30
0.0
 11
24.74866341427619
 21
6.356356167782759
 31
0.0
  0
LINE
  5
1A80B
  8
0
  6
CONTINUOUS
 10
23.88118970842314
 20
4.815363252849522
 30
0.0
 11
24.95684516609694
 21
5.89101871052332
 31
0.0
  0
LINE
  5
1A80C
  8
0
  6
CONTINUOUS
 10
19.73925852647308
 20
-0.0000871381807288
 30
0.0
 11
23.4103456646501
 21
3.670999999996297
 31
0.0
  0
LINE
  5
1A80D
  8
0
  6
CONTINUOUS
 10
24.0893285619448
 20
4.349982897290997
 30
0.0
 11
25.16502691791769
 21
5.42568125326388
 31
0.0
  0
LINE
  5
1A80E
  8
0
  6
CONTINUOUS
 10
20.41282099582748
 20
-0.0000438779065108
 30
0.0
 11
21.64944178675636
 21
1.236576913022366
 31
0.0
  0
LINE
  5
1A80F
  8
0
  6
CONTINUOUS
 10
22.78126487373161
 20
2.36839999999762
 30
0.0
 11
24.08386487373029
 21
3.670999999996297
 31
0.0
  0
LINE
  5
1A810
  8
0
  6
CONTINUOUS
 10
24.29746741546646
 20
3.884602541732471
 30
0.0
 11
25.37320866973843
 21
4.960343796004441
 31
0.0
  0
LINE
  5
1A811
  8
0
  6
CONTINUOUS
 10
21.08638346518189
 20
-0.0000006176322938
 30
0.0
 11
21.10379033335899
 21
0.0174062505448083
 31
0.0
  0
LINE
  5
1A812
  8
0
  6
CONTINUOUS
 10
23.4547840828118
 20
2.36839999999762
 30
0.0
 11
25.58139042155918
 21
4.495006338745002
 31
0.0
  0
LINE
  5
1A813
  8
0
  6
CONTINUOUS
 10
29.30199999996933
 20
8.215615917155148
 30
0.0
 11
29.84948408280543
 21
8.763099999991255
 31
0.0
  0
LINE
  5
1A814
  8
0
  6
CONTINUOUS
 10
24.12830329189199
 20
2.36839999999762
 30
0.0
 11
25.78957217337993
 21
4.029668881485562
 31
0.0
  0
LINE
  5
1A815
  8
0
  6
CONTINUOUS
 10
29.30199999996933
 20
7.54209670807496
 30
0.0
 11
30.52300329188562
 21
8.763099999991255
 31
0.0
  0
LINE
  5
1A816
  8
0
  6
CONTINUOUS
 10
24.80182250097217
 20
2.36839999999762
 30
0.0
 11
25.99775392520067
 21
3.564331424226122
 31
0.0
  0
LINE
  5
1A817
  8
0
  6
CONTINUOUS
 10
29.30199999996933
 20
6.868577498994774
 30
0.0
 11
30.74199999996926
 21
8.308577498994712
 31
0.0
  0
LINE
  5
1A818
  8
0
  6
CONTINUOUS
 10
25.13028238392013
 20
2.023340673865392
 30
0.0
 11
26.20593567702142
 21
3.098993966966683
 31
0.0
  0
LINE
  5
1A819
  8
0
  6
CONTINUOUS
 10
25.33838066033617
 20
1.557919741201244
 30
0.0
 11
26.41411742884217
 21
2.633656509707244
 31
0.0
  0
LINE
  5
1A81A
  8
0
  6
CONTINUOUS
 10
25.54647893675221
 20
1.092498808537098
 30
0.0
 11
26.62229918066291
 21
2.168319052447804
 31
0.0
  0
LINE
  5
1A81B
  8
0
  6
CONTINUOUS
 10
25.75457721316825
 20
0.62707787587295
 30
0.0
 11
26.83048093248366
 21
1.702981595188365
 31
0.0
  0
LINE
  5
1A81C
  8
0
  6
CONTINUOUS
 10
29.30199999996933
 20
6.195058289914587
 30
0.0
 11
30.74199999996926
 21
7.635058289914522
 31
0.0
  0
LINE
  5
1A81D
  8
0
  6
CONTINUOUS
 10
29.30199999996933
 20
5.521539080834401
 30
0.0
 11
30.74199999996926
 21
6.961539080834331
 31
0.0
  0
LINE
  5
1A81E
  8
0
  6
CONTINUOUS
 10
29.30199999996933
 20
4.848019871754214
 30
0.0
 11
30.74199999996925
 21
6.288019871754143
 31
0.0
  0
LINE
  5
1A81F
  8
0
  6
CONTINUOUS
 10
29.30199999996933
 20
4.174500662674028
 30
0.0
 11
30.74199999996925
 21
5.614500662673953
 31
0.0
  0
LINE
  5
1A820
  8
0
  6
CONTINUOUS
 10
25.96267548958429
 20
0.1616569432088024
 30
0.0
 11
27.18411854636669
 21
1.383099999991207
 31
0.0
  0
LINE
  5
1A821
  8
0
  6
CONTINUOUS
 10
29.30199999996933
 20
3.500981453593841
 30
0.0
 11
30.74199999996925
 21
4.940981453593762
 31
0.0
  0
LINE
  5
1A822
  8
0
  6
CONTINUOUS
 10
26.50763775544691
 20
0.0330999999912356
 30
0.0
 11
27.85763775544689
 21
1.383099999991223
 31
0.0
  0
LINE
  5
1A823
  8
0
  6
CONTINUOUS
 10
29.30199999996933
 20
2.827462244513656
 30
0.0
 11
30.74199999996925
 21
4.267462244513574
 31
0.0
  0
LINE
  5
1A824
  8
0
  6
CONTINUOUS
 10
27.18115696452709
 20
0.0330999999912356
 30
0.0
 11
28.6224847300034
 21
1.474427765467545
 31
0.0
  0
LINE
  5
1A825
  8
0
  6
CONTINUOUS
 10
29.21067223449293
 20
2.062615269957069
 30
0.0
 11
30.74199999996924
 21
3.593943035433383
 31
0.0
  0
LINE
  5
1A826
  8
0
  6
CONTINUOUS
 10
27.85467617360728
 20
0.0330999999912356
 30
0.0
 11
30.74199999996924
 21
2.920423826353195
 31
0.0
  0
LINE
  5
1A827
  8
0
  6
CONTINUOUS
 10
28.57438609860264
 20
0.0792907159064073
 30
0.0
 11
30.69580928405405
 21
2.200713901357819
 31
0.0
  0
LINE
  5
1A828
  8
0
  6
CONTINUOUS
 10
29.49443044814297
 20
0.3258158563665496
 30
0.0
 11
30.44928414359389
 21
1.280669551817477
 31
0.0
  0
LINE
  5
1A829
  8
0
  6
CONTINUOUS
 10
19.59027867740337
 20
-0.0000967065718083
 30
0.0
 11
19.55485265190471
 21
0.035329318926844
 31
0.0
  0
LINE
  5
1A82A
  8
0
  6
CONTINUOUS
 10
20.26375463176586
 20
-0.0000534518541091
 30
0.0
 11
19.76305575737534
 21
0.5006454225364014
 31
0.0
  0
LINE
  5
1A82B
  8
0
  6
CONTINUOUS
 10
20.93723058612834
 20
-0.0000101971364099
 30
0.0
 11
19.97125886284597
 21
0.965961526145958
 31
0.0
  0
LINE
  5
1A82C
  8
0
  6
CONTINUOUS
 10
21.25514828313686
 20
0.355591314935257
 30
0.0
 11
20.1794619683166
 21
1.431277629755512
 31
0.0
  0
LINE
  5
1A82D
  8
0
  6
CONTINUOUS
 10
21.46338838394921
 20
0.8208704232030986
 30
0.0
 11
20.38766507378723
 21
1.896593733365069
 31
0.0
  0
LINE
  5
1A82E
  8
0
  6
CONTINUOUS
 10
21.67162848476155
 20
1.28614953147094
 30
0.0
 11
20.59586817925786
 21
2.361909836974626
 31
0.0
  0
LINE
  5
1A82F
  8
0
  6
CONTINUOUS
 10
21.8798685855739
 20
1.751428639738782
 30
0.0
 11
20.80407128472849
 21
2.827225940584183
 31
0.0
  0
LINE
  5
1A830
  8
0
  6
CONTINUOUS
 10
22.08810868638624
 20
2.216707748006623
 30
0.0
 11
21.01227439019912
 21
3.292542044193739
 31
0.0
  0
LINE
  5
1A831
  8
0
  6
CONTINUOUS
 10
22.60993564347543
 20
2.36839999999762
 30
0.0
 11
21.22047749566975
 21
3.757858147803296
 31
0.0
  0
LINE
  5
1A832
  8
0
  6
CONTINUOUS
 10
23.28345485255561
 20
2.36839999999762
 30
0.0
 11
21.42868060114038
 21
4.223174251412853
 31
0.0
  0
LINE
  5
1A833
  8
0
  6
CONTINUOUS
 10
26.29227406164219
 20
0.0330999999912356
 30
0.0
 11
25.80009199592872
 21
0.5252820657046957
 31
0.0
  0
LINE
  5
1A834
  8
0
  6
CONTINUOUS
 10
23.9569740616358
 20
2.36839999999762
 30
0.0
 11
21.63688370661101
 21
4.688490355022409
 31
0.0
  0
LINE
  5
1A835
  8
0
  6
CONTINUOUS
 10
26.96579327072237
 20
0.0330999999912356
 30
0.0
 11
25.2554132311971
 21
1.743480039516508
 31
0.0
  0
LINE
  5
1A836
  8
0
  6
CONTINUOUS
 10
24.63049327071599
 20
2.36839999999762
 30
0.0
 11
23.32789327071731
 21
3.670999999996297
 31
0.0
  0
LINE
  5
1A837
  8
0
  6
CONTINUOUS
 10
22.92098674744635
 20
4.077906523267254
 30
0.0
 11
21.84508681208164
 21
5.153806458631966
 31
0.0
  0
LINE
  5
1A838
  8
0
  6
CONTINUOUS
 10
27.63931247980256
 20
0.0330999999912356
 30
0.0
 11
24.0014124797975
 21
3.670999999996297
 31
0.0
  0
LINE
  5
1A839
  8
0
  6
CONTINUOUS
 10
23.129125600968
 20
4.5432868788258
 30
0.0
 11
22.05328991755227
 21
5.619122562241522
 31
0.0
  0
LINE
  5
1A83A
  8
0
  6
CONTINUOUS
 10
28.31283168888275
 20
0.0330999999912356
 30
0.0
 11
24.16488385994816
 21
4.181047828925828
 31
0.0
  0
LINE
  5
1A83B
  8
0
  6
CONTINUOUS
 10
23.33726445448964
 20
5.008667234384345
 30
0.0
 11
22.2614930230229
 21
6.084438665851079
 31
0.0
  0
LINE
  5
1A83C
  8
0
  6
CONTINUOUS
 10
28.86286302309502
 20
0.1565878748591523
 30
0.0
 11
27.63635089796295
 21
1.383099999991217
 31
0.0
  0
LINE
  5
1A83D
  8
0
  6
CONTINUOUS
 10
26.43704649509776
 20
2.582404402856405
 30
0.0
 11
23.61992702019732
 21
5.399523877756844
 31
0.0
  0
LINE
  5
1A83E
  8
0
  6
CONTINUOUS
 10
23.54540330801128
 20
5.47404758994289
 30
0.0
 11
22.46969612849353
 21
6.549754769460635
 31
0.0
  0
LINE
  5
1A83F
  8
0
  6
CONTINUOUS
 10
29.39405087596853
 20
0.2989192310658284
 30
0.0
 11
28.30987010704312
 21
1.383099999991234
 31
0.0
  0
LINE
  5
1A840
  8
0
  6
CONTINUOUS
 10
25.89179548232307
 20
3.801174624711282
 30
0.0
 11
22.67789923396416
 21
7.015070873070191
 31
0.0
  0
LINE
  5
1A841
  8
0
  6
CONTINUOUS
 10
29.79594438047407
 20
0.570544935640473
 30
0.0
 11
28.81310432793121
 21
1.553384988183336
 31
0.0
  0
LINE
  5
1A842
  8
0
  6
CONTINUOUS
 10
25.34654446954838
 20
5.01994484656616
 30
0.0
 11
22.88610233943479
 21
7.480386976679748
 31
0.0
  0
LINE
  5
1A843
  8
0
  6
CONTINUOUS
 10
30.13270398501416
 20
0.9073045401805646
 30
0.0
 11
29.14234640337737
 21
1.897662121817355
 31
0.0
  0
LINE
  5
1A844
  8
0
  6
CONTINUOUS
 10
24.80129345677369
 20
6.238715068421037
 30
0.0
 11
23.09430544490542
 21
7.945703080289305
 31
0.0
  0
LINE
  5
1A845
  8
0
  6
CONTINUOUS
 10
30.44581292956759
 20
1.26771480470732
 30
0.0
 11
29.30199999996933
 21
2.411527734305588
 31
0.0
  0
LINE
  5
1A846
  8
0
  6
CONTINUOUS
 10
30.58814428577427
 20
1.798902657580827
 30
0.0
 11
29.30199999996933
 21
3.085046943385775
 31
0.0
  0
LINE
  5
1A847
  8
0
  6
CONTINUOUS
 10
24.256042443999
 20
7.457485290275915
 30
0.0
 11
23.30250855037605
 21
8.411019183898862
 31
0.0
  0
LINE
  5
1A848
  8
0
  6
CONTINUOUS
 10
23.71079143122431
 20
8.676255512130794
 30
0.0
 11
23.51071165584668
 21
8.876335287508418
 31
0.0
  0
LINE
  5
1A849
  8
0
  6
CONTINUOUS
 10
30.73047564198095
 20
2.330090510454333
 30
0.0
 11
29.30199999996933
 21
3.758566152465961
 31
0.0
  0
LINE
  5
1A84A
  8
0
  6
CONTINUOUS
 10
30.74199999996924
 20
2.992085361546236
 30
0.0
 11
29.30199999996933
 21
4.432085361546148
 31
0.0
  0
LINE
  5
1A84B
  8
0
  6
CONTINUOUS
 10
30.74199999996924
 20
3.665604570626419
 30
0.0
 11
29.30199999996933
 21
5.105604570626333
 31
0.0
  0
LINE
  5
1A84C
  8
0
  6
CONTINUOUS
 10
30.74199999996925
 20
4.339123779706602
 30
0.0
 11
29.30199999996933
 21
5.77912377970652
 31
0.0
  0
LINE
  5
1A84D
  8
0
  6
CONTINUOUS
 10
30.74199999996925
 20
5.012642988786785
 30
0.0
 11
29.30199999996933
 21
6.452642988786707
 31
0.0
  0
LINE
  5
1A84E
  8
0
  6
CONTINUOUS
 10
30.74199999996925
 20
5.68616219786697
 30
0.0
 11
29.30199999996933
 21
7.126162197866894
 31
0.0
  0
LINE
  5
1A84F
  8
0
  6
CONTINUOUS
 10
30.74199999996925
 20
6.359681406947153
 30
0.0
 11
29.30199999996933
 21
7.799681406947081
 31
0.0
  0
LINE
  5
1A850
  8
0
  6
CONTINUOUS
 10
30.74199999996926
 20
7.033200616027337
 30
0.0
 11
29.30199999996933
 21
8.473200616027269
 31
0.0
  0
LINE
  5
1A851
  8
0
  6
CONTINUOUS
 10
30.74199999996926
 20
7.706719825107518
 30
0.0
 11
29.68561982508552
 21
8.763099999991255
 31
0.0
  0
LINE
  5
1A852
  8
0
  6
CONTINUOUS
 10
30.74199999996926
 20
8.380239034187703
 30
0.0
 11
30.35913903416571
 21
8.763099999991255
 31
0.0
  0
ENDBLK
  5
1A8F5
  8
0
  0
BLOCK
  8
0
  2
*X127
 70
     1
 10
0.0
 20
0.0
 30
0.0
  3
*X127
  1

  0
LINE
  5
1A854
  8
0
  6
CONTINUOUS
 10
31.64199999996833
 20
8.5350582899136
 30
0.0
 11
31.87004171004599
 21
8.763099999991255
 31
0.0
  0
LINE
  5
1A855
  8
0
  6
CONTINUOUS
 10
31.64199999996833
 20
7.861539080833413
 30
0.0
 11
32.54356091912618
 21
8.763099999991255
 31
0.0
  0
LINE
  5
1A856
  8
0
  6
CONTINUOUS
 10
31.64199999996833
 20
7.188019871753227
 30
0.0
 11
33.08199999996839
 21
8.628019871753281
 31
0.0
  0
LINE
  5
1A857
  8
0
  6
CONTINUOUS
 10
31.64199999996833
 20
6.514500662673041
 30
0.0
 11
33.08199999996839
 21
7.954500662673095
 31
0.0
  0
LINE
  5
1A858
  8
0
  6
CONTINUOUS
 10
31.64199999996833
 20
5.840981453592855
 30
0.0
 11
33.08199999996839
 21
7.28098145359291
 31
0.0
  0
LINE
  5
1A859
  8
0
  6
CONTINUOUS
 10
31.64199999996833
 20
5.167462244512668
 30
0.0
 11
33.08199999996839
 21
6.607462244512723
 31
0.0
  0
LINE
  5
1A85A
  8
0
  6
CONTINUOUS
 10
31.64199999996833
 20
4.493943035432482
 30
0.0
 11
33.08199999996839
 21
5.933943035432536
 31
0.0
  0
LINE
  5
1A85B
  8
0
  6
CONTINUOUS
 10
31.64199999996833
 20
3.820423826352294
 30
0.0
 11
33.08199999996839
 21
5.260423826352349
 31
0.0
  0
LINE
  5
1A85C
  8
0
  6
CONTINUOUS
 10
31.64199999996833
 20
3.146904617272108
 30
0.0
 11
33.08199999996839
 21
4.586904617272163
 31
0.0
  0
LINE
  5
1A85D
  8
0
  6
CONTINUOUS
 10
36.23199999996837
 20
8.410423826352327
 30
0.0
 11
36.58467617360729
 21
8.763099999991255
 31
0.0
  0
LINE
  5
1A85E
  8
0
  6
CONTINUOUS
 10
36.23199999996837
 20
7.73690461727214
 30
0.0
 11
37.25819538268748
 21
8.763099999991255
 31
0.0
  0
LINE
  5
1A85F
  8
0
  6
CONTINUOUS
 10
31.64323424774199
 20
2.474619655965573
 30
0.0
 11
33.08199999996839
 21
3.913385408191976
 31
0.0
  0
LINE
  5
1A860
  8
0
  6
CONTINUOUS
 10
31.74419223861915
 20
1.902058437762552
 30
0.0
 11
33.08199999996839
 21
3.239866199111789
 31
0.0
  0
LINE
  5
1A861
  8
0
  6
CONTINUOUS
 10
36.23199999996837
 20
7.063385408191953
 30
0.0
 11
37.67199999996831
 21
8.503385408191894
 31
0.0
  0
LINE
  5
1A862
  8
0
  6
CONTINUOUS
 10
36.23199999996837
 20
6.389866199111767
 30
0.0
 11
37.67199999996831
 21
7.829866199111708
 31
0.0
  0
LINE
  5
1A863
  8
0
  6
CONTINUOUS
 10
31.91111233414976
 20
1.39545932421297
 30
0.0
 11
33.08199999996839
 21
2.566346990031603
 31
0.0
  0
LINE
  5
1A864
  8
0
  6
CONTINUOUS
 10
36.23199999996837
 20
5.71634699003158
 30
0.0
 11
37.67199999996831
 21
7.156346990031522
 31
0.0
  0
LINE
  5
1A865
  8
0
  6
CONTINUOUS
 10
32.1576374746103
 20
0.9684652555933289
 30
0.0
 11
33.20642631446081
 21
2.017254095443838
 31
0.0
  0
LINE
  5
1A866
  8
0
  6
CONTINUOUS
 10
36.23199999996837
 20
5.042827780951393
 30
0.0
 11
37.67199999996831
 21
6.482827780951334
 31
0.0
  0
LINE
  5
1A867
  8
0
  6
CONTINUOUS
 10
32.47774023927325
 20
0.6150488111760914
 30
0.0
 11
33.49903056428258
 21
1.636339136185419
 31
0.0
  0
LINE
  5
1A868
  8
0
  6
CONTINUOUS
 10
36.23199999996837
 20
4.369308571871207
 30
0.0
 11
37.67199999996831
 21
5.809308571871148
 31
0.0
  0
LINE
  5
1A869
  8
0
  6
CONTINUOUS
 10
32.84396249154443
 20
0.3077518543670883
 30
0.0
 11
33.93324121824649
 21
1.397030581069146
 31
0.0
  0
LINE
  5
1A86A
  8
0
  6
CONTINUOUS
 10
36.23199999996837
 20
3.695789362791021
 30
0.0
 11
37.67199999996831
 21
5.135789362790963
 31
0.0
  0
LINE
  5
1A86B
  8
0
  6
CONTINUOUS
 10
33.30186329036846
 20
0.0921334441109263
 30
0.0
 11
34.46442907112041
 21
1.254699224862875
 31
0.0
  0
LINE
  5
1A86C
  8
0
  6
CONTINUOUS
 10
36.23199999996837
 20
3.022270153710834
 30
0.0
 11
37.67199999996831
 21
4.462270153710776
 31
0.0
  0
LINE
  5
1A86D
  8
0
  6
CONTINUOUS
 10
33.79565647746294
 20
-0.0875925778747773
 30
0.0
 11
35.24350171668284
 21
1.360252661345124
 31
0.0
  0
LINE
  5
1A86E
  8
0
  6
CONTINUOUS
 10
36.18336676155003
 20
2.300117706212308
 30
0.0
 11
37.67199999996831
 21
3.788750944630589
 31
0.0
  0
LINE
  5
1A86F
  8
0
  6
CONTINUOUS
 10
34.37182574910968
 20
-0.184942515308224
 30
0.0
 11
37.67199999996831
 21
3.115231735550402
 31
0.0
  0
LINE
  5
1A870
  8
0
  6
CONTINUOUS
 10
35.0453449581892
 20
-0.1849425153088955
 30
0.0
 11
37.66345697088136
 21
2.433169497383271
 31
0.0
  0
LINE
  5
1A871
  8
0
  6
CONTINUOUS
 10
35.98667157609191
 20
0.0828648935136398
 30
0.0
 11
37.51927401744566
 21
1.615467334867382
 31
0.0
  0
LINE
  5
1A872
  8
0
  6
CONTINUOUS
 10
32.27747408544484
 20
0.7830920669904482
 30
0.0
 11
32.24716210471949
 21
0.8134040477157893
 31
0.0
  0
LINE
  5
1A873
  8
0
  6
CONTINUOUS
 10
33.83656881101902
 20
-0.1024834495035494
 30
0.0
 11
31.72538911593758
 21
2.008696245577891
 31
0.0
  0
LINE
  5
1A874
  8
0
  6
CONTINUOUS
 10
34.5925470859041
 20
-0.1849425153084434
 30
0.0
 11
31.64199999996833
 21
2.765604570627322
 31
0.0
  0
LINE
  5
1A875
  8
0
  6
CONTINUOUS
 10
35.26201302775981
 20
-0.1808892480839752
 30
0.0
 11
31.64199999996833
 21
3.439123779707508
 31
0.0
  0
LINE
  5
1A876
  8
0
  6
CONTINUOUS
 10
35.75580621485512
 20
-0.0011632260990879
 30
0.0
 11
34.51294304365551
 21
1.241699945100514
 31
0.0
  0
LINE
  5
1A877
  8
0
  6
CONTINUOUS
 10
33.08199999996839
 20
2.672642988787641
 30
0.0
 11
31.64199999996833
 21
4.112642988787695
 31
0.0
  0
LINE
  5
1A878
  8
0
  6
CONTINUOUS
 10
36.24959940195042
 20
0.1785627958857976
 30
0.0
 11
35.10501653033629
 21
1.323145667499924
 31
0.0
  0
LINE
  5
1A879
  8
0
  6
CONTINUOUS
 10
33.08199999996839
 20
3.346162197867827
 30
0.0
 11
31.64199999996833
 21
4.786162197867881
 31
0.0
  0
LINE
  5
1A87A
  8
0
  6
CONTINUOUS
 10
36.64615197150552
 20
0.4555294354108876
 30
0.0
 11
35.6362043832099
 21
1.465477023706505
 31
0.0
  0
LINE
  5
1A87B
  8
0
  6
CONTINUOUS
 10
33.08199999996839
 20
4.019681406948013
 30
0.0
 11
31.64199999996833
 21
5.459681406948068
 31
0.0
  0
LINE
  5
1A87C
  8
0
  6
CONTINUOUS
 10
37.0123742237774
 20
0.7628263922191891
 30
0.0
 11
35.97691545773309
 21
1.798285158263504
 31
0.0
  0
LINE
  5
1A87D
  8
0
  6
CONTINUOUS
 10
33.08199999996839
 20
4.6932006160282
 30
0.0
 11
31.64199999996833
 21
6.133200616028255
 31
0.0
  0
LINE
  5
1A87E
  8
0
  6
CONTINUOUS
 10
37.27491524157143
 20
1.173804583505349
 30
0.0
 11
36.17602012811361
 21
2.272699696963169
 31
0.0
  0
LINE
  5
1A87F
  8
0
  6
CONTINUOUS
 10
33.08199999996839
 20
5.366719825108387
 30
0.0
 11
31.64199999996833
 21
6.806719825108441
 31
0.0
  0
LINE
  5
1A880
  8
0
  6
CONTINUOUS
 10
37.51739996707661
 20
1.604839067080355
 30
0.0
 11
36.23199999996837
 21
2.890239034188595
 31
0.0
  0
LINE
  5
1A881
  8
0
  6
CONTINUOUS
 10
37.6183579579535
 20
2.177400285283649
 30
0.0
 11
36.23199999996837
 21
3.563758243268782
 31
0.0
  0
LINE
  5
1A882
  8
0
  6
CONTINUOUS
 10
33.08199999996839
 20
6.040239034188573
 30
0.0
 11
31.64199999996833
 21
7.480239034188628
 31
0.0
  0
LINE
  5
1A883
  8
0
  6
CONTINUOUS
 10
33.08199999996839
 20
6.713758243268759
 30
0.0
 11
31.64199999996833
 21
8.153758243268815
 31
0.0
  0
LINE
  5
1A884
  8
0
  6
CONTINUOUS
 10
37.67199999996831
 20
2.797277452349027
 30
0.0
 11
36.23199999996837
 21
4.237277452348969
 31
0.0
  0
LINE
  5
1A885
  8
0
  6
CONTINUOUS
 10
37.67199999996831
 20
3.470796661429214
 30
0.0
 11
36.23199999996837
 21
4.910796661429155
 31
0.0
  0
LINE
  5
1A886
  8
0
  6
CONTINUOUS
 10
37.67199999996831
 20
4.1443158705094
 30
0.0
 11
36.23199999996837
 21
5.584315870509341
 31
0.0
  0
LINE
  5
1A887
  8
0
  6
CONTINUOUS
 10
33.08199999996839
 20
7.387277452348946
 30
0.0
 11
31.70617745232608
 21
8.763099999991255
 31
0.0
  0
LINE
  5
1A888
  8
0
  6
CONTINUOUS
 10
33.08199999996839
 20
8.060796661429134
 30
0.0
 11
32.37969666140626
 21
8.763099999991255
 31
0.0
  0
LINE
  5
1A889
  8
0
  6
CONTINUOUS
 10
33.08199999996839
 20
8.734315870509318
 30
0.0
 11
33.05321587048645
 21
8.763099999991255
 31
0.0
  0
LINE
  5
1A88A
  8
0
  6
CONTINUOUS
 10
37.67199999996831
 20
4.817835079589586
 30
0.0
 11
36.23199999996837
 21
6.257835079589528
 31
0.0
  0
LINE
  5
1A88B
  8
0
  6
CONTINUOUS
 10
37.67199999996831
 20
5.491354288669772
 30
0.0
 11
36.23199999996837
 21
6.931354288669715
 31
0.0
  0
LINE
  5
1A88C
  8
0
  6
CONTINUOUS
 10
37.67199999996831
 20
6.164873497749959
 30
0.0
 11
36.23199999996837
 21
7.6048734977499
 31
0.0
  0
LINE
  5
1A88D
  8
0
  6
CONTINUOUS
 10
37.67199999996831
 20
6.838392706830145
 30
0.0
 11
36.23199999996837
 21
8.278392706830086
 31
0.0
  0
LINE
  5
1A88E
  8
0
  6
CONTINUOUS
 10
37.67199999996831
 20
7.511911915910333
 30
0.0
 11
36.42081191588738
 21
8.763099999991255
 31
0.0
  0
LINE
  5
1A88F
  8
0
  6
CONTINUOUS
 10
37.67199999996831
 20
8.185431124990519
 30
0.0
 11
37.09433112496757
 21
8.763099999991255
 31
0.0
  0
ENDBLK
  5
1A8F7
  8
0
  0
BLOCK
  8
0
  2
*X128
 70
     1
 10
0.0
 20
0.0
 30
0.0
  3
*X128
  1

  0
LINE
  5
1A891
  8
0
  6
CONTINUOUS
 10
38.60499999996136
 20
8.762866199104765
 30
0.0
 11
38.71672554182345
 21
8.874591740966855
 31
0.0
  0
LINE
  5
1A892
  8
0
  6
CONTINUOUS
 10
38.60499999996136
 20
8.089346990024577
 30
0.0
 11
39.03418785440363
 21
8.518534844466847
 31
0.0
  0
LINE
  5
1A893
  8
0
  6
CONTINUOUS
 10
38.60499999996136
 20
7.41582778094439
 30
0.0
 11
39.35165016698382
 21
8.16247794796684
 31
0.0
  0
LINE
  5
1A894
  8
0
  6
CONTINUOUS
 10
38.60499999996136
 20
6.742308571864204
 30
0.0
 11
39.66911247956399
 21
7.806421051466834
 31
0.0
  0
LINE
  5
1A895
  8
0
  6
CONTINUOUS
 10
38.60499999996136
 20
6.068789362784018
 30
0.0
 11
39.98657479214418
 21
7.450364154966827
 31
0.0
  0
LINE
  5
1A896
  8
0
  6
CONTINUOUS
 10
38.60499999996136
 20
5.395270153703832
 30
0.0
 11
40.30403710472435
 21
7.09430725846682
 31
0.0
  0
LINE
  5
1A897
  8
0
  6
CONTINUOUS
 10
38.60499999996136
 20
4.721750944623645
 30
0.0
 11
40.62149941730453
 21
6.738250361966813
 31
0.0
  0
LINE
  5
1A898
  8
0
  6
CONTINUOUS
 10
38.60499999996136
 20
4.048231735543458
 30
0.0
 11
40.93896172988471
 21
6.382193465466806
 31
0.0
  0
LINE
  5
1A899
  8
0
  6
CONTINUOUS
 10
38.60499999996136
 20
3.374712526463272
 30
0.0
 11
40.02599999995994
 21
4.795712526461843
 31
0.0
  0
LINE
  5
1A89A
  8
0
  6
CONTINUOUS
 10
38.60499999996136
 20
2.701193317383085
 30
0.0
 11
40.02599999995994
 21
4.122193317381657
 31
0.0
  0
LINE
  5
1A89B
  8
0
  6
CONTINUOUS
 10
40.28339754687704
 20
5.053110073378947
 30
0.0
 11
41.25642404246489
 21
6.026136568966799
 31
0.0
  0
LINE
  5
1A89C
  8
0
  6
CONTINUOUS
 10
40.60085985945722
 20
4.697053176878939
 30
0.0
 11
41.57388635504507
 21
5.670079672466793
 31
0.0
  0
LINE
  5
1A89D
  8
0
  6
CONTINUOUS
 10
43.57899999995641
 20
8.348712526458318
 30
0.0
 11
43.99338747348935
 21
8.763099999991255
 31
0.0
  0
LINE
  5
1A89E
  8
0
  6
CONTINUOUS
 10
43.57899999995641
 20
7.675193317378131
 30
0.0
 11
44.66690668256953
 21
8.763099999991255
 31
0.0
  0
LINE
  5
1A89F
  8
0
  6
CONTINUOUS
 10
38.60499999996136
 20
2.027674108302898
 30
0.0
 11
40.02599999995994
 21
3.44867410830147
 31
0.0
  0
LINE
  5
1A8A0
  8
0
  6
CONTINUOUS
 10
38.60499999996136
 20
1.354154899222712
 30
0.0
 11
40.02599999995994
 21
2.775154899221284
 31
0.0
  0
LINE
  5
1A8A1
  8
0
  6
CONTINUOUS
 10
38.60499999996136
 20
0.6806356901425255
 30
0.0
 11
40.02599999995994
 21
2.101635690141098
 31
0.0
  0
LINE
  5
1A8A2
  8
0
  6
CONTINUOUS
 10
38.60499999996136
 20
0.0071164810623383
 30
0.0
 11
40.02599999995994
 21
1.428116481060911
 31
0.0
  0
LINE
  5
1A8A3
  8
0
  6
CONTINUOUS
 10
40.9183221720374
 20
4.340996280378933
 30
0.0
 11
41.89134866762525
 21
5.314022775966786
 31
0.0
  0
LINE
  5
1A8A4
  8
0
  6
CONTINUOUS
 10
41.23578448461758
 20
3.984939383878926
 30
0.0
 11
42.20881098020543
 21
4.957965879466778
 31
0.0
  0
LINE
  5
1A8A5
  8
0
  6
CONTINUOUS
 10
41.55324679719776
 20
3.628882487378919
 30
0.0
 11
42.52627329278561
 21
4.601908982966772
 31
0.0
  0
LINE
  5
1A8A6
  8
0
  6
CONTINUOUS
 10
41.87070910977793
 20
3.272825590878912
 30
0.0
 11
42.84373560536579
 21
4.245852086466765
 31
0.0
  0
LINE
  5
1A8A7
  8
0
  6
CONTINUOUS
 10
43.57899999995641
 20
7.001674108297943
 30
0.0
 11
44.99999999995498
 21
8.422674108296516
 31
0.0
  0
LINE
  5
1A8A8
  8
0
  6
CONTINUOUS
 10
43.57899999995641
 20
6.328154899217758
 30
0.0
 11
44.99999999995498
 21
7.749154899216329
 31
0.0
  0
LINE
  5
1A8A9
  8
0
  6
CONTINUOUS
 10
43.57899999995641
 20
5.654635690137571
 30
0.0
 11
44.99999999995498
 21
7.075635690136142
 31
0.0
  0
LINE
  5
1A8AA
  8
0
  6
CONTINUOUS
 10
43.57899999995641
 20
4.981116481057384
 30
0.0
 11
44.99999999995498
 21
6.402116481055955
 31
0.0
  0
LINE
  5
1A8AB
  8
0
  6
CONTINUOUS
 10
39.27140272797921
 20
-0.0000000000000009
 30
0.0
 11
40.02599999995994
 21
0.7545972719807246
 31
0.0
  0
LINE
  5
1A8AC
  8
0
  6
CONTINUOUS
 10
39.9449219370594
 20
-0.0000000000000009
 30
0.0
 11
40.02599999995994
 21
0.0810780629005379
 31
0.0
  0
LINE
  5
1A8AD
  8
0
  6
CONTINUOUS
 10
42.18817142235812
 20
2.916768694378905
 30
0.0
 11
43.16119791794597
 21
3.889795189966758
 31
0.0
  0
LINE
  5
1A8AE
  8
0
  6
CONTINUOUS
 10
42.50563373493829
 20
2.560711797878898
 30
0.0
 11
43.47866023052615
 21
3.533738293466751
 31
0.0
  0
LINE
  5
1A8AF
  8
0
  6
CONTINUOUS
 10
43.57899999995641
 20
4.307597271977198
 30
0.0
 11
44.99999999995498
 21
5.728597271975769
 31
0.0
  0
LINE
  5
1A8B0
  8
0
  6
CONTINUOUS
 10
43.57899999995641
 20
3.634078062897011
 30
0.0
 11
44.99999999995498
 21
5.055078062895582
 31
0.0
  0
LINE
  5
1A8B1
  8
0
  6
CONTINUOUS
 10
42.82309604751848
 20
2.204654901378891
 30
0.0
 11
44.99999999995498
 21
4.381558853815395
 31
0.0
  0
LINE
  5
1A8B2
  8
0
  6
CONTINUOUS
 10
43.14055836009865
 20
1.848598004878885
 30
0.0
 11
44.99999999995498
 21
3.70803964473521
 31
0.0
  0
LINE
  5
1A8B3
  8
0
  6
CONTINUOUS
 10
43.45802067267883
 20
1.492541108378878
 30
0.0
 11
44.99999999995498
 21
3.034520435655023
 31
0.0
  0
LINE
  5
1A8B4
  8
0
  6
CONTINUOUS
 10
43.77548298525902
 20
1.136484211878871
 30
0.0
 11
44.99999999995498
 21
2.361001226574837
 31
0.0
  0
LINE
  5
1A8B5
  8
0
  6
CONTINUOUS
 10
44.09294529783919
 20
0.7804273153788639
 30
0.0
 11
44.99999999995498
 21
1.687482017494649
 31
0.0
  0
LINE
  5
1A8B6
  8
0
  6
CONTINUOUS
 10
44.41040761041938
 20
0.4243704188788566
 30
0.0
 11
44.99999999995498
 21
1.013962808414463
 31
0.0
  0
LINE
  5
1A8B7
  8
0
  6
CONTINUOUS
 10
44.72786992299955
 20
0.0683135223788494
 30
0.0
 11
44.99999999995498
 21
0.340443599334276
 31
0.0
  0
LINE
  5
1A8B8
  8
0
  6
CONTINUOUS
 10
39.12223903415696
 20
-0.0000000000000009
 30
0.0
 11
38.60499999996136
 21
0.5172390341955961
 31
0.0
  0
LINE
  5
1A8B9
  8
0
  6
CONTINUOUS
 10
39.79575824323715
 20
-0.0000000000000009
 30
0.0
 11
38.60499999996136
 21
1.190758243275783
 31
0.0
  0
LINE
  5
1A8BA
  8
0
  6
CONTINUOUS
 10
40.02599999995994
 20
0.443277452357397
 30
0.0
 11
38.60499999996136
 21
1.864277452355969
 31
0.0
  0
LINE
  5
1A8BB
  8
0
  6
CONTINUOUS
 10
40.02599999995994
 20
1.116796661437583
 30
0.0
 11
38.60499999996136
 21
2.537796661436155
 31
0.0
  0
LINE
  5
1A8BC
  8
0
  6
CONTINUOUS
 10
40.02599999995994
 20
1.79031587051777
 30
0.0
 11
38.60499999996136
 21
3.211315870516341
 31
0.0
  0
LINE
  5
1A8BD
  8
0
  6
CONTINUOUS
 10
40.02599999995994
 20
2.463835079597956
 30
0.0
 11
38.60499999996136
 21
3.884835079596527
 31
0.0
  0
LINE
  5
1A8BE
  8
0
  6
CONTINUOUS
 10
40.02599999995994
 20
3.137354288678143
 30
0.0
 11
38.60499999996136
 21
4.558354288676714
 31
0.0
  0
LINE
  5
1A8BF
  8
0
  6
CONTINUOUS
 10
40.02599999995994
 20
3.810873497758329
 30
0.0
 11
38.60499999996136
 21
5.2318734977569
 31
0.0
  0
LINE
  5
1A8C0
  8
0
  6
CONTINUOUS
 10
40.02599999995994
 20
4.484392706838515
 30
0.0
 11
38.60499999996136
 21
5.905392706837086
 31
0.0
  0
LINE
  5
1A8C1
  8
0
  6
CONTINUOUS
 10
44.99999999995498
 20
0.183911915923658
 30
0.0
 11
41.53858364506288
 21
3.64532827081576
 31
0.0
  0
LINE
  5
1A8C2
  8
0
  6
CONTINUOUS
 10
40.02599999995994
 20
5.157911915918703
 30
0.0
 11
38.60499999996136
 21
6.578911915917274
 31
0.0
  0
LINE
  5
1A8C3
  8
0
  6
CONTINUOUS
 10
44.99999999995498
 20
0.8574311250038447
 30
0.0
 11
38.60499999996136
 21
7.25243112499746
 31
0.0
  0
LINE
  5
1A8C4
  8
0
  6
CONTINUOUS
 10
44.99999999995498
 20
1.530950334084031
 30
0.0
 11
38.60499999996136
 21
7.925950334077647
 31
0.0
  0
LINE
  5
1A8C5
  8
0
  6
CONTINUOUS
 10
44.99999999995498
 20
2.204469543164218
 30
0.0
 11
43.57899999995641
 21
3.625469543162789
 31
0.0
  0
LINE
  5
1A8C6
  8
0
  6
CONTINUOUS
 10
41.89876730984767
 20
5.305702233271528
 30
0.0
 11
38.60499999996136
 21
8.599469543157834
 31
0.0
  0
LINE
  5
1A8C7
  8
0
  6
CONTINUOUS
 10
44.99999999995498
 20
2.877988752244405
 30
0.0
 11
43.57899999995641
 21
4.298988752242975
 31
0.0
  0
LINE
  5
1A8C8
  8
0
  6
CONTINUOUS
 10
44.99999999995498
 20
3.551507961324591
 30
0.0
 11
43.57899999995641
 21
4.972507961323163
 31
0.0
  0
LINE
  5
1A8C9
  8
0
  6
CONTINUOUS
 10
44.99999999995498
 20
4.225027170404777
 30
0.0
 11
43.57899999995641
 21
5.646027170403348
 31
0.0
  0
LINE
  5
1A8CA
  8
0
  6
CONTINUOUS
 10
44.99999999995498
 20
4.898546379484964
 30
0.0
 11
43.57899999995641
 21
6.319546379483535
 31
0.0
  0
LINE
  5
1A8CB
  8
0
  6
CONTINUOUS
 10
44.99999999995498
 20
5.572065588565151
 30
0.0
 11
43.57899999995641
 21
6.993065588563722
 31
0.0
  0
LINE
  5
1A8CC
  8
0
  6
CONTINUOUS
 10
44.99999999995498
 20
6.245584797645336
 30
0.0
 11
43.57899999995641
 21
7.666584797643908
 31
0.0
  0
LINE
  5
1A8CD
  8
0
  6
CONTINUOUS
 10
44.99999999995498
 20
6.919104006725522
 30
0.0
 11
43.57899999995641
 21
8.340104006724093
 31
0.0
  0
LINE
  5
1A8CE
  8
0
  6
CONTINUOUS
 10
44.99999999995498
 20
7.592623215805709
 30
0.0
 11
43.82952321576943
 21
8.763099999991255
 31
0.0
  0
LINE
  5
1A8CF
  8
0
  6
CONTINUOUS
 10
44.99999999995498
 20
8.266142424885896
 30
0.0
 11
44.50304242484962
 21
8.763099999991255
 31
0.0
  0
ENDBLK
  5
1A8F9
  8
0
  0
BLOCK
  8
0
  2
*X129
 70
     1
 10
0.0
 20
0.0
 30
0.0
  3
*X129
  1

  0
LINE
  5
1A8D1
  8
0
  6
CONTINUOUS
 10
0.0
 20
8.548461116714023
 30
0.0
 11
0.2146388832772324
 21
8.763099999991255
 31
0.0
  0
LINE
  5
1A8D2
  8
0
  6
CONTINUOUS
 10
-0.0000000000000002
 20
7.874941907633837
 30
0.0
 11
0.8881580923574184
 21
8.763099999991255
 31
0.0
  0
LINE
  5
1A8D3
  8
0
  6
CONTINUOUS
 10
0.0
 20
7.20142269855365
 30
0.0
 11
1.420999999998572
 21
8.622422698552223
 31
0.0
  0
LINE
  5
1A8D4
  8
0
  6
CONTINUOUS
 10
-0.0000000000000001
 20
6.527903489473465
 30
0.0
 11
1.420999999998571
 21
7.948903489472036
 31
0.0
  0
LINE
  5
1A8D5
  8
0
  6
CONTINUOUS
 10
-0.0000000000000002
 20
5.854384280393278
 30
0.0
 11
1.420999999998571
 21
7.275384280391849
 31
0.0
  0
LINE
  5
1A8D6
  8
0
  6
CONTINUOUS
 10
-0.0000000000000002
 20
5.180865071313091
 30
0.0
 11
1.420999999998571
 21
6.601865071311663
 31
0.0
  0
LINE
  5
1A8D7
  8
0
  6
CONTINUOUS
 10
0.0
 20
4.507345862232905
 30
0.0
 11
1.420999999998571
 21
5.928345862231477
 31
0.0
  0
LINE
  5
1A8D8
  8
0
  6
CONTINUOUS
 10
-0.0000000000000003
 20
3.833826653152718
 30
0.0
 11
1.420999999998571
 21
5.25482665315129
 31
0.0
  0
LINE
  5
1A8D9
  8
0
  6
CONTINUOUS
 10
-0.0000000000000002
 20
3.160307444072532
 30
0.0
 11
1.420999999998571
 21
4.581307444071103
 31
0.0
  0
LINE
  5
1A8DA
  8
0
  6
CONTINUOUS
 10
-0.0000000000000001
 20
2.486788234992345
 30
0.0
 11
1.420999999998571
 21
3.907788234990917
 31
0.0
  0
LINE
  5
1A8DB
  8
0
  6
CONTINUOUS
 10
-0.0000000000000006
 20
1.813269025912159
 30
0.0
 11
1.420999999998571
 21
3.234269025910731
 31
0.0
  0
LINE
  5
1A8DC
  8
0
  6
CONTINUOUS
 10
0.0
 20
1.139749816831973
 30
0.0
 11
1.420999999998571
 21
2.560749816830544
 31
0.0
  0
LINE
  5
1A8DD
  8
0
  6
CONTINUOUS
 10
0.0000000000000002
 20
0.466230607751787
 30
0.0
 11
1.420999999998571
 21
1.887230607750358
 31
0.0
  0
LINE
  5
1A8DE
  8
0
  6
CONTINUOUS
 10
0.2072886013284003
 20
-0.0000000000000009
 30
0.0
 11
1.420999999998571
 21
1.213711398670171
 31
0.0
  0
LINE
  5
1A8DF
  8
0
  6
CONTINUOUS
 10
0.8808078104085864
 20
-0.0000000000000009
 30
0.0
 11
1.420999999998571
 21
0.5401921895899839
 31
0.0
  0
LINE
  5
1A8E0
  8
0
  6
CONTINUOUS
 10
0.0581249075061505
 20
-0.0000000000000009
 30
0.0
 11
-0.0000000000000002
 21
0.0581249075061496
 31
0.0
  0
LINE
  5
1A8E1
  8
0
  6
CONTINUOUS
 10
0.7316441165863372
 20
-0.0000000000000009
 30
0.0
 11
-0.0000000000000002
 21
0.7316441165863363
 31
0.0
  0
LINE
  5
1A8E2
  8
0
  6
CONTINUOUS
 10
1.405163325666523
 20
-0.0000000000000009
 30
0.0
 11
-0.0000000000000002
 21
1.405163325666523
 31
0.0
  0
LINE
  5
1A8E3
  8
0
  6
CONTINUOUS
 10
1.420999999998572
 20
0.6576825347481381
 30
0.0
 11
-0.0000000000000001
 21
2.07868253474671
 31
0.0
  0
LINE
  5
1A8E4
  8
0
  6
CONTINUOUS
 10
1.420999999998571
 20
1.331201743828324
 30
0.0
 11
-0.0000000000000001
 21
2.752201743826896
 31
0.0
  0
LINE
  5
1A8E5
  8
0
  6
CONTINUOUS
 10
1.420999999998571
 20
2.004720952908511
 30
0.0
 11
-0.0000000000000002
 21
3.425720952907082
 31
0.0
  0
LINE
  5
1A8E6
  8
0
  6
CONTINUOUS
 10
1.420999999998571
 20
2.678240161988697
 30
0.0
 11
-0.0000000000000001
 21
4.099240161987269
 31
0.0
  0
LINE
  5
1A8E7
  8
0
  6
CONTINUOUS
 10
1.420999999998572
 20
3.351759371068884
 30
0.0
 11
0.0
 21
4.772759371067455
 31
0.0
  0
LINE
  5
1A8E8
  8
0
  6
CONTINUOUS
 10
1.420999999998571
 20
4.02527858014907
 30
0.0
 11
-0.0000000000000003
 21
5.446278580147642
 31
0.0
  0
LINE
  5
1A8E9
  8
0
  6
CONTINUOUS
 10
1.420999999998571
 20
4.698797789229257
 30
0.0
 11
0.0
 21
6.119797789227828
 31
0.0
  0
LINE
  5
1A8EA
  8
0
  6
CONTINUOUS
 10
1.420999999998571
 20
5.372316998309444
 30
0.0
 11
-0.0000000000000001
 21
6.793316998308015
 31
0.0
  0
LINE
  5
1A8EB
  8
0
  6
CONTINUOUS
 10
1.420999999998572
 20
6.045836207389629
 30
0.0
 11
-0.0000000000000004
 21
7.466836207388202
 31
0.0
  0
LINE
  5
1A8EC
  8
0
  6
CONTINUOUS
 10
1.420999999998571
 20
6.719355416469816
 30
0.0
 11
0.0
 21
8.140355416468388
 31
0.0
  0
LINE
  5
1A8ED
  8
0
  6
CONTINUOUS
 10
1.420999999998571
 20
7.392874625550003
 30
0.0
 11
0.0507746255573185
 21
8.763099999991255
 31
0.0
  0
LINE
  5
1A8EE
  8
0
  6
CONTINUOUS
 10
1.420999999998571
 20
8.06639383463019
 30
0.0
 11
0.7242938346375052
 21
8.763099999991255
 31
0.0
  0
LINE
  5
1A8EF
  8
0
  6
CONTINUOUS
 10
1.420999999998571
 20
8.739913043710375
 30
0.0
 11
1.397813043717691
 21
8.763099999991255
 31
0.0
  0
ENDBLK
  5
1A8FB
  8
0
  0
ENDSEC
  0
SECTION
  2
ENTITIES
  0
LINE
  5
17EDE
  8
01
 10
461.5714700851506
 20
-846.2416882892701
 30
0.0
 11
461.5714700851506
 21
-904.1899138502608
 31
0.0
  0
LINE
  5
17EDF
  8
01
 10
473.5714700851506
 20
-846.2416882892701
 30
0.0
 11
473.5714700851506
 21
-904.1899138502608
 31
0.0
  0
LINE
  5
17EE0
  8
01
 10
452.5714700851506
 20
-846.2416882892701
 30
0.0
 11
452.5714700851506
 21
-904.1899138502608
 31
0.0
  0
LINE
  5
1932C
  8
01
 10
-124.9611708934975
 20
-796.0205662295847
 30
0.0
 11
322.0388291065025
 21
-796.0205662295847
 31
0.0
  0
LINE
  5
1932D
  8
01
 10
415.3214700851506
 20
-892.0130141443369
 30
0.0
 11
394.8214700851506
 21
-892.0130141443369
 31
0.0
  0
LINE
  5
1932E
  8
01
 10
392.5714700851506
 20
-883.7130141443379
 30
0.0
 11
392.5714700851506
 21
-889.7630141443369
 31
0.0
  0
LINE
  5
19333
  8
01
 10
415.3214700851506
 20
-867.0130141443369
 30
0.0
 11
394.8214700851506
 21
-867.0130141443369
 31
0.0
  0
ARC
  5
19334
  8
01
 10
415.3214700851506
 20
-869.2630141443369
 30
0.0
 40
2.25
 50
0.0
 51
90.0
  0
ARC
  5
19335
  8
01
 10
394.8214700851506
 20
-869.2630141443369
 30
0.0
 40
2.25
 50
90.0
 51
180.0
  0
ARC
  5
19336
  8
01
 10
394.8214700851506
 20
-889.7630141443369
 30
0.0
 40
2.25
 50
180.0
 51
270.0
  0
ARC
  5
19337
  8
01
 10
415.3214700851506
 20
-889.7630141443369
 30
0.0
 40
2.25
 50
270.0
 51
0.0
  0
LINE
  5
19339
  8
01
 10
417.5714700851506
 20
-883.7130141443379
 30
0.0
 11
392.5714700851506
 21
-883.7130141443379
 31
0.0
  0
LINE
  5
1933A
  8
01
 10
417.5714700851506
 20
-875.3130141443378
 30
0.0
 11
392.5714700851506
 21
-875.3130141443378
 31
0.0
  0
LINE
  5
1933E
  8
01
  6
CONTINUOUS
 10
323.5388291065025
 20
-868.5130141443369
 30
0.0
 11
323.5388291065025
 21
-875.3130141443369
 31
0.0
  0
LINE
  5
1933F
  8
01
 10
322.0388291065025
 20
-867.0130141443369
 30
0.0
 11
-124.9611708934975
 21
-867.0130141443369
 31
0.0
  0
LINE
  5
19340
  8
01
 10
322.0388291065025
 20
-892.0130141443369
 30
0.0
 11
-124.9611708934975
 21
-892.0130141443369
 31
0.0
  0
ARC
  5
19341
  8
01
 10
322.0388291065025
 20
-868.5130141443369
 30
0.0
 40
1.5
 50
0.0
 51
90.0
  0
ARC
  5
19342
  8
01
 10
322.0388291065025
 20
-890.5130141443369
 30
0.0
 40
1.5
 50
270.0
 51
0.0
  0
LINE
  5
19348
  8
01
 10
299.3388291065023
 20
-875.3130141443369
 30
0.0
 11
323.5388291065025
 21
-875.3130141443369
 31
0.0
  0
LINE
  5
19349
  8
01
 10
299.3388291065023
 20
-883.713014144337
 30
0.0
 11
323.5388291065025
 21
-883.713014144337
 31
0.0
  0
LINE
  5
1934A
  8
01
  6
CONTINUOUS
 10
323.5388291065025
 20
-883.713014144337
 30
0.0
 11
323.5388291065025
 21
-890.5130141443369
 31
0.0
  0
LINE
  5
19374
  8
1PHANTOM
 10
291.6888291065025
 20
-757.5205662295847
 30
0.0
 11
286.1888291065025
 21
-757.5205662295847
 31
0.0
  0
ARC
  5
1939E
  8
01
  6
CONTINUOUS
 10
299.5388291065025
 20
-882.5130141443369
 30
0.0
 40
1.0
 50
180.0
 51
270.0
  0
LINE
  5
1939F
  8
01
  6
CONTINUOUS
 10
299.5388291065025
 20
-883.5130141443369
 30
0.0
 11
322.0388291065025
 21
-883.5130141443369
 31
0.0
  0
LINE
  5
193A0
  8
01
  6
CONTINUOUS
 10
298.5388291065025
 20
-876.5130141443369
 30
0.0
 11
298.5388291065025
 21
-882.5130141443369
 31
0.0
  0
LINE
  5
193A1
  8
01
  6
CONTINUOUS
 10
322.0388291065025
 20
-875.5130141443369
 30
0.0
 11
299.5388291065025
 21
-875.5130141443369
 31
0.0
  0
ARC
  5
193A2
  8
01
  6
CONTINUOUS
 10
299.5388291065025
 20
-876.5130141443369
 30
0.0
 40
1.0
 50
90.0
 51
180.0
  0
LINE
  5
193A3
  8
01
  6
CONTINUOUS
 10
323.3388291065025
 20
-883.5130141443369
 30
0.0
 11
322.0388291065025
 21
-883.5130141443369
 31
0.0
  0
LINE
  5
193A4
  8
01
  6
CONTINUOUS
 10
322.0388291065025
 20
-875.5130141443369
 30
0.0
 11
323.3388291065025
 21
-875.5130141443369
 31
0.0
  0
LINE
  5
193A5
  8
01
  6
CONTINUOUS
 10
449.5714700851506
 20
-889.5130141443369
 30
0.0
 11
417.5714700851506
 21
-889.5130141443369
 31
0.0
  0
LINE
  5
193A6
  8
01
  6
CONTINUOUS
 10
449.5714700851506
 20
-887.2630141443369
 30
0.0
 11
449.5714700851506
 21
-889.5130141443369
 31
0.0
  0
LINE
  5
193A7
  8
01
  6
CONTINUOUS
 10
417.5714700851506
 20
-889.7630141443369
 30
0.0
 11
417.5714700851506
 21
-887.2630141443369
 31
0.0
  0
LINE
  5
193A8
  8
01
  6
CONTINUOUS
 10
392.7714700851507
 20
-883.5130141443369
 30
0.0
 11
417.5714700851506
 21
-883.5130141443369
 31
0.0
  0
LINE
  5
193A9
  8
01
  6
CONTINUOUS
 10
392.7714700851507
 20
-875.5130141443369
 30
0.0
 11
417.5714700851506
 21
-875.5130141443369
 31
0.0
  0
LINE
  5
193AA
  8
01
  6
CONTINUOUS
 10
449.5714700851506
 20
-887.2630141443369
 30
0.0
 11
449.5714700851506
 21
-871.7630141443369
 31
0.0
  0
LINE
  5
193AB
  8
01
  6
CONTINUOUS
 10
417.5714700851506
 20
-887.2630141443369
 30
0.0
 11
417.5714700851506
 21
-883.5130141443369
 31
0.0
  0
LINE
  5
193AC
  8
01
  6
CONTINUOUS
 10
417.5714700851506
 20
-875.5130141443369
 30
0.0
 11
417.5714700851506
 21
-871.7630141443369
 31
0.0
  0
LINE
  5
193AD
  8
01
  6
CONTINUOUS
 10
417.5714700851506
 20
-869.5130141443369
 30
0.0
 11
449.5714700851506
 21
-869.5130141443369
 31
0.0
  0
LINE
  5
193AE
  8
01
  6
CONTINUOUS
 10
449.5714700851506
 20
-869.5130141443369
 30
0.0
 11
449.5714700851506
 21
-871.7630141443369
 31
0.0
  0
LINE
  5
193AF
  8
01
  6
CONTINUOUS
 10
417.5714700851506
 20
-871.7630141443369
 30
0.0
 11
417.5714700851506
 21
-869.2630141443369
 31
0.0
  0
LINE
  5
193BC
  8
01
  6
CONTINUOUS
 10
281.5388291065025
 20
-771.0205662295847
 30
0.0
 11
320.1388291065024
 21
-771.0205662295847
 31
0.0
  0
LINE
  5
193CF
  8
01
  6
CONTINUOUS
 10
294.7888291065025
 20
-771.0205662295847
 30
0.0
 11
288.2891516113165
 21
-771.0205662295847
 31
0.0
  0
LINE
  5
193D4
  8
01
  6
CONTINUOUS
 10
321.8388291065025
 20
-771.0205662295847
 30
0.0
 11
300.8388291065025
 21
-771.0205662295847
 31
0.0
  0
LINE
  5
193DB
  8
01
  6
CONTINUOUS
 10
277.5388291065025
 20
-739.0205662295847
 30
0.0
 11
323.5388291065025
 21
-739.0205662295847
 31
0.0
  0
LINE
  5
193E0
  8
01
  6
CONTINUOUS
 10
278.5388291065025
 20
-739.0205662295847
 30
0.0
 11
278.5388291065025
 21
-771.0205662295847
 31
0.0
  0
LINE
  5
193E2
  8
01
  6
CONTINUOUS
 10
280.5888291065025
 20
-771.0205662295847
 30
0.0
 11
321.0888291065025
 21
-771.0205662295847
 31
0.0
  0
LINE
  5
193E6
  8
01
  6
CONTINUOUS
 10
323.3388291065025
 20
-771.77223475223
 30
0.0
 11
323.3388291065025
 21
-739.0205662295847
 31
0.0
  0
LINE
  5
193E8
  8
01
  6
CONTINUOUS
 10
321.8388291065025
 20
-771.0205662295847
 30
0.0
 11
321.0888291065025
 21
-771.0205662295847
 31
0.0
  0
LINE
  5
193E9
  8
01
  6
CONTINUOUS
 10
280.0388291065025
 20
-771.0205662295847
 30
0.0
 11
280.7888291065025
 21
-771.0205662295847
 31
0.0
  0
LINE
  5
193EA
  8
01
  6
CONTINUOUS
 10
321.0888291065025
 20
-771.0205662295847
 30
0.0
 11
321.8388291065025
 21
-771.0205662295847
 31
0.0
  0
LINE
  5
193EC
  8
01
  6
CONTINUOUS
 10
280.7888291065025
 20
-771.0205662295847
 30
0.0
 11
278.5388291065025
 21
-771.0205662295847
 31
0.0
  0
LINE
  5
193ED
  8
01
  6
CONTINUOUS
 10
278.5388291065025
 20
-771.0205662295847
 30
0.0
 11
280.7888291065025
 21
-771.0205662295847
 31
0.0
  0
LINE
  5
193F0
  8
01
  6
CONTINUOUS
 10
280.7888291065025
 20
-771.0205662295847
 30
0.0
 11
280.0388291065025
 21
-771.0205662295847
 31
0.0
  0
LINE
  5
193F6
  8
01
  6
CONTINUOUS
 10
299.5388291065025
 20
-796.0205662295847
 30
0.0
 11
298.5388291065025
 21
-796.0205662295847
 31
0.0
  0
LINE
  5
193F8
  8
01
  6
CONTINUOUS
 10
298.5388291065025
 20
-796.0205662295847
 30
0.0
 11
299.5388291065025
 21
-796.0205662295847
 31
0.0
  0
ARC
  5
193FC
  8
01
 10
299.3388291065023
 20
-876.3130141443369
 30
0.0
 40
1.0
 50
90.0
 51
180.0
  0
ARC
  5
193FD
  8
01
 10
299.3388291065023
 20
-882.713014144337
 30
0.0
 40
1.0
 50
180.0
 51
270.0
  0
LINE
  5
1940C
  8
01
 10
-81.46117089349752
 20
-771.0205662295847
 30
0.0
 11
323.3388291065025
 21
-771.0205662295847
 31
0.0
  0
CIRCLE
  5
1942A
  8
01
  6
CONTINUOUS
 10
300.9388291065025
 20
-757.0205662295847
 30
0.0
 40
3.100000000000023
  0
LINE
  5
1949A
  8
01
  6
CONTINUOUS
 10
392.7714700851507
 20
-883.5130141443369
 30
0.0
 11
392.7714700851507
 21
-875.5130141443369
 31
0.0
  0
LINE
  5
1949B
  8
01
 10
392.5714700851506
 20
-869.2630141443369
 30
0.0
 11
392.5714700851506
 21
-875.3130141443378
 31
0.0
  0
LINE
  5
1949F
  8
01
  6
CONTINUOUS
 10
323.3388291065025
 20
-875.5130141443369
 30
0.0
 11
323.3388291065025
 21
-883.5130141443369
 31
0.0
  0
LINE
  5
194A0
  8
01
 10
298.3388291065023
 20
-876.3130141443369
 30
0.0
 11
298.3388291065023
 21
-882.713014144337
 31
0.0
  0
LINE
  5
194A6
  8
01
  6
CONTINUOUS
 10
323.5388291065025
 20
-772.5205662295847
 30
0.0
 11
323.5388291065025
 21
-794.5205662295847
 31
0.0
  0
ARC
  5
194A9
  8
01
 10
322.0388291065025
 20
-794.5205662295847
 30
0.0
 40
1.5
 50
270.0
 51
0.0
  0
LINE
  5
194CD
  8
01
  6
CONTINUOUS
 10
276.5388291065025
 20
-736.0205662295847
 30
0.0
 11
276.5388291065025
 21
-738.0205662295847
 31
0.0
  0
LINE
  5
194D0
  8
01
  6
CONTINUOUS
 10
324.5388291065025
 20
-736.0205662295847
 30
0.0
 11
276.5388291065025
 21
-736.0205662295847
 31
0.0
  0
LINE
  5
194D1
  8
01
  6
CONTINUOUS
 10
324.5388291065025
 20
-736.0205662295847
 30
0.0
 11
324.5388291065025
 21
-738.0205662295847
 31
0.0
  0
ARC
  5
194E2
  8
01
  6
CONTINUOUS
 10
323.5388291065025
 20
-738.0205662295847
 30
0.0
 40
1.0
 50
270.0
 51
0.0
  0
ARC
  5
194E4
  8
01
  6
CONTINUOUS
 10
277.5388291065025
 20
-738.0205662295847
 30
0.0
 40
1.000000000000014
 50
180.0
 51
270.0
  0
ARC
  5
194E5
  8
01
  6
CONTINUOUS
 10
323.5388291065025
 20
-738.0205662295847
 30
0.0
 40
1.0
 50
270.0
 51
0.0
  0
ARC
  5
194E6
  8
01
  6
CONTINUOUS
 10
277.5388291065025
 20
-738.0205662295847
 30
0.0
 40
1.000000000000014
 50
180.0
 51
270.0
  0
ARC
  5
1952B
  8
01
 10
322.0388291065025
 20
-772.5205662295847
 30
0.0
 40
1.5
 50
0.0
 51
90.0
  0
LINE
  5
195D2
  8
1PHANTOM
 10
281.6888291065025
 20
-762.0205662295847
 30
0.0
 11
281.6888291065025
 21
-739.5205662295847
 31
0.0
  0
LINE
  5
195D4
  8
1PHANTOM
 10
319.6888291065025
 20
-762.5205662295847
 30
0.0
 11
282.1888291065025
 21
-762.5205662295847
 31
0.0
  0
LINE
  5
195D7
  8
1PHANTOM
 10
320.1888291065025
 20
-739.5205662295847
 30
0.0
 11
320.1888291065025
 21
-762.0205662295847
 31
0.0
  0
ARC
  5
195DF
  8
1PHANTOM
 10
282.1888291065025
 20
-739.5205662295847
 30
0.0
 40
0.5
 50
90.0
 51
180.0
  0
ARC
  5
195E0
  8
1PHANTOM
 10
319.6888291065025
 20
-739.5205662295847
 30
0.0
 40
0.5
 50
0.0
 51
90.0
  0
ARC
  5
195E1
  8
1PHANTOM
 10
319.6888291065025
 20
-762.0205662295847
 30
0.0
 40
0.5
 50
270.0
 51
0.0
  0
ARC
  5
195E2
  8
1PHANTOM
 10
282.1888291065025
 20
-762.0205662295847
 30
0.0
 40
0.5
 50
180.0
 51
270.0
  0
LINE
  5
197EE
  8
1PHANTOM
 10
431.5713219133288
 20
-888.9944343683685
 30
0.0
 11
431.5713219133288
 21
-869.8884132497808
 31
0.0
  0
LINE
  5
19800
  8
01
  6
CONTINUOUS
 10
449.5714700851506
 20
-872.2630141443367
 30
0.0
 11
449.5714700851506
 21
-886.7630141443367
 31
0.0
  0
LINE
  5
19802
  8
1PHANTOM
 10
426.0714700851506
 20
-871.2630141443367
 30
0.0
 11
449.5714700851506
 21
-871.2630141443367
 31
0.0
  0
LINE
  5
19803
  8
01
  6
CONTINUOUS
 10
449.5714700851506
 20
-871.2630141443367
 30
0.0
 11
449.5714700851506
 21
-872.2630141443367
 31
0.0
  0
LINE
  5
19805
  8
1PHANTOM
 10
449.5714700851506
 20
-887.7630141443367
 30
0.0
 11
426.0714700851506
 21
-887.7630141443367
 31
0.0
  0
LINE
  5
19806
  8
01
  6
CONTINUOUS
 10
449.5714700851506
 20
-886.7630141443367
 30
0.0
 11
449.5714700851506
 21
-887.7630141443367
 31
0.0
  0
LINE
  5
19807
  8
1PHANTOM
 10
426.0714700851506
 20
-887.7630141443367
 30
0.0
 11
426.0714700851506
 21
-871.2630141443367
 31
0.0
  0
ARC
  5
19AD8
  8
01
  6
CONTINUOUS
 10
322.5388291065025
 20
-891.5130141443369
 30
0.0
 40
2.0
 50
270.0
 51
0.0
  0
ARC
  5
19AD9
  8
01
  6
CONTINUOUS
 10
278.5388291065025
 20
-867.5130141443371
 30
0.0
 40
2.0
 50
90.0
 51
165.5224878140634
  0
LINE
  5
19ADA
  8
01
  6
CONTINUOUS
 10
324.5388291065025
 20
-867.5130141443371
 30
0.0
 11
324.5388291065025
 21
-891.5130141443369
 31
0.0
  0
ARC
  5
19ADB
  8
01
  6
CONTINUOUS
 10
278.5388291065025
 20
-891.5130141443369
 30
0.0
 40
2.0
 50
194.4775121859299
 51
270.0
  0
CIRCLE
  5
19ADC
  8
1PHANTOM
 10
312.53884154357
 20
-879.5130141443369
 30
0.0
 40
2.75
  0
CIRCLE
  5
19ADD
  8
1PHANTOM
 10
288.53884154357
 20
-879.5130141443369
 30
0.0
 40
2.75
  0
LINE
  5
19AE1
  8
01
  6
CONTINUOUS
 10
278.5388291065025
 20
-865.5130141443371
 30
0.0
 11
322.5388291065025
 21
-865.5130141443371
 31
0.0
  0
LINE
  5
19AE2
  8
01
  6
CONTINUOUS
 10
322.5388291065025
 20
-893.5130141443369
 30
0.0
 11
278.5388291065025
 21
-893.5130141443369
 31
0.0
  0
ARC
  5
19AE3
  8
01
  6
CONTINUOUS
 10
322.5388291065025
 20
-867.5130141443369
 30
0.0
 40
2.0
 50
0.0
 51
90.0
  0
LINE
  5
19B22
  8
01
  6
CONTINUOUS
 10
450.5714700851506
 20
-893.5130141443367
 30
0.0
 11
452.5714700851506
 21
-893.5130141443367
 31
0.0
  0
LINE
  5
19B24
  8
01
  6
CONTINUOUS
 10
452.5714700851506
 20
-865.5130141443369
 30
0.0
 11
450.5714700851506
 21
-865.5130141443369
 31
0.0
  0
LINE
  5
19B25
  8
01
  6
CONTINUOUS
 10
452.5714700851506
 20
-865.5130141443369
 30
0.0
 11
452.5714700851506
 21
-893.5130141443367
 31
0.0
  0
ARC
  5
19B26
  8
01
  6
CONTINUOUS
 10
450.5714700851506
 20
-866.5130141443369
 30
0.0
 40
1.0
 50
90.0
 51
180.0
  0
LINE
  5
19B27
  8
01
  6
CONTINUOUS
 10
449.5714700851506
 20
-866.5130141443369
 30
0.0
 11
449.5714700851506
 21
-867.5130141443369
 31
0.0
  0
LINE
  5
19B28
  8
01
  6
CONTINUOUS
 10
449.5714700851506
 20
-891.5130141443367
 30
0.0
 11
449.5714700851506
 21
-892.5130141443367
 31
0.0
  0
ARC
  5
19B29
  8
01
  6
CONTINUOUS
 10
450.5714700851506
 20
-892.5130141443367
 30
0.0
 40
1.000000000000028
 50
180.0
 51
270.0
  0
LINE
  5
19B2A
  8
01
  6
CONTINUOUS
 10
449.5714700851506
 20
-867.5130141443369
 30
0.0
 11
449.5714700851506
 21
-891.5130141443367
 31
0.0
  0
LINE
  5
19B37
  8
1CENTER
 10
284.4138539806372
 20
-879.5130520316968
 30
0.0
 11
292.6638539806372
 21
-879.5130520316968
 31
0.0
  0
LINE
  5
19B38
  8
1CENTER
 10
288.5388539806372
 20
-883.6380520316968
 30
0.0
 11
288.5388539806372
 21
-875.3880520316968
 31
0.0
  0
LINE
  5
19B3D
  8
1CENTER
 10
308.4138539806372
 20
-879.5130520316968
 30
0.0
 11
316.6638539806372
 21
-879.5130520316968
 31
0.0
  0
LINE
  5
19B3E
  8
1CENTER
 10
312.5388539806372
 20
-883.6380520316968
 30
0.0
 11
312.5388539806372
 21
-875.3880520316968
 31
0.0
  0
LINE
  5
19B3F
  8
1CENTER
 10
454.1368791584457
 20
-879.5130141443367
 30
0.0
 11
446.7894707180424
 21
-879.5130141443367
 31
0.0
  0
LINE
  5
19B49
  8
1CENTER
 10
312.5388539806372
 20
-883.6380520316968
 30
0.0
 11
312.5388539806372
 21
-875.3880520316968
 31
0.0
  0
LINE
  5
19D7F
  8
1PHANTOM
 10
312.2888289565025
 20
-757.5205662295845
 30
0.0
 11
313.5888289065026
 21
-758.8205664295843
 31
0.0
  0
LINE
  5
19DB5
  8
01
  6
CONTINUOUS
 10
429.7714698851511
 20
-880.1630142943366
 30
0.0
 11
431.071470085151
 21
-878.8630143443363
 31
0.0
  0
LINE
  5
19DDA
  8
1PHANTOM
 10
312.2888289565025
 20
-757.5205662295845
 30
0.0
 11
313.5888289065026
 21
-758.8205664295843
 31
0.0
  0
LINE
  5
19DDD
  8
1PHANTOM
 10
288.2888289565025
 20
-757.5205662295847
 30
0.0
 11
289.5888289065026
 21
-758.8205664295846
 31
0.0
  0
LINE
  5
19DE0
  8
1PHANTOM
 10
288.2888289565025
 20
-757.5205662295847
 30
0.0
 11
289.5888289065026
 21
-758.8205664295846
 31
0.0
  0
CIRCLE
  5
19E35
  8
01
 10
300.9388291065025
 20
-757.0205662295847
 30
0.0
 40
3.0
  0
LINE
  5
19E39
  8
01
  6
CONTINUOUS
 10
-126.4611708934975
 20
-868.5130141443369
 30
0.0
 11
-126.4611708934975
 21
-875.3130141443369
 31
0.0
  0
ARC
  5
19E3C
  8
01
 10
-124.9611708934975
 20
-868.5130141443369
 30
0.0
 40
1.5
 50
90.0
 51
180.0
  0
ARC
  5
19E3D
  8
01
 10
-124.9611708934975
 20
-890.5130141443369
 30
0.0
 40
1.5
 50
180.0
 51
270.0
  0
LINE
  5
19E3E
  8
01
 10
-102.2611708934974
 20
-875.3130141443369
 30
0.0
 11
-126.4611708934975
 21
-875.3130141443369
 31
0.0
  0
LINE
  5
19E3F
  8
01
 10
-102.2611708934974
 20
-883.713014144337
 30
0.0
 11
-126.4611708934975
 21
-883.713014144337
 31
0.0
  0
LINE
  5
19E40
  8
01
  6
CONTINUOUS
 10
-126.4611708934975
 20
-883.713014144337
 30
0.0
 11
-126.4611708934975
 21
-890.5130141443369
 31
0.0
  0
LINE
  5
19E41
  8
1PHANTOM
 10
-94.61117089349756
 20
-757.5205662295847
 30
0.0
 11
-89.11117089349756
 21
-757.5205662295847
 31
0.0
  0
ARC
  5
19E42
  8
01
  6
CONTINUOUS
 10
-102.4611708934975
 20
-882.5130141443369
 30
0.0
 40
1.0
 50
270.0
 51
0.0
  0
LINE
  5
19E43
  8
01
  6
CONTINUOUS
 10
-102.4611708934975
 20
-883.5130141443369
 30
0.0
 11
-124.9611708934975
 21
-883.5130141443369
 31
0.0
  0
LINE
  5
19E44
  8
01
  6
CONTINUOUS
 10
-101.4611708934975
 20
-876.5130141443369
 30
0.0
 11
-101.4611708934975
 21
-882.5130141443369
 31
0.0
  0
LINE
  5
19E45
  8
01
  6
CONTINUOUS
 10
-124.9611708934975
 20
-875.5130141443369
 30
0.0
 11
-102.4611708934975
 21
-875.5130141443369
 31
0.0
  0
ARC
  5
19E46
  8
01
  6
CONTINUOUS
 10
-102.4611708934975
 20
-876.5130141443369
 30
0.0
 40
1.0
 50
0.0
 51
90.0
  0
LINE
  5
19E47
  8
01
  6
CONTINUOUS
 10
-126.2611708934975
 20
-883.5130141443369
 30
0.0
 11
-124.9611708934975
 21
-883.5130141443369
 31
0.0
  0
LINE
  5
19E48
  8
01
  6
CONTINUOUS
 10
-124.9611708934975
 20
-875.5130141443369
 30
0.0
 11
-126.2611708934975
 21
-875.5130141443369
 31
0.0
  0
LINE
  5
19E49
  8
01
  6
CONTINUOUS
 10
-84.46117089349758
 20
-771.0205662295847
 30
0.0
 11
-123.0611708934975
 21
-771.0205662295847
 31
0.0
  0
LINE
  5
19E4A
  8
01
  6
CONTINUOUS
 10
-97.71117089349752
 20
-771.0205662295847
 30
0.0
 11
-91.21149339831152
 21
-771.0205662295847
 31
0.0
  0
LINE
  5
19E4B
  8
01
  6
CONTINUOUS
 10
-124.7611708934975
 20
-771.0205662295847
 30
0.0
 11
-103.7611708934975
 21
-771.0205662295847
 31
0.0
  0
LINE
  5
19E4C
  8
01
  6
CONTINUOUS
 10
-80.86117089349756
 20
-739.0205662295847
 30
0.0
 11
-126.8611708934976
 21
-739.0205662295847
 31
0.0
  0
LINE
  5
19E4D
  8
01
  6
CONTINUOUS
 10
-81.46117089349752
 20
-739.0205662295847
 30
0.0
 11
-81.46117089349752
 21
-771.0205662295847
 31
0.0
  0
LINE
  5
19E4E
  8
01
  6
CONTINUOUS
 10
-83.51117089349754
 20
-771.0205662295847
 30
0.0
 11
-124.0111708934975
 21
-771.0205662295847
 31
0.0
  0
LINE
  5
19E4F
  8
01
  6
CONTINUOUS
 10
-126.2611708934975
 20
-771.77223475223
 30
0.0
 11
-126.2611708934975
 21
-739.0205662295847
 31
0.0
  0
LINE
  5
19E50
  8
01
  6
CONTINUOUS
 10
-124.7611708934975
 20
-771.0205662295847
 30
0.0
 11
-124.0111708934975
 21
-771.0205662295847
 31
0.0
  0
LINE
  5
19E51
  8
01
  6
CONTINUOUS
 10
-82.96117089349752
 20
-771.0205662295847
 30
0.0
 11
-83.71117089349752
 21
-771.0205662295847
 31
0.0
  0
LINE
  5
19E52
  8
01
  6
CONTINUOUS
 10
-124.0111708934975
 20
-771.0205662295847
 30
0.0
 11
-124.7611708934975
 21
-771.0205662295847
 31
0.0
  0
LINE
  5
19E53
  8
01
  6
CONTINUOUS
 10
-83.71117089349752
 20
-771.0205662295847
 30
0.0
 11
-81.46117089349752
 21
-771.0205662295847
 31
0.0
  0
LINE
  5
19E54
  8
01
  6
CONTINUOUS
 10
-81.46117089349752
 20
-771.0205662295847
 30
0.0
 11
-83.71117089349752
 21
-771.0205662295847
 31
0.0
  0
LINE
  5
19E55
  8
01
  6
CONTINUOUS
 10
-83.71117089349752
 20
-771.0205662295847
 30
0.0
 11
-82.96117089349752
 21
-771.0205662295847
 31
0.0
  0
LINE
  5
19E56
  8
01
  6
CONTINUOUS
 10
-124.9611708934975
 20
-796.0205662295847
 30
0.0
 11
-102.2611708934975
 21
-796.0205662295847
 31
0.0
  0
LINE
  5
19E57
  8
01
  6
CONTINUOUS
 10
-102.4611708934975
 20
-796.0205662295847
 30
0.0
 11
-101.4611708934975
 21
-796.0205662295847
 31
0.0
  0
LINE
  5
19E58
  8
01
  6
CONTINUOUS
 10
-101.4611708934975
 20
-796.0205662295847
 30
0.0
 11
-102.4611708934975
 21
-796.0205662295847
 31
0.0
  0
ARC
  5
19E59
  8
01
 10
-102.2611708934974
 20
-876.3130141443369
 30
0.0
 40
1.0
 50
0.0
 51
90.0
  0
ARC
  5
19E5A
  8
01
 10
-102.2611708934974
 20
-882.713014144337
 30
0.0
 40
1.0
 50
270.0
 51
0.0
  0
CIRCLE
  5
19E5C
  8
01
  6
CONTINUOUS
 10
-103.8611708934976
 20
-757.0205662295847
 30
0.0
 40
3.100000000000023
  0
LINE
  5
19E5D
  8
01
  6
CONTINUOUS
 10
-126.2611708934975
 20
-875.5130141443369
 30
0.0
 11
-126.2611708934975
 21
-883.5130141443369
 31
0.0
  0
LINE
  5
19E5E
  8
01
 10
-101.2611708934974
 20
-876.3130141443369
 30
0.0
 11
-101.2611708934974
 21
-882.713014144337
 31
0.0
  0
LINE
  5
19E5F
  8
01
  6
CONTINUOUS
 10
-126.4611708934975
 20
-772.5205662295847
 30
0.0
 11
-126.4611708934975
 21
-794.5205662295847
 31
0.0
  0
ARC
  5
19E60
  8
01
 10
-124.9611708934975
 20
-794.5205662295847
 30
0.0
 40
1.5
 50
180.0
 51
270.0
  0
LINE
  5
19E61
  8
01
  6
CONTINUOUS
 10
-79.86117089349756
 20
-736.0205662295847
 30
0.0
 11
-79.86117089349756
 21
-738.0205662295847
 31
0.0
  0
LINE
  5
19E62
  8
01
  6
CONTINUOUS
 10
-127.8611708934976
 20
-736.0205662295847
 30
0.0
 11
-79.86117089349756
 21
-736.0205662295847
 31
0.0
  0
LINE
  5
19E63
  8
01
  6
CONTINUOUS
 10
-127.8611708934976
 20
-736.0205662295847
 30
0.0
 11
-127.8611708934976
 21
-738.0205662295847
 31
0.0
  0
ARC
  5
19E64
  8
01
  6
CONTINUOUS
 10
-126.8611708934976
 20
-738.0205662295847
 30
0.0
 40
1.0
 50
180.0
 51
270.0
  0
ARC
  5
19E65
  8
01
  6
CONTINUOUS
 10
-80.86117089349756
 20
-738.0205662295847
 30
0.0
 40
1.000000000000014
 50
270.0
 51
0.0
  0
ARC
  5
19E66
  8
01
  6
CONTINUOUS
 10
-126.8611708934976
 20
-738.0205662295847
 30
0.0
 40
1.0
 50
180.0
 51
270.0
  0
ARC
  5
19E67
  8
01
  6
CONTINUOUS
 10
-80.86117089349756
 20
-738.0205662295847
 30
0.0
 40
1.000000000000014
 50
270.0
 51
0.0
  0
ARC
  5
19E68
  8
01
 10
-124.9611708934975
 20
-772.5205662295847
 30
0.0
 40
1.5
 50
90.0
 51
180.0
  0
LINE
  5
19E69
  8
1PHANTOM
 10
-84.61117089349756
 20
-762.0205662295847
 30
0.0
 11
-84.61117089349756
 21
-739.5205662295847
 31
0.0
  0
LINE
  5
19E6A
  8
1PHANTOM
 10
-122.6111708934976
 20
-762.5205662295847
 30
0.0
 11
-85.11117089349756
 21
-762.5205662295847
 31
0.0
  0
LINE
  5
19E6B
  8
1PHANTOM
 10
-123.1111708934976
 20
-739.5205662295847
 30
0.0
 11
-123.1111708934976
 21
-762.0205662295847
 31
0.0
  0
ARC
  5
19E6C
  8
1PHANTOM
 10
-85.11117089349756
 20
-739.5205662295847
 30
0.0
 40
0.5
 50
0.0
 51
90.0
  0
ARC
  5
19E6D
  8
1PHANTOM
 10
-122.6111708934976
 20
-739.5205662295847
 30
0.0
 40
0.5
 50
90.0
 51
180.0
  0
ARC
  5
19E6E
  8
1PHANTOM
 10
-122.6111708934976
 20
-762.0205662295847
 30
0.0
 40
0.5
 50
180.0
 51
270.0
  0
ARC
  5
19E6F
  8
1PHANTOM
 10
-85.11117089349756
 20
-762.0205662295847
 30
0.0
 40
0.5
 50
270.0
 51
0.0
  0
ARC
  5
19E70
  8
01
  6
CONTINUOUS
 10
-125.4611708934975
 20
-891.5130141443369
 30
0.0
 40
2.0
 50
180.0
 51
270.0
  0
ARC
  5
19E71
  8
01
  6
CONTINUOUS
 10
-81.46117089349752
 20
-867.5130141443371
 30
0.0
 40
2.0
 50
14.47751218593668
 51
90.0
  0
LINE
  5
19E72
  8
01
  6
CONTINUOUS
 10
-127.4611708934975
 20
-867.5130141443371
 30
0.0
 11
-127.4611708934975
 21
-891.5130141443369
 31
0.0
  0
ARC
  5
19E73
  8
01
  6
CONTINUOUS
 10
-81.46117089349752
 20
-891.5130141443369
 30
0.0
 40
2.0
 50
270.0
 51
345.52248781407
  0
CIRCLE
  5
19E74
  8
1PHANTOM
 10
-115.461183330565
 20
-879.5130141443369
 30
0.0
 40
2.75
  0
CIRCLE
  5
19E75
  8
1PHANTOM
 10
-91.46118333056498
 20
-879.5130141443369
 30
0.0
 40
2.75
  0
LINE
  5
19E76
  8
01
  6
CONTINUOUS
 10
-81.46117089349752
 20
-865.5130141443371
 30
0.0
 11
-125.4611708934975
 21
-865.5130141443371
 31
0.0
  0
LINE
  5
19E77
  8
01
  6
CONTINUOUS
 10
-125.4611708934975
 20
-893.5130141443369
 30
0.0
 11
-81.46117089349752
 21
-893.5130141443369
 31
0.0
  0
ARC
  5
19E78
  8
01
  6
CONTINUOUS
 10
-125.4611708934975
 20
-867.5130141443369
 30
0.0
 40
2.0
 50
90.0
 51
180.0
  0
LINE
  5
19E79
  8
1CENTER
 10
-87.33619576763218
 20
-879.5130520316968
 30
0.0
 11
-95.58619576763218
 21
-879.5130520316968
 31
0.0
  0
LINE
  5
19E7A
  8
1CENTER
 10
-91.46119576763218
 20
-883.6380520316968
 30
0.0
 11
-91.46119576763218
 21
-875.3880520316968
 31
0.0
  0
LINE
  5
19E7B
  8
1CENTER
 10
-111.3361957676322
 20
-879.5130520316968
 30
0.0
 11
-119.5861957676322
 21
-879.5130520316968
 31
0.0
  0
LINE
  5
19E7C
  8
1CENTER
 10
-115.4611957676322
 20
-883.6380520316968
 30
0.0
 11
-115.4611957676322
 21
-875.3880520316968
 31
0.0
  0
LINE
  5
19E7D
  8
1CENTER
 10
-115.4611957676322
 20
-883.6380520316968
 30
0.0
 11
-115.4611957676322
 21
-875.3880520316968
 31
0.0
  0
LINE
  5
19E7F
  8
1PHANTOM
 10
-115.2111707434976
 20
-757.5205662295845
 30
0.0
 11
-116.5111706934976
 21
-758.8205664295843
 31
0.0
  0
LINE
  5
19E82
  8
1PHANTOM
 10
-115.2111707434976
 20
-757.5205662295845
 30
0.0
 11
-116.5111706934976
 21
-758.8205664295843
 31
0.0
  0
LINE
  5
19E85
  8
1PHANTOM
 10
-91.21117074349758
 20
-757.5205662295847
 30
0.0
 11
-92.5111706934976
 21
-758.8205664295846
 31
0.0
  0
LINE
  5
19E88
  8
1PHANTOM
 10
-91.21117074349758
 20
-757.5205662295847
 30
0.0
 11
-92.5111706934976
 21
-758.8205664295846
 31
0.0
  0
CIRCLE
  5
19E8B
  8
01
 10
-103.8611708934976
 20
-757.0205662295847
 30
0.0
 40
3.0
  0
TEXT
  5
19EF0
  8
1TEXT
 10
370.2901114660352
 20
-807.2841774483561
 30
0.0
 40
8.0
  1
KH-70-XX2
  0
LINE
  5
19EF2
  8
1DIM
 10
370.2939035292841
 20
-810.6839218452237
 30
0.0
 11
405.2939035292841
 21
-810.6839218452237
 31
0.0
  0
LINE
  5
19EF3
  8
1DIM
 10
370.2939035292841
 20
-824.6839218452237
 30
0.0
 11
405.2939035292841
 21
-824.6839218452237
 31
0.0
  0
LINE
  5
19EF4
  8
1DIM
 10
370.2939035292841
 20
-817.6839218452237
 30
0.0
 11
405.2939035292841
 21
-817.6839218452237
 31
0.0
  0
LINE
  5
19EF7
  8
1DIM
 10
405.2939035292841
 20
-810.6839218452237
 30
0.0
 11
405.2939035292841
 21
-824.6839218452237
 31
0.0
  0
TEXT
  5
19EF8
  8
1TEXT
 10
415.827236862617
 20
-816.1839218452237
 30
0.0
 40
4.0
  1
コード
 72
     1
 11
422.6939035292837
 21
-816.1839218452237
 31
0.0
  0
LINE
  5
19EF9
  8
1DIM
 10
405.2939035292841
 20
-824.6839218452237
 30
0.0
 11
405.2939035292841
 21
-810.6839218452237
 31
0.0
  0
LINE
  5
19EFA
  8
1DIM
 10
440.2939035292841
 20
-824.6839218452237
 30
0.0
 11
440.2939035292841
 21
-810.6839218452237
 31
0.0
  0
TEXT
  5
19EFB
  8
1TEXT
 10
378.4272368626171
 20
-816.1839218452237
 30
0.0
 40
4.0
  1
表面処理
 72
     1
 11
387.6939035292837
 21
-816.1839218452237
 31
0.0
  0
LINE
  5
19F02
  8
1DIM
 10
440.2939035292841
 20
-824.6839218452237
 30
0.0
 11
440.2939035292841
 21
-810.6839218452237
 31
0.0
  0
TEXT
  5
19F04
  8
1TEXT
 10
383.3605701959504
 20
-823.0939550909145
 30
0.0
 40
4.0
  1
鏡面
 72
     1
 11
387.6939035292837
 21
-823.0939550909145
 31
0.0
  0
TEXT
  5
19F05
  8
1TEXT
 10
410.5897907349371
 20
-823.4375704702072
 30
0.0
 40
4.0
  1
KH-70-XP2
 41
0.7
 72
     1
 11
422.4897907349371
 21
-823.4375704702072
 31
0.0
  0
LINE
  5
19F1F
  8
1DIM
 10
370.2939035292841
 20
-825.4508672493209
 30
0.0
 11
370.2939035292841
 21
-810.6839218452237
 31
0.0
  0
LINE
  5
19F20
  8
1DIM
 10
405.2939035292841
 20
-810.6839218452237
 30
0.0
 11
440.2939035292841
 21
-810.6839218452237
 31
0.0
  0
LINE
  5
19F21
  8
1DIM
 10
405.2939035292841
 20
-824.6839218452237
 30
0.0
 11
440.2939035292841
 21
-824.6839218452237
 31
0.0
  0
LINE
  5
19F22
  8
1DIM
 10
405.2939035292841
 20
-817.6839218452237
 30
0.0
 11
440.2939035292841
 21
-817.6839218452237
 31
0.0
  0
LINE
  5
1A446
  8
01
 10
303.0650289719266
 20
-756.39344839645
 30
0.0
 11
301.5659925995995
 21
-756.3934379325995
 31
0.0
  0
LINE
  5
1A447
  8
01
 10
301.56598213581
 20
-754.8944103153494
 30
0.0
 11
300.3117422401037
 21
-754.8944015602724
 31
0.0
  0
LINE
  5
1A448
  8
01
 10
301.56598213581
 20
-754.8944103153494
 30
0.0
 11
301.5659925995995
 21
-756.3934379325995
 31
0.0
  0
LINE
  5
1A449
  8
01
 10
303.0650202168496
 20
-757.6476882921563
 30
0.0
 11
303.0650289719266
 21
-756.39344839645
 31
0.0
  0
LINE
  5
1A44A
  8
01
 10
303.0650202168496
 20
-757.6476882921563
 30
0.0
 11
301.5660013548225
 21
-757.6476987558847
 31
0.0
  0
LINE
  5
1A44B
  8
01
 10
301.5660013548225
 20
-757.6476987558847
 30
0.0
 11
301.5660118186731
 21
-759.1467351284801
 31
0.0
  0
LINE
  5
1A44C
  8
01
 10
300.3117230209691
 20
-757.6477075112299
 30
0.0
 11
298.8126954037189
 21
-757.6477179750193
 31
0.0
  0
LINE
  5
1A44D
  8
01
 10
300.3117230209691
 20
-757.6477075112299
 30
0.0
 11
300.3117125572407
 21
-759.1467263729887
 31
0.0
  0
LINE
  5
1A44E
  8
01
 10
300.3117125572407
 20
-759.1467263729887
 30
0.0
 11
301.5660118186731
 21
-759.1467351284801
 31
0.0
  0
LINE
  5
1A44F
  8
01
 10
300.3117317763143
 20
-756.3934291773764
 30
0.0
 11
298.8127041592103
 21
-756.393418713587
 31
0.0
  0
LINE
  5
1A450
  8
01
 10
298.8127041592103
 20
-756.393418713587
 30
0.0
 11
298.8126954037189
 21
-757.6477179750193
 31
0.0
  0
LINE
  5
1A451
  8
01
 10
300.3117422401037
 20
-754.8944015602724
 30
0.0
 11
300.3117317763143
 21
-756.3934291773764
 31
0.0
  0
LINE
  5
1A452
  8
01
 10
-105.9873707589216
 20
-756.39344839645
 30
0.0
 11
-104.4883343865945
 21
-756.3934379325995
 31
0.0
  0
LINE
  5
1A453
  8
01
 10
-104.4883239228051
 20
-754.8944103153494
 30
0.0
 11
-103.2340840270988
 21
-754.8944015602724
 31
0.0
  0
LINE
  5
1A454
  8
01
 10
-104.4883239228051
 20
-754.8944103153494
 30
0.0
 11
-104.4883343865945
 21
-756.3934379325995
 31
0.0
  0
LINE
  5
1A455
  8
01
 10
-105.9873620038447
 20
-757.6476882921563
 30
0.0
 11
-105.9873707589216
 21
-756.39344839645
 31
0.0
  0
LINE
  5
1A456
  8
01
 10
-105.9873620038447
 20
-757.6476882921563
 30
0.0
 11
-104.4883431418176
 21
-757.6476987558847
 31
0.0
  0
LINE
  5
1A457
  8
01
 10
-104.4883431418176
 20
-757.6476987558847
 30
0.0
 11
-104.4883536056681
 21
-759.1467351284801
 31
0.0
  0
LINE
  5
1A458
  8
01
 10
-103.2340648079641
 20
-757.6477075112299
 30
0.0
 11
-101.7350371907139
 21
-757.6477179750193
 31
0.0
  0
LINE
  5
1A459
  8
01
 10
-103.2340648079641
 20
-757.6477075112299
 30
0.0
 11
-103.2340543442357
 21
-759.1467263729887
 31
0.0
  0
LINE
  5
1A45A
  8
01
 10
-103.2340543442357
 20
-759.1467263729887
 30
0.0
 11
-104.4883536056681
 21
-759.1467351284801
 31
0.0
  0
LINE
  5
1A45B
  8
01
 10
-103.2340735633093
 20
-756.3934291773764
 30
0.0
 11
-101.7350459462053
 21
-756.393418713587
 31
0.0
  0
LINE
  5
1A45C
  8
01
 10
-101.7350459462053
 20
-756.393418713587
 30
0.0
 11
-101.7350371907139
 21
-757.6477179750193
 31
0.0
  0
LINE
  5
1A45D
  8
01
 10
-103.2340840270988
 20
-754.8944015602724
 30
0.0
 11
-103.2340735633093
 21
-756.3934291773764
 31
0.0
  0
LINE
  5
1A45E
  8
1DIM1
 10
-127.8611708934978
 20
-867.5130141443369
 30
0.0
 11
-127.8611708934978
 21
-833.2608856662637
 31
0.0
1001
ACAD
1000
DSTYLE
1002
{
1070
   271
1070
     0
1070
    40
1040
3.0
1002
}
  0
LINE
  5
1A45F
  8
1DIM1
 10
324.5388291065025
 20
-867.5130141443371
 30
0.0
 11
324.5388291065025
 21
-833.2608856662637
 31
0.0
1001
ACAD
1000
DSTYLE
1002
{
1070
   271
1070
     0
1070
    40
1040
3.0
1002
}
  0
LINE
  5
1A460
  8
1DIM1
 10
-121.8611708934978
 20
-836.2608856662637
 30
0.0
 11
318.5388291065025
 21
-836.2608856662637
 31
0.0
1001
ACAD
1000
DSTYLE
1002
{
1070
   271
1070
     0
1070
    40
1040
3.0
1002
}
  0
LINE
  5
1A464
  8
1DIM1
 10
-91.46119576763218
 20
-883.6380520316968
 30
0.0
 11
-91.46119576763218
 21
-920.7257503165831
 31
0.0
1001
ACAD
1000
DSTYLE
1002
{
1070
    70
1070
     0
1070
    69
1070
     0
1070
   271
1070
     0
1070
    40
1040
3.0
1002
}
  0
LINE
  5
1A465
  8
1DIM1
 10
288.5388539806372
 20
-879.5130141443369
 30
0.0
 11
288.5388539806372
 21
-920.7257503165831
 31
0.0
1001
ACAD
1000
DSTYLE
1002
{
1070
    70
1070
     0
1070
    69
1070
     0
1070
   271
1070
     0
1070
    40
1040
3.0
1002
}
  0
LINE
  5
1A466
  8
1DIM1
 10
-85.46119576763218
 20
-917.7257503165831
 30
0.0
 11
282.5388539806372
 21
-917.7257503165831
 31
0.0
1001
ACAD
1000
DSTYLE
1002
{
1070
    70
1070
     0
1070
    69
1070
     0
1070
   271
1070
     0
1070
    40
1040
3.0
1002
}
  0
SOLID
  5
1A46A
  8
1DIM
 10
294.0551500528455
 20
-782.6713230447274
 30
0.0
 11
295.0297054218447
 21
-780.8933036567943
 31
0.0
 12
294.6844836580671
 22
-782.8912859001902
 32
0.0
 13
294.6844836580671
 23
-782.8912859001902
 33
0.0
  0
LINE
  5
1A46B
  8
1DIM
 10
294.3698168554563
 20
-782.7813044724588
 30
0.0
 11
283.7420523477038
 21
-813.18829904905
 31
0.0
  0
LINE
  5
1A46C
  8
1DIM
 10
283.7420523477038
 20
-813.18829904905
 30
0.0
 11
244.0587190143705
 21
-813.18829904905
 31
0.0
  0
TEXT
  5
1A46D
  8
1DIM
  6
CONTINUOUS
 10
248.4920523477038
 20
-806.6549657157166
 30
0.0
 40
3.5
  1
材質：ステンレス
  0
TEXT
  5
1A46E
  8
1DIM
  6
CONTINUOUS
 10
243.9420523477038
 20
-812.4882990490499
 30
0.0
 40
3.5
  1
仕上げ：各種仕上げ
  0
LINE
  5
1A46F
  8
1DIM
 10
312.5388539806372
 20
-879.5130520316968
 30
0.0
 11
312.5388539806372
 21
-906.2022284562793
 31
0.0
  0
LINE
  5
1A470
  8
1DIM
 10
288.53884154357
 20
-879.5130141443369
 30
0.0
 11
288.53884154357
 21
-906.2022284562793
 31
0.0
  0
LINE
  5
1A471
  8
1DIM
 10
310.5388539806372
 20
-905.2022284562793
 30
0.0
 11
290.53884154357
 21
-905.2022284562793
 31
0.0
  0
SOLID
  5
1A475
  8
1DIM
 10
470.1385036653965
 20
-847.8106636287732
 30
0.0
 11
468.7071413254959
 21
-849.2467391710152
 31
0.0
 12
469.5953784981882
 22
-847.4240637100078
 32
0.0
 13
469.5953784981882
 23
-847.4240637100078
 33
0.0
  0
LINE
  5
1A476
  8
1DIM
 10
469.8669410817923
 20
-847.6173636693906
 30
0.0
 11
476.5214856564656
 21
-838.2685499232439
 31
0.0
  0
LINE
  5
1A477
  8
1DIM
 10
476.5214856564656
 20
-838.2685499232439
 30
0.0
 11
514.904818989799
 21
-838.2685499232439
 31
0.0
  0
TEXT
  5
1A478
  8
1DIM
  6
CONTINUOUS
 10
479.2214856564656
 20
-831.7303554787994
 30
0.0
 40
3.5
  1
合板12mm以上
  0
TEXT
  5
1A479
  8
1DIM
  6
CONTINUOUS
 10
476.4214856564656
 20
-837.5685499232438
 30
0.0
 40
3.5
  1
（15mm以上推奨）
  0
SOLID
  5
1A47A
  8
1DIM
 10
458.3930419328336
 20
-847.3350515261153
 30
0.0
 11
456.9546831385796
 21
-848.7641194356645
 31
0.0
 12
457.8518113246418
 22
-846.9458036960626
 32
0.0
 13
457.8518113246418
 23
-846.9458036960626
 33
0.0
  0
LINE
  5
1A47B
  8
1DIM
 10
458.1224266287377
 20
-847.140427611089
 30
0.0
 11
476.953246881297
 21
-820.957067008502
 31
0.0
  0
LINE
  5
1A47C
  8
1DIM
 10
476.953246881297
 20
-820.957067008502
 30
0.0
 11
485.4865802146304
 21
-820.957067008502
 31
0.0
  0
TEXT
  5
1A47D
  8
1DIM
  6
CONTINUOUS
 10
479.653246881297
 20
-820.257067008502
 30
0.0
 40
3.5
  1
PB
  0
LINE
  5
1A47E
  8
1HATCH
 10
429.9213219133288
 20
-871.313014144337
 30
0.0
 11
429.5713219133288
 21
-870.9630143184111
 31
0.0
  0
LINE
  5
1A47F
  8
1HATCH
 10
433.5713219133288
 20
-870.9630143184111
 30
0.0
 11
433.2213219133288
 21
-871.313014144337
 31
0.0
  0
LINE
  5
1A480
  8
1HATCH
 10
428.5713219133288
 20
-869.963014154337
 30
0.0
 11
434.5713219133288
 21
-869.9630141543371
 31
0.0
  0
LINE
  5
1A481
  8
1HATCH
 10
429.5713219133288
 20
-877.313014144337
 30
0.0
 11
433.5713219133288
 21
-877.313014144337
 31
0.0
  0
LINE
  5
1A483
  8
1HATCH
 10
433.2213219133288
 20
-877.663014144337
 30
0.0
 11
433.2213219133288
 21
-871.313014144337
 31
0.0
  0
LINE
  5
1A484
  8
1HATCH
 10
429.9213219133288
 20
-877.663014144337
 30
0.0
 11
429.9213219133288
 21
-871.313014144337
 31
0.0
  0
LINE
  5
1A485
  8
1CENTER
 10
431.5713219133288
 20
-879.264689144337
 30
0.0
 11
431.5713219133288
 21
-868.104245244337
 31
0.0
  0
LINE
  5
1A486
  8
1CENTER
 10
491.6779979071115
 20
-879.5130141443367
 30
0.0
 11
425.2836948097037
 21
-879.5130141443367
 31
0.0
  0
LINE
  5
1A488
  8
0
 10
461.8893354711966
 20
-877.0130141443367
 30
0.0
 11
462.8893354711966
 21
-882.0130141443367
 31
0.0
  0
LINE
  5
1A489
  8
0
 10
463.8893354711966
 20
-877.0130141443367
 30
0.0
 11
464.8893354711966
 21
-882.0130141443367
 31
0.0
  0
LINE
  5
1A48A
  8
0
 10
465.0393354711966
 20
-881.2630141443367
 30
0.0
 11
464.8893354711966
 21
-882.0130141443367
 31
0.0
  0
LINE
  5
1A48B
  8
0
 10
465.8893354711966
 20
-877.0130141443367
 30
0.0
 11
465.7393354711966
 21
-877.7630141443367
 31
0.0
  0
LINE
  5
1A48C
  8
0
 10
467.0393354711966
 20
-881.2630141443367
 30
0.0
 11
466.8893354711966
 21
-882.0130141443367
 31
0.0
  0
LINE
  5
1A48D
  8
0
 10
465.8893354711966
 20
-877.0130141443367
 30
0.0
 11
466.8893354711966
 21
-882.0130141443367
 31
0.0
  0
LINE
  5
1A48E
  8
0
 10
463.0393354711966
 20
-881.2630141443367
 30
0.0
 11
462.8893354711966
 21
-882.0130141443367
 31
0.0
  0
LINE
  5
1A48F
  8
0
 10
463.8893354711966
 20
-877.0130141443367
 30
0.0
 11
463.7393354711966
 21
-877.7630141443367
 31
0.0
  0
LINE
  5
1A490
  8
0
 10
467.8893354711966
 20
-877.0130141443367
 30
0.0
 11
467.7393354711966
 21
-877.7630141443367
 31
0.0
  0
LINE
  5
1A491
  8
0
 10
469.0393354711966
 20
-881.2630141443367
 30
0.0
 11
468.8893354711966
 21
-882.0130141443367
 31
0.0
  0
LINE
  5
1A492
  8
0
 10
469.8893354711966
 20
-877.0130141443367
 30
0.0
 11
469.7393354711966
 21
-877.7630141443367
 31
0.0
  0
LINE
  5
1A493
  8
0
 10
467.8893354711966
 20
-877.0130141443367
 30
0.0
 11
468.8893354711966
 21
-882.0130141443367
 31
0.0
  0
LINE
  5
1A494
  8
0
 10
471.8893354711966
 20
-877.0130141443367
 30
0.0
 11
471.7393354711966
 21
-877.7630141443367
 31
0.0
  0
LINE
  5
1A495
  8
0
 10
471.0393354711966
 20
-881.2630141443367
 30
0.0
 11
470.8893354711966
 21
-882.0130141443367
 31
0.0
  0
LINE
  5
1A496
  8
0
 10
469.8893354711966
 20
-877.0130141443367
 30
0.0
 11
470.8893354711966
 21
-882.0130141443367
 31
0.0
  0
LINE
  5
1A497
  8
0
 10
488.7520068085853
 20
-879.8263708312804
 30
0.0
 11
488.6020068085854
 21
-880.5763708312804
 31
0.0
  0
LINE
  5
1A498
  8
0
 10
477.8893354711966
 20
-877.0130141443367
 30
0.0
 11
478.8893354711966
 21
-882.0130141443367
 31
0.0
  0
LINE
  5
1A499
  8
0
 10
479.0393354711966
 20
-881.2630141443367
 30
0.0
 11
478.8893354711966
 21
-882.0130141443367
 31
0.0
  0
LINE
  5
1A49A
  8
0
 10
481.0393354711966
 20
-881.2630141443367
 30
0.0
 11
480.8893354711966
 21
-882.0130141443367
 31
0.0
  0
LINE
  5
1A49B
  8
0
 10
479.8893354711966
 20
-877.0130141443367
 30
0.0
 11
479.7393354711966
 21
-877.7630141443367
 31
0.0
  0
LINE
  5
1A49C
  8
0
 10
479.8893354711966
 20
-877.0130141443367
 30
0.0
 11
480.8893354711966
 21
-882.0130141443367
 31
0.0
  0
LINE
  5
1A49D
  8
0
 10
484.9554629792076
 20
-880.8436516843915
 30
0.0
 11
484.8054629792076
 21
-881.5936516843915
 31
0.0
  0
LINE
  5
1A49E
  8
0
 10
486.8537348938965
 20
-880.3350112578362
 30
0.0
 11
486.7037348938965
 21
-881.0850112578362
 31
0.0
  0
LINE
  5
1A49F
  8
0
 10
486.0393307370413
 20
-877.7629904735602
 30
0.0
 11
485.8893307370413
 21
-878.5129904735602
 31
0.0
  0
LINE
  5
1A4A0
  8
0
 10
486.0393307370413
 20
-877.7629904735602
 30
0.0
 11
486.7037348938965
 21
-881.0850112578362
 31
0.0
  0
LINE
  5
1A4A1
  8
0
 10
488.1525793910932
 20
-878.3292337438195
 30
0.0
 11
488.0025793910931
 21
-879.0792337438195
 31
0.0
  0
LINE
  5
1A4A2
  8
0
 10
483.0393354711966
 20
-881.2630141443367
 30
0.0
 11
482.8893354711966
 21
-882.0130141443367
 31
0.0
  0
LINE
  5
1A4A3
  8
0
 10
481.8893354711966
 20
-877.0130141443367
 30
0.0
 11
481.7393354711966
 21
-877.7630141443367
 31
0.0
  0
LINE
  5
1A4A4
  8
0
 10
481.8893354711966
 20
-877.0130141443367
 30
0.0
 11
482.8893354711966
 21
-882.0130141443367
 31
0.0
  0
LINE
  5
1A4A5
  8
0
 10
483.9260820829894
 20
-877.1967472033009
 30
0.0
 11
483.7760820829894
 21
-877.9467472033009
 31
0.0
  0
LINE
  5
1A4A6
  8
0
 10
483.9260820829894
 20
-877.1967472033009
 30
0.0
 11
484.8054629792076
 21
-881.5936516843915
 31
0.0
  0
LINE
  5
1A4A7
  8
0
 10
488.1525793910932
 20
-878.3292337438195
 30
0.0
 11
488.6020068085854
 21
-880.5763708312804
 31
0.0
  0
LINE
  5
1A4A8
  8
0
 10
473.0393354711966
 20
-881.2630141443367
 30
0.0
 11
472.8893354711966
 21
-882.0130141443367
 31
0.0
  0
LINE
  5
1A4A9
  8
0
 10
473.8893354711966
 20
-877.0130141443367
 30
0.0
 11
473.7393354711966
 21
-877.7630141443367
 31
0.0
  0
LINE
  5
1A4AA
  8
0
 10
473.8893354711966
 20
-877.0130141443367
 30
0.0
 11
474.8893354711966
 21
-882.0130141443367
 31
0.0
  0
LINE
  5
1A4AB
  8
0
 10
477.0393354711966
 20
-881.2630141443367
 30
0.0
 11
476.8893354711966
 21
-882.0130141443367
 31
0.0
  0
LINE
  5
1A4AC
  8
0
 10
475.8893354711966
 20
-877.0130141443367
 30
0.0
 11
475.7393354711966
 21
-877.7630141443367
 31
0.0
  0
LINE
  5
1A4AD
  8
0
 10
477.8893354711966
 20
-877.0130141443367
 30
0.0
 11
477.7393354711966
 21
-877.7630141443367
 31
0.0
  0
LINE
  5
1A4AE
  8
0
 10
475.8893354711966
 20
-877.0130141443367
 30
0.0
 11
476.8893354711966
 21
-882.0130141443367
 31
0.0
  0
LINE
  5
1A4AF
  8
0
 10
475.0393354711966
 20
-881.2630141443367
 30
0.0
 11
474.8893354711966
 21
-882.0130141443367
 31
0.0
  0
LINE
  5
1A4B0
  8
0
 10
471.8893354711966
 20
-877.0130141443367
 30
0.0
 11
472.8893354711966
 21
-882.0130141443367
 31
0.0
  0
LINE
  5
1A4B1
  8
0
 10
429.8893354711966
 20
-877.0130141443367
 30
0.0
 11
429.7714698851507
 21
-877.6023420745662
 31
0.0
  0
LINE
  5
1A4B2
  8
0
 10
431.0393354711966
 20
-881.2630141443367
 30
0.0
 11
430.8893354711966
 21
-882.0130141443367
 31
0.0
  0
LINE
  5
1A4B3
  8
0
 10
429.8893354711966
 20
-877.0130141443367
 30
0.0
 11
430.8893354711966
 21
-882.0130141443367
 31
0.0
  0
LINE
  5
1A4B4
  8
0
 10
433.0393354711966
 20
-881.2630141443367
 30
0.0
 11
432.8893354711966
 21
-882.0130141443367
 31
0.0
  0
LINE
  5
1A4B5
  8
0
 10
431.8893354711966
 20
-877.0130141443367
 30
0.0
 11
431.7393354711966
 21
-877.7630141443367
 31
0.0
  0
LINE
  5
1A4B6
  8
0
 10
431.8893354711966
 20
-877.0130141443367
 30
0.0
 11
432.8893354711966
 21
-882.0130141443367
 31
0.0
  0
LINE
  5
1A4B7
  8
0
 10
435.0393354711966
 20
-881.2630141443367
 30
0.0
 11
434.8893354711966
 21
-882.0130141443367
 31
0.0
  0
LINE
  5
1A4B8
  8
0
 10
433.8893354711966
 20
-877.0130141443367
 30
0.0
 11
433.7393354711966
 21
-877.7630141443367
 31
0.0
  0
LINE
  5
1A4B9
  8
0
 10
433.8893354711966
 20
-877.0130141443367
 30
0.0
 11
434.8893354711966
 21
-882.0130141443367
 31
0.0
  0
LINE
  5
1A4BA
  8
0
 10
435.8893354711966
 20
-877.0130141443367
 30
0.0
 11
436.8893354711966
 21
-882.0130141443367
 31
0.0
  0
LINE
  5
1A4BB
  8
0
 10
435.8893354711966
 20
-877.0130141443367
 30
0.0
 11
435.7393354711966
 21
-877.7630141443367
 31
0.0
  0
LINE
  5
1A4BC
  8
0
 10
437.0393354711966
 20
-881.2630141443367
 30
0.0
 11
436.8893354711966
 21
-882.0130141443367
 31
0.0
  0
LINE
  5
1A4BD
  8
0
 10
437.8893354711966
 20
-877.0130141443367
 30
0.0
 11
438.8893354711966
 21
-882.0130141443367
 31
0.0
  0
LINE
  5
1A4BE
  8
0
 10
437.8893354711966
 20
-877.0130141443367
 30
0.0
 11
437.7393354711966
 21
-877.7630141443367
 31
0.0
  0
LINE
  5
1A4BF
  8
0
 10
439.0393354711966
 20
-881.2630141443367
 30
0.0
 11
438.8893354711966
 21
-882.0130141443367
 31
0.0
  0
LINE
  5
1A4C0
  8
0
 10
441.0393354711966
 20
-881.2630141443367
 30
0.0
 11
440.8893354711966
 21
-882.0130141443367
 31
0.0
  0
LINE
  5
1A4C1
  8
0
 10
439.8893354711966
 20
-877.0130141443367
 30
0.0
 11
439.7393354711966
 21
-877.7630141443367
 31
0.0
  0
LINE
  5
1A4C2
  8
0
 10
439.8893354711966
 20
-877.0130141443367
 30
0.0
 11
440.8893354711966
 21
-882.0130141443367
 31
0.0
  0
LINE
  5
1A4C3
  8
0
 10
443.0393354711966
 20
-881.2630141443367
 30
0.0
 11
442.8893354711966
 21
-882.0130141443367
 31
0.0
  0
LINE
  5
1A4C4
  8
0
 10
441.8893354711966
 20
-877.0130141443367
 30
0.0
 11
441.7393354711966
 21
-877.7630141443367
 31
0.0
  0
LINE
  5
1A4C5
  8
0
 10
441.8893354711966
 20
-877.0130141443367
 30
0.0
 11
442.8893354711966
 21
-882.0130141443367
 31
0.0
  0
LINE
  5
1A4C6
  8
0
 10
445.0393354711966
 20
-881.2630141443367
 30
0.0
 11
444.8893354711966
 21
-882.0130141443367
 31
0.0
  0
LINE
  5
1A4C7
  8
0
 10
443.8893354711966
 20
-877.0130141443367
 30
0.0
 11
443.7393354711966
 21
-877.7630141443367
 31
0.0
  0
LINE
  5
1A4C8
  8
0
 10
443.8893354711966
 20
-877.0130141443367
 30
0.0
 11
444.8893354711966
 21
-882.0130141443367
 31
0.0
  0
LINE
  5
1A4C9
  8
0
 10
447.0393354711966
 20
-881.2630141443367
 30
0.0
 11
446.8893354711966
 21
-882.0130141443367
 31
0.0
  0
LINE
  5
1A4CA
  8
0
 10
445.8893354711966
 20
-877.0130141443367
 30
0.0
 11
445.7393354711966
 21
-877.7630141443367
 31
0.0
  0
LINE
  5
1A4CB
  8
0
 10
445.8893354711966
 20
-877.0130141443367
 30
0.0
 11
446.8893354711966
 21
-882.0130141443367
 31
0.0
  0
LINE
  5
1A4CC
  8
0
 10
449.0393354711966
 20
-881.2630141443367
 30
0.0
 11
448.8893354711966
 21
-882.0130141443367
 31
0.0
  0
LINE
  5
1A4CD
  8
0
 10
447.8893354711966
 20
-877.0130141443367
 30
0.0
 11
447.7393354711966
 21
-877.7630141443367
 31
0.0
  0
LINE
  5
1A4CE
  8
0
 10
447.8893354711966
 20
-877.0130141443367
 30
0.0
 11
448.8893354711966
 21
-882.0130141443367
 31
0.0
  0
LINE
  5
1A4CF
  8
0
 10
455.8893354711966
 20
-877.0130141443367
 30
0.0
 11
456.8893354711966
 21
-882.0130141443367
 31
0.0
  0
LINE
  5
1A4D0
  8
0
 10
461.0393354711966
 20
-881.2630141443367
 30
0.0
 11
460.8893354711966
 21
-882.0130141443367
 31
0.0
  0
LINE
  5
1A4D1
  8
0
 10
459.8893354711966
 20
-877.0130141443367
 30
0.0
 11
459.7393354711966
 21
-877.7630141443367
 31
0.0
  0
LINE
  5
1A4D2
  8
0
 10
459.8893354711966
 20
-877.0130141443367
 30
0.0
 11
460.8893354711966
 21
-882.0130141443367
 31
0.0
  0
LINE
  5
1A4D3
  8
0
 10
457.8893354711966
 20
-877.0130141443367
 30
0.0
 11
458.8893354711966
 21
-882.0130141443367
 31
0.0
  0
LINE
  5
1A4D4
  8
0
 10
457.8893354711966
 20
-877.0130141443367
 30
0.0
 11
457.7393354711966
 21
-877.7630141443367
 31
0.0
  0
LINE
  5
1A4D5
  8
0
 10
459.0393354711966
 20
-881.2630141443367
 30
0.0
 11
458.8893354711966
 21
-882.0130141443367
 31
0.0
  0
LINE
  5
1A4D6
  8
0
 10
457.0393354711966
 20
-881.2630141443367
 30
0.0
 11
456.8893354711966
 21
-882.0130141443367
 31
0.0
  0
LINE
  5
1A4D7
  8
0
 10
461.8893354711966
 20
-877.0130141443367
 30
0.0
 11
461.7393354711966
 21
-877.7630141443367
 31
0.0
  0
LINE
  5
1A4D8
  8
0
 10
453.8893354711966
 20
-877.0130141443367
 30
0.0
 11
453.7393354711966
 21
-877.7630141443367
 31
0.0
  0
LINE
  5
1A4D9
  8
0
 10
451.8893354711966
 20
-877.0130141443367
 30
0.0
 11
452.8893354711966
 21
-882.0130141443367
 31
0.0
  0
LINE
  5
1A4DA
  8
0
 10
451.8893354711966
 20
-877.0130141443367
 30
0.0
 11
451.7393354711966
 21
-877.7630141443367
 31
0.0
  0
LINE
  5
1A4DB
  8
0
 10
453.0393354711966
 20
-881.2630141443367
 30
0.0
 11
452.8893354711966
 21
-882.0130141443367
 31
0.0
  0
LINE
  5
1A4DC
  8
0
 10
449.8893354711966
 20
-877.0130141443367
 30
0.0
 11
450.8893354711966
 21
-882.0130141443367
 31
0.0
  0
LINE
  5
1A4DD
  8
0
 10
449.8893354711966
 20
-877.0130141443367
 30
0.0
 11
449.7393354711966
 21
-877.7630141443367
 31
0.0
  0
LINE
  5
1A4DE
  8
0
 10
451.0393354711966
 20
-881.2630141443367
 30
0.0
 11
450.8893354711966
 21
-882.0130141443367
 31
0.0
  0
LINE
  5
1A4DF
  8
0
 10
455.8893354711966
 20
-877.0130141443367
 30
0.0
 11
455.7393354711966
 21
-877.7630141443367
 31
0.0
  0
LINE
  5
1A4E0
  8
0
 10
455.0393354711966
 20
-881.2630141443367
 30
0.0
 11
454.8893354711966
 21
-882.0130141443367
 31
0.0
  0
LINE
  5
1A4E1
  8
0
 10
453.8893354711966
 20
-877.0130141443367
 30
0.0
 11
454.8893354711966
 21
-882.0130141443367
 31
0.0
  0
LINE
  5
1A4E2
  8
0
 10
429.7714698851507
 20
-881.2630141443367
 30
0.0
 11
429.7714698851507
 21
-877.7630141443367
 31
0.0
  0
LINE
  5
1A4E3
  8
1CENTER
 10
312.5388291065025
 20
-696.9140384076236
 30
0.0
 11
312.5388291065025
 21
-763.3083415050314
 31
0.0
  0
LINE
  5
1A4E5
  8
0
 10
310.0388291065025
 20
-726.7027008435384
 30
0.0
 11
315.0388291065025
 21
-725.7027008435384
 31
0.0
  0
LINE
  5
1A4E6
  8
0
 10
310.0388291065025
 20
-724.7027008435384
 30
0.0
 11
315.0388291065025
 21
-723.7027008435384
 31
0.0
  0
LINE
  5
1A4E7
  8
0
 10
314.2888291065025
 20
-723.5527008435384
 30
0.0
 11
315.0388291065025
 21
-723.7027008435384
 31
0.0
  0
LINE
  5
1A4E8
  8
0
 10
310.0388291065025
 20
-722.7027008435384
 30
0.0
 11
310.7888291065025
 21
-722.8527008435385
 31
0.0
  0
LINE
  5
1A4E9
  8
0
 10
314.2888291065025
 20
-721.5527008435384
 30
0.0
 11
315.0388291065025
 21
-721.7027008435384
 31
0.0
  0
LINE
  5
1A4EA
  8
0
 10
310.0388291065025
 20
-722.7027008435384
 30
0.0
 11
315.0388291065025
 21
-721.7027008435384
 31
0.0
  0
LINE
  5
1A4EB
  8
0
 10
314.2888291065025
 20
-725.5527008435384
 30
0.0
 11
315.0388291065025
 21
-725.7027008435384
 31
0.0
  0
LINE
  5
1A4EC
  8
0
 10
310.0388291065025
 20
-724.7027008435384
 30
0.0
 11
310.7888291065025
 21
-724.8527008435385
 31
0.0
  0
LINE
  5
1A4ED
  8
0
 10
310.0388291065025
 20
-720.7027008435384
 30
0.0
 11
310.7888291065025
 21
-720.8527008435385
 31
0.0
  0
LINE
  5
1A4EE
  8
0
 10
314.2888291065025
 20
-719.5527008435384
 30
0.0
 11
315.0388291065025
 21
-719.7027008435384
 31
0.0
  0
LINE
  5
1A4EF
  8
0
 10
310.0388291065025
 20
-718.7027008435384
 30
0.0
 11
310.7888291065025
 21
-718.8527008435385
 31
0.0
  0
LINE
  5
1A4F0
  8
0
 10
310.0388291065025
 20
-720.7027008435384
 30
0.0
 11
315.0388291065025
 21
-719.7027008435384
 31
0.0
  0
LINE
  5
1A4F1
  8
0
 10
310.0388291065025
 20
-716.7027008435384
 30
0.0
 11
310.7888291065025
 21
-716.8527008435385
 31
0.0
  0
LINE
  5
1A4F2
  8
0
 10
314.2888291065025
 20
-717.5527008435384
 30
0.0
 11
315.0388291065025
 21
-717.7027008435384
 31
0.0
  0
LINE
  5
1A4F3
  8
0
 10
310.0388291065025
 20
-718.7027008435384
 30
0.0
 11
315.0388291065025
 21
-717.7027008435384
 31
0.0
  0
LINE
  5
1A4F4
  8
0
 10
312.8521857934462
 20
-699.8400295061497
 30
0.0
 11
313.6021857934462
 21
-699.9900295061498
 31
0.0
  0
LINE
  5
1A4F5
  8
0
 10
310.0388291065025
 20
-710.7027008435384
 30
0.0
 11
315.0388291065025
 21
-709.7027008435384
 31
0.0
  0
LINE
  5
1A4F6
  8
0
 10
314.2888291065025
 20
-709.5527008435384
 30
0.0
 11
315.0388291065025
 21
-709.7027008435384
 31
0.0
  0
LINE
  5
1A4F7
  8
0
 10
314.2888291065025
 20
-707.5527008435384
 30
0.0
 11
315.0388291065025
 21
-707.7027008435384
 31
0.0
  0
LINE
  5
1A4F8
  8
0
 10
310.0388291065025
 20
-708.7027008435384
 30
0.0
 11
310.7888291065025
 21
-708.8527008435385
 31
0.0
  0
LINE
  5
1A4F9
  8
0
 10
310.0388291065025
 20
-708.7027008435384
 30
0.0
 11
315.0388291065025
 21
-707.7027008435384
 31
0.0
  0
LINE
  5
1A4FA
  8
0
 10
313.8694666465573
 20
-703.6365733355275
 30
0.0
 11
314.6194666465573
 21
-703.7865733355275
 31
0.0
  0
LINE
  5
1A4FB
  8
0
 10
313.360826220002
 20
-701.7383014208385
 30
0.0
 11
314.110826220002
 21
-701.8883014208386
 31
0.0
  0
LINE
  5
1A4FC
  8
0
 10
310.788805435726
 20
-702.5527055776938
 30
0.0
 11
311.538805435726
 21
-702.7027055776938
 31
0.0
  0
LINE
  5
1A4FD
  8
0
 10
310.788805435726
 20
-702.5527055776938
 30
0.0
 11
314.110826220002
 21
-701.8883014208386
 31
0.0
  0
LINE
  5
1A4FE
  8
0
 10
311.3550487059853
 20
-700.439456923642
 30
0.0
 11
312.1050487059853
 21
-700.5894569236419
 31
0.0
  0
LINE
  5
1A4FF
  8
0
 10
314.2888291065025
 20
-705.5527008435384
 30
0.0
 11
315.0388291065025
 21
-705.7027008435384
 31
0.0
  0
LINE
  5
1A500
  8
0
 10
310.0388291065025
 20
-706.7027008435384
 30
0.0
 11
310.7888291065025
 21
-706.8527008435385
 31
0.0
  0
LINE
  5
1A501
  8
0
 10
310.0388291065025
 20
-706.7027008435384
 30
0.0
 11
315.0388291065025
 21
-705.7027008435384
 31
0.0
  0
LINE
  5
1A502
  8
0
 10
310.2225621654667
 20
-704.6659542317457
 30
0.0
 11
310.9725621654667
 21
-704.8159542317456
 31
0.0
  0
LINE
  5
1A503
  8
0
 10
310.2225621654667
 20
-704.6659542317457
 30
0.0
 11
314.6194666465573
 21
-703.7865733355275
 31
0.0
  0
LINE
  5
1A504
  8
0
 10
311.3550487059853
 20
-700.439456923642
 30
0.0
 11
313.6021857934462
 21
-699.9900295061498
 31
0.0
  0
LINE
  5
1A505
  8
0
 10
314.2888291065025
 20
-715.5527008435384
 30
0.0
 11
315.0388291065025
 21
-715.7027008435384
 31
0.0
  0
LINE
  5
1A506
  8
0
 10
310.0388291065025
 20
-714.7027008435384
 30
0.0
 11
310.7888291065025
 21
-714.8527008435385
 31
0.0
  0
LINE
  5
1A507
  8
0
 10
310.0388291065025
 20
-714.7027008435384
 30
0.0
 11
315.0388291065025
 21
-713.7027008435384
 31
0.0
  0
LINE
  5
1A508
  8
0
 10
314.2888291065025
 20
-711.5527008435384
 30
0.0
 11
315.0388291065025
 21
-711.7027008435384
 31
0.0
  0
LINE
  5
1A509
  8
0
 10
310.0388291065025
 20
-712.7027008435384
 30
0.0
 11
310.7888291065025
 21
-712.8527008435385
 31
0.0
  0
LINE
  5
1A50A
  8
0
 10
310.0388291065025
 20
-710.7027008435384
 30
0.0
 11
310.7888291065025
 21
-710.8527008435385
 31
0.0
  0
LINE
  5
1A50B
  8
0
 10
310.0388291065025
 20
-712.7027008435384
 30
0.0
 11
315.0388291065025
 21
-711.7027008435384
 31
0.0
  0
LINE
  5
1A50C
  8
0
 10
314.2888291065025
 20
-713.5527008435384
 30
0.0
 11
315.0388291065025
 21
-713.7027008435384
 31
0.0
  0
LINE
  5
1A50D
  8
0
 10
310.0388291065025
 20
-716.7027008435384
 30
0.0
 11
315.0388291065025
 21
-715.7027008435384
 31
0.0
  0
LINE
  5
1A50E
  8
0
 10
310.0388291065025
 20
-758.7027008435384
 30
0.0
 11
310.628157036732
 21
-758.8205664295843
 31
0.0
  0
LINE
  5
1A50F
  8
0
 10
314.2888291065025
 20
-757.5527008435384
 30
0.0
 11
315.0388291065025
 21
-757.7027008435384
 31
0.0
  0
LINE
  5
1A510
  8
0
 10
310.0388291065025
 20
-758.7027008435384
 30
0.0
 11
315.0388291065025
 21
-757.7027008435384
 31
0.0
  0
LINE
  5
1A511
  8
0
 10
314.2888291065025
 20
-755.5527008435384
 30
0.0
 11
315.0388291065025
 21
-755.7027008435384
 31
0.0
  0
LINE
  5
1A512
  8
0
 10
310.0388291065025
 20
-756.7027008435384
 30
0.0
 11
310.7888291065025
 21
-756.8527008435384
 31
0.0
  0
LINE
  5
1A513
  8
0
 10
310.0388291065025
 20
-756.7027008435384
 30
0.0
 11
315.0388291065025
 21
-755.7027008435384
 31
0.0
  0
LINE
  5
1A514
  8
0
 10
314.2888291065025
 20
-753.5527008435384
 30
0.0
 11
315.0388291065025
 21
-753.7027008435384
 31
0.0
  0
LINE
  5
1A515
  8
0
 10
310.0388291065025
 20
-754.7027008435384
 30
0.0
 11
310.7888291065025
 21
-754.8527008435384
 31
0.0
  0
LINE
  5
1A516
  8
0
 10
310.0388291065025
 20
-754.7027008435384
 30
0.0
 11
315.0388291065025
 21
-753.7027008435384
 31
0.0
  0
LINE
  5
1A517
  8
0
 10
310.0388291065025
 20
-752.7027008435384
 30
0.0
 11
315.0388291065025
 21
-751.7027008435385
 31
0.0
  0
LINE
  5
1A518
  8
0
 10
310.0388291065025
 20
-752.7027008435384
 30
0.0
 11
310.7888291065025
 21
-752.8527008435385
 31
0.0
  0
LINE
  5
1A519
  8
0
 10
314.2888291065025
 20
-751.5527008435384
 30
0.0
 11
315.0388291065025
 21
-751.7027008435385
 31
0.0
  0
LINE
  5
1A51A
  8
0
 10
310.0388291065025
 20
-750.7027008435384
 30
0.0
 11
315.0388291065025
 21
-749.7027008435384
 31
0.0
  0
LINE
  5
1A51B
  8
0
 10
310.0388291065025
 20
-750.7027008435384
 30
0.0
 11
310.7888291065025
 21
-750.8527008435385
 31
0.0
  0
LINE
  5
1A51C
  8
0
 10
314.2888291065025
 20
-749.5527008435384
 30
0.0
 11
315.0388291065025
 21
-749.7027008435384
 31
0.0
  0
LINE
  5
1A51D
  8
0
 10
314.2888291065025
 20
-747.5527008435384
 30
0.0
 11
315.0388291065025
 21
-747.7027008435384
 31
0.0
  0
LINE
  5
1A51E
  8
0
 10
310.0388291065025
 20
-748.7027008435384
 30
0.0
 11
310.7888291065025
 21
-748.8527008435385
 31
0.0
  0
LINE
  5
1A51F
  8
0
 10
310.0388291065025
 20
-748.7027008435384
 30
0.0
 11
315.0388291065025
 21
-747.7027008435384
 31
0.0
  0
LINE
  5
1A520
  8
0
 10
314.2888291065025
 20
-745.5527008435384
 30
0.0
 11
315.0388291065025
 21
-745.7027008435384
 31
0.0
  0
LINE
  5
1A521
  8
0
 10
310.0388291065025
 20
-746.7027008435384
 30
0.0
 11
310.7888291065025
 21
-746.8527008435385
 31
0.0
  0
LINE
  5
1A522
  8
0
 10
310.0388291065025
 20
-746.7027008435384
 30
0.0
 11
315.0388291065025
 21
-745.7027008435384
 31
0.0
  0
LINE
  5
1A523
  8
0
 10
314.2888291065025
 20
-743.5527008435384
 30
0.0
 11
315.0388291065025
 21
-743.7027008435384
 31
0.0
  0
LINE
  5
1A524
  8
0
 10
310.0388291065025
 20
-744.7027008435384
 30
0.0
 11
310.7888291065025
 21
-744.8527008435385
 31
0.0
  0
LINE
  5
1A525
  8
0
 10
310.0388291065025
 20
-744.7027008435384
 30
0.0
 11
315.0388291065025
 21
-743.7027008435384
 31
0.0
  0
LINE
  5
1A526
  8
0
 10
314.2888291065025
 20
-741.5527008435384
 30
0.0
 11
315.0388291065025
 21
-741.7027008435384
 31
0.0
  0
LINE
  5
1A527
  8
0
 10
310.0388291065025
 20
-742.7027008435384
 30
0.0
 11
310.7888291065025
 21
-742.8527008435385
 31
0.0
  0
LINE
  5
1A528
  8
0
 10
310.0388291065025
 20
-742.7027008435384
 30
0.0
 11
315.0388291065025
 21
-741.7027008435384
 31
0.0
  0
LINE
  5
1A529
  8
0
 10
314.2888291065025
 20
-739.5527008435384
 30
0.0
 11
315.0388291065025
 21
-739.7027008435384
 31
0.0
  0
LINE
  5
1A52A
  8
0
 10
310.0388291065025
 20
-740.7027008435384
 30
0.0
 11
310.7888291065025
 21
-740.8527008435385
 31
0.0
  0
LINE
  5
1A52B
  8
0
 10
310.0388291065025
 20
-740.7027008435384
 30
0.0
 11
315.0388291065025
 21
-739.7027008435384
 31
0.0
  0
LINE
  5
1A52C
  8
0
 10
310.0388291065025
 20
-732.7027008435384
 30
0.0
 11
315.0388291065025
 21
-731.7027008435384
 31
0.0
  0
LINE
  5
1A52D
  8
0
 10
314.2888291065025
 20
-727.5527008435384
 30
0.0
 11
315.0388291065025
 21
-727.7027008435384
 31
0.0
  0
LINE
  5
1A52E
  8
0
 10
310.0388291065025
 20
-728.7027008435384
 30
0.0
 11
310.7888291065025
 21
-728.8527008435385
 31
0.0
  0
LINE
  5
1A52F
  8
0
 10
310.0388291065025
 20
-728.7027008435384
 30
0.0
 11
315.0388291065025
 21
-727.7027008435384
 31
0.0
  0
LINE
  5
1A530
  8
0
 10
310.0388291065025
 20
-730.7027008435384
 30
0.0
 11
315.0388291065025
 21
-729.7027008435384
 31
0.0
  0
LINE
  5
1A531
  8
0
 10
310.0388291065025
 20
-730.7027008435384
 30
0.0
 11
310.7888291065025
 21
-730.8527008435385
 31
0.0
  0
LINE
  5
1A532
  8
0
 10
314.2888291065025
 20
-729.5527008435384
 30
0.0
 11
315.0388291065025
 21
-729.7027008435384
 31
0.0
  0
LINE
  5
1A533
  8
0
 10
314.2888291065025
 20
-731.5527008435384
 30
0.0
 11
315.0388291065025
 21
-731.7027008435384
 31
0.0
  0
LINE
  5
1A534
  8
0
 10
310.0388291065025
 20
-726.7027008435384
 30
0.0
 11
310.7888291065025
 21
-726.8527008435385
 31
0.0
  0
LINE
  5
1A535
  8
0
 10
310.0388291065025
 20
-734.7027008435384
 30
0.0
 11
310.7888291065025
 21
-734.8527008435385
 31
0.0
  0
LINE
  5
1A536
  8
0
 10
310.0388291065025
 20
-736.7027008435384
 30
0.0
 11
315.0388291065025
 21
-735.7027008435384
 31
0.0
  0
LINE
  5
1A537
  8
0
 10
310.0388291065025
 20
-736.7027008435384
 30
0.0
 11
310.7888291065025
 21
-736.8527008435385
 31
0.0
  0
LINE
  5
1A538
  8
0
 10
314.2888291065025
 20
-735.5527008435384
 30
0.0
 11
315.0388291065025
 21
-735.7027008435384
 31
0.0
  0
LINE
  5
1A539
  8
0
 10
310.0388291065025
 20
-738.7027008435384
 30
0.0
 11
315.0388291065025
 21
-737.7027008435384
 31
0.0
  0
LINE
  5
1A53A
  8
0
 10
310.0388291065025
 20
-738.7027008435384
 30
0.0
 11
310.7888291065025
 21
-738.8527008435385
 31
0.0
  0
LINE
  5
1A53B
  8
0
 10
314.2888291065025
 20
-737.5527008435384
 30
0.0
 11
315.0388291065025
 21
-737.7027008435384
 31
0.0
  0
LINE
  5
1A53C
  8
0
 10
310.0388291065025
 20
-732.7027008435384
 30
0.0
 11
310.7888291065025
 21
-732.8527008435385
 31
0.0
  0
LINE
  5
1A53D
  8
0
 10
314.2888291065025
 20
-733.5527008435384
 30
0.0
 11
315.0388291065025
 21
-733.7027008435384
 31
0.0
  0
LINE
  5
1A53E
  8
0
 10
310.0388291065025
 20
-734.7027008435384
 30
0.0
 11
315.0388291065025
 21
-733.7027008435384
 31
0.0
  0
LINE
  5
1A53F
  8
0
 10
314.2888291065025
 20
-758.8205664295843
 30
0.0
 11
310.7888291065025
 21
-758.8205664295843
 31
0.0
  0
LINE
  5
1A540
  8
1HATCH
 10
429.9213219133288
 20
-887.7130141443364
 30
0.0
 11
429.5713219133288
 21
-888.0630139702623
 31
0.0
  0
LINE
  5
1A541
  8
1HATCH
 10
433.5713219133288
 20
-888.0630139702623
 30
0.0
 11
433.2213219133288
 21
-887.7130141443364
 31
0.0
  0
LINE
  5
1A542
  8
1HATCH
 10
428.5713219133288
 20
-889.0630141343363
 30
0.0
 11
434.5713219133288
 21
-889.0630141343364
 31
0.0
  0
LINE
  5
1A543
  8
1HATCH
 10
429.5713219133288
 20
-881.7130141443364
 30
0.0
 11
433.5713219133288
 21
-881.7130141443364
 31
0.0
  0
LINE
  5
1A545
  8
1HATCH
 10
433.2213219133288
 20
-881.3630141443364
 30
0.0
 11
433.2213219133288
 21
-887.7130141443364
 31
0.0
  0
LINE
  5
1A546
  8
1HATCH
 10
429.9213219133288
 20
-881.3630141443364
 30
0.0
 11
429.9213219133288
 21
-887.7130141443364
 31
0.0
  0
LINE
  5
1A547
  8
1CENTER
 10
431.5713219133288
 20
-879.7613391443364
 30
0.0
 11
431.5713219133288
 21
-890.9217830443364
 31
0.0
  0
LINE
  5
1A548
  8
1PHANTOM
 10
317.5388290065025
 20
-757.5205662295848
 30
0.0
 11
317.5388290065025
 21
-758.8205664295847
 31
0.0
  0
LINE
  5
1A549
  8
1PHANTOM
 10
308.3388292065026
 20
-757.5205662295848
 30
0.0
 11
317.5388290065025
 21
-757.5205662295848
 31
0.0
  0
LINE
  5
1A54A
  8
1PHANTOM
 10
308.3388292065026
 20
-757.5205662295848
 30
0.0
 11
308.3388292065026
 21
-758.8205664295847
 31
0.0
  0
LINE
  5
1A54B
  8
1PHANTOM
 10
308.3388292065026
 20
-758.8205664295847
 30
0.0
 11
317.5388290065025
 21
-758.8205664295847
 31
0.0
  0
LINE
  5
1A54C
  8
1PHANTOM
 10
429.7714698851507
 20
-874.9130142443366
 30
0.0
 11
431.0714700851506
 21
-874.9130142443366
 31
0.0
  0
LINE
  5
1A54D
  8
1PHANTOM
 10
429.7714698851507
 20
-884.1130140443365
 30
0.0
 11
429.7714698851507
 21
-874.9130142443366
 31
0.0
  0
LINE
  5
1A54E
  8
1PHANTOM
 10
429.7714698851507
 20
-884.1130140443365
 30
0.0
 11
431.0714700851506
 21
-884.1130140443365
 31
0.0
  0
LINE
  5
1A54F
  8
1PHANTOM
 10
431.0714700851506
 20
-884.1130140443365
 30
0.0
 11
431.0714700851506
 21
-874.9130142443366
 31
0.0
  0
LINE
  5
1A550
  8
1PHANTOM
 10
317.5388290065025
 20
-757.5205662295848
 30
0.0
 11
317.5388290065025
 21
-758.8205664295847
 31
0.0
  0
LINE
  5
1A551
  8
1PHANTOM
 10
308.3388292065026
 20
-757.5205662295848
 30
0.0
 11
317.5388290065025
 21
-757.5205662295848
 31
0.0
  0
LINE
  5
1A552
  8
1PHANTOM
 10
308.3388292065026
 20
-757.5205662295848
 30
0.0
 11
308.3388292065026
 21
-758.8205664295847
 31
0.0
  0
LINE
  5
1A553
  8
1PHANTOM
 10
308.3388292065026
 20
-758.8205664295847
 30
0.0
 11
317.5388290065025
 21
-758.8205664295847
 31
0.0
  0
LINE
  5
1A554
  8
1CENTER
 10
288.5388291065025
 20
-696.9140384076238
 30
0.0
 11
288.5388291065025
 21
-763.3083415050316
 31
0.0
  0
LINE
  5
1A556
  8
0
 10
286.0388291065025
 20
-726.7027008435387
 30
0.0
 11
291.0388291065025
 21
-725.7027008435387
 31
0.0
  0
LINE
  5
1A557
  8
0
 10
286.0388291065025
 20
-724.7027008435387
 30
0.0
 11
291.0388291065025
 21
-723.7027008435387
 31
0.0
  0
LINE
  5
1A558
  8
0
 10
290.2888291065025
 20
-723.5527008435387
 30
0.0
 11
291.0388291065025
 21
-723.7027008435387
 31
0.0
  0
LINE
  5
1A559
  8
0
 10
286.0388291065025
 20
-722.7027008435387
 30
0.0
 11
286.7888291065025
 21
-722.8527008435387
 31
0.0
  0
LINE
  5
1A55A
  8
0
 10
290.2888291065025
 20
-721.5527008435387
 30
0.0
 11
291.0388291065025
 21
-721.7027008435387
 31
0.0
  0
LINE
  5
1A55B
  8
0
 10
286.0388291065025
 20
-722.7027008435387
 30
0.0
 11
291.0388291065025
 21
-721.7027008435387
 31
0.0
  0
LINE
  5
1A55C
  8
0
 10
290.2888291065025
 20
-725.5527008435387
 30
0.0
 11
291.0388291065025
 21
-725.7027008435387
 31
0.0
  0
LINE
  5
1A55D
  8
0
 10
286.0388291065025
 20
-724.7027008435387
 30
0.0
 11
286.7888291065025
 21
-724.8527008435387
 31
0.0
  0
LINE
  5
1A55E
  8
0
 10
286.0388291065025
 20
-720.7027008435387
 30
0.0
 11
286.7888291065025
 21
-720.8527008435387
 31
0.0
  0
LINE
  5
1A55F
  8
0
 10
290.2888291065025
 20
-719.5527008435387
 30
0.0
 11
291.0388291065025
 21
-719.7027008435387
 31
0.0
  0
LINE
  5
1A560
  8
0
 10
286.0388291065025
 20
-718.7027008435387
 30
0.0
 11
286.7888291065025
 21
-718.8527008435387
 31
0.0
  0
LINE
  5
1A561
  8
0
 10
286.0388291065025
 20
-720.7027008435387
 30
0.0
 11
291.0388291065025
 21
-719.7027008435387
 31
0.0
  0
LINE
  5
1A562
  8
0
 10
286.0388291065025
 20
-716.7027008435387
 30
0.0
 11
286.7888291065025
 21
-716.8527008435387
 31
0.0
  0
LINE
  5
1A563
  8
0
 10
290.2888291065025
 20
-717.5527008435387
 30
0.0
 11
291.0388291065025
 21
-717.7027008435387
 31
0.0
  0
LINE
  5
1A564
  8
0
 10
286.0388291065025
 20
-718.7027008435387
 30
0.0
 11
291.0388291065025
 21
-717.7027008435387
 31
0.0
  0
LINE
  5
1A565
  8
0
 10
288.8521857934462
 20
-699.8400295061499
 30
0.0
 11
289.6021857934462
 21
-699.99002950615
 31
0.0
  0
LINE
  5
1A566
  8
0
 10
286.0388291065025
 20
-710.7027008435387
 30
0.0
 11
291.0388291065025
 21
-709.7027008435387
 31
0.0
  0
LINE
  5
1A567
  8
0
 10
290.2888291065025
 20
-709.5527008435387
 30
0.0
 11
291.0388291065025
 21
-709.7027008435387
 31
0.0
  0
LINE
  5
1A568
  8
0
 10
290.2888291065025
 20
-707.5527008435387
 30
0.0
 11
291.0388291065025
 21
-707.7027008435387
 31
0.0
  0
LINE
  5
1A569
  8
0
 10
286.0388291065025
 20
-708.7027008435387
 30
0.0
 11
286.7888291065025
 21
-708.8527008435387
 31
0.0
  0
LINE
  5
1A56A
  8
0
 10
286.0388291065025
 20
-708.7027008435387
 30
0.0
 11
291.0388291065025
 21
-707.7027008435387
 31
0.0
  0
LINE
  5
1A56B
  8
0
 10
289.8694666465573
 20
-703.6365733355277
 30
0.0
 11
290.6194666465573
 21
-703.7865733355277
 31
0.0
  0
LINE
  5
1A56C
  8
0
 10
289.360826220002
 20
-701.7383014208388
 30
0.0
 11
290.110826220002
 21
-701.8883014208388
 31
0.0
  0
LINE
  5
1A56D
  8
0
 10
286.788805435726
 20
-702.552705577694
 30
0.0
 11
287.538805435726
 21
-702.702705577694
 31
0.0
  0
LINE
  5
1A56E
  8
0
 10
286.788805435726
 20
-702.552705577694
 30
0.0
 11
290.110826220002
 21
-701.8883014208388
 31
0.0
  0
LINE
  5
1A56F
  8
0
 10
287.3550487059853
 20
-700.4394569236422
 30
0.0
 11
288.1050487059853
 21
-700.5894569236422
 31
0.0
  0
LINE
  5
1A570
  8
0
 10
290.2888291065025
 20
-705.5527008435387
 30
0.0
 11
291.0388291065025
 21
-705.7027008435387
 31
0.0
  0
LINE
  5
1A571
  8
0
 10
286.0388291065025
 20
-706.7027008435387
 30
0.0
 11
286.7888291065025
 21
-706.8527008435387
 31
0.0
  0
LINE
  5
1A572
  8
0
 10
286.0388291065025
 20
-706.7027008435387
 30
0.0
 11
291.0388291065025
 21
-705.7027008435387
 31
0.0
  0
LINE
  5
1A573
  8
0
 10
286.2225621654667
 20
-704.6659542317459
 30
0.0
 11
286.9725621654667
 21
-704.8159542317459
 31
0.0
  0
LINE
  5
1A574
  8
0
 10
286.2225621654667
 20
-704.6659542317459
 30
0.0
 11
290.6194666465573
 21
-703.7865733355277
 31
0.0
  0
LINE
  5
1A575
  8
0
 10
287.3550487059853
 20
-700.4394569236422
 30
0.0
 11
289.6021857934462
 21
-699.99002950615
 31
0.0
  0
LINE
  5
1A576
  8
0
 10
290.2888291065025
 20
-715.5527008435387
 30
0.0
 11
291.0388291065025
 21
-715.7027008435387
 31
0.0
  0
LINE
  5
1A577
  8
0
 10
286.0388291065025
 20
-714.7027008435387
 30
0.0
 11
286.7888291065025
 21
-714.8527008435387
 31
0.0
  0
LINE
  5
1A578
  8
0
 10
286.0388291065025
 20
-714.7027008435387
 30
0.0
 11
291.0388291065025
 21
-713.7027008435387
 31
0.0
  0
LINE
  5
1A579
  8
0
 10
290.2888291065025
 20
-711.5527008435387
 30
0.0
 11
291.0388291065025
 21
-711.7027008435387
 31
0.0
  0
LINE
  5
1A57A
  8
0
 10
286.0388291065025
 20
-712.7027008435387
 30
0.0
 11
286.7888291065025
 21
-712.8527008435387
 31
0.0
  0
LINE
  5
1A57B
  8
0
 10
286.0388291065025
 20
-710.7027008435387
 30
0.0
 11
286.7888291065025
 21
-710.8527008435387
 31
0.0
  0
LINE
  5
1A57C
  8
0
 10
286.0388291065025
 20
-712.7027008435387
 30
0.0
 11
291.0388291065025
 21
-711.7027008435387
 31
0.0
  0
LINE
  5
1A57D
  8
0
 10
290.2888291065025
 20
-713.5527008435387
 30
0.0
 11
291.0388291065025
 21
-713.7027008435387
 31
0.0
  0
LINE
  5
1A57E
  8
0
 10
286.0388291065025
 20
-716.7027008435387
 30
0.0
 11
291.0388291065025
 21
-715.7027008435387
 31
0.0
  0
LINE
  5
1A57F
  8
0
 10
286.0388291065025
 20
-758.7027008435387
 30
0.0
 11
286.628157036732
 21
-758.8205664295846
 31
0.0
  0
LINE
  5
1A580
  8
0
 10
290.2888291065025
 20
-757.5527008435387
 30
0.0
 11
291.0388291065025
 21
-757.7027008435387
 31
0.0
  0
LINE
  5
1A581
  8
0
 10
286.0388291065025
 20
-758.7027008435387
 30
0.0
 11
291.0388291065025
 21
-757.7027008435387
 31
0.0
  0
LINE
  5
1A582
  8
0
 10
290.2888291065025
 20
-755.5527008435387
 30
0.0
 11
291.0388291065025
 21
-755.7027008435387
 31
0.0
  0
LINE
  5
1A583
  8
0
 10
286.0388291065025
 20
-756.7027008435387
 30
0.0
 11
286.7888291065025
 21
-756.8527008435386
 31
0.0
  0
LINE
  5
1A584
  8
0
 10
286.0388291065025
 20
-756.7027008435387
 30
0.0
 11
291.0388291065025
 21
-755.7027008435387
 31
0.0
  0
LINE
  5
1A585
  8
0
 10
290.2888291065025
 20
-753.5527008435387
 30
0.0
 11
291.0388291065025
 21
-753.7027008435387
 31
0.0
  0
LINE
  5
1A586
  8
0
 10
286.0388291065025
 20
-754.7027008435387
 30
0.0
 11
286.7888291065025
 21
-754.8527008435386
 31
0.0
  0
LINE
  5
1A587
  8
0
 10
286.0388291065025
 20
-754.7027008435387
 30
0.0
 11
291.0388291065025
 21
-753.7027008435387
 31
0.0
  0
LINE
  5
1A588
  8
0
 10
286.0388291065025
 20
-752.7027008435387
 30
0.0
 11
291.0388291065025
 21
-751.7027008435388
 31
0.0
  0
LINE
  5
1A589
  8
0
 10
286.0388291065025
 20
-752.7027008435387
 30
0.0
 11
286.7888291065025
 21
-752.8527008435387
 31
0.0
  0
LINE
  5
1A58A
  8
0
 10
290.2888291065025
 20
-751.5527008435387
 30
0.0
 11
291.0388291065025
 21
-751.7027008435388
 31
0.0
  0
LINE
  5
1A58B
  8
0
 10
286.0388291065025
 20
-750.7027008435387
 30
0.0
 11
291.0388291065025
 21
-749.7027008435387
 31
0.0
  0
LINE
  5
1A58C
  8
0
 10
286.0388291065025
 20
-750.7027008435387
 30
0.0
 11
286.7888291065025
 21
-750.8527008435387
 31
0.0
  0
LINE
  5
1A58D
  8
0
 10
290.2888291065025
 20
-749.5527008435387
 30
0.0
 11
291.0388291065025
 21
-749.7027008435387
 31
0.0
  0
LINE
  5
1A58E
  8
0
 10
290.2888291065025
 20
-747.5527008435387
 30
0.0
 11
291.0388291065025
 21
-747.7027008435387
 31
0.0
  0
LINE
  5
1A58F
  8
0
 10
286.0388291065025
 20
-748.7027008435387
 30
0.0
 11
286.7888291065025
 21
-748.8527008435387
 31
0.0
  0
LINE
  5
1A590
  8
0
 10
286.0388291065025
 20
-748.7027008435387
 30
0.0
 11
291.0388291065025
 21
-747.7027008435387
 31
0.0
  0
LINE
  5
1A591
  8
0
 10
290.2888291065025
 20
-745.5527008435387
 30
0.0
 11
291.0388291065025
 21
-745.7027008435387
 31
0.0
  0
LINE
  5
1A592
  8
0
 10
286.0388291065025
 20
-746.7027008435387
 30
0.0
 11
286.7888291065025
 21
-746.8527008435387
 31
0.0
  0
LINE
  5
1A593
  8
0
 10
286.0388291065025
 20
-746.7027008435387
 30
0.0
 11
291.0388291065025
 21
-745.7027008435387
 31
0.0
  0
LINE
  5
1A594
  8
0
 10
290.2888291065025
 20
-743.5527008435387
 30
0.0
 11
291.0388291065025
 21
-743.7027008435387
 31
0.0
  0
LINE
  5
1A595
  8
0
 10
286.0388291065025
 20
-744.7027008435387
 30
0.0
 11
286.7888291065025
 21
-744.8527008435387
 31
0.0
  0
LINE
  5
1A596
  8
0
 10
286.0388291065025
 20
-744.7027008435387
 30
0.0
 11
291.0388291065025
 21
-743.7027008435387
 31
0.0
  0
LINE
  5
1A597
  8
0
 10
290.2888291065025
 20
-741.5527008435387
 30
0.0
 11
291.0388291065025
 21
-741.7027008435387
 31
0.0
  0
LINE
  5
1A598
  8
0
 10
286.0388291065025
 20
-742.7027008435387
 30
0.0
 11
286.7888291065025
 21
-742.8527008435387
 31
0.0
  0
LINE
  5
1A599
  8
0
 10
286.0388291065025
 20
-742.7027008435387
 30
0.0
 11
291.0388291065025
 21
-741.7027008435387
 31
0.0
  0
LINE
  5
1A59A
  8
0
 10
290.2888291065025
 20
-739.5527008435387
 30
0.0
 11
291.0388291065025
 21
-739.7027008435387
 31
0.0
  0
LINE
  5
1A59B
  8
0
 10
286.0388291065025
 20
-740.7027008435387
 30
0.0
 11
286.7888291065025
 21
-740.8527008435387
 31
0.0
  0
LINE
  5
1A59C
  8
0
 10
286.0388291065025
 20
-740.7027008435387
 30
0.0
 11
291.0388291065025
 21
-739.7027008435387
 31
0.0
  0
LINE
  5
1A59D
  8
0
 10
286.0388291065025
 20
-732.7027008435387
 30
0.0
 11
291.0388291065025
 21
-731.7027008435387
 31
0.0
  0
LINE
  5
1A59E
  8
0
 10
290.2888291065025
 20
-727.5527008435387
 30
0.0
 11
291.0388291065025
 21
-727.7027008435387
 31
0.0
  0
LINE
  5
1A59F
  8
0
 10
286.0388291065025
 20
-728.7027008435387
 30
0.0
 11
286.7888291065025
 21
-728.8527008435387
 31
0.0
  0
LINE
  5
1A5A0
  8
0
 10
286.0388291065025
 20
-728.7027008435387
 30
0.0
 11
291.0388291065025
 21
-727.7027008435387
 31
0.0
  0
LINE
  5
1A5A1
  8
0
 10
286.0388291065025
 20
-730.7027008435387
 30
0.0
 11
291.0388291065025
 21
-729.7027008435387
 31
0.0
  0
LINE
  5
1A5A2
  8
0
 10
286.0388291065025
 20
-730.7027008435387
 30
0.0
 11
286.7888291065025
 21
-730.8527008435387
 31
0.0
  0
LINE
  5
1A5A3
  8
0
 10
290.2888291065025
 20
-729.5527008435387
 30
0.0
 11
291.0388291065025
 21
-729.7027008435387
 31
0.0
  0
LINE
  5
1A5A4
  8
0
 10
290.2888291065025
 20
-731.5527008435387
 30
0.0
 11
291.0388291065025
 21
-731.7027008435387
 31
0.0
  0
LINE
  5
1A5A5
  8
0
 10
286.0388291065025
 20
-726.7027008435387
 30
0.0
 11
286.7888291065025
 21
-726.8527008435387
 31
0.0
  0
LINE
  5
1A5A6
  8
0
 10
286.0388291065025
 20
-734.7027008435387
 30
0.0
 11
286.7888291065025
 21
-734.8527008435387
 31
0.0
  0
LINE
  5
1A5A7
  8
0
 10
286.0388291065025
 20
-736.7027008435387
 30
0.0
 11
291.0388291065025
 21
-735.7027008435387
 31
0.0
  0
LINE
  5
1A5A8
  8
0
 10
286.0388291065025
 20
-736.7027008435387
 30
0.0
 11
286.7888291065025
 21
-736.8527008435387
 31
0.0
  0
LINE
  5
1A5A9
  8
0
 10
290.2888291065025
 20
-735.5527008435387
 30
0.0
 11
291.0388291065025
 21
-735.7027008435387
 31
0.0
  0
LINE
  5
1A5AA
  8
0
 10
286.0388291065025
 20
-738.7027008435387
 30
0.0
 11
291.0388291065025
 21
-737.7027008435387
 31
0.0
  0
LINE
  5
1A5AB
  8
0
 10
286.0388291065025
 20
-738.7027008435387
 30
0.0
 11
286.7888291065025
 21
-738.8527008435387
 31
0.0
  0
LINE
  5
1A5AC
  8
0
 10
290.2888291065025
 20
-737.5527008435387
 30
0.0
 11
291.0388291065025
 21
-737.7027008435387
 31
0.0
  0
LINE
  5
1A5AD
  8
0
 10
286.0388291065025
 20
-732.7027008435387
 30
0.0
 11
286.7888291065025
 21
-732.8527008435387
 31
0.0
  0
LINE
  5
1A5AE
  8
0
 10
290.2888291065025
 20
-733.5527008435387
 30
0.0
 11
291.0388291065025
 21
-733.7027008435387
 31
0.0
  0
LINE
  5
1A5AF
  8
0
 10
286.0388291065025
 20
-734.7027008435387
 30
0.0
 11
291.0388291065025
 21
-733.7027008435387
 31
0.0
  0
LINE
  5
1A5B0
  8
0
 10
290.2888291065025
 20
-758.8205664295846
 30
0.0
 11
286.7888291065025
 21
-758.8205664295846
 31
0.0
  0
LINE
  5
1A5B1
  8
1PHANTOM
 10
293.5388290065025
 20
-757.5205662295848
 30
0.0
 11
293.5388290065025
 21
-758.8205664295847
 31
0.0
  0
LINE
  5
1A5B2
  8
1PHANTOM
 10
284.3388292065026
 20
-757.5205662295848
 30
0.0
 11
293.5388290065025
 21
-757.5205662295848
 31
0.0
  0
LINE
  5
1A5B3
  8
1PHANTOM
 10
284.3388292065026
 20
-757.5205662295848
 30
0.0
 11
284.3388292065026
 21
-758.8205664295847
 31
0.0
  0
LINE
  5
1A5B4
  8
1PHANTOM
 10
284.3388292065026
 20
-758.8205664295847
 30
0.0
 11
293.5388290065025
 21
-758.8205664295847
 31
0.0
  0
LINE
  5
1A5B5
  8
1PHANTOM
 10
293.5388290065025
 20
-757.5205662295848
 30
0.0
 11
293.5388290065025
 21
-758.8205664295847
 31
0.0
  0
LINE
  5
1A5B6
  8
1PHANTOM
 10
284.3388292065026
 20
-757.5205662295848
 30
0.0
 11
293.5388290065025
 21
-757.5205662295848
 31
0.0
  0
LINE
  5
1A5B7
  8
1PHANTOM
 10
284.3388292065026
 20
-757.5205662295848
 30
0.0
 11
284.3388292065026
 21
-758.8205664295847
 31
0.0
  0
LINE
  5
1A5B8
  8
1PHANTOM
 10
284.3388292065026
 20
-758.8205664295847
 30
0.0
 11
293.5388290065025
 21
-758.8205664295847
 31
0.0
  0
LINE
  5
1A5B9
  8
1CENTER
 10
-115.4611708934975
 20
-696.9140384076236
 30
0.0
 11
-115.4611708934975
 21
-763.3083415050314
 31
0.0
  0
LINE
  5
1A5BB
  8
0
 10
-112.9611708934975
 20
-726.7027008435384
 30
0.0
 11
-117.9611708934975
 21
-725.7027008435384
 31
0.0
  0
LINE
  5
1A5BC
  8
0
 10
-112.9611708934975
 20
-724.7027008435384
 30
0.0
 11
-117.9611708934975
 21
-723.7027008435384
 31
0.0
  0
LINE
  5
1A5BD
  8
0
 10
-117.2111708934975
 20
-723.5527008435384
 30
0.0
 11
-117.9611708934975
 21
-723.7027008435384
 31
0.0
  0
LINE
  5
1A5BE
  8
0
 10
-112.9611708934975
 20
-722.7027008435384
 30
0.0
 11
-113.7111708934975
 21
-722.8527008435385
 31
0.0
  0
LINE
  5
1A5BF
  8
0
 10
-117.2111708934975
 20
-721.5527008435384
 30
0.0
 11
-117.9611708934975
 21
-721.7027008435384
 31
0.0
  0
LINE
  5
1A5C0
  8
0
 10
-112.9611708934975
 20
-722.7027008435384
 30
0.0
 11
-117.9611708934975
 21
-721.7027008435384
 31
0.0
  0
LINE
  5
1A5C1
  8
0
 10
-117.2111708934975
 20
-725.5527008435384
 30
0.0
 11
-117.9611708934975
 21
-725.7027008435384
 31
0.0
  0
LINE
  5
1A5C2
  8
0
 10
-112.9611708934975
 20
-724.7027008435384
 30
0.0
 11
-113.7111708934975
 21
-724.8527008435385
 31
0.0
  0
LINE
  5
1A5C3
  8
0
 10
-112.9611708934975
 20
-720.7027008435384
 30
0.0
 11
-113.7111708934975
 21
-720.8527008435385
 31
0.0
  0
LINE
  5
1A5C4
  8
0
 10
-117.2111708934975
 20
-719.5527008435384
 30
0.0
 11
-117.9611708934975
 21
-719.7027008435384
 31
0.0
  0
LINE
  5
1A5C5
  8
0
 10
-112.9611708934975
 20
-718.7027008435384
 30
0.0
 11
-113.7111708934975
 21
-718.8527008435385
 31
0.0
  0
LINE
  5
1A5C6
  8
0
 10
-112.9611708934975
 20
-720.7027008435384
 30
0.0
 11
-117.9611708934975
 21
-719.7027008435384
 31
0.0
  0
LINE
  5
1A5C7
  8
0
 10
-112.9611708934975
 20
-716.7027008435384
 30
0.0
 11
-113.7111708934975
 21
-716.8527008435385
 31
0.0
  0
LINE
  5
1A5C8
  8
0
 10
-117.2111708934975
 20
-717.5527008435384
 30
0.0
 11
-117.9611708934975
 21
-717.7027008435384
 31
0.0
  0
LINE
  5
1A5C9
  8
0
 10
-112.9611708934975
 20
-718.7027008435384
 30
0.0
 11
-117.9611708934975
 21
-717.7027008435384
 31
0.0
  0
LINE
  5
1A5CA
  8
0
 10
-115.7745275804412
 20
-699.8400295061497
 30
0.0
 11
-116.5245275804412
 21
-699.9900295061498
 31
0.0
  0
LINE
  5
1A5CB
  8
0
 10
-112.9611708934975
 20
-710.7027008435384
 30
0.0
 11
-117.9611708934975
 21
-709.7027008435384
 31
0.0
  0
LINE
  5
1A5CC
  8
0
 10
-117.2111708934975
 20
-709.5527008435384
 30
0.0
 11
-117.9611708934975
 21
-709.7027008435384
 31
0.0
  0
LINE
  5
1A5CD
  8
0
 10
-117.2111708934975
 20
-707.5527008435384
 30
0.0
 11
-117.9611708934975
 21
-707.7027008435384
 31
0.0
  0
LINE
  5
1A5CE
  8
0
 10
-112.9611708934975
 20
-708.7027008435384
 30
0.0
 11
-113.7111708934975
 21
-708.8527008435385
 31
0.0
  0
LINE
  5
1A5CF
  8
0
 10
-112.9611708934975
 20
-708.7027008435384
 30
0.0
 11
-117.9611708934975
 21
-707.7027008435384
 31
0.0
  0
LINE
  5
1A5D0
  8
0
 10
-116.7918084335523
 20
-703.6365733355275
 30
0.0
 11
-117.5418084335523
 21
-703.7865733355275
 31
0.0
  0
LINE
  5
1A5D1
  8
0
 10
-116.283168006997
 20
-701.7383014208385
 30
0.0
 11
-117.033168006997
 21
-701.8883014208386
 31
0.0
  0
LINE
  5
1A5D2
  8
0
 10
-113.711147222721
 20
-702.5527055776938
 30
0.0
 11
-114.461147222721
 21
-702.7027055776938
 31
0.0
  0
LINE
  5
1A5D3
  8
0
 10
-113.711147222721
 20
-702.5527055776938
 30
0.0
 11
-117.033168006997
 21
-701.8883014208386
 31
0.0
  0
LINE
  5
1A5D4
  8
0
 10
-114.2773904929803
 20
-700.439456923642
 30
0.0
 11
-115.0273904929803
 21
-700.5894569236419
 31
0.0
  0
LINE
  5
1A5D5
  8
0
 10
-117.2111708934975
 20
-705.5527008435384
 30
0.0
 11
-117.9611708934975
 21
-705.7027008435384
 31
0.0
  0
LINE
  5
1A5D6
  8
0
 10
-112.9611708934975
 20
-706.7027008435384
 30
0.0
 11
-113.7111708934975
 21
-706.8527008435385
 31
0.0
  0
LINE
  5
1A5D7
  8
0
 10
-112.9611708934975
 20
-706.7027008435384
 30
0.0
 11
-117.9611708934975
 21
-705.7027008435384
 31
0.0
  0
LINE
  5
1A5D8
  8
0
 10
-113.1449039524617
 20
-704.6659542317457
 30
0.0
 11
-113.8949039524617
 21
-704.8159542317456
 31
0.0
  0
LINE
  5
1A5D9
  8
0
 10
-113.1449039524617
 20
-704.6659542317457
 30
0.0
 11
-117.5418084335523
 21
-703.7865733355275
 31
0.0
  0
LINE
  5
1A5DA
  8
0
 10
-114.2773904929803
 20
-700.439456923642
 30
0.0
 11
-116.5245275804412
 21
-699.9900295061498
 31
0.0
  0
LINE
  5
1A5DB
  8
0
 10
-117.2111708934975
 20
-715.5527008435384
 30
0.0
 11
-117.9611708934975
 21
-715.7027008435384
 31
0.0
  0
LINE
  5
1A5DC
  8
0
 10
-112.9611708934975
 20
-714.7027008435384
 30
0.0
 11
-113.7111708934975
 21
-714.8527008435385
 31
0.0
  0
LINE
  5
1A5DD
  8
0
 10
-112.9611708934975
 20
-714.7027008435384
 30
0.0
 11
-117.9611708934975
 21
-713.7027008435384
 31
0.0
  0
LINE
  5
1A5DE
  8
0
 10
-117.2111708934975
 20
-711.5527008435384
 30
0.0
 11
-117.9611708934975
 21
-711.7027008435384
 31
0.0
  0
LINE
  5
1A5DF
  8
0
 10
-112.9611708934975
 20
-712.7027008435384
 30
0.0
 11
-113.7111708934975
 21
-712.8527008435385
 31
0.0
  0
LINE
  5
1A5E0
  8
0
 10
-112.9611708934975
 20
-710.7027008435384
 30
0.0
 11
-113.7111708934975
 21
-710.8527008435385
 31
0.0
  0
LINE
  5
1A5E1
  8
0
 10
-112.9611708934975
 20
-712.7027008435384
 30
0.0
 11
-117.9611708934975
 21
-711.7027008435384
 31
0.0
  0
LINE
  5
1A5E2
  8
0
 10
-117.2111708934975
 20
-713.5527008435384
 30
0.0
 11
-117.9611708934975
 21
-713.7027008435384
 31
0.0
  0
LINE
  5
1A5E3
  8
0
 10
-112.9611708934975
 20
-716.7027008435384
 30
0.0
 11
-117.9611708934975
 21
-715.7027008435384
 31
0.0
  0
LINE
  5
1A5E4
  8
0
 10
-112.9611708934975
 20
-758.7027008435384
 30
0.0
 11
-113.550498823727
 21
-758.8205664295843
 31
0.0
  0
LINE
  5
1A5E5
  8
0
 10
-117.2111708934975
 20
-757.5527008435384
 30
0.0
 11
-117.9611708934975
 21
-757.7027008435384
 31
0.0
  0
LINE
  5
1A5E6
  8
0
 10
-112.9611708934975
 20
-758.7027008435384
 30
0.0
 11
-117.9611708934975
 21
-757.7027008435384
 31
0.0
  0
LINE
  5
1A5E7
  8
0
 10
-117.2111708934975
 20
-755.5527008435384
 30
0.0
 11
-117.9611708934975
 21
-755.7027008435384
 31
0.0
  0
LINE
  5
1A5E8
  8
0
 10
-112.9611708934975
 20
-756.7027008435384
 30
0.0
 11
-113.7111708934975
 21
-756.8527008435384
 31
0.0
  0
LINE
  5
1A5E9
  8
0
 10
-112.9611708934975
 20
-756.7027008435384
 30
0.0
 11
-117.9611708934975
 21
-755.7027008435384
 31
0.0
  0
LINE
  5
1A5EA
  8
0
 10
-117.2111708934975
 20
-753.5527008435384
 30
0.0
 11
-117.9611708934975
 21
-753.7027008435384
 31
0.0
  0
LINE
  5
1A5EB
  8
0
 10
-112.9611708934975
 20
-754.7027008435384
 30
0.0
 11
-113.7111708934975
 21
-754.8527008435384
 31
0.0
  0
LINE
  5
1A5EC
  8
0
 10
-112.9611708934975
 20
-754.7027008435384
 30
0.0
 11
-117.9611708934975
 21
-753.7027008435384
 31
0.0
  0
LINE
  5
1A5ED
  8
0
 10
-112.9611708934975
 20
-752.7027008435385
 30
0.0
 11
-117.9611708934975
 21
-751.7027008435384
 31
0.0
  0
LINE
  5
1A5EE
  8
0
 10
-112.9611708934975
 20
-752.7027008435385
 30
0.0
 11
-113.7111708934975
 21
-752.8527008435385
 31
0.0
  0
LINE
  5
1A5EF
  8
0
 10
-117.2111708934975
 20
-751.5527008435384
 30
0.0
 11
-117.9611708934975
 21
-751.7027008435384
 31
0.0
  0
LINE
  5
1A5F0
  8
0
 10
-112.9611708934975
 20
-750.7027008435385
 30
0.0
 11
-117.9611708934975
 21
-749.7027008435384
 31
0.0
  0
LINE
  5
1A5F1
  8
0
 10
-112.9611708934975
 20
-750.7027008435385
 30
0.0
 11
-113.7111708934975
 21
-750.8527008435385
 31
0.0
  0
LINE
  5
1A5F2
  8
0
 10
-117.2111708934975
 20
-749.5527008435384
 30
0.0
 11
-117.9611708934975
 21
-749.7027008435384
 31
0.0
  0
LINE
  5
1A5F3
  8
0
 10
-117.2111708934975
 20
-747.5527008435384
 30
0.0
 11
-117.9611708934975
 21
-747.7027008435384
 31
0.0
  0
LINE
  5
1A5F4
  8
0
 10
-112.9611708934975
 20
-748.7027008435385
 30
0.0
 11
-113.7111708934975
 21
-748.8527008435385
 31
0.0
  0
LINE
  5
1A5F5
  8
0
 10
-112.9611708934975
 20
-748.7027008435385
 30
0.0
 11
-117.9611708934975
 21
-747.7027008435384
 31
0.0
  0
LINE
  5
1A5F6
  8
0
 10
-117.2111708934975
 20
-745.5527008435384
 30
0.0
 11
-117.9611708934975
 21
-745.7027008435384
 31
0.0
  0
LINE
  5
1A5F7
  8
0
 10
-112.9611708934975
 20
-746.7027008435385
 30
0.0
 11
-113.7111708934975
 21
-746.8527008435385
 31
0.0
  0
LINE
  5
1A5F8
  8
0
 10
-112.9611708934975
 20
-746.7027008435385
 30
0.0
 11
-117.9611708934975
 21
-745.7027008435384
 31
0.0
  0
LINE
  5
1A5F9
  8
0
 10
-117.2111708934975
 20
-743.5527008435384
 30
0.0
 11
-117.9611708934975
 21
-743.7027008435384
 31
0.0
  0
LINE
  5
1A5FA
  8
0
 10
-112.9611708934975
 20
-744.7027008435385
 30
0.0
 11
-113.7111708934975
 21
-744.8527008435385
 31
0.0
  0
LINE
  5
1A5FB
  8
0
 10
-112.9611708934975
 20
-744.7027008435385
 30
0.0
 11
-117.9611708934975
 21
-743.7027008435384
 31
0.0
  0
LINE
  5
1A5FC
  8
0
 10
-117.2111708934975
 20
-741.5527008435384
 30
0.0
 11
-117.9611708934975
 21
-741.7027008435384
 31
0.0
  0
LINE
  5
1A5FD
  8
0
 10
-112.9611708934975
 20
-742.7027008435385
 30
0.0
 11
-113.7111708934975
 21
-742.8527008435385
 31
0.0
  0
LINE
  5
1A5FE
  8
0
 10
-112.9611708934975
 20
-742.7027008435385
 30
0.0
 11
-117.9611708934975
 21
-741.7027008435384
 31
0.0
  0
LINE
  5
1A5FF
  8
0
 10
-117.2111708934975
 20
-739.5527008435384
 30
0.0
 11
-117.9611708934975
 21
-739.7027008435384
 31
0.0
  0
LINE
  5
1A600
  8
0
 10
-112.9611708934975
 20
-740.7027008435385
 30
0.0
 11
-113.7111708934975
 21
-740.8527008435385
 31
0.0
  0
LINE
  5
1A601
  8
0
 10
-112.9611708934975
 20
-740.7027008435385
 30
0.0
 11
-117.9611708934975
 21
-739.7027008435384
 31
0.0
  0
LINE
  5
1A602
  8
0
 10
-112.9611708934975
 20
-732.7027008435385
 30
0.0
 11
-117.9611708934975
 21
-731.7027008435384
 31
0.0
  0
LINE
  5
1A603
  8
0
 10
-117.2111708934975
 20
-727.5527008435384
 30
0.0
 11
-117.9611708934975
 21
-727.7027008435384
 31
0.0
  0
LINE
  5
1A604
  8
0
 10
-112.9611708934975
 20
-728.7027008435385
 30
0.0
 11
-113.7111708934975
 21
-728.8527008435385
 31
0.0
  0
LINE
  5
1A605
  8
0
 10
-112.9611708934975
 20
-728.7027008435385
 30
0.0
 11
-117.9611708934975
 21
-727.7027008435384
 31
0.0
  0
LINE
  5
1A606
  8
0
 10
-112.9611708934975
 20
-730.7027008435385
 30
0.0
 11
-117.9611708934975
 21
-729.7027008435384
 31
0.0
  0
LINE
  5
1A607
  8
0
 10
-112.9611708934975
 20
-730.7027008435385
 30
0.0
 11
-113.7111708934975
 21
-730.8527008435385
 31
0.0
  0
LINE
  5
1A608
  8
0
 10
-117.2111708934975
 20
-729.5527008435384
 30
0.0
 11
-117.9611708934975
 21
-729.7027008435384
 31
0.0
  0
LINE
  5
1A609
  8
0
 10
-117.2111708934975
 20
-731.5527008435384
 30
0.0
 11
-117.9611708934975
 21
-731.7027008435384
 31
0.0
  0
LINE
  5
1A60A
  8
0
 10
-112.9611708934975
 20
-726.7027008435384
 30
0.0
 11
-113.7111708934975
 21
-726.8527008435385
 31
0.0
  0
LINE
  5
1A60B
  8
0
 10
-112.9611708934975
 20
-734.7027008435385
 30
0.0
 11
-113.7111708934975
 21
-734.8527008435385
 31
0.0
  0
LINE
  5
1A60C
  8
0
 10
-112.9611708934975
 20
-736.7027008435385
 30
0.0
 11
-117.9611708934975
 21
-735.7027008435384
 31
0.0
  0
LINE
  5
1A60D
  8
0
 10
-112.9611708934975
 20
-736.7027008435385
 30
0.0
 11
-113.7111708934975
 21
-736.8527008435385
 31
0.0
  0
LINE
  5
1A60E
  8
0
 10
-117.2111708934975
 20
-735.5527008435384
 30
0.0
 11
-117.9611708934975
 21
-735.7027008435384
 31
0.0
  0
LINE
  5
1A60F
  8
0
 10
-112.9611708934975
 20
-738.7027008435385
 30
0.0
 11
-117.9611708934975
 21
-737.7027008435384
 31
0.0
  0
LINE
  5
1A610
  8
0
 10
-112.9611708934975
 20
-738.7027008435385
 30
0.0
 11
-113.7111708934975
 21
-738.8527008435385
 31
0.0
  0
LINE
  5
1A611
  8
0
 10
-117.2111708934975
 20
-737.5527008435384
 30
0.0
 11
-117.9611708934975
 21
-737.7027008435384
 31
0.0
  0
LINE
  5
1A612
  8
0
 10
-112.9611708934975
 20
-732.7027008435385
 30
0.0
 11
-113.7111708934975
 21
-732.8527008435385
 31
0.0
  0
LINE
  5
1A613
  8
0
 10
-117.2111708934975
 20
-733.5527008435384
 30
0.0
 11
-117.9611708934975
 21
-733.7027008435384
 31
0.0
  0
LINE
  5
1A614
  8
0
 10
-112.9611708934975
 20
-734.7027008435385
 30
0.0
 11
-117.9611708934975
 21
-733.7027008435384
 31
0.0
  0
LINE
  5
1A615
  8
0
 10
-117.2111708934975
 20
-758.8205664295843
 30
0.0
 11
-113.7111708934975
 21
-758.8205664295843
 31
0.0
  0
LINE
  5
1A616
  8
1PHANTOM
 10
-120.4611707934975
 20
-757.5205662295845
 30
0.0
 11
-120.4611707934975
 21
-758.8205664295843
 31
0.0
  0
LINE
  5
1A617
  8
1PHANTOM
 10
-111.2611709934976
 20
-758.8205664295843
 30
0.0
 11
-120.4611707934975
 21
-758.8205664295843
 31
0.0
  0
LINE
  5
1A618
  8
1PHANTOM
 10
-111.2611709934976
 20
-757.5205662295845
 30
0.0
 11
-111.2611709934976
 21
-758.8205664295843
 31
0.0
  0
LINE
  5
1A619
  8
1PHANTOM
 10
-111.2611709934976
 20
-757.5205662295845
 30
0.0
 11
-120.4611707934975
 21
-757.5205662295845
 31
0.0
  0
LINE
  5
1A61A
  8
1PHANTOM
 10
-120.4611707934975
 20
-757.5205662295845
 30
0.0
 11
-120.4611707934975
 21
-758.8205664295843
 31
0.0
  0
LINE
  5
1A61B
  8
1PHANTOM
 10
-111.2611709934976
 20
-758.8205664295843
 30
0.0
 11
-120.4611707934975
 21
-758.8205664295843
 31
0.0
  0
LINE
  5
1A61C
  8
1PHANTOM
 10
-111.2611709934976
 20
-757.5205662295845
 30
0.0
 11
-111.2611709934976
 21
-758.8205664295843
 31
0.0
  0
LINE
  5
1A61D
  8
1PHANTOM
 10
-111.2611709934976
 20
-757.5205662295845
 30
0.0
 11
-120.4611707934975
 21
-757.5205662295845
 31
0.0
  0
LINE
  5
1A61E
  8
1CENTER
 10
-91.46117089349748
 20
-696.9140384076238
 30
0.0
 11
-91.46117089349754
 21
-763.3083415050316
 31
0.0
  0
LINE
  5
1A620
  8
0
 10
-88.96117089349751
 20
-726.7027008435387
 30
0.0
 11
-93.96117089349751
 21
-725.7027008435387
 31
0.0
  0
LINE
  5
1A621
  8
0
 10
-88.96117089349751
 20
-724.7027008435387
 30
0.0
 11
-93.96117089349751
 21
-723.7027008435387
 31
0.0
  0
LINE
  5
1A622
  8
0
 10
-93.21117089349751
 20
-723.5527008435387
 30
0.0
 11
-93.96117089349751
 21
-723.7027008435387
 31
0.0
  0
LINE
  5
1A623
  8
0
 10
-88.96117089349751
 20
-722.7027008435387
 30
0.0
 11
-89.71117089349751
 21
-722.8527008435387
 31
0.0
  0
LINE
  5
1A624
  8
0
 10
-93.21117089349751
 20
-721.5527008435387
 30
0.0
 11
-93.96117089349751
 21
-721.7027008435387
 31
0.0
  0
LINE
  5
1A625
  8
0
 10
-88.96117089349751
 20
-722.7027008435387
 30
0.0
 11
-93.96117089349751
 21
-721.7027008435387
 31
0.0
  0
LINE
  5
1A626
  8
0
 10
-93.21117089349751
 20
-725.5527008435387
 30
0.0
 11
-93.96117089349751
 21
-725.7027008435387
 31
0.0
  0
LINE
  5
1A627
  8
0
 10
-88.96117089349751
 20
-724.7027008435387
 30
0.0
 11
-89.71117089349751
 21
-724.8527008435387
 31
0.0
  0
LINE
  5
1A628
  8
0
 10
-88.9611708934975
 20
-720.7027008435387
 30
0.0
 11
-89.7111708934975
 21
-720.8527008435387
 31
0.0
  0
LINE
  5
1A629
  8
0
 10
-93.2111708934975
 20
-719.5527008435387
 30
0.0
 11
-93.9611708934975
 21
-719.7027008435387
 31
0.0
  0
LINE
  5
1A62A
  8
0
 10
-88.9611708934975
 20
-718.7027008435387
 30
0.0
 11
-89.7111708934975
 21
-718.8527008435387
 31
0.0
  0
LINE
  5
1A62B
  8
0
 10
-88.9611708934975
 20
-720.7027008435387
 30
0.0
 11
-93.9611708934975
 21
-719.7027008435387
 31
0.0
  0
LINE
  5
1A62C
  8
0
 10
-88.9611708934975
 20
-716.7027008435387
 30
0.0
 11
-89.7111708934975
 21
-716.8527008435387
 31
0.0
  0
LINE
  5
1A62D
  8
0
 10
-93.2111708934975
 20
-717.5527008435387
 30
0.0
 11
-93.9611708934975
 21
-717.7027008435387
 31
0.0
  0
LINE
  5
1A62E
  8
0
 10
-88.9611708934975
 20
-718.7027008435387
 30
0.0
 11
-93.9611708934975
 21
-717.7027008435387
 31
0.0
  0
LINE
  5
1A62F
  8
0
 10
-91.77452758044122
 20
-699.8400295061499
 30
0.0
 11
-92.52452758044122
 21
-699.99002950615
 31
0.0
  0
LINE
  5
1A630
  8
0
 10
-88.9611708934975
 20
-710.7027008435387
 30
0.0
 11
-93.9611708934975
 21
-709.7027008435387
 31
0.0
  0
LINE
  5
1A631
  8
0
 10
-93.2111708934975
 20
-709.5527008435387
 30
0.0
 11
-93.9611708934975
 21
-709.7027008435387
 31
0.0
  0
LINE
  5
1A632
  8
0
 10
-93.2111708934975
 20
-707.5527008435387
 30
0.0
 11
-93.9611708934975
 21
-707.7027008435387
 31
0.0
  0
LINE
  5
1A633
  8
0
 10
-88.9611708934975
 20
-708.7027008435387
 30
0.0
 11
-89.7111708934975
 21
-708.8527008435387
 31
0.0
  0
LINE
  5
1A634
  8
0
 10
-88.9611708934975
 20
-708.7027008435387
 30
0.0
 11
-93.9611708934975
 21
-707.7027008435387
 31
0.0
  0
LINE
  5
1A635
  8
0
 10
-92.79180843355228
 20
-703.6365733355277
 30
0.0
 11
-93.54180843355228
 21
-703.7865733355277
 31
0.0
  0
LINE
  5
1A636
  8
0
 10
-92.28316800699697
 20
-701.7383014208388
 30
0.0
 11
-93.03316800699697
 21
-701.8883014208388
 31
0.0
  0
LINE
  5
1A637
  8
0
 10
-89.71114722272098
 20
-702.552705577694
 30
0.0
 11
-90.46114722272098
 21
-702.702705577694
 31
0.0
  0
LINE
  5
1A638
  8
0
 10
-89.71114722272098
 20
-702.552705577694
 30
0.0
 11
-93.03316800699697
 21
-701.8883014208388
 31
0.0
  0
LINE
  5
1A639
  8
0
 10
-90.27739049298027
 20
-700.4394569236422
 30
0.0
 11
-91.02739049298027
 21
-700.5894569236422
 31
0.0
  0
LINE
  5
1A63A
  8
0
 10
-93.21117089349748
 20
-705.5527008435387
 30
0.0
 11
-93.96117089349748
 21
-705.7027008435387
 31
0.0
  0
LINE
  5
1A63B
  8
0
 10
-88.9611708934975
 20
-706.7027008435387
 30
0.0
 11
-89.7111708934975
 21
-706.8527008435387
 31
0.0
  0
LINE
  5
1A63C
  8
0
 10
-88.9611708934975
 20
-706.7027008435387
 30
0.0
 11
-93.96117089349748
 21
-705.7027008435387
 31
0.0
  0
LINE
  5
1A63D
  8
0
 10
-89.14490395246169
 20
-704.6659542317459
 30
0.0
 11
-89.89490395246169
 21
-704.8159542317459
 31
0.0
  0
LINE
  5
1A63E
  8
0
 10
-89.14490395246169
 20
-704.6659542317459
 30
0.0
 11
-93.54180843355228
 21
-703.7865733355277
 31
0.0
  0
LINE
  5
1A63F
  8
0
 10
-90.27739049298027
 20
-700.4394569236422
 30
0.0
 11
-92.52452758044122
 21
-699.99002950615
 31
0.0
  0
LINE
  5
1A640
  8
0
 10
-93.2111708934975
 20
-715.5527008435387
 30
0.0
 11
-93.9611708934975
 21
-715.7027008435387
 31
0.0
  0
LINE
  5
1A641
  8
0
 10
-88.9611708934975
 20
-714.7027008435387
 30
0.0
 11
-89.7111708934975
 21
-714.8527008435387
 31
0.0
  0
LINE
  5
1A642
  8
0
 10
-88.9611708934975
 20
-714.7027008435387
 30
0.0
 11
-93.9611708934975
 21
-713.7027008435387
 31
0.0
  0
LINE
  5
1A643
  8
0
 10
-93.2111708934975
 20
-711.5527008435387
 30
0.0
 11
-93.9611708934975
 21
-711.7027008435387
 31
0.0
  0
LINE
  5
1A644
  8
0
 10
-88.9611708934975
 20
-712.7027008435387
 30
0.0
 11
-89.7111708934975
 21
-712.8527008435387
 31
0.0
  0
LINE
  5
1A645
  8
0
 10
-88.9611708934975
 20
-710.7027008435387
 30
0.0
 11
-89.7111708934975
 21
-710.8527008435387
 31
0.0
  0
LINE
  5
1A646
  8
0
 10
-88.9611708934975
 20
-712.7027008435387
 30
0.0
 11
-93.9611708934975
 21
-711.7027008435387
 31
0.0
  0
LINE
  5
1A647
  8
0
 10
-93.2111708934975
 20
-713.5527008435387
 30
0.0
 11
-93.9611708934975
 21
-713.7027008435387
 31
0.0
  0
LINE
  5
1A648
  8
0
 10
-88.9611708934975
 20
-716.7027008435387
 30
0.0
 11
-93.9611708934975
 21
-715.7027008435387
 31
0.0
  0
LINE
  5
1A649
  8
0
 10
-88.96117089349754
 20
-758.7027008435387
 30
0.0
 11
-89.55049882372704
 21
-758.8205664295846
 31
0.0
  0
LINE
  5
1A64A
  8
0
 10
-93.21117089349754
 20
-757.5527008435387
 30
0.0
 11
-93.96117089349754
 21
-757.7027008435387
 31
0.0
  0
LINE
  5
1A64B
  8
0
 10
-88.96117089349754
 20
-758.7027008435387
 30
0.0
 11
-93.96117089349754
 21
-757.7027008435387
 31
0.0
  0
LINE
  5
1A64C
  8
0
 10
-93.21117089349754
 20
-755.5527008435387
 30
0.0
 11
-93.96117089349754
 21
-755.7027008435387
 31
0.0
  0
LINE
  5
1A64D
  8
0
 10
-88.96117089349754
 20
-756.7027008435387
 30
0.0
 11
-89.71117089349754
 21
-756.8527008435386
 31
0.0
  0
LINE
  5
1A64E
  8
0
 10
-88.96117089349754
 20
-756.7027008435387
 30
0.0
 11
-93.96117089349754
 21
-755.7027008435387
 31
0.0
  0
LINE
  5
1A64F
  8
0
 10
-93.21117089349754
 20
-753.5527008435387
 30
0.0
 11
-93.96117089349754
 21
-753.7027008435387
 31
0.0
  0
LINE
  5
1A650
  8
0
 10
-88.96117089349754
 20
-754.7027008435387
 30
0.0
 11
-89.71117089349754
 21
-754.8527008435386
 31
0.0
  0
LINE
  5
1A651
  8
0
 10
-88.96117089349754
 20
-754.7027008435387
 30
0.0
 11
-93.96117089349754
 21
-753.7027008435387
 31
0.0
  0
LINE
  5
1A652
  8
0
 10
-88.96117089349754
 20
-752.7027008435388
 30
0.0
 11
-93.96117089349754
 21
-751.7027008435387
 31
0.0
  0
LINE
  5
1A653
  8
0
 10
-88.96117089349754
 20
-752.7027008435388
 30
0.0
 11
-89.71117089349754
 21
-752.8527008435387
 31
0.0
  0
LINE
  5
1A654
  8
0
 10
-93.21117089349754
 20
-751.5527008435387
 30
0.0
 11
-93.96117089349754
 21
-751.7027008435387
 31
0.0
  0
LINE
  5
1A655
  8
0
 10
-88.96117089349752
 20
-750.7027008435388
 30
0.0
 11
-93.96117089349752
 21
-749.7027008435387
 31
0.0
  0
LINE
  5
1A656
  8
0
 10
-88.96117089349752
 20
-750.7027008435388
 30
0.0
 11
-89.71117089349752
 21
-750.8527008435387
 31
0.0
  0
LINE
  5
1A657
  8
0
 10
-93.21117089349752
 20
-749.5527008435387
 30
0.0
 11
-93.96117089349752
 21
-749.7027008435387
 31
0.0
  0
LINE
  5
1A658
  8
0
 10
-93.21117089349752
 20
-747.5527008435387
 30
0.0
 11
-93.96117089349752
 21
-747.7027008435387
 31
0.0
  0
LINE
  5
1A659
  8
0
 10
-88.96117089349752
 20
-748.7027008435388
 30
0.0
 11
-89.71117089349752
 21
-748.8527008435387
 31
0.0
  0
LINE
  5
1A65A
  8
0
 10
-88.96117089349752
 20
-748.7027008435388
 30
0.0
 11
-93.96117089349752
 21
-747.7027008435387
 31
0.0
  0
LINE
  5
1A65B
  8
0
 10
-93.21117089349752
 20
-745.5527008435387
 30
0.0
 11
-93.96117089349752
 21
-745.7027008435387
 31
0.0
  0
LINE
  5
1A65C
  8
0
 10
-88.96117089349752
 20
-746.7027008435388
 30
0.0
 11
-89.71117089349752
 21
-746.8527008435387
 31
0.0
  0
LINE
  5
1A65D
  8
0
 10
-88.96117089349752
 20
-746.7027008435388
 30
0.0
 11
-93.96117089349752
 21
-745.7027008435387
 31
0.0
  0
LINE
  5
1A65E
  8
0
 10
-93.21117089349752
 20
-743.5527008435387
 30
0.0
 11
-93.96117089349752
 21
-743.7027008435387
 31
0.0
  0
LINE
  5
1A65F
  8
0
 10
-88.96117089349752
 20
-744.7027008435388
 30
0.0
 11
-89.71117089349752
 21
-744.8527008435387
 31
0.0
  0
LINE
  5
1A660
  8
0
 10
-88.96117089349752
 20
-744.7027008435388
 30
0.0
 11
-93.96117089349752
 21
-743.7027008435387
 31
0.0
  0
LINE
  5
1A661
  8
0
 10
-93.21117089349752
 20
-741.5527008435387
 30
0.0
 11
-93.96117089349752
 21
-741.7027008435387
 31
0.0
  0
LINE
  5
1A662
  8
0
 10
-88.96117089349752
 20
-742.7027008435388
 30
0.0
 11
-89.71117089349752
 21
-742.8527008435387
 31
0.0
  0
LINE
  5
1A663
  8
0
 10
-88.96117089349752
 20
-742.7027008435388
 30
0.0
 11
-93.96117089349752
 21
-741.7027008435387
 31
0.0
  0
LINE
  5
1A664
  8
0
 10
-93.21117089349752
 20
-739.5527008435387
 30
0.0
 11
-93.96117089349752
 21
-739.7027008435387
 31
0.0
  0
LINE
  5
1A665
  8
0
 10
-88.96117089349752
 20
-740.7027008435388
 30
0.0
 11
-89.71117089349752
 21
-740.8527008435387
 31
0.0
  0
LINE
  5
1A666
  8
0
 10
-88.96117089349752
 20
-740.7027008435388
 30
0.0
 11
-93.96117089349752
 21
-739.7027008435387
 31
0.0
  0
LINE
  5
1A667
  8
0
 10
-88.96117089349751
 20
-732.7027008435388
 30
0.0
 11
-93.96117089349751
 21
-731.7027008435387
 31
0.0
  0
LINE
  5
1A668
  8
0
 10
-93.21117089349751
 20
-727.5527008435387
 30
0.0
 11
-93.96117089349751
 21
-727.7027008435387
 31
0.0
  0
LINE
  5
1A669
  8
0
 10
-88.96117089349751
 20
-728.7027008435388
 30
0.0
 11
-89.71117089349751
 21
-728.8527008435387
 31
0.0
  0
LINE
  5
1A66A
  8
0
 10
-88.96117089349751
 20
-728.7027008435388
 30
0.0
 11
-93.96117089349751
 21
-727.7027008435387
 31
0.0
  0
LINE
  5
1A66B
  8
0
 10
-88.96117089349751
 20
-730.7027008435388
 30
0.0
 11
-93.96117089349751
 21
-729.7027008435387
 31
0.0
  0
LINE
  5
1A66C
  8
0
 10
-88.96117089349751
 20
-730.7027008435388
 30
0.0
 11
-89.71117089349751
 21
-730.8527008435387
 31
0.0
  0
LINE
  5
1A66D
  8
0
 10
-93.21117089349751
 20
-729.5527008435387
 30
0.0
 11
-93.96117089349751
 21
-729.7027008435387
 31
0.0
  0
LINE
  5
1A66E
  8
0
 10
-93.21117089349751
 20
-731.5527008435387
 30
0.0
 11
-93.96117089349751
 21
-731.7027008435387
 31
0.0
  0
LINE
  5
1A66F
  8
0
 10
-88.96117089349751
 20
-726.7027008435387
 30
0.0
 11
-89.71117089349751
 21
-726.8527008435387
 31
0.0
  0
LINE
  5
1A670
  8
0
 10
-88.96117089349751
 20
-734.7027008435388
 30
0.0
 11
-89.71117089349751
 21
-734.8527008435387
 31
0.0
  0
LINE
  5
1A671
  8
0
 10
-88.96117089349752
 20
-736.7027008435388
 30
0.0
 11
-93.96117089349751
 21
-735.7027008435387
 31
0.0
  0
LINE
  5
1A672
  8
0
 10
-88.96117089349752
 20
-736.7027008435388
 30
0.0
 11
-89.71117089349752
 21
-736.8527008435387
 31
0.0
  0
LINE
  5
1A673
  8
0
 10
-93.21117089349751
 20
-735.5527008435387
 30
0.0
 11
-93.96117089349751
 21
-735.7027008435387
 31
0.0
  0
LINE
  5
1A674
  8
0
 10
-88.96117089349752
 20
-738.7027008435388
 30
0.0
 11
-93.96117089349752
 21
-737.7027008435387
 31
0.0
  0
LINE
  5
1A675
  8
0
 10
-88.96117089349752
 20
-738.7027008435388
 30
0.0
 11
-89.71117089349752
 21
-738.8527008435387
 31
0.0
  0
LINE
  5
1A676
  8
0
 10
-93.21117089349752
 20
-737.5527008435387
 30
0.0
 11
-93.96117089349752
 21
-737.7027008435387
 31
0.0
  0
LINE
  5
1A677
  8
0
 10
-88.96117089349751
 20
-732.7027008435388
 30
0.0
 11
-89.71117089349751
 21
-732.8527008435387
 31
0.0
  0
LINE
  5
1A678
  8
0
 10
-93.21117089349751
 20
-733.5527008435387
 30
0.0
 11
-93.96117089349751
 21
-733.7027008435387
 31
0.0
  0
LINE
  5
1A679
  8
0
 10
-88.96117089349751
 20
-734.7027008435388
 30
0.0
 11
-93.96117089349751
 21
-733.7027008435387
 31
0.0
  0
LINE
  5
1A67A
  8
0
 10
-93.21117089349754
 20
-758.8205664295846
 30
0.0
 11
-89.71117089349754
 21
-758.8205664295846
 31
0.0
  0
LINE
  5
1A67B
  8
1PHANTOM
 10
-96.4611707934975
 20
-757.5205662295845
 30
0.0
 11
-96.4611707934975
 21
-758.8205664295843
 31
0.0
  0
LINE
  5
1A67C
  8
1PHANTOM
 10
-87.26117099349761
 20
-758.8205664295843
 30
0.0
 11
-96.4611707934975
 21
-758.8205664295843
 31
0.0
  0
LINE
  5
1A67D
  8
1PHANTOM
 10
-87.26117099349761
 20
-757.5205662295845
 30
0.0
 11
-87.26117099349761
 21
-758.8205664295843
 31
0.0
  0
LINE
  5
1A67E
  8
1PHANTOM
 10
-87.26117099349761
 20
-757.5205662295845
 30
0.0
 11
-96.4611707934975
 21
-757.5205662295845
 31
0.0
  0
LINE
  5
1A67F
  8
1PHANTOM
 10
-96.4611707934975
 20
-757.5205662295845
 30
0.0
 11
-96.4611707934975
 21
-758.8205664295843
 31
0.0
  0
LINE
  5
1A680
  8
1PHANTOM
 10
-87.26117099349761
 20
-758.8205664295843
 30
0.0
 11
-96.4611707934975
 21
-758.8205664295843
 31
0.0
  0
LINE
  5
1A681
  8
1PHANTOM
 10
-87.26117099349761
 20
-757.5205662295845
 30
0.0
 11
-87.26117099349761
 21
-758.8205664295843
 31
0.0
  0
LINE
  5
1A682
  8
1PHANTOM
 10
-87.26117099349761
 20
-757.5205662295845
 30
0.0
 11
-96.4611707934975
 21
-757.5205662295845
 31
0.0
  0
TEXT
  5
1A683
  8
1DIM
  6
CONTINUOUS
 10
234.8129927949962
 20
-746.7375683252178
 30
0.0
 40
3.5
  1
材質：ステンレス
  0
TEXT
  5
1A684
  8
1DIM
  6
CONTINUOUS
 10
230.2629927949962
 20
-752.5709016585512
 30
0.0
 40
3.5
  1
仕上げ：各種仕上げ
  0
SOLID
  5
1A685
  8
1DIM
 10
280.0475817229282
 20
-764.6541909663977
 30
0.0
 11
281.0776090053488
 21
-766.4006602356893
 31
0.0
 12
279.5368364076131
 22
-765.0826576130903
 32
0.0
 13
279.5368364076131
 23
-765.0826576130903
 33
0.0
  0
LINE
  5
1A686
  8
1DIM
 10
279.7922090652706
 20
-764.868424289744
 30
0.0
 11
270.0629927949962
 21
-753.2709016585512
 31
0.0
  0
LINE
  5
1A687
  8
1DIM
 10
270.0629927949962
 20
-753.2709016585512
 30
0.0
 11
230.3796594616629
 21
-753.2709016585512
 31
0.0
  0
LINE
  5
1A688
  8
1DIM
 10
431.5713219133288
 20
-890.9217830443364
 30
0.0
 11
431.5713219133288
 21
-906.2022284562793
 31
0.0
  0
LINE
  5
1A689
  8
1DIM
 10
452.5714700851506
 20
-893.5130141443367
 30
0.0
 11
452.5714700851506
 21
-906.2022284562793
 31
0.0
  0
LINE
  5
1A68A
  8
1DIM
 10
433.5713219133288
 20
-905.2022284562793
 30
0.0
 11
450.5714700851506
 21
-905.2022284562793
 31
0.0
  0
LINE
  5
1A68E
  8
1DIM
 10
452.5714700851506
 20
-893.5130141443367
 30
0.0
 11
452.5714700851506
 21
-913.9103893576901
 31
0.0
  0
LINE
  5
1A68F
  8
1DIM
 10
392.5714700851506
 20
-886.7380141443374
 30
0.0
 11
392.5714700851506
 21
-913.9103893576901
 31
0.0
  0
LINE
  5
1A690
  8
1DIM
 10
450.5714700851506
 20
-912.9103893576901
 30
0.0
 11
394.5714700851506
 21
-912.9103893576901
 31
0.0
  0
LINE
  5
1A694
  8
1DIM
 10
268.9524012715372
 20
-867.0130141443369
 30
0.0
 11
229.874157073286
 21
-867.0130141443369
 31
0.0
  0
LINE
  5
1A695
  8
1DIM
 10
264.1958798721794
 20
-892.0130141443369
 30
0.0
 11
229.874157073286
 21
-892.0130141443369
 31
0.0
  0
LINE
  5
1A696
  8
1DIM
 10
230.874157073286
 20
-892.0130141443369
 30
0.0
 11
230.874157073286
 21
-903.2738411757687
 31
0.0
  0
LINE
  5
1A697
  8
1DIM
 10
230.874157073286
 20
-869.0130141443369
 30
0.0
 11
230.874157073286
 21
-890.0130141443369
 31
0.0
  0
LINE
  5
1A69B
  8
1DIM
 10
242.9583511552019
 20
-771.0205662295847
 30
0.0
 11
229.874157073286
 21
-771.0205662295847
 31
0.0
  0
LINE
  5
1A69C
  8
1DIM
 10
236.2596213444242
 20
-796.0205662295847
 30
0.0
 11
229.874157073286
 21
-796.0205662295847
 31
0.0
  0
LINE
  5
1A69D
  8
1DIM
 10
230.874157073286
 20
-796.0205662295847
 30
0.0
 11
230.874157073286
 21
-810.8638397159899
 31
0.0
  0
LINE
  5
1A69E
  8
1DIM
 10
230.874157073286
 20
-773.0205662295847
 30
0.0
 11
230.874157073286
 21
-794.0205662295847
 31
0.0
  0
LINE
  5
1A6A2
  8
1DIM1
 10
-126.4611708934975
 20
-871.9130141443369
 30
0.0
 11
-126.4611708934975
 21
-851.9403168079829
 31
0.0
1001
ACAD
1000
DSTYLE
1002
{
1070
    40
1040
3.0
1002
}
  0
LINE
  5
1A6A3
  8
1DIM1
 10
323.5388291065025
 20
-868.5130141443369
 30
0.0
 11
323.5388291065025
 21
-851.9403168079829
 31
0.0
1001
ACAD
1000
DSTYLE
1002
{
1070
    40
1040
3.0
1002
}
  0
LINE
  5
1A6A4
  8
1DIM1
 10
-120.4611708934975
 20
-854.9403168079829
 30
0.0
 11
317.5388291065025
 21
-854.9403168079829
 31
0.0
1001
ACAD
1000
DSTYLE
1002
{
1070
    40
1040
3.0
1002
}
  0
LINE
  5
1A6A8
  8
1DIM
 10
276.5388291065025
 20
-736.0205662295847
 30
0.0
 11
276.5388291065025
 21
-728.1770169773976
 31
0.0
  0
LINE
  5
1A6A9
  8
1DIM
 10
324.5388291065025
 20
-736.0205662295847
 30
0.0
 11
324.5388291065025
 21
-728.1770169773976
 31
0.0
  0
LINE
  5
1A6AA
  8
1DIM
 10
278.5388291065025
 20
-729.1770169773976
 30
0.0
 11
322.5388291065025
 21
-729.1770169773976
 31
0.0
  0
LINE
  5
1A6AE
  8
1DIM
 10
452.5714700851506
 20
-865.5130141443369
 30
0.0
 11
497.5685125211742
 21
-865.5130141443369
 31
0.0
  0
LINE
  5
1A6AF
  8
1DIM
 10
491.6779979071115
 20
-879.5130141443367
 30
0.0
 11
497.5685125211742
 21
-879.5130141443367
 31
0.0
  0
LINE
  5
1A6B0
  8
1DIM
 10
496.5685125211742
 20
-867.5130141443369
 30
0.0
 11
496.5685125211742
 21
-877.5130141443367
 31
0.0
  0
LINE
  5
1A6B4
  8
1DIM
 10
452.5714700851506
 20
-865.5130141443369
 30
0.0
 11
507.00008004021
 21
-865.5130141443369
 31
0.0
  0
LINE
  5
1A6B5
  8
1DIM
 10
452.5714700851506
 20
-893.5130141443367
 30
0.0
 11
507.00008004021
 21
-893.5130141443367
 31
0.0
  0
LINE
  5
1A6B6
  8
1DIM
 10
506.00008004021
 20
-867.5130141443369
 30
0.0
 11
506.00008004021
 21
-891.5130141443367
 31
0.0
  0
LINE
  5
1A6BA
  8
1DIM1
 10
-103.3611957676322
 20
-879.5130520316968
 30
0.0
 11
-103.3611957676322
 21
-940.613024374233
 31
0.0
1001
ACAD
1000
DSTYLE
1002
{
1070
    70
1070
     0
1070
    69
1070
     0
1070
   271
1070
     0
1070
    40
1040
3.0
1002
}
  0
LINE
  5
1A6BB
  8
1DIM1
 10
300.5388477621036
 20
-880.8883967235679
 30
0.0
 11
300.5388477621036
 21
-940.613024374233
 31
0.0
1001
ACAD
1000
DSTYLE
1002
{
1070
    70
1070
     0
1070
    69
1070
     0
1070
   271
1070
     0
1070
    40
1040
3.0
1002
}
  0
LINE
  5
1A6BC
  8
1DIM1
 10
-97.36119576763218
 20
-937.613024374233
 30
0.0
 11
294.5388477621036
 21
-937.613024374233
 31
0.0
1001
ACAD
1000
DSTYLE
1002
{
1070
    70
1070
     0
1070
    69
1070
     0
1070
   271
1070
     0
1070
    40
1040
3.0
1002
}
  0
LINE
  5
1A6C0
  8
0
  6
BYBLOCK
 10
-121.8611708934978
 20
-837.8685808062637
 30
0.0
 11
-127.8611708934978
 21
-836.2608856662637
 31
0.0
  0
LINE
  5
1A6C1
  8
0
  6
BYBLOCK
 10
-127.8611708934978
 20
-836.2608856662637
 30
0.0
 11
-121.8611708934978
 21
-834.6531905262636
 31
0.0
  0
LINE
  5
1A6C2
  8
0
  6
BYBLOCK
 10
-127.8611708934978
 20
-836.2608856662637
 30
0.0
 11
-121.8611708934978
 21
-836.2608856662637
 31
0.0
  0
LINE
  5
1A6C3
  8
0
  6
BYBLOCK
 10
318.5388291065025
 20
-834.6531905262636
 30
0.0
 11
324.5388291065025
 21
-836.2608856662637
 31
0.0
  0
LINE
  5
1A6C4
  8
0
  6
BYBLOCK
 10
324.5388291065025
 20
-836.2608856662637
 30
0.0
 11
318.5388291065025
 21
-837.8685808062637
 31
0.0
  0
LINE
  5
1A6C5
  8
0
  6
BYBLOCK
 10
324.5388291065025
 20
-836.2608856662637
 30
0.0
 11
318.5388291065025
 21
-836.2608856662637
 31
0.0
  0
TEXT
  5
1A6C6
  8
1DIM1
  6
CONTINUOUS
 10
84.50237077316915
 20
-834.1608856662637
 30
0.0
 40
10.5
  1
452
1001
ACAD
1000
DSTYLE
1002
{
1070
   271
1070
     0
1070
    40
1040
3.0
1002
}
  0
LINE
  5
1A6C7
  8
0
  6
BYBLOCK
 10
-85.46119576763218
 20
-919.3334454565831
 30
0.0
 11
-91.46119576763218
 21
-917.7257503165831
 31
0.0
  0
LINE
  5
1A6C8
  8
0
  6
BYBLOCK
 10
-91.46119576763218
 20
-917.7257503165831
 30
0.0
 11
-85.46119576763218
 21
-916.1180551765831
 31
0.0
  0
LINE
  5
1A6C9
  8
0
  6
BYBLOCK
 10
-91.46119576763218
 20
-917.7257503165831
 30
0.0
 11
-85.46119576763218
 21
-917.7257503165831
 31
0.0
  0
LINE
  5
1A6CA
  8
0
  6
BYBLOCK
 10
282.5388539806372
 20
-916.1180551765831
 30
0.0
 11
288.5388539806372
 21
-917.7257503165831
 31
0.0
  0
LINE
  5
1A6CB
  8
0
  6
BYBLOCK
 10
288.5388539806372
 20
-917.7257503165831
 30
0.0
 11
282.5388539806372
 21
-919.3334454565831
 31
0.0
  0
LINE
  5
1A6CC
  8
0
  6
BYBLOCK
 10
288.5388539806372
 20
-917.7257503165831
 30
0.0
 11
282.5388539806372
 21
-917.7257503165831
 31
0.0
  0
TEXT
  5
1A6CD
  8
1DIM1
  6
CONTINUOUS
 10
85.2950791065025
 20
-915.6257503165831
 30
0.0
 40
10.5
  1
380
1001
ACAD
1000
DSTYLE
1002
{
1070
    70
1070
     0
1070
    69
1070
     0
1070
   271
1070
     0
1070
    40
1040
3.0
1002
}
  0
LINE
  5
1A6CE
  8
0
  6
BYBLOCK
 10
310.5388539806372
 20
-904.6663300762792
 30
0.0
 11
312.5388539806372
 21
-905.2022284562793
 31
0.0
  0
LINE
  5
1A6CF
  8
0
  6
BYBLOCK
 10
312.5388539806372
 20
-905.2022284562793
 30
0.0
 11
310.5388539806372
 21
-905.7381268362793
 31
0.0
  0
LINE
  5
1A6D0
  8
0
  6
BYBLOCK
 10
312.5388539806372
 20
-905.2022284562793
 30
0.0
 11
310.5388539806372
 21
-905.2022284562793
 31
0.0
  0
LINE
  5
1A6D1
  8
0
  6
BYBLOCK
 10
290.53884154357
 20
-905.7381268362793
 30
0.0
 11
288.53884154357
 21
-905.2022284562793
 31
0.0
  0
LINE
  5
1A6D2
  8
0
  6
BYBLOCK
 10
288.53884154357
 20
-905.2022284562793
 30
0.0
 11
290.53884154357
 21
-904.6663300762792
 31
0.0
  0
LINE
  5
1A6D3
  8
0
  6
BYBLOCK
 10
288.53884154357
 20
-905.2022284562793
 30
0.0
 11
290.53884154357
 21
-905.2022284562793
 31
0.0
  0
TEXT
  5
1A6D4
  8
1DIM
  6
CONTINUOUS
 10
295.8721810954369
 20
-904.5022284562792
 30
0.0
 40
3.5
  1
P24
  0
LINE
  5
1A6D5
  8
0
 10
429.5713219133288
 20
-870.9630143184111
 30
0.0
 11
429.5713219133288
 21
-877.3130141443371
 31
0.0
  0
LINE
  5
1A6D6
  8
0
 10
429.5713219133288
 20
-877.3130141443371
 30
0.0
 11
429.9213219133288
 21
-877.663014144337
 31
0.0
  0
LINE
  5
1A6D7
  8
0
 10
429.9213219133288
 20
-877.663014144337
 30
0.0
 11
433.2213219133287
 21
-877.663014144337
 31
0.0
  0
LINE
  5
1A6D8
  8
0
 10
433.2213219133287
 20
-877.663014144337
 30
0.0
 11
433.5713219133288
 21
-877.3130141443371
 31
0.0
  0
LINE
  5
1A6D9
  8
0
 10
433.5713219133288
 20
-877.3130141443371
 30
0.0
 11
433.5713219133288
 21
-870.9630143184111
 31
0.0
  0
LINE
  5
1A6DA
  8
0
 10
433.5713219133288
 20
-870.9630143184111
 30
0.0
 11
434.5713219133288
 21
-869.9630141543371
 31
0.0
  0
LINE
  5
1A6DB
  8
0
 10
434.5713219133288
 20
-869.9630141543371
 30
0.0
 11
434.5713219133288
 21
-869.663014144337
 31
0.0
  0
LINE
  5
1A6DC
  8
0
 10
434.5713219133288
 20
-869.663014144337
 30
0.0
 11
428.5713219133288
 21
-869.663014144337
 31
0.0
  0
LINE
  5
1A6DD
  8
0
 10
428.5713219133288
 20
-869.663014144337
 30
0.0
 11
428.5713219133288
 21
-869.963014244337
 31
0.0
  0
LINE
  5
1A6DE
  8
0
 10
428.5713219133288
 20
-869.963014244337
 30
0.0
 11
429.5713219133288
 21
-870.9630143184111
 31
0.0
  0
LINE
  5
1A6DF
  8
0
 10
429.7714698851507
 20
-884.0130141443367
 30
0.0
 11
429.7714698851507
 21
-881.2630141443367
 31
0.0
  0
LINE
  5
1A6E0
  8
0
 10
429.7714698851507
 20
-881.2630141443367
 30
0.0
 11
483.2403809719053
 21
-881.2630141443367
 31
0.0
  0
LINE
  5
1A6E1
  8
0
 10
483.2403809719053
 20
-881.2630141443367
 30
0.0
 11
489.7714698851507
 21
-879.5130141443367
 31
0.0
  0
LINE
  5
1A6E2
  8
0
 10
489.7714698851507
 20
-879.5130141443367
 30
0.0
 11
483.2403809719053
 21
-877.7630141443367
 31
0.0
  0
LINE
  5
1A6E3
  8
0
 10
483.2403809719053
 20
-877.7630141443367
 30
0.0
 11
429.7714698851507
 21
-877.7630141443367
 31
0.0
  0
LINE
  5
1A6E4
  8
0
 10
429.7714698851507
 20
-877.7630141443367
 30
0.0
 11
429.7714698851507
 21
-875.0130141443367
 31
0.0
  0
LINE
  5
1A6E5
  8
0
 10
429.7714698851507
 20
-875.0130141443367
 30
0.0
 11
428.971469885151
 21
-875.0130141443367
 31
0.0
  0
ARC
  5
1A6E6
  8
0
 10
428.9714698851508
 20
-877.5130141443367
 30
0.0
 40
2.5
 50
89.99999999999609
 51
180.0
  0
LINE
  5
1A6E7
  8
0
 10
426.4714698851508
 20
-877.5130141443367
 30
0.0
 11
426.4714698851507
 21
-881.5130141443367
 31
0.0
  0
ARC
  5
1A6E8
  8
0
 10
428.9714698851507
 20
-881.5130141443367
 30
0.0
 40
2.5
 50
180.0
 51
270.0
  0
LINE
  5
1A6E9
  8
0
 10
428.9714698851507
 20
-884.0130141443367
 30
0.0
 11
429.7714698851507
 21
-884.0130141443367
 31
0.0
  0
LINE
  5
1A6EA
  8
0
 10
317.0388291065025
 20
-758.8205664295843
 30
0.0
 11
314.2888291065025
 21
-758.8205664295843
 31
0.0
  0
LINE
  5
1A6EB
  8
0
 10
314.2888291065025
 20
-758.8205664295843
 30
0.0
 11
314.2888291065025
 21
-705.3516553428299
 31
0.0
  0
LINE
  5
1A6EC
  8
0
 10
314.2888291065025
 20
-705.3516553428299
 30
0.0
 11
312.5388291065025
 21
-698.8205664295843
 31
0.0
  0
LINE
  5
1A6ED
  8
0
 10
312.5388291065025
 20
-698.8205664295843
 30
0.0
 11
310.7888291065025
 21
-705.3516553428298
 31
0.0
  0
LINE
  5
1A6EE
  8
0
 10
310.7888291065025
 20
-705.3516553428298
 30
0.0
 11
310.7888291065025
 21
-758.8205664295843
 31
0.0
  0
LINE
  5
1A6EF
  8
0
 10
310.7888291065025
 20
-758.8205664295843
 30
0.0
 11
308.0388291065025
 21
-758.8205664295843
 31
0.0
  0
LINE
  5
1A6F0
  8
0
 10
308.0388291065025
 20
-758.8205664295843
 30
0.0
 11
308.0388291065025
 21
-759.6205664295842
 31
0.0
  0
ARC
  5
1A6F1
  8
0
 10
310.5388291065025
 20
-759.6205664295843
 30
0.0
 40
2.5
 50
179.9999999999974
 51
270.0
  0
LINE
  5
1A6F2
  8
0
 10
310.5388291065025
 20
-762.1205664295843
 30
0.0
 11
314.5388291065025
 21
-762.1205664295844
 31
0.0
  0
ARC
  5
1A6F3
  8
0
 10
314.5388291065025
 20
-759.6205664295844
 30
0.0
 40
2.5
 50
270.0
 51
0.0
  0
LINE
  5
1A6F4
  8
0
 10
317.0388291065025
 20
-759.6205664295844
 30
0.0
 11
317.0388291065025
 21
-758.8205664295843
 31
0.0
  0
LINE
  5
1A6F5
  8
0
 10
429.5713219133288
 20
-881.7130141443363
 30
0.0
 11
429.5713219133288
 21
-888.0630139702623
 31
0.0
  0
LINE
  5
1A6F6
  8
0
 10
429.5713219133288
 20
-888.0630139702623
 30
0.0
 11
428.5713219133288
 21
-889.0630140443363
 31
0.0
  0
LINE
  5
1A6F7
  8
0
 10
428.5713219133288
 20
-889.0630140443363
 30
0.0
 11
428.5713219133288
 21
-889.3630141443364
 31
0.0
  0
LINE
  5
1A6F8
  8
0
 10
428.5713219133288
 20
-889.3630141443364
 30
0.0
 11
434.5713219133288
 21
-889.3630141443364
 31
0.0
  0
LINE
  5
1A6F9
  8
0
 10
434.5713219133288
 20
-889.3630141443364
 30
0.0
 11
434.5713219133288
 21
-889.0630141343363
 31
0.0
  0
LINE
  5
1A6FA
  8
0
 10
434.5713219133288
 20
-889.0630141343363
 30
0.0
 11
433.5713219133288
 21
-888.0630139702623
 31
0.0
  0
LINE
  5
1A6FB
  8
0
 10
433.5713219133288
 20
-888.0630139702623
 30
0.0
 11
433.5713219133288
 21
-881.7130141443363
 31
0.0
  0
LINE
  5
1A6FC
  8
0
 10
433.5713219133288
 20
-881.7130141443363
 30
0.0
 11
433.2213219133287
 21
-881.3630141443364
 31
0.0
  0
LINE
  5
1A6FD
  8
0
 10
433.2213219133287
 20
-881.3630141443364
 30
0.0
 11
429.9213219133288
 21
-881.3630141443364
 31
0.0
  0
LINE
  5
1A6FE
  8
0
 10
429.9213219133288
 20
-881.3630141443364
 30
0.0
 11
429.5713219133288
 21
-881.7130141443363
 31
0.0
  0
LINE
  5
1A6FF
  8
0
 10
293.0388291065025
 20
-758.8205664295846
 30
0.0
 11
290.2888291065025
 21
-758.8205664295846
 31
0.0
  0
LINE
  5
1A700
  8
0
 10
290.2888291065025
 20
-758.8205664295846
 30
0.0
 11
290.2888291065025
 21
-705.3516553428301
 31
0.0
  0
LINE
  5
1A701
  8
0
 10
290.2888291065025
 20
-705.3516553428301
 30
0.0
 11
288.5388291065025
 21
-698.8205664295846
 31
0.0
  0
LINE
  5
1A702
  8
0
 10
288.5388291065025
 20
-698.8205664295846
 30
0.0
 11
286.7888291065025
 21
-705.35165534283
 31
0.0
  0
LINE
  5
1A703
  8
0
 10
286.7888291065025
 20
-705.35165534283
 30
0.0
 11
286.7888291065025
 21
-758.8205664295846
 31
0.0
  0
LINE
  5
1A704
  8
0
 10
286.7888291065025
 20
-758.8205664295846
 30
0.0
 11
284.0388291065025
 21
-758.8205664295846
 31
0.0
  0
LINE
  5
1A705
  8
0
 10
284.0388291065025
 20
-758.8205664295846
 30
0.0
 11
284.0388291065025
 21
-759.6205664295844
 31
0.0
  0
ARC
  5
1A706
  8
0
 10
286.5388291065025
 20
-759.6205664295845
 30
0.0
 40
2.5
 50
179.9999999999974
 51
270.0
  0
LINE
  5
1A707
  8
0
 10
286.5388291065025
 20
-762.1205664295845
 30
0.0
 11
290.5388291065025
 21
-762.1205664295846
 31
0.0
  0
ARC
  5
1A708
  8
0
 10
290.5388291065025
 20
-759.6205664295846
 30
0.0
 40
2.5
 50
270.0
 51
0.0
  0
LINE
  5
1A709
  8
0
 10
293.0388291065025
 20
-759.6205664295846
 30
0.0
 11
293.0388291065025
 21
-758.8205664295846
 31
0.0
  0
LINE
  5
1A70A
  8
0
 10
-117.2111708934975
 20
-758.8205664295843
 30
0.0
 11
-119.9611708934975
 21
-758.8205664295843
 31
0.0
  0
LINE
  5
1A70B
  8
0
 10
-119.9611708934975
 20
-758.8205664295843
 30
0.0
 11
-119.9611708934975
 21
-759.6205664295844
 31
0.0
  0
ARC
  5
1A70C
  8
0
 10
-117.4611708934975
 20
-759.6205664295844
 30
0.0
 40
2.5
 50
180.0
 51
270.0
  0
LINE
  5
1A70D
  8
0
 10
-117.4611708934975
 20
-762.1205664295844
 30
0.0
 11
-113.4611708934975
 21
-762.1205664295843
 31
0.0
  0
ARC
  5
1A70E
  8
0
 10
-113.4611708934975
 20
-759.6205664295843
 30
0.0
 40
2.5
 50
270.0
 51
0.0000000000026055
  0
LINE
  5
1A70F
  8
0
 10
-110.9611708934975
 20
-759.6205664295842
 30
0.0
 11
-110.9611708934975
 21
-758.8205664295843
 31
0.0
  0
LINE
  5
1A710
  8
0
 10
-110.9611708934975
 20
-758.8205664295843
 30
0.0
 11
-113.7111708934975
 21
-758.8205664295843
 31
0.0
  0
LINE
  5
1A711
  8
0
 10
-113.7111708934975
 20
-758.8205664295843
 30
0.0
 11
-113.7111708934975
 21
-705.3516553428298
 31
0.0
  0
LINE
  5
1A712
  8
0
 10
-113.7111708934975
 20
-705.3516553428298
 30
0.0
 11
-115.4611708934975
 21
-698.8205664295843
 31
0.0
  0
LINE
  5
1A713
  8
0
 10
-115.4611708934975
 20
-698.8205664295843
 30
0.0
 11
-117.2111708934975
 21
-705.3516553428299
 31
0.0
  0
LINE
  5
1A714
  8
0
 10
-117.2111708934975
 20
-705.3516553428299
 30
0.0
 11
-117.2111708934975
 21
-758.8205664295843
 31
0.0
  0
LINE
  5
1A715
  8
0
 10
-93.21117089349754
 20
-758.8205664295846
 30
0.0
 11
-95.96117089349754
 21
-758.8205664295846
 31
0.0
  0
LINE
  5
1A716
  8
0
 10
-95.96117089349754
 20
-758.8205664295846
 30
0.0
 11
-95.96117089349754
 21
-759.6205664295846
 31
0.0
  0
ARC
  5
1A717
  8
0
 10
-93.46117089349754
 20
-759.6205664295846
 30
0.0
 40
2.5
 50
180.0
 51
270.0
  0
LINE
  5
1A718
  8
0
 10
-93.46117089349754
 20
-762.1205664295846
 30
0.0
 11
-89.46117089349754
 21
-762.1205664295845
 31
0.0
  0
ARC
  5
1A719
  8
0
 10
-89.46117089349754
 20
-759.6205664295845
 30
0.0
 40
2.5
 50
270.0
 51
0.0000000000026055
  0
LINE
  5
1A71A
  8
0
 10
-86.96117089349754
 20
-759.6205664295844
 30
0.0
 11
-86.96117089349754
 21
-758.8205664295846
 31
0.0
  0
LINE
  5
1A71B
  8
0
 10
-86.96117089349754
 20
-758.8205664295846
 30
0.0
 11
-89.71117089349754
 21
-758.8205664295846
 31
0.0
  0
LINE
  5
1A71C
  8
0
 10
-89.71117089349754
 20
-758.8205664295846
 30
0.0
 11
-89.71117089349748
 21
-705.35165534283
 31
0.0
  0
LINE
  5
1A71D
  8
0
 10
-89.71117089349748
 20
-705.35165534283
 30
0.0
 11
-91.46117089349748
 21
-698.8205664295846
 31
0.0
  0
LINE
  5
1A71E
  8
0
 10
-91.46117089349748
 20
-698.8205664295846
 30
0.0
 11
-93.21117089349748
 21
-705.3516553428301
 31
0.0
  0
LINE
  5
1A71F
  8
0
 10
-93.21117089349748
 20
-705.3516553428301
 30
0.0
 11
-93.21117089349754
 21
-758.8205664295846
 31
0.0
  0
LINE
  5
1A720
  8
0
  6
BYBLOCK
 10
433.5713219133288
 20
-905.7381268362793
 30
0.0
 11
431.5713219133288
 21
-905.2022284562793
 31
0.0
  0
LINE
  5
1A721
  8
0
  6
BYBLOCK
 10
431.5713219133288
 20
-905.2022284562793
 30
0.0
 11
433.5713219133288
 21
-904.6663300762792
 31
0.0
  0
LINE
  5
1A722
  8
0
  6
BYBLOCK
 10
431.5713219133288
 20
-905.2022284562793
 30
0.0
 11
433.5713219133288
 21
-905.2022284562793
 31
0.0
  0
LINE
  5
1A723
  8
0
  6
BYBLOCK
 10
450.5714700851506
 20
-904.6663300762792
 30
0.0
 11
452.5714700851506
 21
-905.2022284562793
 31
0.0
  0
LINE
  5
1A724
  8
0
  6
BYBLOCK
 10
452.5714700851506
 20
-905.2022284562793
 30
0.0
 11
450.5714700851506
 21
-905.7381268362793
 31
0.0
  0
LINE
  5
1A725
  8
0
  6
BYBLOCK
 10
452.5714700851506
 20
-905.2022284562793
 30
0.0
 11
450.5714700851506
 21
-905.2022284562793
 31
0.0
  0
TEXT
  5
1A726
  8
1DIM
  6
CONTINUOUS
 10
439.7380626659064
 20
-904.5022284562792
 30
0.0
 40
3.5
  1
21
  0
LINE
  5
1A727
  8
0
  6
BYBLOCK
 10
450.5714700851506
 20
-912.37449097769
 30
0.0
 11
452.5714700851506
 21
-912.9103893576901
 31
0.0
  0
LINE
  5
1A728
  8
0
  6
BYBLOCK
 10
452.5714700851506
 20
-912.9103893576901
 30
0.0
 11
450.5714700851506
 21
-913.4462877376901
 31
0.0
  0
LINE
  5
1A729
  8
0
  6
BYBLOCK
 10
452.5714700851506
 20
-912.9103893576901
 30
0.0
 11
450.5714700851506
 21
-912.9103893576901
 31
0.0
  0
LINE
  5
1A72A
  8
0
  6
BYBLOCK
 10
394.5714700851506
 20
-913.4462877376901
 30
0.0
 11
392.5714700851506
 21
-912.9103893576901
 31
0.0
  0
LINE
  5
1A72B
  8
0
  6
BYBLOCK
 10
392.5714700851506
 20
-912.9103893576901
 30
0.0
 11
394.5714700851506
 21
-912.37449097769
 31
0.0
  0
LINE
  5
1A72C
  8
0
  6
BYBLOCK
 10
392.5714700851506
 20
-912.9103893576901
 30
0.0
 11
394.5714700851506
 21
-912.9103893576901
 31
0.0
  0
TEXT
  5
1A72D
  8
1DIM
  6
CONTINUOUS
 10
419.8614006407062
 20
-912.21038935769
 30
0.0
 40
3.5
  1
60
  0
LINE
  5
1A72E
  8
0
  6
BYBLOCK
 10
230.338258693286
 20
-869.0130141443369
 30
0.0
 11
230.874157073286
 21
-867.0130141443369
 31
0.0
  0
LINE
  5
1A72F
  8
0
  6
BYBLOCK
 10
230.874157073286
 20
-867.0130141443369
 30
0.0
 11
231.410055453286
 21
-869.0130141443369
 31
0.0
  0
LINE
  5
1A730
  8
0
  6
BYBLOCK
 10
230.874157073286
 20
-867.0130141443369
 30
0.0
 11
230.874157073286
 21
-869.0130141443369
 31
0.0
  0
LINE
  5
1A731
  8
0
  6
BYBLOCK
 10
231.410055453286
 20
-890.0130141443369
 30
0.0
 11
230.874157073286
 21
-892.0130141443369
 31
0.0
  0
LINE
  5
1A732
  8
0
  6
BYBLOCK
 10
230.874157073286
 20
-892.0130141443369
 30
0.0
 11
230.338258693286
 21
-890.0130141443369
 31
0.0
  0
LINE
  5
1A733
  8
0
  6
BYBLOCK
 10
230.874157073286
 20
-892.0130141443369
 30
0.0
 11
230.874157073286
 21
-890.0130141443369
 31
0.0
  0
TEXT
  5
1A734
  8
1DIM
  6
CONTINUOUS
 10
230.1741570732861
 20
-902.6571745091021
 30
0.0
 40
3.5
  1
25
 50
90.0
  0
LINE
  5
1A735
  8
0
  6
BYBLOCK
 10
230.338258693286
 20
-773.0205662295847
 30
0.0
 11
230.874157073286
 21
-771.0205662295847
 31
0.0
  0
LINE
  5
1A736
  8
0
  6
BYBLOCK
 10
230.874157073286
 20
-771.0205662295847
 30
0.0
 11
231.410055453286
 21
-773.0205662295847
 31
0.0
  0
LINE
  5
1A737
  8
0
  6
BYBLOCK
 10
230.874157073286
 20
-771.0205662295847
 30
0.0
 11
230.874157073286
 21
-773.0205662295847
 31
0.0
  0
LINE
  5
1A738
  8
0
  6
BYBLOCK
 10
231.410055453286
 20
-794.0205662295847
 30
0.0
 11
230.874157073286
 21
-796.0205662295847
 31
0.0
  0
LINE
  5
1A739
  8
0
  6
BYBLOCK
 10
230.874157073286
 20
-796.0205662295847
 30
0.0
 11
230.338258693286
 21
-794.0205662295847
 31
0.0
  0
LINE
  5
1A73A
  8
0
  6
BYBLOCK
 10
230.874157073286
 20
-796.0205662295847
 30
0.0
 11
230.874157073286
 21
-794.0205662295847
 31
0.0
  0
TEXT
  5
1A73B
  8
1DIM
  6
CONTINUOUS
 10
230.1741570732861
 20
-810.2471730493232
 30
0.0
 40
3.5
  1
25
 50
90.0
  0
LINE
  5
1A73C
  8
0
  6
BYBLOCK
 10
-120.4611708934975
 20
-856.5480119479829
 30
0.0
 11
-126.4611708934975
 21
-854.9403168079829
 31
0.0
  0
LINE
  5
1A73D
  8
0
  6
BYBLOCK
 10
-126.4611708934975
 20
-854.9403168079829
 30
0.0
 11
-120.4611708934975
 21
-853.3326216679828
 31
0.0
  0
LINE
  5
1A73E
  8
0
  6
BYBLOCK
 10
-126.4611708934975
 20
-854.9403168079829
 30
0.0
 11
-120.4611708934975
 21
-854.9403168079829
 31
0.0
  0
LINE
  5
1A73F
  8
0
  6
BYBLOCK
 10
317.5388291065025
 20
-853.3326216679828
 30
0.0
 11
323.5388291065025
 21
-854.9403168079829
 31
0.0
  0
LINE
  5
1A740
  8
0
  6
BYBLOCK
 10
323.5388291065025
 20
-854.9403168079829
 30
0.0
 11
317.5388291065025
 21
-856.5480119479829
 31
0.0
  0
LINE
  5
1A741
  8
0
  6
BYBLOCK
 10
323.5388291065025
 20
-854.9403168079829
 30
0.0
 11
317.5388291065025
 21
-854.9403168079829
 31
0.0
  0
TEXT
  5
1A742
  8
1DIM1
  6
CONTINUOUS
 10
85.15862077316915
 20
-852.8403168079828
 30
0.0
 40
10.5
  1
450
1001
ACAD
1000
DSTYLE
1002
{
1070
    40
1040
3.0
1002
}
  0
LINE
  5
1A743
  8
0
  6
BYBLOCK
 10
278.5388291065025
 20
-729.7129153573976
 30
0.0
 11
276.5388291065025
 21
-729.1770169773976
 31
0.0
  0
LINE
  5
1A744
  8
0
  6
BYBLOCK
 10
276.5388291065025
 20
-729.1770169773976
 30
0.0
 11
278.5388291065025
 21
-728.6411185973975
 31
0.0
  0
LINE
  5
1A745
  8
0
  6
BYBLOCK
 10
276.5388291065025
 20
-729.1770169773976
 30
0.0
 11
278.5388291065025
 21
-729.1770169773976
 31
0.0
  0
LINE
  5
1A746
  8
0
  6
BYBLOCK
 10
322.5388291065025
 20
-728.6411185973975
 30
0.0
 11
324.5388291065025
 21
-729.1770169773976
 31
0.0
  0
LINE
  5
1A747
  8
0
  6
BYBLOCK
 10
324.5388291065025
 20
-729.1770169773976
 30
0.0
 11
322.5388291065025
 21
-729.7129153573976
 31
0.0
  0
LINE
  5
1A748
  8
0
  6
BYBLOCK
 10
324.5388291065025
 20
-729.1770169773976
 30
0.0
 11
322.5388291065025
 21
-729.1770169773976
 31
0.0
  0
TEXT
  5
1A749
  8
1DIM
  6
CONTINUOUS
 10
297.6221624398358
 20
-728.4770169773975
 30
0.0
 40
3.5
  1
48
  0
LINE
  5
1A74A
  8
0
  6
BYBLOCK
 10
496.0326141411742
 20
-867.5130141443369
 30
0.0
 11
496.5685125211742
 21
-865.5130141443369
 31
0.0
  0
LINE
  5
1A74B
  8
0
  6
BYBLOCK
 10
496.5685125211742
 20
-865.5130141443369
 30
0.0
 11
497.1044109011742
 21
-867.5130141443369
 31
0.0
  0
LINE
  5
1A74C
  8
0
  6
BYBLOCK
 10
496.5685125211742
 20
-865.5130141443369
 30
0.0
 11
496.5685125211742
 21
-867.5130141443369
 31
0.0
  0
LINE
  5
1A74D
  8
0
  6
BYBLOCK
 10
497.1044109011742
 20
-877.5130141443367
 30
0.0
 11
496.5685125211742
 21
-879.5130141443367
 31
0.0
  0
LINE
  5
1A74E
  8
0
  6
BYBLOCK
 10
496.5685125211742
 20
-879.5130141443367
 30
0.0
 11
496.0326141411742
 21
-877.5130141443367
 31
0.0
  0
LINE
  5
1A74F
  8
0
  6
BYBLOCK
 10
496.5685125211742
 20
-879.5130141443367
 30
0.0
 11
496.5685125211742
 21
-877.5130141443367
 31
0.0
  0
TEXT
  5
1A750
  8
1DIM
  6
CONTINUOUS
 10
495.8685125211742
 20
-874.8463474776702
 30
0.0
 40
3.5
  1
14
 50
90.0
  0
LINE
  5
1A751
  8
0
  6
BYBLOCK
 10
505.46418166021
 20
-867.5130141443369
 30
0.0
 11
506.00008004021
 21
-865.5130141443369
 31
0.0
  0
LINE
  5
1A752
  8
0
  6
BYBLOCK
 10
506.00008004021
 20
-865.5130141443369
 30
0.0
 11
506.53597842021
 21
-867.5130141443369
 31
0.0
  0
LINE
  5
1A753
  8
0
  6
BYBLOCK
 10
506.00008004021
 20
-865.5130141443369
 30
0.0
 11
506.00008004021
 21
-867.5130141443369
 31
0.0
  0
LINE
  5
1A754
  8
0
  6
BYBLOCK
 10
506.53597842021
 20
-891.5130141443367
 30
0.0
 11
506.00008004021
 21
-893.5130141443367
 31
0.0
  0
LINE
  5
1A755
  8
0
  6
BYBLOCK
 10
506.00008004021
 20
-893.5130141443367
 30
0.0
 11
505.46418166021
 21
-891.5130141443367
 31
0.0
  0
LINE
  5
1A756
  8
0
  6
BYBLOCK
 10
506.00008004021
 20
-893.5130141443367
 30
0.0
 11
506.00008004021
 21
-891.5130141443367
 31
0.0
  0
TEXT
  5
1A757
  8
1DIM
  6
CONTINUOUS
 10
505.30008004021
 20
-882.4296808110034
 30
0.0
 40
3.5
  1
28
 50
90.0
  0
LINE
  5
1A758
  8
0
  6
BYBLOCK
 10
-97.36119576763218
 20
-939.220719514233
 30
0.0
 11
-103.3611957676322
 21
-937.613024374233
 31
0.0
  0
LINE
  5
1A759
  8
0
  6
BYBLOCK
 10
-103.3611957676322
 20
-937.613024374233
 30
0.0
 11
-97.36119576763218
 21
-936.0053292342329
 31
0.0
  0
LINE
  5
1A75A
  8
0
  6
BYBLOCK
 10
-103.3611957676322
 20
-937.613024374233
 30
0.0
 11
-97.36119576763218
 21
-937.613024374233
 31
0.0
  0
LINE
  5
1A75B
  8
0
  6
BYBLOCK
 10
294.5388477621036
 20
-936.0053292342329
 30
0.0
 11
300.5388477621036
 21
-937.613024374233
 31
0.0
  0
LINE
  5
1A75C
  8
0
  6
BYBLOCK
 10
300.5388477621036
 20
-937.613024374233
 30
0.0
 11
294.5388477621036
 21
-939.220719514233
 31
0.0
  0
LINE
  5
1A75D
  8
0
  6
BYBLOCK
 10
300.5388477621036
 20
-937.613024374233
 30
0.0
 11
294.5388477621036
 21
-937.613024374233
 31
0.0
  0
TEXT
  5
1A75E
  8
1DIM1
  6
CONTINUOUS
 10
80.16382910650248
 20
-935.5130243742329
 30
0.0
 40
10.5
  1
P404
1001
ACAD
1000
DSTYLE
1002
{
1070
    70
1070
     0
1070
    69
1070
     0
1070
   271
1070
     0
1070
    40
1040
3.0
1002
}
  0
VIEWPORT
  5
57
 67
     1
  8
0
 10
0.0
 20
0.0
 30
0.0
 40
541.7763157894738
 41
297.0
 68
     1
 69
     1
1001
ACAD
1000
MVIEW
1002
{
1070
    16
1010
0.0
1020
0.0
1030
0.0
1010
0.0
1020
0.0
1030
1.0
1040
0.0
1040
297.0
1040
-4.168151458535277
1040
12.93603032128692
1040
50.0
1040
0.0
1040
0.0
1070
    16
1070
   100
1070
     0
1070
     1
1070
     0
1070
     0
1070
     0
1070
     0
1040
0.0
1040
0.0
1040
0.0
1040
10.0
1040
10.0
1040
10.0
1040
10.0
1070
     0
1002
{
1002
}
1002
}
  0
ENDSEC
  0
EOF
