  0
SECTION
  2
HEADER
  9
$ACADVER
  1
AC1009
  9
$INSBASE
 10
0.0
 20
0.0
 30
0.0
  9
$EXTMIN
 10
5315.8363922149256
 20
-368.46620152473128
 30
0.0
  9
$EXTMAX
 10
5609.2646775973599
 20
-168.2898775912108
 30
0.0
  9
$LIMMIN
 10
0.0
 20
0.0
  9
$LIMMAX
 10
420.0
 20
297.0
  9
$ORTHOMODE
 70
     0
  9
$REGENMODE
 70
     1
  9
$FILLMODE
 70
     1
  9
$QTEXTMODE
 70
     0
  9
$MIRRTEXT
 70
     0
  9
$DRAGMODE
 70
     2
  9
$LTSCALE
 40
0.5
  9
$OSMODE
 70
   127
  9
$ATTMODE
 70
     1
  9
$TEXTSIZE
 40
4.0
  9
$TRACEWID
 40
1.0
  9
$TEXTSTYLE
  7
STANDARD
  9
$CLAYER
  8
1TEXT
  9
$CELTYPE
  6
BYLAYER
  9
$CECOLOR
 62
   256
  9
$DIMSCALE
 40
1.0
  9
$DIMASZ
 40
2.0
  9
$DIMEXO
 40
0.0
  9
$DIMDLI
 40
7.0
  9
$DIMRND
 40
0.0
  9
$DIMDLE
 40
0.0
  9
$DIMEXE
 40
1.0
  9
$DIMTP
 40
0.0
  9
$DIMTM
 40
0.0
  9
$DIMTXT
 40
3.5
  9
$DIMCEN
 40
0.0
  9
$DIMTSZ
 40
0.0
  9
$DIMTOL
 70
     0
  9
$DIMLIM
 70
     0
  9
$DIMTIH
 70
     0
  9
$DIMTOH
 70
     0
  9
$DIMSE1
 70
     0
  9
$DIMSE2
 70
     0
  9
$DIMTAD
 70
     1
  9
$DIMZIN
 70
     8
  9
$DIMBLK
  1

  9
$DIMASO
 70
     1
  9
$DIMSHO
 70
     1
  9
$DIMPOST
  1
 
  9
$DIMAPOST
  1

  9
$DIMALT
 70
     0
  9
$DIMALTD
 70
     2
  9
$DIMALTF
 40
25.399999999999999
  9
$DIMLFAC
 40
1.0
  9
$DIMTOFL
 70
     1
  9
$DIMTVP
 40
0.0
  9
$DIMTIX
 70
     0
  9
$DIMSOXD
 70
     0
  9
$DIMSAH
 70
     1
  9
$DIMBLK1
  1
OPEN30
  9
$DIMBLK2
  1
OPEN30
  9
$DIMSTYLE
  2
NEWX10
  9
$DIMCLRD
 70
   256
  9
$DIMCLRE
 70
   256
  9
$DIMCLRT
 70
   201
  9
$DIMTFAC
 40
0.7
  9
$DIMGAP
 40
0.7
  9
$LUNITS
 70
     2
  9
$LUPREC
 70
     4
  9
$SKETCHINC
 40
1.0
  9
$FILLETRAD
 40
1.0
  9
$AUNITS
 70
     0
  9
$AUPREC
 70
     2
  9
$MENU
  1
acad
  9
$ELEVATION
 40
0.0
  9
$PELEVATION
 40
0.0
  9
$THICKNESS
 40
0.0
  9
$LIMCHECK
 70
     0
  9
$BLIPMODE
 70
     0
  9
$CHAMFERA
 40
10.0
  9
$CHAMFERB
 40
10.0
  9
$SKPOLY
 70
     0
  9
$TDCREATE
 40
2451318.621352917
  9
$TDUPDATE
 40
2454918.6044735531
  9
$TDINDWG
 40
0.7545899421
  9
$TDUSRTIMER
 40
0.7545899421
  9
$USRTIMER
 70
     1
  9
$ANGBASE
 50
0.0
  9
$ANGDIR
 70
     0
  9
$PDMODE
 70
     0
  9
$PDSIZE
 40
0.0
  9
$PLINEWID
 40
0.0
  9
$COORDS
 70
     2
  9
$SPLFRAME
 70
     0
  9
$SPLINETYPE
 70
     6
  9
$SPLINESEGS
 70
     8
  9
$ATTDIA
 70
     0
  9
$ATTREQ
 70
     1
  9
$HANDLING
 70
     1
  9
$HANDSEED
  5
9DB1
  9
$SURFTAB1
 70
     6
  9
$SURFTAB2
 70
     6
  9
$SURFTYPE
 70
     6
  9
$SURFU
 70
     6
  9
$SURFV
 70
     6
  9
$UCSNAME
  2

  9
$UCSORG
 10
0.0
 20
0.0
 30
0.0
  9
$UCSXDIR
 10
1.0
 20
0.0
 30
0.0
  9
$UCSYDIR
 10
0.0
 20
1.0
 30
0.0
  9
$PUCSNAME
  2

  9
$PUCSORG
 10
0.0
 20
0.0
 30
0.0
  9
$PUCSXDIR
 10
1.0
 20
0.0
 30
0.0
  9
$PUCSYDIR
 10
0.0
 20
1.0
 30
0.0
  9
$USERI1
 70
     0
  9
$USERI2
 70
     0
  9
$USERI3
 70
     0
  9
$USERI4
 70
     0
  9
$USERI5
 70
     0
  9
$USERR1
 40
0.0
  9
$USERR2
 40
0.0
  9
$USERR3
 40
0.0
  9
$USERR4
 40
0.0
  9
$USERR5
 40
0.0
  9
$WORLDVIEW
 70
     1
  9
$SHADEDGE
 70
     3
  9
$SHADEDIF
 70
    70
  9
$TILEMODE
 70
     1
  9
$MAXACTVP
 70
    48
  9
$PLIMCHECK
 70
     0
  9
$PEXTMIN
 10
1.0000000000000000E+020
 20
1.0000000000000000E+020
 30
1.0000000000000000E+020
  9
$PEXTMAX
 10
-1.0000000000000000E+020
 20
-1.0000000000000000E+020
 30
-1.0000000000000000E+020
  9
$PLIMMIN
 10
0.0
 20
0.0
  9
$PLIMMAX
 10
420.0
 20
297.0
  9
$UNITMODE
 70
     0
  9
$VISRETAIN
 70
     1
  9
$PLINEGEN
 70
     0
  9
$PSLTSCALE
 70
     1
  0
ENDSEC
  0
SECTION
  2
TABLES
  0
TABLE
  2
VPORT
 70
     4
  0
VPORT
  2
*ACTIVE
 70
     0
 10
0.0
 20
0.0
 11
1.0
 21
1.0
 12
5462.434042591588
 22
-268.36601386566753
 13
0.0
 23
0.0
 14
10.0
 24
10.0
 15
10.0
 25
10.0
 16
0.0
 26
0.0
 36
1.0
 17
0.0
 27
0.0
 37
0.0
 40
212.48211489786229
 41
1.508086253369272
 42
50.0
 43
0.0
 44
0.0
 50
0.0
 51
0.0
 71
     0
 72
   100
 73
     1
 74
     1
 75
     0
 76
     0
 77
     0
 78
     0
  0
ENDTAB
  0
TABLE
  2
LTYPE
 70
    15
  0
LTYPE
  2
CONTINUOUS
 70
     0
  3
Solid line
 72
    65
 73
     0
 40
0.0
  0
LTYPE
  2
XREF1|CENTER2
 70
    48
  3
Center (.5x) ___ _ ___ _ ___ _ ___ _ ___ _ ___
 72
    65
 73
     4
 40
28.574999999999999
 49
19.050000000000001
 49
-3.1749999999999989
 49
3.1749999999999989
 49
-3.1749999999999989
  0
LTYPE
  2
A3WAKUDAKE|CENTER2
 70
    48
  3
Center (.5x) ___ _ ___ _ ___ _ ___ _ ___ _ ___
 72
    65
 73
     4
 40
28.574999999999999
 49
19.050000000000001
 49
-3.1749999999999989
 49
3.1749999999999989
 49
-3.1749999999999989
  0
LTYPE
  2
CENTER2
 70
     0
  3
Center (.5x) ___ _ ___ _ ___ _ ___ _ ___ _ ___
 72
    65
 73
     4
 40
28.574999999999999
 49
19.050000000000001
 49
-3.1749999999999989
 49
3.1749999999999989
 49
-3.1749999999999989
  0
ENDTAB
  0
TABLE
  2
LAYER
 70
    46
  0
LAYER
  2
0
 70
     0
 62
     7
  6
CONTINUOUS
  0
LAYER
  2
1CENTER
 70
     0
 62
     7
  6
CENTER2
  0
LAYER
  2
1TEXT
 70
     0
 62
     7
  6
CONTINUOUS
  0
LAYER
  2
01
 70
     0
 62
     1
  6
CONTINUOUS
  0
LAYER
  2
1DIM
 70
     0
 62
     7
  6
CONTINUOUS
  0
LAYER
  2
A3WAKUDAKE|THICK
 70
    48
 62
     7
  6
CONTINUOUS
  0
LAYER
  2
A3WAKUDAKE|POINT
 70
    48
 62
     7
  6
CONTINUOUS
  0
LAYER
  2
A3WAKUDAKE|1CENTER
 70
    48
 62
     7
  6
A3WAKUDAKE|CENTER2
  0
LAYER
  2
A3WAKUDAKE|0-6
 70
    48
 62
     7
  6
CONTINUOUS
  0
LAYER
  2
POINT
 70
     0
 62
     7
  6
CONTINUOUS
  0
LAYER
  2
A3WAKUDAKE|1DIM
 70
    48
 62
     7
  6
CONTINUOUS
  0
LAYER
  2
XREF1|1CENTER
 70
    48
 62
     7
  6
XREF1|CENTER2
  0
ENDTAB
  0
TABLE
  2
STYLE
 70
    21
  0
STYLE
  2
STANDARD
 70
     0
 40
0.0
 41
1.0
 50
0.0
 71
     0
 42
4.0
  3
txt.shx
  4
extfont.shx
  0
ENDTAB
  0
TABLE
  2
VIEW
 70
     0
  0
ENDTAB
  0
TABLE
  2
UCS
 70
     0
  0
ENDTAB
  0
TABLE
  2
APPID
 70
     9
  0
APPID
  2
ACAD
 70
     0
  0
APPID
  2
DRAWINGVARIABLESXDATA
 70
     0
  0
APPID
  2
CONTENTTABDATA
 70
     0
  0
APPID
  2
CONTENTCURRENTTAB
 70
     0
  0
APPID
  2
CONTENTBLOCKDESCRIPTION
 70
     0
  0
APPID
  2
CONTENTBLOCKICON
 70
     0
  0
APPID
  2
CONTENTLONGBLOCKNAME
 70
     0
  0
APPID
  2
ACAD_PSEXT
 70
     0
  0
APPID
  2
ACAD_MLEADERVER
 70
     0
  0
ENDTAB
  0
TABLE
  2
DIMSTYLE
 70
     7
  0
DIMSTYLE
  2
NEWX10
 70
     0
  3
 
  4

  5

  6
OPEN30
  7
OPEN30
 40
1.0
 41
2.0
 42
0.0
 43
7.0
 44
1.0
 45
0.0
 46
0.0
 47
0.0
 48
0.0
140
3.5
141
0.0
142
0.0
143
25.399999999999999
144
1.0
145
0.0
146
0.7
147
0.7
 71
     0
 72
     0
 73
     0
 74
     0
 75
     0
 76
     0
 77
     1
 78
     8
170
     0
171
     2
172
     1
173
     1
174
     0
175
     0
176
   256
177
   256
178
   201
  0
ENDTAB
  0
ENDSEC
  0
SECTION
  2
BLOCKS
  0
BLOCK
  8
0
  2
$MODEL_SPACE
 70
     0
 10
0.0
 20
0.0
 30
0.0
  3
$MODEL_SPACE
  1

  0
ENDBLK
  5
1A
  8
0
  0
BLOCK
 67
     1
  8
0
  2
$PAPER_SPACE
 70
     0
 10
0.0
 20
0.0
 30
0.0
  3
$PAPER_SPACE
  1

  0
ENDBLK
  5
17
 67
     1
  8
0
  0
BLOCK
  8
0
  2
_OPEN30
 70
     0
 10
0.0
 20
0.0
 30
0.0
  3
_OPEN30
  1

  0
LINE
  5
44
  8
0
  6
BYBLOCK
 62
     0
 10
-1.0
 20
0.26794919
 30
0.0
 11
0.0
 21
0.0
 31
0.0
  0
LINE
  5
45
  8
0
  6
BYBLOCK
 62
     0
 10
0.0
 20
0.0
 30
0.0
 11
-1.0
 21
-0.26794919
 31
0.0
  0
LINE
  5
46
  8
0
  6
BYBLOCK
 62
     0
 10
0.0
 20
0.0
 30
0.0
 11
-1.0
 21
0.0
 31
0.0
  0
ENDBLK
  5
47
  8
0
  0
BLOCK
  8
0
  2
XREF1
 70
    36
 10
0.0
 20
0.0
 30
0.0
  3
XREF1
  1
D:\ACLT\FORMAT\KAWAJUN(9)図面用.dwg
  0
ENDBLK
  5
5D
  8
0
  0
BLOCK
  8
0
  2
A3WAKUDAKE
 70
    36
 10
0.0
 20
0.0
 30
0.0
  3
A3WAKUDAKE
  1
D:\ACLT\FORMAT\A3WAKUdake.dwg
  0
ENDBLK
  5
6A0
  8
0
  0
BLOCK
  8
0
  2
*U13
 70
     1
 10
0.0
 20
0.0
 30
0.0
  3
*U13
  1

  0
CIRCLE
  5
9D93
  8
0
 10
0.0
 20
0.0
 30
0.0
 40
3.0
  0
ENDBLK
  5
9D95
  8
0
  0
BLOCK
  8
0
  2
*U14
 70
     1
 10
0.0
 20
0.0
 30
0.0
  3
*U14
  1

  0
TEXT
  5
9D9A
  8
1DIM
 62
   201
 10
5432.0546775973571
 20
-336.22712355336552
 30
0.0
 40
4.5499999999999989
  1
φ50
 50
90.0
  0
ENDBLK
  5
9D9C
  8
0
  0
BLOCK
  8
0
  2
*U15
 70
     1
 10
0.0
 20
0.0
 30
0.0
  3
*U15
  1

  0
TEXT
  5
9D9E
  8
1DIM
 62
   201
 10
5520.9146775973577
 20
-254.3798775912112
 30
0.0
 40
4.5499999999999989
  1
115 
  0
ENDBLK
  5
9DA0
  8
0
  0
BLOCK
  8
0
  2
*U16
 70
     1
 10
0.0
 20
0.0
 30
0.0
  3
*U16
  1

  0
TEXT
  5
9DA2
  8
1DIM
 62
   201
 10
5511.3730109306935
 20
-264.3798775912112
 30
0.0
 40
4.5499999999999989
  1
126.5 
  0
ENDBLK
  5
9DA4
  8
0
  0
BLOCK
  8
0
  2
*U17
 70
     1
 10
0.0
 20
0.0
 30
0.0
  3
*U17
  1

  0
TEXT
  5
9DA6
  8
1DIM
 62
   201
 10
5597.0546775973589
 20
-201.5815442578768
 30
0.0
 40
4.5499999999999989
  1
39 
 50
90.0
  0
ENDBLK
  5
9DA8
  8
0
  0
BLOCK
  8
0
  2
*U18
 70
     1
 10
0.0
 20
0.0
 30
0.0
  3
*U18
  1

  0
TEXT
  5
9DAA
  8
1DIM
 62
   201
 10
5607.0546775973589
 20
-213.08154425787669
 30
0.0
 40
4.5499999999999989
  1
62 
 50
90.0
  0
ENDBLK
  5
9DAC
  8
0
  0
BLOCK
  8
0
  2
*U19
 70
     1
 10
0.0
 20
0.0
 30
0.0
  3
*U19
  1

  0
TEXT
  5
9DAE
  8
1DIM
 62
   201
 10
5597.0546775973589
 20
-330.08909052229552
 30
0.0
 40
4.5499999999999989
  1
15.5 
 50
90.0
  0
ENDBLK
  5
9DB0
  8
0
  0
ENDSEC
  0
SECTION
  2
ENTITIES
  0
ARC
  5
71B9
  8
01
 10
5467.9646775973579
 20
-328.28987759121082
 30
0.0
 40
25.0
 50
28.685402014119379
 51
352.0329434933023
  0
LINE
  5
71BC
  8
1CENTER
 10
5467.9646775973579
 20
-334.28987759121082
 30
0.0
 11
5467.9646775973579
 21
-322.28987759121082
 31
0.0
  0
LINE
  5
71BD
  8
1CENTER
 10
5461.964677597357
 20
-328.28987759121082
 30
0.0
 11
5473.9646775973579
 21
-328.28987759121082
 31
0.0
  0
LINE
  5
71C0
  8
1CENTER
 10
5467.9646775973579
 20
-175.45280209562671
 30
0.0
 11
5467.9646775973579
 21
-198.08108747805809
 31
0.0
  0
LINE
  5
78AF
  8
1CENTER
 10
5332.464677597357
 20
-334.28987759121082
 30
0.0
 11
5332.464677597357
 21
-322.28987759121082
 31
0.0
  0
LINE
  5
78B0
  8
1CENTER
 10
5315.8363922149256
 20
-328.28987759121082
 30
0.0
 11
5338.464677597357
 21
-328.28987759121082
 31
0.0
  0
TEXT
  5
78D4
  8
1TEXT
 10
5317.9646775973579
 20
-178.2898775912108
 30
0.0
 40
10.0
  1
KKC
 41
1.017187499999999
  0
LINE
  5
8262
  8
01
 10
5427.9646775973579
 20
-178.2898775912108
 30
0.0
 11
5570.7198255947051
 21
-178.2898775912108
 31
0.0
  0
LINE
  5
88CA
  8
01
 10
5317.9646775973579
 20
-288.11355365769032
 30
0.0
 11
5317.9646775973579
 21
-368.46620152473128
 31
0.0
  0
LINE
  5
906B
  8
1CENTER
 10
5451.8810028334156
 20
-192.78986955795739
 30
0.0
 11
5460.0146751952643
 21
-192.7898775912081
 31
0.0
  0
POINT
  5
9188
  8
01
 10
5326.9646775973579
 20
-328.28987759121082
 30
0.0
  0
POINT
  5
9189
  8
01
 10
5326.9646775973579
 20
-328.28987759121082
 30
0.0
  0
POINT
  5
918A
  8
POINT
 10
5326.9646775973579
 20
-328.28987759121082
 30
0.0
  0
LINE
  5
9196
  8
01
 10
5456.4646775973579
 20
-187.28987759121119
 30
0.0
 11
5479.4646775973579
 21
-187.28987759121031
 31
0.0
  0
LINE
  5
919E
  8
01
 10
5326.9646775973588
 20
-340.2898775912027
 30
0.0
 11
5326.9646775973588
 21
-316.28987759121082
 31
0.0
  0
LINE
  5
91A5
  8
01
 10
5482.9646775973597
 20
-217.28987759121119
 30
0.0
 11
5581.4646775973588
 21
-217.28987759121119
 31
0.0
  0
ARC
  5
91A6
  8
01
 10
5581.4646775973588
 20
-218.78987759121119
 30
0.0
 40
1.5
 50
0.0
 51
90.0
  0
LINE
  5
91A7
  8
01
 10
5582.9646775973597
 20
-238.78987759121119
 30
0.0
 11
5582.9646775973597
 21
-218.78987759121119
 31
0.0
  0
LINE
  5
91A8
  8
01
 10
5457.9646775973579
 20
-240.28987759121119
 30
0.0
 11
5581.4646775973588
 21
-240.28987759121119
 31
0.0
  0
ARC
  5
91A9
  8
01
 10
5581.4646775973588
 20
-238.78987759121119
 30
0.0
 40
1.5
 50
270.0
 51
0.0
  0
ARC
  5
91AA
  8
01
 10
5457.9646775973579
 20
-238.78987759121119
 30
0.0
 40
1.5
 50
180.0
 51
270.0
  0
LINE
  5
91AB
  8
01
 10
5456.4646775973579
 20
-238.78987759121119
 30
0.0
 11
5456.4646775973579
 21
-187.28987759121119
 31
0.0
  0
ARC
  5
91AC
  8
01
 10
5482.9646775973597
 20
-213.78987759121119
 30
0.0
 40
3.5
 50
180.0
 51
270.0
  0
LINE
  5
91AD
  8
01
 10
5479.4646775973588
 20
-213.78987759121119
 30
0.0
 11
5479.4646775973579
 21
-187.28987759121031
 31
0.0
  0
LINE
  5
91B0
  8
01
 10
5378.4515301780939
 20
-316.28987759121168
 30
0.0
 11
5326.9646775973588
 21
-316.28987759121082
 31
0.0
  0
ARC
  5
91B1
  8
01
 10
5326.9646775973633
 20
-223.66285731996689
 30
0.0
 40
116.6270202712432
 50
270.0
 51
293.24286954583027
  0
ARC
  5
91B2
  8
01
 10
5482.8072921200946
 20
-334.3244669809128
 30
0.0
 40
3.5000000000009091
 50
90.0
 51
180.0
  0
LINE
  5
91B3
  8
01
 10
5456.4778821320288
 20
-317.80296739445839
 30
0.0
 11
5456.6611463556319
 21
-338.80296739445839
 31
0.0
  0
ARC
  5
91B4
  8
01
 10
5482.7988671093344
 20
-335.25497012004962
 30
0.0
 40
3.5000000000009091
 50
90.0
 51
178.5936604551878
  0
LINE
  5
91B5
  8
01
 10
5479.2999213781386
 20
-335.16907035196351
 30
0.0
 11
5479.2682088390839
 21
-338.80296739445839
 31
0.0
  0
ARC
  5
91B6
  8
01
 10
5458.1610892402286
 20
-338.78987759120992
 30
0.0
 40
1.5
 50
180.50000000001771
 51
270.0
  0
ARC
  5
91B7
  8
01
 10
5477.7682659544844
 20
-338.78987759120901
 30
0.0
 40
1.5
 50
270.00000000010419
 51
359.4999999999302
  0
LINE
  5
91B8
  8
01
 10
5479.3072921200928
 20
-334.32446698063268
 30
0.0
 11
5479.2999213781341
 21
-335.16907035212171
 31
0.0
  0
LINE
  5
91B9
  8
01
 10
5477.7682659544871
 20
-340.28987759121082
 30
0.0
 11
5458.1610892402286
 21
-340.28987759121082
 31
0.0
  0
LINE
  5
91BA
  8
01
 10
5581.4646775973579
 20
-331.7549701200478
 30
0.0
 11
5482.7988671093344
 21
-331.7549701200478
 31
0.0
  0
LINE
  5
91BB
  8
01
 10
5457.9778250166246
 20
-316.28987759121082
 30
0.0
 11
5581.4646775973579
 21
-316.28987759121082
 31
0.0
  0
ARC
  5
91BC
  8
01
 10
5457.9778250166246
 20
-317.78987759121082
 30
0.0
 40
1.5
 50
90.0
 51
180.50000000001771
  0
ARC
  5
91BD
  8
01
 10
5378.4515301780939
 20
-317.78987759121179
 30
0.0
 40
1.5
 50
359.49999999998232
 51
90.0
  0
LINE
  5
91BE
  8
01
 10
5379.9514730626906
 20
-317.8029673944593
 30
0.0
 11
5379.9297701261967
 21
-320.28987759121168
 31
0.0
  0
ARC
  5
91BF
  8
01
 10
5368.4646775973588
 20
-320.28987759121082
 30
0.0
 40
11.465092528836969
 50
293.24286954583027
 51
0.0000000002084408
  0
ARC
  5
91C0
  8
01
 10
5581.4646775973588
 20
-330.25497012004871
 30
0.0
 40
1.5
 50
269.99999999994787
 51
0.0
  0
LINE
  5
91C1
  8
01
 10
5582.9646775973579
 20
-317.78987759121082
 30
0.0
 11
5582.9646775973579
 21
-330.2549701200478
 31
0.0
  0
ARC
  5
91C2
  8
01
 10
5581.4646775973579
 20
-317.78987759121082
 30
0.0
 40
1.5
 50
0.0
 51
90.0
  0
LINE
  5
9B45
  8
01
 10
5317.9646775973588
 20
-303.28987759121082
 30
0.0
 11
5317.964677597357
 21
-353.28987759121082
 31
0.0
  0
LINE
  5
9B46
  8
01
 10
5326.4646775973588
 20
-303.7898775912081
 30
0.0
 11
5326.4646775973551
 21
-352.78987759121082
 31
0.0
  0
LINE
  5
9B47
  8
01
 10
5317.964677597357
 20
-353.28987759121082
 30
0.0
 11
5325.9646775973551
 21
-353.28987759121082
 31
0.0
  0
ARC
  5
9B48
  8
01
 10
5325.9646775973551
 20
-352.78987759121082
 30
0.0
 40
0.5
 50
270.0
 51
0.0
  0
LINE
  5
9B49
  8
01
 10
5317.9646775973588
 20
-303.28987759121082
 30
0.0
 11
5325.9646775973579
 21
-303.2898775912081
 31
0.0
  0
ARC
  5
9B4A
  8
01
 10
5325.9646775973579
 20
-303.7898775912081
 30
0.0
 40
0.5
 50
0.0
 51
90.0
  0
LINE
  5
9B4B
  8
01
 10
5442.9646775973579
 20
-178.2898775912108
 30
0.0
 11
5442.9646775973579
 21
-186.28987759121071
 31
0.0
  0
LINE
  5
9B4C
  8
01
 10
5492.9646775973579
 20
-178.2898775912108
 30
0.0
 11
5492.9646775973579
 21
-186.28987759121071
 31
0.0
  0
LINE
  5
9B4D
  8
01
 10
5442.9646775973579
 20
-178.2898775912108
 30
0.0
 11
5492.9646775973579
 21
-178.2898775912108
 31
0.0
  0
LINE
  5
9B4E
  8
01
 10
5443.4646775973579
 20
-186.7898775912108
 30
0.0
 11
5492.464677597357
 21
-186.7898775912108
 31
0.0
  0
ARC
  5
9B4F
  8
01
 10
5443.4646775973579
 20
-186.28987759121071
 30
0.0
 40
0.5
 50
179.99999999997391
 51
270.0
  0
ARC
  5
9B50
  8
01
 10
5492.464677597357
 20
-186.28987759121071
 30
0.0
 40
0.5
 50
270.0
 51
0.0
  0
POINT
  5
9D24
  8
01
 10
5332.464677597357
 20
-328.28987759121082
 30
0.0
  0
LINE
  5
9D25
  8
01
 10
5332.0646775873574
 20
-330.03987759121082
 30
0.0
 11
5332.0646775873574
 21
-329.18987757121067
 31
0.0
  0
LINE
  5
9D26
  8
01
 10
5332.8646776073583
 20
-330.03987759121082
 30
0.0
 11
5332.8646776073583
 21
-329.18987757121067
 31
0.0
  0
LINE
  5
9D27
  8
01
 10
5331.5646776173571
 20
-328.68987760121081
 30
0.0
 11
5330.7146775973579
 21
-328.68987760121081
 31
0.0
  0
LINE
  5
9D28
  8
01
 10
5331.5646776173571
 20
-327.8898775812109
 30
0.0
 11
5330.7146775973579
 21
-327.8898775812109
 31
0.0
  0
LINE
  5
9D29
  8
01
 10
5330.7146775973579
 20
-328.68987760121081
 30
0.0
 11
5330.7146775973579
 21
-327.8898775812109
 31
0.0
  0
LINE
  5
9D2A
  8
01
 10
5332.8646776073583
 20
-330.03987759121082
 30
0.0
 11
5332.0646775873574
 21
-330.03987759121082
 31
0.0
  0
LINE
  5
9D2B
  8
01
 10
5332.8646776073583
 20
-326.53987759121082
 30
0.0
 11
5332.8646776073583
 21
-327.38987761121098
 31
0.0
  0
LINE
  5
9D2C
  8
01
 10
5332.0646775873574
 20
-326.53987759121082
 30
0.0
 11
5332.0646775873574
 21
-327.38987761121098
 31
0.0
  0
LINE
  5
9D2D
  8
01
 10
5333.3646775773577
 20
-327.8898775812109
 30
0.0
 11
5334.2146775973579
 21
-327.8898775812109
 31
0.0
  0
LINE
  5
9D2E
  8
01
 10
5333.3646775773577
 20
-328.68987760121081
 30
0.0
 11
5334.2146775973579
 21
-328.68987760121081
 31
0.0
  0
LINE
  5
9D2F
  8
01
 10
5334.2146775973579
 20
-327.8898775812109
 30
0.0
 11
5334.2146775973579
 21
-328.68987760121081
 31
0.0
  0
LINE
  5
9D30
  8
01
 10
5332.0646775873574
 20
-326.53987759121082
 30
0.0
 11
5332.8646776073583
 21
-326.53987759121082
 31
0.0
  0
CIRCLE
  5
9D31
  8
01
 10
5332.464677597357
 20
-328.28987759121082
 30
0.0
 40
2.5
  0
ARC
  5
9D32
  8
01
 10
5333.3646775773577
 20
-327.38987761121098
 30
0.0
 40
0.5
 50
179.999989999999
 51
270.0
  0
ARC
  5
9D33
  8
01
 10
5333.3646775773577
 20
-329.18987757121067
 30
0.0
 40
0.5
 50
90.000002999984659
 51
180.000010000001
  0
ARC
  5
9D34
  8
01
 10
5331.5646776173571
 20
-329.18987757121067
 30
0.0
 40
0.5
 50
0.0
 51
90.000002999984659
  0
ARC
  5
9D35
  8
01
 10
5331.5646776173571
 20
-327.38987761121098
 30
0.0
 40
0.5
 50
270.0
 51
0.0
  0
CIRCLE
  5
9D37
  8
01
 10
5332.464677597357
 20
-328.28987759121082
 30
0.0
 40
3.0
  0
LINE
  5
9D38
  8
1DIM
 10
5581.4646775973579
 20
-316.28987759121082
 30
0.0
 11
5599.2646775973599
 21
-316.28987759121082
 31
0.0
  0
LINE
  5
9D39
  8
1DIM
 10
5581.464677597357
 20
-331.75497012004871
 30
0.0
 11
5599.2646775973599
 21
-331.75497012004871
 31
0.0
  0
LINE
  5
9D3A
  8
1DIM
 10
5597.9646775973597
 20
-318.88987759121079
 30
0.0
 11
5597.9646775973597
 21
-329.15497012004869
 31
0.0
  0
LINE
  5
9D3E
  8
1DIM
 10
5570.7198255947051
 20
-178.2898775912108
 30
0.0
 11
5609.2646775973599
 21
-178.2898775912108
 31
0.0
  0
LINE
  5
9D3F
  8
1DIM
 10
5581.4646775973588
 20
-240.28987759121119
 30
0.0
 11
5609.2646775973599
 21
-240.28987759121119
 31
0.0
  0
LINE
  5
9D40
  8
1DIM
 10
5607.9646775973597
 20
-180.88987759121079
 30
0.0
 11
5607.9646775973597
 21
-237.6898775912112
 31
0.0
  0
LINE
  5
9D44
  8
1DIM
 10
5570.7198255947051
 20
-178.2898775912108
 30
0.0
 11
5599.2646775973599
 21
-178.2898775912108
 31
0.0
  0
LINE
  5
9D45
  8
1DIM
 10
5581.4646775973588
 20
-217.28987759121119
 30
0.0
 11
5599.2646775973599
 21
-217.28987759121119
 31
0.0
  0
LINE
  5
9D46
  8
1DIM
 10
5597.9646775973597
 20
-180.88987759121079
 30
0.0
 11
5597.9646775973597
 21
-214.6898775912112
 31
0.0
  0
LINE
  5
9D4A
  8
1DIM
 10
5456.4646775973579
 20
-238.78987759121119
 30
0.0
 11
5456.4646775973579
 21
-266.58987759121118
 31
0.0
  0
LINE
  5
9D4B
  8
1DIM
 10
5582.9646775973597
 20
-238.78987759121119
 30
0.0
 11
5582.9646775973597
 21
-266.58987759121118
 31
0.0
  0
LINE
  5
9D4C
  8
1DIM
 10
5459.0646775973582
 20
-265.28987759121122
 30
0.0
 11
5580.3646775973593
 21
-265.28987759121122
 31
0.0
  0
LINE
  5
9D50
  8
1DIM
 10
5467.9646775973579
 20
-198.08108747805809
 30
0.0
 11
5467.9646775973579
 21
-256.58987759121129
 31
0.0
  0
LINE
  5
9D51
  8
1DIM
 10
5582.9646775973597
 20
-238.78987759121119
 30
0.0
 11
5582.9646775973597
 21
-256.58987759121129
 31
0.0
  0
LINE
  5
9D52
  8
1DIM
 10
5470.5646775973592
 20
-255.28987759121119
 30
0.0
 11
5580.3646775973593
 21
-255.28987759121119
 31
0.0
  0
LINE
  5
9D56
  8
1DIM
 10
5467.9646775973579
 20
-303.28987759121082
 30
0.0
 11
5431.6646775973577
 21
-303.28987759121082
 31
0.0
  0
LINE
  5
9D57
  8
1DIM
 10
5467.9646775973579
 20
-353.28987759120992
 30
0.0
 11
5431.6646775973577
 21
-353.28987759120992
 31
0.0
  0
LINE
  5
9D58
  8
1DIM
 10
5432.964677597357
 20
-305.88987759121079
 30
0.0
 11
5432.964677597357
 21
-350.68987759120989
 31
0.0
  0
TEXT
  5
9D5C
  8
1DIM
 10
5432.0546775973571
 20
-336.22712355336552
 30
0.0
 40
4.5499999999999989
  1
φ50
 50
90.0
  0
LINE
  5
9D5D
  8
0
  6
BYBLOCK
 10
5433.6613454913577
 20
-350.68987759120989
 30
0.0
 11
5432.964677597357
 21
-353.28987759120992
 31
0.0
  0
LINE
  5
9D5E
  8
0
  6
BYBLOCK
 10
5432.964677597357
 20
-353.28987759120992
 30
0.0
 11
5432.2680097033581
 21
-350.68987759120989
 31
0.0
  0
LINE
  5
9D5F
  8
0
  6
BYBLOCK
 10
5432.964677597357
 20
-353.28987759120992
 30
0.0
 11
5432.964677597357
 21
-350.68987759120989
 31
0.0
  0
LINE
  5
9D60
  8
0
  6
BYBLOCK
 10
5432.2680097033581
 20
-305.88987759121079
 30
0.0
 11
5432.964677597357
 21
-303.28987759121082
 31
0.0
  0
LINE
  5
9D61
  8
0
  6
BYBLOCK
 10
5432.964677597357
 20
-303.28987759121082
 30
0.0
 11
5433.6613454913577
 21
-305.88987759121079
 31
0.0
  0
LINE
  5
9D62
  8
0
  6
BYBLOCK
 10
5432.964677597357
 20
-303.28987759121082
 30
0.0
 11
5432.964677597357
 21
-305.88987759121079
 31
0.0
  0
TEXT
  5
9D63
  8
1DIM
 10
5520.9146775973577
 20
-254.3798775912112
 30
0.0
 40
4.5499999999999989
  1
115 
  0
LINE
  5
9D64
  8
0
  6
BYBLOCK
 10
5580.3646775973593
 20
-254.59320969721119
 30
0.0
 11
5582.9646775973597
 21
-255.28987759121119
 31
0.0
  0
LINE
  5
9D65
  8
0
  6
BYBLOCK
 10
5582.9646775973597
 20
-255.28987759121119
 30
0.0
 11
5580.3646775973593
 21
-255.9865454852112
 31
0.0
  0
LINE
  5
9D66
  8
0
  6
BYBLOCK
 10
5582.9646775973597
 20
-255.28987759121119
 30
0.0
 11
5580.3646775973593
 21
-255.28987759121119
 31
0.0
  0
LINE
  5
9D67
  8
0
  6
BYBLOCK
 10
5470.5646775973592
 20
-255.9865454852112
 30
0.0
 11
5467.9646775973579
 21
-255.28987759121119
 31
0.0
  0
LINE
  5
9D68
  8
0
  6
BYBLOCK
 10
5467.9646775973579
 20
-255.28987759121119
 30
0.0
 11
5470.5646775973592
 21
-254.59320969721119
 31
0.0
  0
LINE
  5
9D69
  8
0
  6
BYBLOCK
 10
5467.9646775973579
 20
-255.28987759121119
 30
0.0
 11
5470.5646775973592
 21
-255.28987759121119
 31
0.0
  0
TEXT
  5
9D6A
  8
1DIM
 10
5511.3730109306935
 20
-264.3798775912112
 30
0.0
 40
4.5499999999999989
  1
126.5 
  0
LINE
  5
9D6B
  8
0
  6
BYBLOCK
 10
5580.3646775973593
 20
-264.59320969721131
 30
0.0
 11
5582.9646775973597
 21
-265.28987759121122
 31
0.0
  0
LINE
  5
9D6C
  8
0
  6
BYBLOCK
 10
5582.9646775973597
 20
-265.28987759121122
 30
0.0
 11
5580.3646775973593
 21
-265.9865454852112
 31
0.0
  0
LINE
  5
9D6D
  8
0
  6
BYBLOCK
 10
5582.9646775973597
 20
-265.28987759121122
 30
0.0
 11
5580.3646775973593
 21
-265.28987759121122
 31
0.0
  0
LINE
  5
9D6E
  8
0
  6
BYBLOCK
 10
5459.0646775973582
 20
-265.9865454852112
 30
0.0
 11
5456.4646775973579
 21
-265.28987759121122
 31
0.0
  0
LINE
  5
9D6F
  8
0
  6
BYBLOCK
 10
5456.4646775973579
 20
-265.28987759121122
 30
0.0
 11
5459.0646775973582
 21
-264.59320969721131
 31
0.0
  0
LINE
  5
9D70
  8
0
  6
BYBLOCK
 10
5456.4646775973579
 20
-265.28987759121122
 30
0.0
 11
5459.0646775973582
 21
-265.28987759121122
 31
0.0
  0
TEXT
  5
9D71
  8
1DIM
 10
5597.0546775973589
 20
-201.5815442578768
 30
0.0
 40
4.5499999999999989
  1
39 
 50
90.0
  0
LINE
  5
9D72
  8
0
  6
BYBLOCK
 10
5598.6613454913586
 20
-214.6898775912112
 30
0.0
 11
5597.9646775973597
 21
-217.28987759121119
 31
0.0
  0
LINE
  5
9D73
  8
0
  6
BYBLOCK
 10
5597.9646775973597
 20
-217.28987759121119
 30
0.0
 11
5597.2680097033599
 21
-214.6898775912112
 31
0.0
  0
LINE
  5
9D74
  8
0
  6
BYBLOCK
 10
5597.9646775973597
 20
-217.28987759121119
 30
0.0
 11
5597.9646775973597
 21
-214.6898775912112
 31
0.0
  0
LINE
  5
9D75
  8
0
  6
BYBLOCK
 10
5597.2680097033599
 20
-180.88987759121079
 30
0.0
 11
5597.9646775973597
 21
-178.2898775912108
 31
0.0
  0
LINE
  5
9D76
  8
0
  6
BYBLOCK
 10
5597.9646775973597
 20
-178.2898775912108
 30
0.0
 11
5598.6613454913586
 21
-180.88987759121079
 31
0.0
  0
LINE
  5
9D77
  8
0
  6
BYBLOCK
 10
5597.9646775973597
 20
-178.2898775912108
 30
0.0
 11
5597.9646775973597
 21
-180.88987759121079
 31
0.0
  0
TEXT
  5
9D78
  8
1DIM
 10
5607.0546775973589
 20
-213.08154425787669
 30
0.0
 40
4.5499999999999989
  1
62 
 50
90.0
  0
LINE
  5
9D79
  8
0
  6
BYBLOCK
 10
5608.6613454913586
 20
-237.6898775912112
 30
0.0
 11
5607.9646775973597
 21
-240.28987759121119
 31
0.0
  0
LINE
  5
9D7A
  8
0
  6
BYBLOCK
 10
5607.9646775973597
 20
-240.28987759121119
 30
0.0
 11
5607.2680097033599
 21
-237.6898775912112
 31
0.0
  0
LINE
  5
9D7B
  8
0
  6
BYBLOCK
 10
5607.9646775973597
 20
-240.28987759121119
 30
0.0
 11
5607.9646775973597
 21
-237.6898775912112
 31
0.0
  0
LINE
  5
9D7C
  8
0
  6
BYBLOCK
 10
5607.2680097033599
 20
-180.88987759121079
 30
0.0
 11
5607.9646775973597
 21
-178.2898775912108
 31
0.0
  0
LINE
  5
9D7D
  8
0
  6
BYBLOCK
 10
5607.9646775973597
 20
-178.2898775912108
 30
0.0
 11
5608.6613454913586
 21
-180.88987759121079
 31
0.0
  0
LINE
  5
9D7E
  8
0
  6
BYBLOCK
 10
5607.9646775973597
 20
-178.2898775912108
 30
0.0
 11
5607.9646775973597
 21
-180.88987759121079
 31
0.0
  0
TEXT
  5
9D7F
  8
1DIM
 10
5597.0546775973589
 20
-330.08909052229552
 30
0.0
 40
4.5499999999999989
  1
15.5 
 50
90.0
  0
LINE
  5
9D80
  8
0
  6
BYBLOCK
 10
5598.6613454913586
 20
-329.15497012004869
 30
0.0
 11
5597.9646775973597
 21
-331.75497012004871
 31
0.0
  0
LINE
  5
9D81
  8
0
  6
BYBLOCK
 10
5597.9646775973597
 20
-331.75497012004871
 30
0.0
 11
5597.2680097033599
 21
-329.15497012004869
 31
0.0
  0
LINE
  5
9D82
  8
0
  6
BYBLOCK
 10
5597.9646775973597
 20
-331.75497012004871
 30
0.0
 11
5597.9646775973597
 21
-329.15497012004869
 31
0.0
  0
LINE
  5
9D83
  8
0
  6
BYBLOCK
 10
5597.2680097033599
 20
-318.88987759121079
 30
0.0
 11
5597.9646775973597
 21
-316.28987759121082
 31
0.0
  0
LINE
  5
9D84
  8
0
  6
BYBLOCK
 10
5597.9646775973597
 20
-316.28987759121082
 30
0.0
 11
5598.6613454913586
 21
-318.88987759121079
 31
0.0
  0
LINE
  5
9D85
  8
0
  6
BYBLOCK
 10
5597.9646775973597
 20
-316.28987759121082
 30
0.0
 11
5597.9646775973597
 21
-318.88987759121079
 31
0.0
  0
VIEWPORT
  5
57
 67
     1
  8
0
 10
-0.9354397301740959
 20
10.09791912461027
 30
0.0
 40
409.23952263598079
 41
271.36347256112401
 68
     1
 69
     1
1001
ACAD
1000
MVIEW
1002
{
1070
    16
1010
0.0
1020
0.0
1030
0.0
1010
0.0
1020
0.0
1030
1.0
1040
0.0
1040
271.36347256112401
1040
-0.9354397301740959
1040
10.09791912461027
1040
50.0
1040
0.0
1040
0.0
1070
     0
1070
   100
1070
     1
1070
     1
1070
     0
1070
     0
1070
     0
1070
     0
1040
0.0
1040
0.0
1040
0.0
1040
10.0
1040
10.0
1040
10.0
1040
10.0
1070
     0
1002
{
1002
}
1002
}
  0
ENDSEC
  0
EOF
