  0
SECTION
  2
HEADER
  9
$ACADVER
  1
AC1012
  9
$DWGCODEPAGE
  3
ansi_932
  9
$INSBASE
 10
0.0
 20
0.0
 30
0.0
  9
$EXTMIN
 10
420.2833909897981
 20
-261.8795792403821
 30
-0.0000000000562548
  9
$EXTMAX
 10
733.5687438227005
 20
-7.692433325102115
 30
0.0000000000000222
  9
$LIMMIN
 10
0.0
 20
0.0
  9
$LIMMAX
 10
12.0
 20
9.0
  9
$ORTHOMODE
 70
     0
  9
$REGENMODE
 70
     1
  9
$FILLMODE
 70
     1
  9
$QTEXTMODE
 70
     0
  9
$MIRRTEXT
 70
     0
  9
$DRAGMODE
 70
     2
  9
$LTSCALE
 40
0.5
  9
$OSMODE
 70
 16383
  9
$ATTMODE
 70
     1
  9
$TEXTSIZE
 40
4.0
  9
$TRACEWID
 40
0.05
  9
$TEXTSTYLE
  7
STANDARD
  9
$CLAYER
  8
1TEXT
  9
$CELTYPE
  6
BYLAYER
  9
$CECOLOR
 62
   256
  9
$CELTSCALE
 40
1.0
  9
$DELOBJ
 70
     1
  9
$DISPSILH
 70
     0
  9
$DIMSCALE
 40
1.3
  9
$DIMASZ
 40
2.0
  9
$DIMEXO
 40
0.0
  9
$DIMDLI
 40
7.0
  9
$DIMRND
 40
0.0
  9
$DIMDLE
 40
0.0
  9
$DIMEXE
 40
1.0
  9
$DIMTP
 40
0.0
  9
$DIMTM
 40
0.0
  9
$DIMTXT
 40
3.5
  9
$DIMCEN
 40
0.0
  9
$DIMTSZ
 40
0.0
  9
$DIMTOL
 70
     0
  9
$DIMLIM
 70
     0
  9
$DIMTIH
 70
     0
  9
$DIMTOH
 70
     0
  9
$DIMSE1
 70
     0
  9
$DIMSE2
 70
     0
  9
$DIMTAD
 70
     1
  9
$DIMZIN
 70
     8
  9
$DIMBLK
  1

  9
$DIMASO
 70
     1
  9
$DIMSHO
 70
     1
  9
$DIMPOST
  1
 
  9
$DIMAPOST
  1

  9
$DIMALT
 70
     0
  9
$DIMALTD
 70
     2
  9
$DIMALTF
 40
25.4
  9
$DIMLFAC
 40
1.0
  9
$DIMTOFL
 70
     1
  9
$DIMTVP
 40
0.0
  9
$DIMTIX
 70
     0
  9
$DIMSOXD
 70
     0
  9
$DIMSAH
 70
     1
  9
$DIMBLK1
  1
OPEN30
  9
$DIMBLK2
  1
OPEN30
  9
$DIMSTYLE
  2
NEWX10
  9
$DIMCLRD
 70
   256
  9
$DIMCLRE
 70
   256
  9
$DIMCLRT
 70
   201
  9
$DIMTFAC
 40
0.7
  9
$DIMGAP
 40
0.7
  9
$DIMJUST
 70
     0
  9
$DIMSD1
 70
     0
  9
$DIMSD2
 70
     0
  9
$DIMTOLJ
 70
     1
  9
$DIMTZIN
 70
     8
  9
$DIMALTZ
 70
     0
  9
$DIMALTTZ
 70
     0
  9
$DIMFIT
 70
     2
  9
$DIMUPT
 70
     0
  9
$DIMUNIT
 70
     2
  9
$DIMDEC
 70
     2
  9
$DIMTDEC
 70
     4
  9
$DIMALTU
 70
     2
  9
$DIMALTTD
 70
     2
  9
$DIMTXSTY
  7
STANDARD
  9
$DIMAUNIT
 70
     0
  9
$LUNITS
 70
     2
  9
$LUPREC
 70
     4
  9
$SKETCHINC
 40
0.1
  9
$FILLETRAD
 40
0.0
  9
$AUNITS
 70
     0
  9
$AUPREC
 70
     2
  9
$MENU
  1
acad
  9
$ELEVATION
 40
0.0
  9
$PELEVATION
 40
0.0
  9
$THICKNESS
 40
0.0
  9
$LIMCHECK
 70
     0
  9
$CHAMFERA
 40
0.0
  9
$CHAMFERB
 40
0.0
  9
$CHAMFERC
 40
0.0
  9
$CHAMFERD
 40
0.0
  9
$SKPOLY
 70
     0
  9
$TDCREATE
 40
2451024.579593021
  9
$TDUPDATE
 40
2458575.791695683
  9
$TDINDWG
 40
1.2200878125
  9
$TDUSRTIMER
 40
1.2200878125
  9
$USRTIMER
 70
     1
  9
$ANGBASE
 50
0.0
  9
$ANGDIR
 70
     0
  9
$PDMODE
 70
     0
  9
$PDSIZE
 40
0.0
  9
$PLINEWID
 40
0.0
  9
$COORDS
 70
     2
  9
$SPLFRAME
 70
     0
  9
$SPLINETYPE
 70
     6
  9
$SPLINESEGS
 70
     8
  9
$ATTDIA
 70
     0
  9
$ATTREQ
 70
     1
  9
$HANDLING
 70
     1
  9
$HANDSEED
  5
CED4
  9
$SURFTAB1
 70
     6
  9
$SURFTAB2
 70
     6
  9
$SURFTYPE
 70
     6
  9
$SURFU
 70
     6
  9
$SURFV
 70
     6
  9
$UCSNAME
  2

  9
$UCSORG
 10
0.0
 20
0.0
 30
0.0
  9
$UCSXDIR
 10
1.0
 20
0.0
 30
0.0
  9
$UCSYDIR
 10
0.0
 20
1.0
 30
0.0
  9
$PUCSNAME
  2

  9
$PUCSORG
 10
0.0
 20
0.0
 30
0.0
  9
$PUCSXDIR
 10
1.0
 20
0.0
 30
0.0
  9
$PUCSYDIR
 10
0.0
 20
1.0
 30
0.0
  9
$USERI1
 70
     0
  9
$USERI2
 70
     0
  9
$USERI3
 70
     0
  9
$USERI4
 70
     0
  9
$USERI5
 70
     0
  9
$USERR1
 40
0.0
  9
$USERR2
 40
0.0
  9
$USERR3
 40
0.0
  9
$USERR4
 40
0.0
  9
$USERR5
 40
0.0
  9
$WORLDVIEW
 70
     1
  9
$SHADEDGE
 70
     3
  9
$SHADEDIF
 70
    70
  9
$TILEMODE
 70
     1
  9
$MAXACTVP
 70
    48
  9
$PINSBASE
 10
0.0
 20
0.0
 30
0.0
  9
$PLIMCHECK
 70
     0
  9
$PEXTMIN
 10
1.000000000000000E+20
 20
1.000000000000000E+20
 30
1.000000000000000E+20
  9
$PEXTMAX
 10
-1.000000000000000E+20
 20
-1.000000000000000E+20
 30
-1.000000000000000E+20
  9
$PLIMMIN
 10
0.0
 20
0.0
  9
$PLIMMAX
 10
12.0
 20
9.0
  9
$UNITMODE
 70
     0
  9
$VISRETAIN
 70
     1
  9
$PLINEGEN
 70
     0
  9
$PSLTSCALE
 70
     1
  9
$TREEDEPTH
 70
  3020
  9
$PICKSTYLE
 70
     0
  9
$CMLSTYLE
  2
STANDARD
  9
$CMLJUST
 70
     0
  9
$CMLSCALE
 40
1.0
  9
$SAVEIMAGES
 70
     1
  0
ENDSEC
  0
SECTION
  2
CLASSES
  0
CLASS
  1
IDBUFFER
  2
AcDbIdBuffer
  3
ObjectDBX Classes
 90
    32768
280
     0
281
     0
  0
CLASS
  1
LWPOLYLINE
  2
AcDbPolyline
  3
ObjectDBX Classes
 90
    32768
280
     0
281
     1
  0
CLASS
  1
DICTIONARYVAR
  2
AcDbDictionaryVar
  3
ObjectDBX Classes
 90
        0
280
     0
281
     0
  0
CLASS
  1
HATCH
  2
AcDbHatch
  3
ObjectDBX Classes
 90
    32768
280
     0
281
     1
  0
CLASS
  1
ACDBDICTIONARYWDFLT
  2
AcDbDictionaryWithDefault
  3
ObjectDBX Classes
 90
    32768
280
     0
281
     0
  0
CLASS
  1
ACDBPLACEHOLDER
  2
AcDbPlaceHolder
  3
ObjectDBX Classes
 90
        0
280
     0
281
     0
  0
CLASS
  1
LAYOUT
  2
AcDbLayout
  3
ObjectDBX Classes
 90
        0
280
     0
281
     0
  0
CLASS
  1
TABLESTYLE
  2
AcDbTableStyle
  3
ObjectDBX Classes
 90
     4095
280
     0
281
     0
  0
CLASS
  1
SORTENTSTABLE
  2
AcDbSortentsTable
  3
ObjectDBX Classes
 90
    32768
280
     0
281
     0
  0
CLASS
  1
DIMASSOC
  2
AcDbDimAssoc
  3
"AcDbDimAssoc|Product Desc:     AcDim ARX App For Dimension|Company:          Autodesk, Inc.|WEB Address:      www.autodesk.com"
 90
        0
280
     0
281
     0
  0
CLASS
  1
MATERIAL
  2
AcDbMaterial
  3
ObjectDBX Classes
 90
     1153
280
     0
281
     0
  0
CLASS
  1
VISUALSTYLE
  2
AcDbVisualStyle
  3
ObjectDBX Classes
 90
     4095
280
     0
281
     0
  0
CLASS
  1
SCALE
  2
AcDbScale
  3
ObjectDBX Classes
 90
     1153
280
     0
281
     0
  0
CLASS
  1
MLEADERSTYLE
  2
AcDbMLeaderStyle
  3
ACDB_MLEADERSTYLE_CLASS
 90
     4095
280
     0
281
     0
  0
CLASS
  1
CELLSTYLEMAP
  2
AcDbCellStyleMap
  3
ObjectDBX Classes
 90
     1152
280
     0
281
     0
  0
CLASS
  1
SUN
  2
AcDbSun
  3
SCENEOE
 90
     1153
280
     0
281
     0
  0
CLASS
  1
XRECORD
  2
AcDbXrecord
  3
ObjectDBX Classes
 90
    32768
280
     0
281
     0
  0
ENDSEC
  0
SECTION
  2
TABLES
  0
TABLE
  2
VPORT
  5
8
330
0
100
AcDbSymbolTable
 70
     1
  0
VPORT
  5
9AE7
330
8
100
AcDbSymbolTableRecord
100
AcDbViewportTableRecord
  2
*ACTIVE
 70
     0
 10
0.0
 20
0.0
 11
1.0
 21
1.0
 12
576.9260674062493
 22
-134.7860062827421
 13
0.0
 23
0.0
 14
1.0
 24
1.0
 15
0.0
 25
0.0
 16
0.0
 26
0.0
 36
1.0
 17
0.0
 27
0.0
 37
0.0
 40
272.9167250879848
 41
1.803066037735849
 42
50.0
 43
0.0
 44
0.0
 50
0.0
 51
0.0
 71
    16
 72
  1000
 73
     1
 74
     1
 75
     0
 76
     0
 77
     0
 78
     0
1001
ACAD_NAV_VCDISPLAY
1070
     3
  0
ENDTAB
  0
TABLE
  2
LTYPE
  5
5
330
0
100
AcDbSymbolTable
 70
     2
  0
LTYPE
  5
12
330
5
100
AcDbSymbolTableRecord
100
AcDbLinetypeTableRecord
  2
BYBLOCK
 70
     0
  3

 72
    65
 73
     0
 40
0.0
  0
LTYPE
  5
13
330
5
100
AcDbSymbolTableRecord
100
AcDbLinetypeTableRecord
  2
BYLAYER
 70
     0
  3

 72
    65
 73
     0
 40
0.0
  0
LTYPE
  5
14
330
5
100
AcDbSymbolTableRecord
100
AcDbLinetypeTableRecord
  2
CONTINUOUS
 70
     0
  3
Solid line
 72
    65
 73
     0
 40
0.0
  0
LTYPE
  5
1C04
330
5
100
AcDbSymbolTableRecord
100
AcDbLinetypeTableRecord
  2
CENTER2
 70
     0
  3
Center (.5x) ___ _ ___ _ ___ _ ___ _ ___ _ ___
 72
    65
 73
     4
 40
28.575
 49
19.05
 74
     0
 49
-3.175
 74
     0
 49
3.175
 74
     0
 49
-3.175
 74
     0
  0
ENDTAB
  0
TABLE
  2
LAYER
  5
2
102
{ACAD_XDICTIONARY
360
83EE
102
}
330
0
100
AcDbSymbolTable
 70
     6
  0
LAYER
  5
E
102
{ACAD_XDICTIONARY
360
9B5B
102
}
330
2
100
AcDbSymbolTableRecord
100
AcDbLayerTableRecord
  2
0
 70
     0
 62
     7
  6
CONTINUOUS
  0
LAYER
  5
1C0B
102
{ACAD_XDICTIONARY
360
9B5D
102
}
330
2
100
AcDbSymbolTableRecord
100
AcDbLayerTableRecord
  2
1CENTER
 70
     0
 62
     7
  6
CENTER2
  0
LAYER
  5
1C0C
102
{ACAD_XDICTIONARY
360
9B5F
102
}
330
2
100
AcDbSymbolTableRecord
100
AcDbLayerTableRecord
  2
1DIM
 70
     0
 62
     7
  6
CONTINUOUS
  0
LAYER
  5
1C0E
102
{ACAD_XDICTIONARY
360
9B61
102
}
330
2
100
AcDbSymbolTableRecord
100
AcDbLayerTableRecord
  2
1TEXT
 70
     0
 62
     7
  6
CONTINUOUS
  0
LAYER
  5
37AE
102
{ACAD_XDICTIONARY
360
9B67
102
}
330
2
100
AcDbSymbolTableRecord
100
AcDbLayerTableRecord
  2
1HATCH
 70
     0
 62
     7
  6
CONTINUOUS
  0
LAYER
  5
A0A0
330
2
100
AcDbSymbolTableRecord
100
AcDbLayerTableRecord
  2
01
 70
     0
 62
     1
  6
CONTINUOUS
  0
ENDTAB
  0
TABLE
  2
STYLE
  5
3
330
0
100
AcDbSymbolTable
 70
     1
  0
STYLE
  5
F
330
3
100
AcDbSymbolTableRecord
100
AcDbTextStyleTableRecord
  2
STANDARD
 70
     0
 40
0.0
 41
1.0
 50
0.0
 71
     0
 42
4.0
  3
txt.shx
  4
extfont.shx
  0
ENDTAB
  0
TABLE
  2
VIEW
  5
6
330
0
100
AcDbSymbolTable
 70
     1
  0
VIEW
  5
2071
330
6
100
AcDbSymbolTableRecord
100
AcDbViewTableRecord
  2
A
 70
     0
 40
163.8886542118344
 10
23.75874513620715
 20
-310.5239119589886
 41
232.0683926202114
 11
0.0
 21
0.0
 31
1.0
 12
0.0
 22
0.0
 32
0.0
 42
50.0
 43
0.0
 44
0.0
 50
0.0
 71
     0
  0
ENDTAB
  0
TABLE
  2
UCS
  5
7
330
0
100
AcDbSymbolTable
 70
     0
  0
ENDTAB
  0
TABLE
  2
APPID
  5
9
330
0
100
AcDbSymbolTable
 70
    19
  0
APPID
  5
10
330
9
100
AcDbSymbolTableRecord
100
AcDbRegAppTableRecord
  2
ACAD
 70
     0
  0
APPID
  5
1BDB
330
9
100
AcDbSymbolTableRecord
100
AcDbRegAppTableRecord
  2
CONTENTBLOCKICON
 70
     0
  0
APPID
  5
1BDC
330
9
100
AcDbSymbolTableRecord
100
AcDbRegAppTableRecord
  2
CONTENTBLOCKDESCRIPTION
 70
     0
  0
APPID
  5
1BED
330
9
100
AcDbSymbolTableRecord
100
AcDbRegAppTableRecord
  2
CONTENTTABDATA
 70
     0
  0
APPID
  5
1BEE
330
9
100
AcDbSymbolTableRecord
100
AcDbRegAppTableRecord
  2
CONTENTCURRENTTAB
 70
     0
  0
APPID
  5
37BE
330
9
100
AcDbSymbolTableRecord
100
AcDbRegAppTableRecord
  2
DRAWINGVARIABLESXDATA
 70
     0
  0
APPID
  5
37BF
330
9
100
AcDbSymbolTableRecord
100
AcDbRegAppTableRecord
  2
CONTENTLONGBLOCKNAME
 70
     0
  0
APPID
  5
8492
330
9
100
AcDbSymbolTableRecord
100
AcDbRegAppTableRecord
  2
ACAD_DSTYLE_DIMTEXT_FILL
 70
     0
  0
APPID
  5
9288
330
9
100
AcDbSymbolTableRecord
100
AcDbRegAppTableRecord
  2
ACAD_PSEXT
 70
     0
  0
APPID
  5
9B55
330
9
100
AcDbSymbolTableRecord
100
AcDbRegAppTableRecord
  2
ACAD_MLEADERVER
 70
     0
  0
APPID
  5
AD29
330
9
100
AcDbSymbolTableRecord
100
AcDbRegAppTableRecord
  2
ACAD_NAV_VCDISPLAY
 70
     0
  0
APPID
  5
AD2A
330
9
100
AcDbSymbolTableRecord
100
AcDbRegAppTableRecord
  2
ACAD_EXEMPT_FROM_CAD_STAND
 70
     0
  0
APPID
  5
AFCA
330
9
100
AcDbSymbolTableRecord
100
AcDbRegAppTableRecord
  2
ACADANNOTATIVE
 70
     0
  0
APPID
  5
AFCB
330
9
100
AcDbSymbolTableRecord
100
AcDbRegAppTableRecord
  2
ACLAYERTOOLS
 70
     0
  0
APPID
  5
AFCC
330
9
100
AcDbSymbolTableRecord
100
AcDbRegAppTableRecord
  2
ACAD_DSTYLE_DIMJOGGED_JOGA
 70
     0
  0
APPID
  5
AFCD
330
9
100
AcDbSymbolTableRecord
100
AcDbRegAppTableRecord
  2
GRADIENTCOLOR1ACI
 70
     0
  0
APPID
  5
AFCE
330
9
100
AcDbSymbolTableRecord
100
AcDbRegAppTableRecord
  2
GRADIENTCOLOR2ACI
 70
     0
  0
APPID
  5
C978
330
9
100
AcDbSymbolTableRecord
100
AcDbRegAppTableRecord
  2
ACDBBLOCKREPETAG
 70
     0
  0
APPID
  5
CB54
330
9
100
AcDbSymbolTableRecord
100
AcDbRegAppTableRecord
  2
ACAD_OBJECT_CHANGE_GUID
 70
     0
  0
ENDTAB
  0
TABLE
  2
DIMSTYLE
  5
A
330
0
100
AcDbSymbolTable
 70
     2
  0
DIMSTYLE
105
37CD
102
{ACAD_REACTORS
102
}
330
A
100
AcDbSymbolTableRecord
100
AcDbDimStyleTableRecord
  2
NEWX10
 70
     0
  3
 
  4

  5

  6
OPEN30
  7
OPEN30
 40
1.0
 41
2.0
 42
0.0
 43
7.0
 44
1.0
 45
0.0
 46
0.0
 47
0.0
 48
0.0
140
3.5
141
0.0
142
0.0
143
25.4
144
1.0
145
0.0
146
0.7
147
0.7
 71
     0
 72
     0
 73
     0
 74
     0
 75
     0
 76
     0
 77
     1
 78
     8
170
     0
171
     2
172
     1
173
     1
174
     0
175
     0
176
   256
177
   256
178
   201
179
     2
270
     2
271
     2
272
     4
273
     2
274
     2
340
F
275
     0
280
     0
281
     0
282
     0
283
     1
284
     8
285
     0
286
     0
287
     2
288
     0
  0
DIMSTYLE
105
BA6E
330
A
100
AcDbSymbolTableRecord
100
AcDbDimStyleTableRecord
  2
ISO-25
 70
     0
  3

  4

  5

  6

  7

 40
1.0
 41
2.5
 42
0.625
 43
3.75
 44
1.25
 45
0.0
 46
0.0
 47
0.0
 48
0.0
140
2.5
141
2.5
142
0.0
143
0.03937007874016
144
1.0
145
0.0
146
1.0
147
0.625
 71
     0
 72
     0
 73
     0
 74
     0
 75
     0
 76
     0
 77
     1
 78
     8
170
     0
171
     3
172
     1
173
     0
174
     0
175
     0
176
     0
177
     0
178
     0
270
     2
271
     2
272
     2
273
     2
274
     3
340
F
275
     0
280
     0
281
     0
282
     0
283
     0
284
     8
285
     0
286
     0
287
     3
288
     0
  0
ENDTAB
  0
TABLE
  2
BLOCK_RECORD
  5
1
330
0
100
AcDbSymbolTable
 70
     8
  0
BLOCK_RECORD
  5
18
102
{ACAD_XDICTIONARY
360
9283
102
}
330
1
100
AcDbSymbolTableRecord
100
AcDbBlockTableRecord
  2
*MODEL_SPACE
  0
BLOCK_RECORD
  5
15
330
1
100
AcDbSymbolTableRecord
100
AcDbBlockTableRecord
  2
*PAPER_SPACE
  0
BLOCK_RECORD
  5
3853
330
1
100
AcDbSymbolTableRecord
100
AcDbBlockTableRecord
  2
_OPEN30
  0
BLOCK_RECORD
  5
C521
330
1
100
AcDbSymbolTableRecord
100
AcDbBlockTableRecord
  2
A3WAKUKAWAJUN2017_HYOUDAI_
  0
BLOCK_RECORD
  5
CD35
330
1
100
AcDbSymbolTableRecord
100
AcDbBlockTableRecord
  2
*X28
  0
BLOCK_RECORD
  5
CD83
330
1
100
AcDbSymbolTableRecord
100
AcDbBlockTableRecord
  2
*X29
  0
BLOCK_RECORD
  5
CDD5
330
1
100
AcDbSymbolTableRecord
100
AcDbBlockTableRecord
  2
*X30
  0
BLOCK_RECORD
  5
CE26
330
1
100
AcDbSymbolTableRecord
100
AcDbBlockTableRecord
  2
*X31
  0
BLOCK_RECORD
  5
CE62
330
1
100
AcDbSymbolTableRecord
100
AcDbBlockTableRecord
  2
*X32
  0
BLOCK_RECORD
  5
CEA2
330
1
100
AcDbSymbolTableRecord
100
AcDbBlockTableRecord
  2
*X33
  0
ENDTAB
  0
ENDSEC
  0
SECTION
  2
BLOCKS
  0
BLOCK
  5
19
330
18
100
AcDbEntity
  8
0
100
AcDbBlockBegin
  2
*MODEL_SPACE
 70
     0
 10
0.0
 20
0.0
 30
0.0
  3
*MODEL_SPACE
  1

  0
ENDBLK
  5
1A
330
18
100
AcDbEntity
  8
0
100
AcDbBlockEnd
  0
BLOCK
  5
16
330
15
100
AcDbEntity
 67
     1
  8
0
100
AcDbBlockBegin
  2
*PAPER_SPACE
 70
     0
 10
0.0
 20
0.0
 30
0.0
  3
*PAPER_SPACE
  1

  0
ENDBLK
  5
17
330
15
100
AcDbEntity
 67
     1
  8
0
100
AcDbBlockEnd
  0
BLOCK
  5
3857
330
3853
100
AcDbEntity
  8
0
100
AcDbBlockBegin
  2
_OPEN30
 70
     0
 10
0.0
 20
0.0
 30
0.0
  3
_OPEN30
  1

  0
LINE
  5
3854
330
3853
100
AcDbEntity
  8
0
  6
BYBLOCK
 62
     0
100
AcDbLine
 10
-1.0
 20
0.26794919
 30
0.0
 11
0.0
 21
0.0
 31
0.0
  0
LINE
  5
3855
330
3853
100
AcDbEntity
  8
0
  6
BYBLOCK
 62
     0
100
AcDbLine
 10
0.0
 20
0.0
 30
0.0
 11
-1.0
 21
-0.26794919
 31
0.0
  0
LINE
  5
3856
330
3853
100
AcDbEntity
  8
0
  6
BYBLOCK
 62
     0
100
AcDbLine
 10
0.0
 20
0.0
 30
0.0
 11
-1.0
 21
0.0
 31
0.0
  0
ENDBLK
  5
3858
330
3853
100
AcDbEntity
  8
0
100
AcDbBlockEnd
  0
BLOCK
  5
C522
330
C521
100
AcDbEntity
  8
0
100
AcDbBlockBegin
  2
A3WAKUKAWAJUN2017_HYOUDAI_
 70
     0
 10
0.0
 20
0.0
 30
0.0
  3
A3WAKUKAWAJUN2017_HYOUDAI_
  1

  0
LINE
  5
C523
330
C521
100
AcDbEntity
  8
0
100
AcDbLine
 10
13.26299999998673
 20
-0.0001000000000317
 30
0.0
 11
9.236999999990758
 21
8.999899999990987
 31
0.0
1001
ACAD
1000
ASC_BOUNDS
1002
{
1070
    19
1005
C564
1002
}
  0
LINE
  5
C524
330
C521
100
AcDbEntity
  8
0
100
AcDbLine
 10
5.657999999994331
 20
0.9999999999989768
 30
0.0
 11
9.236999999990758
 21
8.999999999991019
 31
0.0
1001
ACAD
1000
ASC_BOUNDS
1002
{
1070
    19
1005
C564
1002
}
  0
LINE
  5
C525
330
C521
100
AcDbEntity
  8
0
100
AcDbLine
 10
18.59199999998134
 20
-0.2368999999997641
 30
0.0
 11
16.46099999998353
 21
5.432899999994561
 31
0.0
1001
ACAD
1000
ASC_BOUNDS
1002
{
1070
    19
1005
C565
1002
}
  0
LINE
  5
C526
330
C521
100
AcDbEntity
  8
0
100
AcDbLine
 10
18.59199999998134
 20
-0.2368999999997641
 30
0.0
 11
22.38199999997767
 21
8.763099999991255
 31
0.0
1001
ACAD
1000
ASC_BOUNDS
1002
{
1070
    19
1005
C565
1002
}
  0
LINE
  5
C527
330
C521
100
AcDbEntity
  8
0
100
AcDbLine
 10
14.32899999998563
 20
-0.2368999999997641
 30
0.0
 11
16.46099999998353
 21
5.432899999994561
 31
0.0
1001
ACAD
1000
ASC_BOUNDS
1002
{
1070
    19
1005
C565
1002
}
  0
LINE
  5
C528
330
C521
100
AcDbEntity
  8
0
100
AcDbLine
 10
14.32899999998563
 20
-0.2368999999997641
 30
0.0
 11
10.53899999998941
 21
8.763099999991255
 31
0.0
1001
ACAD
1000
ASC_BOUNDS
1002
{
1070
    19
1005
C565
1002
}
  0
LINE
  5
C529
330
C521
100
AcDbEntity
  8
0
100
AcDbLine
 10
19.53899999998043
 20
-0.0001000000000317
 30
0.0
 11
23.56599999997638
 21
8.999899999990987
 31
0.0
1001
ACAD
1000
ASC_BOUNDS
1002
{
1070
    19
1005
C566
1002
}
  0
LINE
  5
C52A
330
C521
100
AcDbEntity
  8
0
100
AcDbLine
 10
26.97358892824991
 20
1.383099999991202
 30
0.0
 11
23.56599999997638
 21
8.999899999990987
 31
0.0
1001
ACAD
1000
ASC_BOUNDS
1002
{
1070
    19
1005
C566
1002
}
  0
LINE
  5
C52B
330
C521
100
AcDbEntity
  8
0
100
AcDbLine
 10
5.657999999994331
 20
0.9999999999989768
 30
0.0
 11
3.181999999996833
 21
4.668599999995308
 31
0.0
1001
ACAD
1000
ASC_BOUNDS
1002
{
1070
    19
1005
C564
1002
}
  0
LINE
  5
C52C
330
C521
100
AcDbEntity
  8
0
100
AcDbLine
 10
4.617999999995391
 20
-0.0001000000000317
 30
0.0
 11
1.420999999998571
 21
4.736799999995242
 31
0.0
1001
ACAD
1000
ASC_BOUNDS
1002
{
1070
    19
1005
C564
1002
}
  0
LINE
  5
C52D
330
C521
100
AcDbEntity
  8
0
100
AcDbLine
 10
1.420999999998571
 20
8.763099999991255
 30
0.0
 11
1.420999999998571
 21
0.0
 31
0.0
1001
ACAD
1000
ASC_BOUNDS
1002
{
1070
    19
1005
C569
1002
}
  0
LINE
  5
C52E
330
C521
100
AcDbEntity
  8
0
100
AcDbLine
 10
0.0
 20
8.763099999991255
 30
0.0
 11
0.0
 21
0.0
 31
0.0
1001
ACAD
1000
ASC_BOUNDS
1002
{
1070
    19
1005
C569
1002
}
  0
LINE
  5
C52F
330
C521
100
AcDbEntity
  8
0
100
AcDbLine
 10
6.766999999993232
 20
-0.0001000000000317
 30
0.0
 11
7.826999999992154
 21
2.368399999997621
 31
0.0
1001
ACAD
1000
ASC_BOUNDS
1002
{
1070
    19
1005
C564
1002
}
  0
LINE
  5
C530
330
C521
100
AcDbEntity
  8
0
100
AcDbLine
 10
0.0
 20
0.0
 30
0.0
 11
1.420999999998571
 21
0.0
 31
0.0
1001
ACAD
1000
ASC_BOUNDS
1002
{
1070
    19
1005
C569
1002
}
  0
LINE
  5
C531
330
C521
100
AcDbEntity
  8
0
100
AcDbLine
 10
4.617999999995391
 20
0.0
 30
0.0
 11
6.766999999993232
 21
0.0
 31
0.0
1001
ACAD
1000
ASC_BOUNDS
1002
{
1070
    19
1005
C564
1002
}
  0
LINE
  5
C532
330
C521
100
AcDbEntity
  8
0
100
AcDbLine
 10
11.70599999998831
 20
-0.0001000000000317
 30
0.0
 11
10.64699999998936
 21
2.368399999997621
 31
0.0
1001
ACAD
1000
ASC_BOUNDS
1002
{
1070
    19
1005
C564
1002
}
  0
LINE
  5
C533
330
C521
100
AcDbEntity
  8
0
100
AcDbLine
 10
7.826999999992154
 20
2.368399999997621
 30
0.0
 11
10.64699999998936
 21
2.368399999997621
 31
0.0
1001
ACAD
1000
ASC_BOUNDS
1002
{
1070
    19
1005
C564
1002
}
  0
LINE
  5
C534
330
C521
100
AcDbEntity
  8
0
100
AcDbLine
 10
11.70599999998831
 20
0.0
 30
0.0
 11
13.26299999998673
 21
0.0
 31
0.0
1001
ACAD
1000
ASC_BOUNDS
1002
{
1070
    19
1005
C564
1002
}
  0
LINE
  5
C535
330
C521
100
AcDbEntity
  8
0
100
AcDbLine
 10
22.15599999997789
 20
2.368399999997621
 30
0.0
 11
24.97599999997499
 21
2.368399999997621
 31
0.0
1001
ACAD
1000
ASC_BOUNDS
1002
{
1070
    19
1005
C566
1002
}
  0
LINE
  5
C536
330
C521
100
AcDbEntity
  8
0
100
AcDbLine
 10
19.53899999998043
 20
0.0
 30
0.0
 11
21.09599999997886
 21
0.0
 31
0.0
1001
ACAD
1000
ASC_BOUNDS
1002
{
1070
    19
1005
C566
1002
}
  0
LINE
  5
C537
330
C521
100
AcDbEntity
  8
0
100
AcDbLine
 10
21.09599999997886
 20
-0.0001000000000317
 30
0.0
 11
22.15599999997789
 21
2.368399999997621
 31
0.0
1001
ACAD
1000
ASC_BOUNDS
1002
{
1070
    19
1005
C566
1002
}
  0
LINE
  5
C538
330
C521
100
AcDbEntity
  8
0
100
AcDbLine
 10
26.02015566812236
 20
0.0330999999912365
 30
0.0
 11
24.97599999997499
 21
2.368399999997621
 31
0.0
1001
ACAD
1000
ASC_BOUNDS
1002
{
1070
    19
1005
C566
1002
}
  0
LINE
  5
C539
330
C521
100
AcDbEntity
  8
0
100
AcDbLine
 10
14.32399999998563
 20
3.315799999996671
 30
0.0
 11
16.46099999998353
 21
8.999899999990987
 31
0.0
1001
ACAD
1000
ASC_BOUNDS
1002
{
1070
    19
1005
C565
1002
}
  0
LINE
  5
C53A
330
C521
100
AcDbEntity
  8
0
100
AcDbLine
 10
6.432999999993513
 20
8.763099999991255
 30
0.0
 11
3.181999999996833
 21
4.668599999995308
 31
0.0
1001
ACAD
1000
ASC_BOUNDS
1002
{
1070
    19
1005
C564
1002
}
  0
LINE
  5
C53B
330
C521
100
AcDbEntity
  8
0
100
AcDbLine
 10
4.617999999995391
 20
8.763099999991255
 30
0.0
 11
1.420999999998571
 21
4.736799999995242
 31
0.0
1001
ACAD
1000
ASC_BOUNDS
1002
{
1070
    19
1005
C564
1002
}
  0
LINE
  5
C53C
330
C521
100
AcDbEntity
  8
0
100
AcDbLine
 10
0.0
 20
8.763099999991255
 30
0.0
 11
1.420999999998571
 21
8.763099999991255
 31
0.0
1001
ACAD
1000
ASC_BOUNDS
1002
{
1070
    19
1005
C569
1002
}
  0
LINE
  5
C53D
330
C521
100
AcDbEntity
  8
0
100
AcDbLine
 10
4.617999999995391
 20
8.763099999991255
 30
0.0
 11
6.432999999993513
 21
8.763099999991255
 31
0.0
1001
ACAD
1000
ASC_BOUNDS
1002
{
1070
    19
1005
C564
1002
}
  0
LINE
  5
C53E
330
C521
100
AcDbEntity
  8
0
100
AcDbLine
 10
14.32399999998563
 20
3.315799999996671
 30
0.0
 11
12.02999999998792
 21
8.763099999991255
 31
0.0
1001
ACAD
1000
ASC_BOUNDS
1002
{
1070
    19
1005
C565
1002
}
  0
LINE
  5
C53F
330
C521
100
AcDbEntity
  8
0
100
AcDbLine
 10
10.06399999998996
 20
3.670999999996297
 30
0.0
 11
9.236999999990758
 21
5.5200999999945
 31
0.0
1001
ACAD
1000
ASC_BOUNDS
1002
{
1070
    19
1005
C564
1002
}
  0
LINE
  5
C540
330
C521
100
AcDbEntity
  8
0
100
AcDbLine
 10
8.409999999991555
 20
3.670999999996297
 30
0.0
 11
9.236999999990758
 21
5.5200999999945
 31
0.0
1001
ACAD
1000
ASC_BOUNDS
1002
{
1070
    19
1005
C564
1002
}
  0
LINE
  5
C541
330
C521
100
AcDbEntity
  8
0
100
AcDbLine
 10
8.409999999991555
 20
3.670999999996297
 30
0.0
 11
10.06399999998996
 21
3.670999999996297
 31
0.0
1001
ACAD
1000
ASC_BOUNDS
1002
{
1070
    19
1005
C564
1002
}
  0
LINE
  5
C542
330
C521
100
AcDbEntity
  8
0
100
AcDbLine
 10
10.53899999998941
 20
8.763099999991255
 30
0.0
 11
12.02999999998792
 21
8.763099999991255
 31
0.0
1001
ACAD
1000
ASC_BOUNDS
1002
{
1070
    19
1005
C565
1002
}
  0
LINE
  5
C543
330
C521
100
AcDbEntity
  8
0
100
AcDbLine
 10
22.7389999999773
 20
3.670999999996297
 30
0.0
 11
23.56599999997638
 21
5.5200999999945
 31
0.0
1001
ACAD
1000
ASC_BOUNDS
1002
{
1070
    19
1005
C566
1002
}
  0
LINE
  5
C544
330
C521
100
AcDbEntity
  8
0
100
AcDbLine
 10
22.7389999999773
 20
3.670999999996297
 30
0.0
 11
24.39299999997559
 21
3.670999999996297
 31
0.0
1001
ACAD
1000
ASC_BOUNDS
1002
{
1070
    19
1005
C566
1002
}
  0
LINE
  5
C545
330
C521
100
AcDbEntity
  8
0
100
AcDbLine
 10
18.59799999998143
 20
3.315799999996671
 30
0.0
 11
20.89099999997916
 21
8.763099999991255
 31
0.0
1001
ACAD
1000
ASC_BOUNDS
1002
{
1070
    19
1005
C565
1002
}
  0
LINE
  5
C546
330
C521
100
AcDbEntity
  8
0
100
AcDbLine
 10
18.59799999998143
 20
3.315799999996671
 30
0.0
 11
16.46099999998353
 21
8.999899999990987
 31
0.0
1001
ACAD
1000
ASC_BOUNDS
1002
{
1070
    19
1005
C565
1002
}
  0
LINE
  5
C547
330
C521
100
AcDbEntity
  8
0
100
AcDbLine
 10
20.89099999997916
 20
8.763099999991255
 30
0.0
 11
22.38199999997767
 21
8.763099999991255
 31
0.0
1001
ACAD
1000
ASC_BOUNDS
1002
{
1070
    19
1005
C565
1002
}
  0
LINE
  5
C548
330
C521
100
AcDbEntity
  8
0
100
AcDbLine
 10
24.39299999997559
 20
3.670999999996297
 30
0.0
 11
23.56599999997638
 21
5.5200999999945
 31
0.0
1001
ACAD
1000
ASC_BOUNDS
1002
{
1070
    19
1005
C566
1002
}
  0
LINE
  5
C549
330
C521
100
AcDbEntity
  8
0
100
AcDbLine
 10
44.99999999995498
 20
-0.2368999999997641
 30
0.0
 11
40.02599999995994
 21
5.341799999994635
 31
0.0
1001
ACAD
1000
ASC_BOUNDS
1002
{
1070
    19
1005
C568
1002
}
  0
LINE
  5
C54A
330
C521
100
AcDbEntity
  8
0
100
AcDbLine
 10
40.02599999995994
 20
5.341799999994635
 30
0.0
 11
40.02599999995994
 21
0.0
 31
0.0
1001
ACAD
1000
ASC_BOUNDS
1002
{
1070
    19
1005
C568
1002
}
  0
LINE
  5
C54B
330
C521
100
AcDbEntity
  8
0
100
AcDbLine
 10
38.60499999996136
 20
8.999999999991019
 30
0.0
 11
38.60499999996136
 21
0.0
 31
0.0
1001
ACAD
1000
ASC_BOUNDS
1002
{
1070
    19
1005
C568
1002
}
  0
LINE
  5
C54C
330
C521
100
AcDbEntity
  8
0
100
AcDbLine
 10
44.99999999995498
 20
8.763099999991255
 30
0.0
 11
44.99999999995498
 21
-0.2368999999997641
 31
0.0
1001
ACAD
1000
ASC_BOUNDS
1002
{
1070
    19
1005
C568
1002
}
  0
LINE
  5
C54D
330
C521
100
AcDbEntity
  8
0
100
AcDbLine
 10
38.60499999996136
 20
0.0
 30
0.0
 11
40.02599999995994
 21
0.0
 31
0.0
1001
ACAD
1000
ASC_BOUNDS
1002
{
1070
    19
1005
C568
1002
}
  0
LINE
  5
C54E
330
C521
100
AcDbEntity
  8
0
100
AcDbLine
 10
43.57899999995641
 20
3.421199999996588
 30
0.0
 11
38.60499999996136
 21
8.999899999990987
 31
0.0
1001
ACAD
1000
ASC_BOUNDS
1002
{
1070
    19
1005
C568
1002
}
  0
LINE
  5
C54F
330
C521
100
AcDbEntity
  8
0
100
AcDbLine
 10
43.57899999995641
 20
8.763099999991255
 30
0.0
 11
43.57899999995641
 21
3.421199999996588
 31
0.0
1001
ACAD
1000
ASC_BOUNDS
1002
{
1070
    19
1005
C568
1002
}
  0
LINE
  5
C550
330
C521
100
AcDbEntity
  8
0
100
AcDbLine
 10
43.57899999995641
 20
8.763099999991255
 30
0.0
 11
44.99999999995498
 21
8.763099999991255
 31
0.0
1001
ACAD
1000
ASC_BOUNDS
1002
{
1070
    19
1005
C568
1002
}
  0
LINE
  5
C551
330
C521
100
AcDbEntity
  8
0
100
AcDbLine
 10
37.67199999996831
 20
8.763099999991255
 30
0.0
 11
36.23199999996837
 21
8.763099999991255
 31
0.0
  0
LINE
  5
C552
330
C521
100
AcDbEntity
  8
0
100
AcDbLine
 10
31.64199999996833
 20
8.763099999991255
 30
0.0
 11
31.64199999996833
 21
2.481619422925121
 31
0.0
  0
LINE
  5
C553
330
C521
100
AcDbEntity
  8
0
100
AcDbLine
 10
37.67199999996831
 20
8.763099999991255
 30
0.0
 11
37.67199999996831
 21
2.481619422925121
 31
0.0
  0
LINE
  5
C554
330
C521
100
AcDbEntity
  8
0
100
AcDbLine
 10
36.23199999996837
 20
8.763099999991255
 30
0.0
 11
36.23199999996837
 21
2.481619422925064
 31
0.0
  0
LINE
  5
C555
330
C521
100
AcDbEntity
  8
0
100
AcDbLine
 10
33.08199999996839
 20
8.763099999991255
 30
0.0
 11
33.08199999996839
 21
2.481619422925121
 31
0.0
  0
ARC
  5
C556
330
C521
100
AcDbEntity
  8
0
100
AcDbCircle
 10
34.65699999996832
 20
3.183099999991214
 30
0.0
 40
3.420000000000007
100
AcDbArc
 50
240.0000000000255
 51
299.9999999999766
  0
ARC
  5
C557
330
C521
100
AcDbEntity
  8
0
100
AcDbCircle
 10
34.65699999996832
 20
3.183099999991214
 30
0.0
 40
1.97999999999999
100
AcDbArc
 50
240.000000000026
 51
299.9999999999703
  0
LINE
  5
C558
330
C521
100
AcDbEntity
  8
0
100
AcDbLine
 10
33.08199999996828
 20
8.763099999991255
 30
0.0
 11
31.64199999996833
 21
8.763099999991255
 31
0.0
  0
ARC
  5
C559
330
C521
100
AcDbEntity
  8
0
100
AcDbCircle
 10
35.06199999996829
 20
2.481619422925064
 30
0.0
 40
1.17
100
AcDbArc
 50
299.9999999999699
 51
0.0
  0
ARC
  5
C55A
330
C521
100
AcDbEntity
  8
0
100
AcDbCircle
 10
34.25199999996835
 20
2.481619422925121
 30
0.0
 40
1.17
100
AcDbArc
 50
180.0
 51
240.0000000000238
  0
ARC
  5
C55B
330
C521
100
AcDbEntity
  8
0
100
AcDbCircle
 10
35.06199999996841
 20
2.481619422925121
 30
0.0
 40
2.61
100
AcDbArc
 50
299.9999999999756
 51
0.0
  0
ARC
  5
C55C
330
C521
100
AcDbEntity
  8
0
100
AcDbCircle
 10
34.25199999996835
 20
2.481619422925121
 30
0.0
 40
2.61
100
AcDbArc
 50
180.0
 51
240.0000000000244
  0
LINE
  5
C55D
330
C521
100
AcDbEntity
  8
0
100
AcDbLine
 10
29.30199999996933
 20
8.763099999991255
 30
0.0
 11
30.74199999996927
 21
8.763099999991255
 31
0.0
1001
ACAD
1000
ASC_BOUNDS
1002
{
1070
    19
1005
C566
1002
}
  0
LINE
  5
C55E
330
C521
100
AcDbEntity
  8
0
100
AcDbLine
 10
30.74199999996927
 20
8.763099999991255
 30
0.0
 11
30.74199999996927
 21
2.373099999991211
 31
0.0
1001
ACAD
1000
ASC_BOUNDS
1002
{
1070
    19
1005
C566
1002
}
  0
LINE
  5
C55F
330
C521
100
AcDbEntity
  8
0
100
AcDbLine
 10
26.02015566812236
 20
0.0330999999912365
 30
0.0
 11
28.40199999996923
 21
0.0330999999912365
 31
0.0
1001
ACAD
1000
ASC_BOUNDS
1002
{
1070
    19
1005
C566
1002
}
  0
LINE
  5
C560
330
C521
100
AcDbEntity
  8
0
100
AcDbLine
 10
29.30199999996933
 20
8.763099999991255
 30
0.0
 11
29.30199999996933
 21
2.283099999991236
 31
0.0
1001
ACAD
1000
ASC_BOUNDS
1002
{
1070
    19
1005
C566
1002
}
  0
LINE
  5
C561
330
C521
100
AcDbEntity
  8
0
100
AcDbLine
 10
26.97358892824991
 20
1.383099999991202
 30
0.0
 11
28.40199999996923
 21
1.383099999991202
 31
0.0
1001
ACAD
1000
ASC_BOUNDS
1002
{
1070
    19
1005
C566
1002
}
  0
ARC
  5
C562
330
C521
100
AcDbEntity
  8
0
100
AcDbCircle
 10
28.40199999996923
 20
2.283099999991236
 30
0.0
 40
0.9
100
AcDbArc
 50
270.0
 51
0.0
1001
ACAD
1000
ASC_BOUNDS
1002
{
1070
    19
1005
C566
1002
}
  0
ARC
  5
C563
330
C521
100
AcDbEntity
  8
0
100
AcDbCircle
 10
28.40199999996923
 20
2.373099999991211
 30
0.0
 40
2.34
100
AcDbArc
 50
270.0
 51
0.0
1001
ACAD
1000
ASC_BOUNDS
1002
{
1070
    19
1005
C566
1002
}
  0
INSERT
  5
C564
330
C521
100
AcDbEntity
  8
0
100
AcDbBlockReference
  2
*X28
 10
0.0
 20
0.0
 30
0.0
1001
ACAD
1000
HATCH
1002
{
1070
    19
1000
ANSI37
1040
0.15
1040
0.0
1000
ASC_BOUNDS
1070
     2
1070
     2
1070
    12
1005
C523
1005
C524
1005
C52B
1005
C53A
1005
C53D
1005
C53B
1005
C52C
1005
C531
1005
C52F
1005
C533
1005
C532
1005
C534
1070
     2
1070
     3
1005
C53F
1005
C541
1005
C540
1000
ASC_SEEDPOINT
1011
3.614004224891801
1021
2.996669441146025
1031
0.0
1000
R14_HATCH_DATA
1000
C564
1011
1.0
1021
0.0
1031
0.0
1011
0.0
1021
1.0
1031
0.0
1011
0.0
1021
0.0
1031
1.0
1040
0.0
1010
0.0
1020
0.0
1030
1.0
1000
ANSI37
1070
     0
1070
     1
1071
        2
1071
        7
1070
     0
1070
     1
1071
       17
1040
13.26299999998673
1040
-0.0001000000000317
1040
9.236999999990758
1040
8.999899999990987
1040
9.236999999990758
1040
8.999999999991019
1040
5.657999999994331
1040
0.9999999999989768
1040
3.181999999996833
1040
4.668599999995308
1040
6.432999999993513
1040
8.763099999991255
1040
4.617999999995391
1040
8.763099999991255
1040
1.420999999998571
1040
4.736799999995242
1040
4.617999999995391
1040
-0.0001000000000317
1040
4.617999999995391
1040
0.0
1040
6.766999999993232
1040
0.0
1040
6.766999999993232
1040
-0.0001000000000317
1040
7.826999999992154
1040
2.368399999997621
1040
10.64699999998936
1040
2.368399999997621
1040
11.70599999998831
1040
-0.0001000000000317
1040
11.70599999998831
1040
0.0
1040
13.26299999998673
1040
0.0
1071
       12
1005
C523
1005
C524
1005
C52B
1005
C53A
1005
C53D
1005
C53B
1005
C52C
1005
C531
1005
C52F
1005
C533
1005
C532
1005
C534
1071
       22
1070
     0
1070
     1
1071
        3
1040
9.236999999990758
1040
5.5200999999945
1040
10.06399999998996
1040
3.670999999996297
1040
8.409999999991555
1040
3.670999999996297
1071
        3
1005
C53F
1005
C541
1005
C540
1070
     0
1070
     1
1040
0.0
1040
0.15
1070
     0
1070
     2
1040
0.7853981633974483
1040
49.29960901727088
1040
-10.17736998311392
1040
-0.3367596045400932
1040
0.3367596045400932
1070
     0
1040
2.356194490192345
1040
49.29960901727088
1040
-10.17736998311392
1040
-0.3367596045400932
1040
-0.3367596045400932
1070
     0
1040
0.0110235143455945
1071
        2
1040
3.614004224891801
1040
2.996669441146025
1040
0.0
1040
3.614004224891801
1040
2.996669441146025
1040
0.0
1002
}
  0
INSERT
  5
C565
330
C521
100
AcDbEntity
  8
0
100
AcDbBlockReference
  2
*X29
 10
0.0
 20
0.0
 30
0.0
1001
ACAD
1000
HATCH
1002
{
1070
    19
1000
ANSI37
1040
0.15
1040
0.0
1000
ASC_BOUNDS
1070
     1
1070
     2
1070
    10
1005
C525
1005
C526
1005
C547
1005
C545
1005
C546
1005
C539
1005
C53E
1005
C542
1005
C528
1005
C527
1000
ASC_SEEDPOINT
1011
14.73245321214324
1021
2.798246178283421
1031
0.0
1000
R14_HATCH_DATA
1000
C565
1011
1.0
1021
0.0
1031
0.0
1011
0.0
1021
1.0
1031
0.0
1011
0.0
1021
0.0
1031
1.0
1040
0.0
1010
0.0
1020
0.0
1030
1.0
1000
ANSI37
1070
     0
1070
     1
1071
        1
1071
        7
1070
     0
1070
     1
1071
       10
1040
16.46099999998353
1040
5.432899999994561
1040
18.59199999998134
1040
-0.2368999999997641
1040
22.38199999997767
1040
8.763099999991255
1040
20.89099999997916
1040
8.763099999991255
1040
18.59799999998143
1040
3.315799999996671
1040
16.46099999998353
1040
8.999899999990987
1040
14.32399999998563
1040
3.315799999996671
1040
12.02999999998792
1040
8.763099999991255
1040
10.53899999998941
1040
8.763099999991255
1040
14.32899999998563
1040
-0.2368999999997641
1071
       10
1005
C525
1005
C526
1005
C547
1005
C545
1005
C546
1005
C539
1005
C53E
1005
C542
1005
C528
1005
C527
1070
     0
1070
     1
1040
0.0
1040
0.15
1070
     0
1070
     2
1040
0.7853981633974483
1040
49.29960901727088
1040
-10.17736998311392
1040
-0.3367596045400932
1040
0.3367596045400932
1070
     0
1040
2.356194490192345
1040
49.29960901727088
1040
-10.17736998311392
1040
-0.3367596045400932
1040
-0.3367596045400932
1070
     0
1040
0.0110235143455945
1071
        1
1040
14.73245321214324
1040
2.798246178283421
1040
0.0
1002
}
  0
INSERT
  5
C566
330
C521
100
AcDbEntity
  8
0
100
AcDbBlockReference
  2
*X30
 10
0.0
 20
0.0
 30
0.0
1001
ACAD
1000
HATCH
1002
{
1070
    19
1000
ANSI37
1040
0.15
1040
0.0
1000
ASC_BOUNDS
1070
     2
1070
     2
1070
    13
1005
C529
1005
C536
1005
C537
1005
C535
1005
C538
1005
C55F
1005
C563
1005
C55E
1005
C55D
1005
C560
1005
C562
1005
C561
1005
C52A
1070
     2
1070
     3
1005
C543
1005
C548
1005
C544
1000
ASC_SEEDPOINT
1011
21.97929957367762
1021
3.294304244259308
1031
0.0
1000
R14_HATCH_DATA
1000
C566
1011
1.0
1021
0.0
1031
0.0
1011
0.0
1021
1.0
1031
0.0
1011
0.0
1021
0.0
1031
1.0
1040
0.0
1010
0.0
1020
0.0
1030
1.0
1000
ANSI37
1070
     0
1070
     1
1071
        2
1071
        7
1070
     1
1070
     1
1071
       15
1040
23.56599999997638
1040
8.999899999990987
1040
0.0
1040
19.53899999998043
1040
-0.0001000000000317
1040
0.0
1040
19.53899999998043
1040
0.0
1040
0.0
1040
21.09599999997886
1040
0.0
1040
0.0
1040
21.09599999997886
1040
-0.0001000000000317
1040
0.0
1040
22.15599999997789
1040
2.368399999997621
1040
0.0
1040
24.97599999997499
1040
2.368399999997621
1040
0.0
1040
26.02015566812236
1040
0.0330999999912365
1040
0.0
1040
28.40199999996923
1040
0.0330999999912365
1040
0.414213562373095
1040
30.74199999996923
1040
2.373099999991211
1040
0.0
1040
30.74199999996927
1040
8.763099999991255
1040
0.0
1040
29.30199999996933
1040
8.763099999991255
1040
0.0
1040
29.30199999996933
1040
2.283099999991236
1040
-0.414213562373095
1040
28.40199999996923
1040
1.383099999991237
1040
0.0
1040
26.97358892824991
1040
1.383099999991202
1040
0.0
1071
       13
1005
C529
1005
C536
1005
C537
1005
C535
1005
C538
1005
C55F
1005
C563
1005
C55E
1005
C55D
1005
C560
1005
C562
1005
C561
1005
C52A
1071
       22
1070
     0
1070
     1
1071
        3
1040
22.7389999999773
1040
3.670999999996297
1040
23.56599999997638
1040
5.5200999999945
1040
24.39299999997559
1040
3.670999999996297
1071
        3
1005
C543
1005
C548
1005
C544
1070
     0
1070
     1
1040
0.0
1040
0.15
1070
     0
1070
     2
1040
0.7853981633974483
1040
49.29960901727088
1040
-10.17736998311392
1040
-0.3367596045400932
1040
0.3367596045400932
1070
     0
1040
2.356194490192345
1040
49.29960901727088
1040
-10.17736998311392
1040
-0.3367596045400932
1040
-0.3367596045400932
1070
     0
1040
0.0110235143455945
1071
        2
1040
21.97929957367762
1040
3.294304244259308
1040
0.0
1040
21.97929957367762
1040
3.294304244259308
1040
0.0
1002
}
  0
INSERT
  5
C567
330
C521
100
AcDbEntity
  8
0
100
AcDbBlockReference
  2
*X31
 10
0.0
 20
0.0
 30
0.0
1001
ACAD
1000
HATCH
1002
{
1070
    19
1000
ANSI37
1040
0.15
1040
0.0
1000
R14_HATCH_DATA
1000
C567
1011
1.0
1021
0.0
1031
0.0
1011
0.0
1021
1.0
1031
0.0
1011
0.0
1021
0.0
1031
1.0
1040
0.0
1010
0.0
1020
0.0
1030
1.0
1000
ANSI37
1070
     0
1070
     1
1071
        1
1071
        7
1070
     1
1070
     1
1071
       12
1040
31.64199999996833
1040
2.481619422925121
1040
0.2679491924310942
1040
32.94699999997067
1040
0.2212931190493919
1040
0.2679491924301353
1040
36.36699999995983
1040
0.2212931190459813
1040
0.2679491924321411
1040
37.67199999996831
1040
2.481619422928361
1040
0.0
1040
37.67199999996831
1040
8.763099999991255
1040
0.0
1040
36.23199999996837
1040
8.763099999991255
1040
0.0
1040
36.23199999996837
1040
2.481619422925064
1040
-0.2679491924310291
1040
35.64699999996708
1040
1.468369700498386
1040
-0.267949192430519
1040
33.66699999997093
1040
1.468369700497703
1040
-0.267949192431809
1040
33.08199999996839
1040
2.481619422926997
1040
0.0
1040
33.08199999996839
1040
8.763099999991255
1040
0.0
1040
31.64199999996833
1040
8.763099999991255
1040
0.0
1071
        0
1070
     0
1070
     1
1040
0.0
1040
0.15
1070
     0
1070
     2
1040
0.7853981633974483
1040
49.29960901727088
1040
-10.17736998311392
1040
-0.3367596045400932
1040
0.3367596045400932
1070
     0
1040
2.356194490192345
1040
49.29960901727088
1040
-10.17736998311392
1040
-0.3367596045400932
1040
-0.3367596045400932
1070
     0
1040
0.0110235143455945
1071
        1
1040
32.30357378967278
1040
3.988785755459219
1040
0.0
1002
}
  0
INSERT
  5
C568
330
C521
100
AcDbEntity
  8
0
100
AcDbBlockReference
  2
*X32
 10
0.0
 20
0.0
 30
0.0
1001
ACAD
1000
HATCH
1002
{
1070
    19
1000
ANSI37
1040
0.15
1040
0.0
1000
ASC_BOUNDS
1070
     1
1070
     2
1070
     8
1005
C549
1005
C54C
1005
C550
1005
C54F
1005
C54E
1005
C54B
1005
C54D
1005
C54A
1000
ASC_SEEDPOINT
1011
39.74896370716704
1021
4.484843821435049
1031
0.0
1000
R14_HATCH_DATA
1000
C568
1011
1.0
1021
0.0
1031
0.0
1011
0.0
1021
1.0
1031
0.0
1011
0.0
1021
0.0
1031
1.0
1040
0.0
1010
0.0
1020
0.0
1030
1.0
1000
ANSI37
1070
     0
1070
     1
1071
        1
1071
        7
1070
     0
1070
     1
1071
        9
1040
40.02599999995994
1040
5.341799999994635
1040
44.99999999995498
1040
-0.2368999999997641
1040
44.99999999995498
1040
8.763099999991255
1040
43.57899999995641
1040
8.763099999991255
1040
43.57899999995641
1040
3.421199999996588
1040
38.60499999996136
1040
8.999899999990987
1040
38.60499999996136
1040
8.999999999991019
1040
38.60499999996136
1040
0.0
1040
40.02599999995994
1040
0.0
1071
        8
1005
C549
1005
C54C
1005
C550
1005
C54F
1005
C54E
1005
C54B
1005
C54D
1005
C54A
1070
     0
1070
     1
1040
0.0
1040
0.15
1070
     0
1070
     2
1040
0.7853981633974483
1040
49.29960901727088
1040
-10.17736998311392
1040
-0.3367596045400932
1040
0.3367596045400932
1070
     0
1040
2.356194490192345
1040
49.29960901727088
1040
-10.17736998311392
1040
-0.3367596045400932
1040
-0.3367596045400932
1070
     0
1040
0.0110235143455945
1071
        1
1040
39.74896370716704
1040
4.484843821435049
1040
0.0
1002
}
  0
INSERT
  5
C569
330
C521
100
AcDbEntity
  8
0
100
AcDbBlockReference
  2
*X33
 10
0.0
 20
0.0
 30
0.0
1001
ACAD
1000
HATCH
1002
{
1070
    19
1000
ANSI37
1040
0.15
1040
0.0
1000
ASC_BOUNDS
1070
     1
1070
     2
1070
     4
1005
C52D
1005
C53C
1005
C52E
1005
C530
1000
ASC_SEEDPOINT
1011
1.079051535452663
1021
4.148538732891836
1031
0.0
1000
R14_HATCH_DATA
1000
C569
1011
1.0
1021
0.0
1031
0.0
1011
0.0
1021
1.0
1031
0.0
1011
0.0
1021
0.0
1031
1.0
1040
0.0
1010
0.0
1020
0.0
1030
1.0
1000
ANSI37
1070
     0
1070
     1
1071
        1
1071
        7
1070
     0
1070
     1
1071
        4
1040
1.420999999998571
1040
0.0
1040
1.420999999998571
1040
8.763099999991255
1040
0.0
1040
8.763099999991255
1040
0.0
1040
0.0
1071
        4
1005
C52D
1005
C53C
1005
C52E
1005
C530
1070
     0
1070
     1
1040
0.0
1040
0.15
1070
     0
1070
     2
1040
0.7853981633974483
1040
49.29960901727088
1040
-10.17736998311392
1040
-0.3367596045400932
1040
0.3367596045400932
1070
     0
1040
2.356194490192345
1040
49.29960901727088
1040
-10.17736998311392
1040
-0.3367596045400932
1040
-0.3367596045400932
1070
     0
1040
0.0053004257112761
1071
        1
1040
1.079051535452663
1040
4.148538732891836
1040
0.0
1002
}
  0
ENDBLK
  5
C56A
330
C521
100
AcDbEntity
  8
0
100
AcDbBlockEnd
  0
BLOCK
  5
CEC2
330
CD35
100
AcDbEntity
  8
0
100
AcDbBlockBegin
  2
*X28
 70
     1
 10
0.0
 20
0.0
 30
0.0
  3
*X28
  1

  0
LINE
  5
CD36
330
CD35
100
AcDbEntity
  8
0
  6
CONTINUOUS
100
AcDbLine
 10
3.418023043697893
 20
7.251849696850613
 30
0.0
 11
4.929273346838536
 21
8.763099999991255
 31
0.0
  0
LINE
  5
CD37
330
CD35
100
AcDbEntity
  8
0
  6
CONTINUOUS
100
AcDbLine
 10
1.483656411257782
 20
4.643963855330318
 30
0.0
 11
5.60279255591872
 21
8.763099999991255
 31
0.0
  0
LINE
  5
CD38
330
CD35
100
AcDbEntity
  8
0
  6
CONTINUOUS
100
AcDbLine
 10
1.755053947328235
 20
4.241842182320584
 30
0.0
 11
6.276311764998907
 21
8.763099999991255
 31
0.0
  0
LINE
  5
CD39
330
CD35
100
AcDbEntity
  8
0
  6
CONTINUOUS
100
AcDbLine
 10
2.026451483398688
 20
3.839720509310849
 30
0.0
 11
4.441040904851878
 21
6.254309930764039
 31
0.0
  0
LINE
  5
CD3A
330
CD35
100
AcDbEntity
  8
0
  6
CONTINUOUS
100
AcDbLine
 10
2.297849019469139
 20
3.437598836301114
 30
0.0
 11
3.321765168359338
 21
4.461514985191313
 31
0.0
  0
LINE
  5
CD3B
330
CD35
100
AcDbEntity
  8
0
  6
CONTINUOUS
100
AcDbLine
 10
2.569246555539591
 20
3.03547716329138
 30
0.0
 11
3.593163397972743
 21
4.059394005724531
 31
0.0
  0
LINE
  5
CD3C
330
CD35
100
AcDbEntity
  8
0
  6
CONTINUOUS
100
AcDbLine
 10
2.840644091610043
 20
2.633355490281646
 30
0.0
 11
3.864561627586149
 21
3.657273026257751
 31
0.0
  0
LINE
  5
CD3D
330
CD35
100
AcDbEntity
  8
0
  6
CONTINUOUS
100
AcDbLine
 10
3.112041627680496
 20
2.231233817271911
 30
0.0
 11
4.135959857199554
 21
3.25515204679097
 31
0.0
  0
LINE
  5
CD3E
330
CD35
100
AcDbEntity
  8
0
  6
CONTINUOUS
100
AcDbLine
 10
3.383439163750948
 20
1.829112144262177
 30
0.0
 11
4.40735808681296
 21
2.853031067324189
 31
0.0
  0
LINE
  5
CD3F
330
CD35
100
AcDbEntity
  8
0
  6
CONTINUOUS
100
AcDbLine
 10
3.654836699821399
 20
1.426990471252442
 30
0.0
 11
4.678756316426365
 21
2.450910087857407
 31
0.0
  0
LINE
  5
CD40
330
CD35
100
AcDbEntity
  8
0
  6
CONTINUOUS
100
AcDbLine
 10
3.926234235891853
 20
1.024868798242709
 30
0.0
 11
4.95015454603977
 21
2.048789108390626
 31
0.0
  0
LINE
  5
CD41
330
CD35
100
AcDbEntity
  8
0
  6
CONTINUOUS
100
AcDbLine
 10
4.197631771962304
 20
0.6227471252329737
 30
0.0
 11
5.221552775653176
 21
1.646668128923846
 31
0.0
  0
LINE
  5
CD42
330
CD35
100
AcDbEntity
  8
0
  6
CONTINUOUS
100
AcDbLine
 10
8.715877546767851
 20
7.835069736359266
 30
0.0
 11
9.435953450375058
 21
8.555145639966472
 31
0.0
  0
LINE
  5
CD43
330
CD35
100
AcDbEntity
  8
0
  6
CONTINUOUS
100
AcDbLine
 10
8.170620868422267
 20
6.616293848933497
 30
0.0
 11
9.644120833743461
 21
8.08979381425469
 31
0.0
  0
LINE
  5
CD44
330
CD35
100
AcDbEntity
  8
0
  6
CONTINUOUS
100
AcDbLine
 10
7.625364190076684
 20
5.397517961507727
 30
0.0
 11
9.852288217111864
 21
7.624441988542907
 31
0.0
  0
LINE
  5
CD45
330
CD35
100
AcDbEntity
  8
0
  6
CONTINUOUS
100
AcDbLine
 10
7.080107511731101
 20
4.178742074081957
 30
0.0
 11
10.06045560048027
 21
7.159090162831124
 31
0.0
  0
LINE
  5
CD46
330
CD35
100
AcDbEntity
  8
0
  6
CONTINUOUS
100
AcDbLine
 10
6.534850833385518
 20
2.959966186656187
 30
0.0
 11
10.26862298384867
 21
6.693738337119342
 31
0.0
  0
LINE
  5
CD47
330
CD35
100
AcDbEntity
  8
0
  6
CONTINUOUS
100
AcDbLine
 10
4.469029308032756
 20
0.2206254522232385
 30
0.0
 11
5.492951005266582
 21
1.244547149457064
 31
0.0
  0
LINE
  5
CD48
330
CD35
100
AcDbEntity
  8
0
  6
CONTINUOUS
100
AcDbLine
 10
5.989594155039935
 20
1.741190299230417
 30
0.0
 11
8.806950407233131
 21
4.558546551423613
 31
0.0
  0
LINE
  5
CD49
330
CD35
100
AcDbEntity
  8
0
  6
CONTINUOUS
100
AcDbLine
 10
9.401251593263643
 20
5.152847737454126
 30
0.0
 11
10.47679036721708
 21
6.228386511407559
 31
0.0
  0
LINE
  5
CD4A
330
CD35
100
AcDbEntity
  8
0
  6
CONTINUOUS
100
AcDbLine
 10
4.921837203428691
 20
-0.0000858614610131
 30
0.0
 11
8.592923064886001
 21
3.670999999996297
 31
0.0
  0
LINE
  5
CD4B
330
CD35
100
AcDbEntity
  8
0
  6
CONTINUOUS
100
AcDbLine
 10
9.609390446785305
 20
4.6874673818956
 30
0.0
 11
10.68495775058548
 21
5.763034685695775
 31
0.0
  0
LINE
  5
CD4C
330
CD35
100
AcDbEntity
  8
0
  6
CONTINUOUS
100
AcDbLine
 10
5.595387755019432
 20
-0.0000545189504582
 30
0.0
 11
7.716137258923768
 21
2.120694984953879
 31
0.0
  0
LINE
  5
CD4D
330
CD35
100
AcDbEntity
  8
0
  6
CONTINUOUS
100
AcDbLine
 10
6.268938306610172
 20
-0.000023176439905
 30
0.0
 11
7.170485805526503
 21
0.9015243224764267
 31
0.0
  0
LINE
  5
CD4E
330
CD35
100
AcDbEntity
  8
0
  6
CONTINUOUS
100
AcDbLine
 10
7.963842273967511
 20
2.368399999997621
 30
0.0
 11
9.266442273966188
 21
3.670999999996297
 31
0.0
  0
LINE
  5
CD4F
330
CD35
100
AcDbEntity
  8
0
  6
CONTINUOUS
100
AcDbLine
 10
8.637361483047696
 20
2.368399999997621
 30
0.0
 11
9.939961483046375
 21
3.670999999996297
 31
0.0
  0
LINE
  5
CD50
330
CD35
100
AcDbEntity
  8
0
  6
CONTINUOUS
100
AcDbLine
 10
9.817529300306965
 20
4.222087026337075
 30
0.0
 11
10.89312513395388
 21
5.297682859983993
 31
0.0
  0
LINE
  5
CD51
330
CD35
100
AcDbEntity
  8
0
  6
CONTINUOUS
100
AcDbLine
 10
10.02566815382863
 20
3.756706670778549
 30
0.0
 11
11.10129251732229
 21
4.832331034272211
 31
0.0
  0
LINE
  5
CD52
330
CD35
100
AcDbEntity
  8
0
  6
CONTINUOUS
100
AcDbLine
 10
9.310880692127883
 20
2.368399999997621
 30
0.0
 11
11.30945990069069
 21
4.366979208560428
 31
0.0
  0
LINE
  5
CD53
330
CD35
100
AcDbEntity
  8
0
  6
CONTINUOUS
100
AcDbLine
 10
9.98439990120807
 20
2.36839999999762
 30
0.0
 11
11.5176272840591
 21
3.901627382848645
 31
0.0
  0
LINE
  5
CD54
330
CD35
100
AcDbEntity
  8
0
  6
CONTINUOUS
100
AcDbLine
 10
10.65037369446246
 20
2.36085458417182
 30
0.0
 11
11.7257946674275
 21
3.436275557136862
 31
0.0
  0
LINE
  5
CD55
330
CD35
100
AcDbEntity
  8
0
  6
CONTINUOUS
100
AcDbLine
 10
10.85847197087848
 20
1.895433651507656
 30
0.0
 11
11.9339620507959
 21
2.97092373142508
 31
0.0
  0
LINE
  5
CD56
330
CD35
100
AcDbEntity
  8
0
  6
CONTINUOUS
100
AcDbLine
 10
11.0665702472945
 20
1.430012718843491
 30
0.0
 11
12.14212943416431
 21
2.505571905713296
 31
0.0
  0
LINE
  5
CD57
330
CD35
100
AcDbEntity
  8
0
  6
CONTINUOUS
100
AcDbLine
 10
11.27466852371052
 20
0.9645917861793256
 30
0.0
 11
12.35029681753271
 21
2.040220080001513
 31
0.0
  0
LINE
  5
CD58
330
CD35
100
AcDbEntity
  8
0
  6
CONTINUOUS
100
AcDbLine
 10
11.48276680012654
 20
0.4991708535151611
 30
0.0
 11
12.55846420090111
 21
1.57486825428973
 31
0.0
  0
LINE
  5
CD59
330
CD35
100
AcDbEntity
  8
0
  6
CONTINUOUS
100
AcDbLine
 10
11.69086507654257
 20
0.0337499208509957
 30
0.0
 11
12.76663158426952
 21
1.109516428577947
 31
0.0
  0
LINE
  5
CD5A
330
CD35
100
AcDbEntity
  8
0
  6
CONTINUOUS
100
AcDbLine
 10
12.33057447873954
 20
-0.0000598860322123
 30
0.0
 11
12.97479896763792
 21
0.6441646028661663
 31
0.0
  0
LINE
  5
CD5B
330
CD35
100
AcDbEntity
  8
0
  6
CONTINUOUS
100
AcDbLine
 10
13.00413694809395
 20
-0.0000166257579952
 30
0.0
 11
13.18296635100632
 21
0.1788127771543824
 31
0.0
  0
LINE
  5
CD5C
330
CD35
100
AcDbEntity
  8
0
  6
CONTINUOUS
100
AcDbLine
 10
4.772852165289667
 20
-0.000092794222212
 30
0.0
 11
4.296495091028902
 21
0.4762642800385528
 31
0.0
  0
LINE
  5
CD5D
330
CD35
100
AcDbEntity
  8
0
  6
CONTINUOUS
100
AcDbLine
 10
5.446340034776103
 20
-0.0000614546284616
 30
0.0
 11
2.898195908335625
 21
2.548082671812017
 31
0.0
  0
LINE
  5
CD5E
330
CD35
100
AcDbEntity
  8
0
  6
CONTINUOUS
100
AcDbLine
 10
6.119827904262539
 20
-0.0000301150347113
 30
0.0
 11
1.499896725642348
 21
4.61990106358548
 31
0.0
  0
LINE
  5
CD5F
330
CD35
100
AcDbEntity
  8
0
  6
CONTINUOUS
100
AcDbLine
 10
6.775136745476159
 20
0.0181802528318542
 30
0.0
 11
5.699826040202669
 21
1.093490958105344
 31
0.0
  0
LINE
  5
CD60
330
CD35
100
AcDbEntity
  8
0
  6
CONTINUOUS
100
AcDbLine
 10
6.983376846288489
 20
0.4834593610997118
 30
0.0
 11
5.908008617934405
 21
1.558827589453796
 31
0.0
  0
LINE
  5
CD61
330
CD35
100
AcDbEntity
  8
0
  6
CONTINUOUS
100
AcDbLine
 10
5.377063484962296
 20
1.416253513345719
 30
0.0
 11
1.702276957014131
 21
5.091040041293883
 31
0.0
  0
LINE
  5
CD62
330
CD35
100
AcDbEntity
  8
0
  6
CONTINUOUS
100
AcDbLine
 10
3.978745891735324
 20
3.488090315652877
 30
0.0
 11
2.000373521109399
 21
5.466462686278803
 31
0.0
  0
LINE
  5
CD63
330
CD35
100
AcDbEntity
  8
0
  6
CONTINUOUS
100
AcDbLine
 10
7.191616947100819
 20
0.948738469367568
 30
0.0
 11
6.11619119566614
 21
2.024164220802247
 31
0.0
  0
LINE
  5
CD64
330
CD35
100
AcDbEntity
  8
0
  6
CONTINUOUS
100
AcDbLine
 10
7.399857047913149
 20
1.414017577635424
 30
0.0
 11
6.324373773397875
 21
2.489500852150698
 31
0.0
  0
LINE
  5
CD65
330
CD35
100
AcDbEntity
  8
0
  6
CONTINUOUS
100
AcDbLine
 10
7.608097148725479
 20
1.879296685903281
 30
0.0
 11
6.53255635112961
 21
2.95483748349915
 31
0.0
  0
LINE
  5
CD66
330
CD35
100
AcDbEntity
  8
0
  6
CONTINUOUS
100
AcDbLine
 10
7.816337249537808
 20
2.344575794171138
 30
0.0
 11
6.740738928861345
 21
3.420174114847601
 31
0.0
  0
LINE
  5
CD67
330
CD35
100
AcDbEntity
  8
0
  6
CONTINUOUS
100
AcDbLine
 10
3.310241080789734
 20
4.830114335678653
 30
0.0
 11
2.298470085204666
 21
5.84188533126372
 31
0.0
  0
LINE
  5
CD68
330
CD35
100
AcDbEntity
  8
0
  6
CONTINUOUS
100
AcDbLine
 10
3.60832983563551
 20
5.205544789913063
 30
0.0
 11
2.596566649299935
 21
6.217307976248638
 31
0.0
  0
LINE
  5
CD69
330
CD35
100
AcDbEntity
  8
0
  6
CONTINUOUS
100
AcDbLine
 10
3.906418590481286
 20
5.580975244147473
 30
0.0
 11
2.894663213395203
 21
6.592730621233557
 31
0.0
  0
LINE
  5
CD6A
330
CD35
100
AcDbEntity
  8
0
  6
CONTINUOUS
100
AcDbLine
 10
4.204507345327062
 20
5.956405698381884
 30
0.0
 11
3.192759777490472
 21
6.968153266218474
 31
0.0
  0
LINE
  5
CD6B
330
CD35
100
AcDbEntity
  8
0
  6
CONTINUOUS
100
AcDbLine
 10
8.466032252791512
 20
2.368399999997621
 30
0.0
 11
6.948921506593081
 21
3.885510746196053
 31
0.0
  0
LINE
  5
CD6C
330
CD35
100
AcDbEntity
  8
0
  6
CONTINUOUS
100
AcDbLine
 10
9.139551461871699
 20
2.36839999999762
 30
0.0
 11
7.157104084324816
 21
4.350847377544504
 31
0.0
  0
LINE
  5
CD6D
330
CD35
100
AcDbEntity
  8
0
  6
CONTINUOUS
100
AcDbLine
 10
4.502596100172839
 20
6.331836152616295
 30
0.0
 11
3.49085634158574
 21
7.343575911203393
 31
0.0
  0
LINE
  5
CD6E
330
CD35
100
AcDbEntity
  8
0
  6
CONTINUOUS
100
AcDbLine
 10
4.800684855018615
 20
6.707266606850705
 30
0.0
 11
3.788952905681008
 21
7.718998556188312
 31
0.0
  0
LINE
  5
CD6F
330
CD35
100
AcDbEntity
  8
0
  6
CONTINUOUS
100
AcDbLine
 10
12.18154012887317
 20
-0.0000694579236642
 30
0.0
 11
11.32140332908496
 21
0.8600673418645499
 31
0.0
  0
LINE
  5
CD70
330
CD35
100
AcDbEntity
  8
0
  6
CONTINUOUS
100
AcDbLine
 10
12.85501608323566
 20
-0.0000262032059659
 30
0.0
 11
10.77672456435345
 21
2.078265315676246
 31
0.0
  0
LINE
  5
CD71
330
CD35
100
AcDbEntity
  8
0
  6
CONTINUOUS
100
AcDbLine
 10
9.813070670951886
 20
2.36839999999762
 30
0.0
 11
8.51047067095321
 21
3.670999999996297
 31
0.0
  0
LINE
  5
CD72
330
CD35
100
AcDbEntity
  8
0
  6
CONTINUOUS
100
AcDbLine
 10
10.48658988003207
 20
2.36839999999762
 30
0.0
 11
9.183989880033396
 21
3.670999999996297
 31
0.0
  0
LINE
  5
CD73
330
CD35
100
AcDbEntity
  8
0
  6
CONTINUOUS
100
AcDbLine
 10
8.441048632286794
 20
3.740422038662712
 30
0.0
 11
7.365286662056551
 21
4.816184008892956
 31
0.0
  0
LINE
  5
CD74
330
CD35
100
AcDbEntity
  8
0
  6
CONTINUOUS
100
AcDbLine
 10
8.649187485808454
 20
4.205802394221237
 30
0.0
 11
7.573469239788285
 21
5.281520640241407
 31
0.0
  0
LINE
  5
CD75
330
CD35
100
AcDbEntity
  8
0
  6
CONTINUOUS
100
AcDbLine
 10
5.098773609864391
 20
7.082697061085115
 30
0.0
 11
4.087049469776277
 21
8.09442120117323
 31
0.0
  0
LINE
  5
CD76
330
CD35
100
AcDbEntity
  8
0
  6
CONTINUOUS
100
AcDbLine
 10
5.396862364710167
 20
7.458127515319526
 30
0.0
 11
4.385146033871544
 21
8.469843846158149
 31
0.0
  0
LINE
  5
CD77
330
CD35
100
AcDbEntity
  8
0
  6
CONTINUOUS
100
AcDbLine
 10
13.04801363231285
 20
0.4804954567970334
 30
0.0
 11
9.85750908911358
 21
3.670999999996297
 31
0.0
  0
LINE
  5
CD78
330
CD35
100
AcDbEntity
  8
0
  6
CONTINUOUS
100
AcDbLine
 10
8.857326339330116
 20
4.671182749779763
 30
0.0
 11
7.781651817520021
 21
5.746857271589858
 31
0.0
  0
LINE
  5
CD79
330
CD35
100
AcDbEntity
  8
0
  6
CONTINUOUS
100
AcDbLine
 10
5.694951119555943
 20
7.833557969553937
 30
0.0
 11
4.765409089118624
 21
8.763099999991255
 31
0.0
  0
LINE
  5
CD7A
330
CD35
100
AcDbEntity
  8
0
  6
CONTINUOUS
100
AcDbLine
 10
12.50286117236978
 20
1.699167125820288
 30
0.0
 11
9.68611877250287
 21
4.515909525687196
 31
0.0
  0
LINE
  5
CD7B
330
CD35
100
AcDbEntity
  8
0
  6
CONTINUOUS
100
AcDbLine
 10
9.065465192851777
 20
5.136563105338288
 30
0.0
 11
7.989834395251757
 21
6.21219390293831
 31
0.0
  0
LINE
  5
CD7C
330
CD35
100
AcDbEntity
  8
0
  6
CONTINUOUS
100
AcDbLine
 10
5.993039874401719
 20
8.208988423788346
 30
0.0
 11
5.43892829819881
 21
8.763099999991255
 31
0.0
  0
LINE
  5
CD7D
330
CD35
100
AcDbEntity
  8
0
  6
CONTINUOUS
100
AcDbLine
 10
11.95770871242671
 20
2.917838794843543
 30
0.0
 11
8.19801697298349
 21
6.677530534286761
 31
0.0
  0
LINE
  5
CD7E
330
CD35
100
AcDbEntity
  8
0
  6
CONTINUOUS
100
AcDbLine
 10
6.291128629247495
 20
8.584418878022756
 30
0.0
 11
6.112447507278997
 21
8.763099999991255
 31
0.0
  0
LINE
  5
CD7F
330
CD35
100
AcDbEntity
  8
0
  6
CONTINUOUS
100
AcDbLine
 10
11.41255625248364
 20
4.136510463866797
 30
0.0
 11
8.406199550715227
 21
7.142867165635211
 31
0.0
  0
LINE
  5
CD80
330
CD35
100
AcDbEntity
  8
0
  6
CONTINUOUS
100
AcDbLine
 10
10.86740379254057
 20
5.355182132890051
 30
0.0
 11
8.614382128446962
 21
7.608203796983664
 31
0.0
  0
LINE
  5
CD81
330
CD35
100
AcDbEntity
  8
0
  6
CONTINUOUS
100
AcDbLine
 10
10.3222513325975
 20
6.573853801913305
 30
0.0
 11
8.822564706178696
 21
8.073540428332114
 31
0.0
  0
LINE
  5
CD82
330
CD35
100
AcDbEntity
  8
0
  6
CONTINUOUS
100
AcDbLine
 10
9.777098872654436
 20
7.792525470936562
 30
0.0
 11
9.030747283910433
 21
8.538877059680566
 31
0.0
  0
ENDBLK
  5
CEC3
330
CD35
100
AcDbEntity
  8
0
100
AcDbBlockEnd
  0
BLOCK
  5
CEC4
330
CD83
100
AcDbEntity
  8
0
100
AcDbBlockBegin
  2
*X29
 70
     1
 10
0.0
 20
0.0
 30
0.0
  3
*X29
  1

  0
LINE
  5
CD84
330
CD83
100
AcDbEntity
  8
0
  6
CONTINUOUS
100
AcDbLine
 10
10.67292308101235
 20
8.445076852443387
 30
0.0
 11
10.99094622856022
 21
8.763099999991255
 31
0.0
  0
LINE
  5
CD85
330
CD83
100
AcDbEntity
  8
0
  6
CONTINUOUS
100
AcDbLine
 10
10.87250383178748
 20
7.971138394138331
 30
0.0
 11
11.6644654376404
 21
8.763099999991255
 31
0.0
  0
LINE
  5
CD86
330
CD83
100
AcDbEntity
  8
0
  6
CONTINUOUS
100
AcDbLine
 10
11.07208458256261
 20
7.497199935833273
 30
0.0
 11
12.12126590876355
 21
8.546381262034211
 31
0.0
  0
LINE
  5
CD87
330
CD83
100
AcDbEntity
  8
0
  6
CONTINUOUS
100
AcDbLine
 10
11.27166533333774
 20
7.023261477528216
 30
0.0
 11
12.32085164573666
 21
8.072447789927136
 31
0.0
  0
LINE
  5
CD88
330
CD83
100
AcDbEntity
  8
0
  6
CONTINUOUS
100
AcDbLine
 10
11.47124608411287
 20
6.549323019223158
 30
0.0
 11
12.52043738270977
 21
7.59851431782006
 31
0.0
  0
LINE
  5
CD89
330
CD83
100
AcDbEntity
  8
0
  6
CONTINUOUS
100
AcDbLine
 10
11.670826834888
 20
6.075384560918101
 30
0.0
 11
12.72002311968288
 21
7.124580845712984
 31
0.0
  0
LINE
  5
CD8A
330
CD83
100
AcDbEntity
  8
0
  6
CONTINUOUS
100
AcDbLine
 10
11.87040758566313
 20
5.601446102613043
 30
0.0
 11
12.91960885665599
 21
6.650647373605907
 31
0.0
  0
LINE
  5
CD8B
330
CD83
100
AcDbEntity
  8
0
  6
CONTINUOUS
100
AcDbLine
 10
12.06998833643825
 20
5.127507644307986
 30
0.0
 11
13.1191945936291
 21
6.176713901498832
 31
0.0
  0
LINE
  5
CD8C
330
CD83
100
AcDbEntity
  8
0
  6
CONTINUOUS
100
AcDbLine
 10
12.26956908721338
 20
4.65356918600293
 30
0.0
 11
13.31878033060221
 21
5.702780429391757
 31
0.0
  0
LINE
  5
CD8D
330
CD83
100
AcDbEntity
  8
0
  6
CONTINUOUS
100
AcDbLine
 10
12.46914983798851
 20
4.179630727697873
 30
0.0
 11
13.51836606757532
 21
5.228846957284683
 31
0.0
  0
LINE
  5
CD8E
330
CD83
100
AcDbEntity
  8
0
  6
CONTINUOUS
100
AcDbLine
 10
12.66873058876364
 20
3.705692269392816
 30
0.0
 11
13.71795180454843
 21
4.754913485177607
 31
0.0
  0
LINE
  5
CD8F
330
CD83
100
AcDbEntity
  8
0
  6
CONTINUOUS
100
AcDbLine
 10
12.86831133953877
 20
3.231753811087759
 30
0.0
 11
13.91753754152154
 21
4.280980013070531
 31
0.0
  0
LINE
  5
CD90
330
CD83
100
AcDbEntity
  8
0
  6
CONTINUOUS
100
AcDbLine
 10
13.0678920903139
 20
2.757815352782702
 30
0.0
 11
14.11712327849465
 21
3.807046540963456
 31
0.0
  0
LINE
  5
CD91
330
CD83
100
AcDbEntity
  8
0
  6
CONTINUOUS
100
AcDbLine
 10
13.26747284108903
 20
2.283876894477644
 30
0.0
 11
14.31670901546777
 21
3.333113068856379
 31
0.0
  0
LINE
  5
CD92
330
CD83
100
AcDbEntity
  8
0
  6
CONTINUOUS
100
AcDbLine
 10
16.36767838827179
 20
8.751678487061342
 30
0.0
 11
16.50332410898388
 21
8.887324207773432
 31
0.0
  0
LINE
  5
CD93
330
CD83
100
AcDbEntity
  8
0
  6
CONTINUOUS
100
AcDbLine
 10
15.96190732182191
 20
7.67238821153127
 30
0.0
 11
16.68735328004734
 21
8.397834169756699
 31
0.0
  0
LINE
  5
CD94
330
CD83
100
AcDbEntity
  8
0
  6
CONTINUOUS
100
AcDbLine
 10
15.55613625537202
 20
6.593097936001196
 30
0.0
 11
16.87138245111079
 21
7.908344131739965
 31
0.0
  0
LINE
  5
CD95
330
CD83
100
AcDbEntity
  8
0
  6
CONTINUOUS
100
AcDbLine
 10
15.15036518892213
 20
5.513807660471122
 30
0.0
 11
17.05541162217424
 21
7.418854093723231
 31
0.0
  0
LINE
  5
CD96
330
CD83
100
AcDbEntity
  8
0
  6
CONTINUOUS
100
AcDbLine
 10
14.74459412247225
 20
4.434517384941048
 30
0.0
 11
17.2394407932377
 21
6.929364055706499
 31
0.0
  0
LINE
  5
CD97
330
CD83
100
AcDbEntity
  8
0
  6
CONTINUOUS
100
AcDbLine
 10
14.33882305602236
 20
3.355227109410975
 30
0.0
 11
17.42346996430115
 21
6.439874017689766
 31
0.0
  0
LINE
  5
CD98
330
CD83
100
AcDbEntity
  8
0
  6
CONTINUOUS
100
AcDbLine
 10
13.46705359186416
 20
1.809938436172586
 30
0.0
 11
16.0819338255367
 21
4.424818669845129
 31
0.0
  0
LINE
  5
CD99
330
CD83
100
AcDbEntity
  8
0
  6
CONTINUOUS
100
AcDbLine
 10
16.63283254238972
 20
4.975717386698149
 30
0.0
 11
17.60749913536461
 21
5.950383979673033
 31
0.0
  0
LINE
  5
CD9A
330
CD83
100
AcDbEntity
  8
0
  6
CONTINUOUS
100
AcDbLine
 10
13.66663434263929
 20
1.335999977867529
 30
0.0
 11
15.67604797733754
 21
3.345413612565779
 31
0.0
  0
LINE
  5
CD9B
330
CD83
100
AcDbEntity
  8
0
  6
CONTINUOUS
100
AcDbLine
 10
13.86621509341442
 20
0.8620615195624723
 30
0.0
 11
15.27016212913838
 21
2.26600855528643
 31
0.0
  0
LINE
  5
CD9C
330
CD83
100
AcDbEntity
  8
0
  6
CONTINUOUS
100
AcDbLine
 10
16.81682257348267
 20
4.486188208710908
 30
0.0
 11
17.79152830642806
 21
5.460893941656299
 31
0.0
  0
LINE
  5
CD9D
330
CD83
100
AcDbEntity
  8
0
  6
CONTINUOUS
100
AcDbLine
 10
17.00081260457561
 20
3.996659030723667
 30
0.0
 11
17.97555747749151
 21
4.971403903639565
 31
0.0
  0
LINE
  5
CD9E
330
CD83
100
AcDbEntity
  8
0
  6
CONTINUOUS
100
AcDbLine
 10
20.74362343514722
 20
8.412989070375462
 30
0.0
 11
21.09373436476302
 21
8.763099999991256
 31
0.0
  0
LINE
  5
CD9F
330
CD83
100
AcDbEntity
  8
0
  6
CONTINUOUS
100
AcDbLine
 10
20.25401257174777
 20
7.249858997895826
 30
0.0
 11
21.7672535738432
 21
8.763099999991255
 31
0.0
  0
LINE
  5
CDA0
330
CD83
100
AcDbEntity
  8
0
  6
CONTINUOUS
100
AcDbLine
 10
14.06579584418955
 20
0.3881230612574149
 30
0.0
 11
14.86427628093921
 21
1.186603498007082
 31
0.0
  0
LINE
  5
CDA1
330
CD83
100
AcDbEntity
  8
0
  6
CONTINUOUS
100
AcDbLine
 10
14.26537659496467
 20
-0.0858153970476412
 30
0.0
 11
14.45839043274005
 21
0.1071984407277329
 31
0.0
  0
LINE
  5
CDA2
330
CD83
100
AcDbEntity
  8
0
  6
CONTINUOUS
100
AcDbLine
 10
17.18480263566856
 20
3.507129852736426
 30
0.0
 11
18.15958664855496
 21
4.481913865622833
 31
0.0
  0
LINE
  5
CDA3
330
CD83
100
AcDbEntity
  8
0
  6
CONTINUOUS
100
AcDbLine
 10
17.3687926667615
 20
3.017600674749186
 30
0.0
 11
18.34361581961842
 21
3.9924238276061
 31
0.0
  0
LINE
  5
CDA4
330
CD83
100
AcDbEntity
  8
0
  6
CONTINUOUS
100
AcDbLine
 10
19.76440170834832
 20
6.086728925416191
 30
0.0
 11
22.33924590259489
 21
8.661573119662755
 31
0.0
  0
LINE
  5
CDA5
330
CD83
100
AcDbEntity
  8
0
  6
CONTINUOUS
100
AcDbLine
 10
19.27479084494887
 20
4.923598852936555
 30
0.0
 11
21.84929622842713
 21
7.498104236414807
 31
0.0
  0
LINE
  5
CDA6
330
CD83
100
AcDbEntity
  8
0
  6
CONTINUOUS
100
AcDbLine
 10
17.55278269785445
 20
2.528071496761945
 30
0.0
 11
18.52764499068187
 21
3.502933789589366
 31
0.0
  0
LINE
  5
CDA7
330
CD83
100
AcDbEntity
  8
0
  6
CONTINUOUS
100
AcDbLine
 10
18.78517998154942
 20
3.760468780456919
 30
0.0
 11
21.35934655425936
 21
6.33463535316686
 31
0.0
  0
LINE
  5
CDA8
330
CD83
100
AcDbEntity
  8
0
  6
CONTINUOUS
100
AcDbLine
 10
17.73677272894739
 20
2.038542318774704
 30
0.0
 11
20.8693968800916
 21
5.171166469918914
 31
0.0
  0
LINE
  5
CDA9
330
CD83
100
AcDbEntity
  8
0
  6
CONTINUOUS
100
AcDbLine
 10
17.92076276004034
 20
1.549013140787464
 30
0.0
 11
20.37944720592384
 21
4.007697586670968
 31
0.0
  0
LINE
  5
CDAA
330
CD83
100
AcDbEntity
  8
0
  6
CONTINUOUS
100
AcDbLine
 10
18.10475279113329
 20
1.059483962800223
 30
0.0
 11
19.88949753175608
 21
2.84422870342302
 31
0.0
  0
LINE
  5
CDAB
330
CD83
100
AcDbEntity
  8
0
  6
CONTINUOUS
100
AcDbLine
 10
18.28874282222623
 20
0.5699547848129822
 30
0.0
 11
19.39954785758832
 21
1.680759820175074
 31
0.0
  0
LINE
  5
CDAC
330
CD83
100
AcDbEntity
  8
0
  6
CONTINUOUS
100
AcDbLine
 10
18.47273285331918
 20
0.0804256068257416
 30
0.0
 11
18.90959818342056
 21
0.517290936927127
 31
0.0
  0
LINE
  5
CDAD
330
CD83
100
AcDbEntity
  8
0
  6
CONTINUOUS
100
AcDbLine
 10
14.3590401358224
 20
-0.1570118376323384
 30
0.0
 11
14.24903296539946
 21
-0.0470046672093929
 31
0.0
  0
LINE
  5
CDAE
330
CD83
100
AcDbEntity
  8
0
  6
CONTINUOUS
100
AcDbLine
 10
14.54309291258661
 20
0.332454594683643
 30
0.0
 11
13.75908329123172
 21
1.116464216038529
 31
0.0
  0
LINE
  5
CDAF
330
CD83
100
AcDbEntity
  8
0
  6
CONTINUOUS
100
AcDbLine
 10
14.72714568935081
 20
0.8219210269996244
 30
0.0
 11
13.26913361706399
 21
2.27993309928645
 31
0.0
  0
LINE
  5
CDB0
330
CD83
100
AcDbEntity
  8
0
  6
CONTINUOUS
100
AcDbLine
 10
14.91119846611502
 20
1.311387459315606
 30
0.0
 11
12.77918394289625
 21
3.443401982534371
 31
0.0
  0
LINE
  5
CDB1
330
CD83
100
AcDbEntity
  8
0
  6
CONTINUOUS
100
AcDbLine
 10
15.09525124287922
 20
1.800853891631587
 30
0.0
 11
12.28923426872852
 21
4.606870865782293
 31
0.0
  0
LINE
  5
CDB2
330
CD83
100
AcDbEntity
  8
0
  6
CONTINUOUS
100
AcDbLine
 10
15.27930401964343
 20
2.290320323947569
 30
0.0
 11
11.79928459456078
 21
5.770339749030213
 31
0.0
  0
LINE
  5
CDB3
330
CD83
100
AcDbEntity
  8
0
  6
CONTINUOUS
100
AcDbLine
 10
15.46335679640763
 20
2.77978675626355
 30
0.0
 11
14.48885470994921
 21
3.754288842721972
 31
0.0
  0
LINE
  5
CDB4
330
CD83
100
AcDbEntity
  8
0
  6
CONTINUOUS
100
AcDbLine
 10
13.88507249233704
 20
4.358071060334137
 30
0.0
 11
11.30933492039305
 21
6.933808632278135
 31
0.0
  0
LINE
  5
CDB5
330
CD83
100
AcDbEntity
  8
0
  6
CONTINUOUS
100
AcDbLine
 10
18.75840522805855
 20
0.1582575336928151
 30
0.0
 11
18.25383727664818
 21
0.6628254851031863
 31
0.0
  0
LINE
  5
CDB6
330
CD83
100
AcDbEntity
  8
0
  6
CONTINUOUS
100
AcDbLine
 10
15.64740957317184
 20
3.269253188579531
 30
0.0
 11
14.67288388101266
 21
4.243778880738705
 31
0.0
  0
LINE
  5
CDB7
330
CD83
100
AcDbEntity
  8
0
  6
CONTINUOUS
100
AcDbLine
 10
13.39509276772158
 20
5.521569994029786
 30
0.0
 11
10.81938524622531
 21
8.097277515526056
 31
0.0
  0
LINE
  5
CDB8
330
CD83
100
AcDbEntity
  8
0
  6
CONTINUOUS
100
AcDbLine
 10
18.95798597883369
 20
0.6321959919978686
 30
0.0
 11
17.84825644852853
 21
1.741925522303024
 31
0.0
  0
LINE
  5
CDB9
330
CD83
100
AcDbEntity
  8
0
  6
CONTINUOUS
100
AcDbLine
 10
19.15756672960882
 20
1.106134450302922
 30
0.0
 11
17.44267562040888
 21
2.821025559502861
 31
0.0
  0
LINE
  5
CDBA
330
CD83
100
AcDbEntity
  8
0
  6
CONTINUOUS
100
AcDbLine
 10
15.83146234993604
 20
3.758719620895513
 30
0.0
 11
14.85691305207612
 21
4.733268918755439
 31
0.0
  0
LINE
  5
CDBB
330
CD83
100
AcDbEntity
  8
0
  6
CONTINUOUS
100
AcDbLine
 10
16.01551512670025
 20
4.248186053211494
 30
0.0
 11
15.04094222313957
 21
5.222758956772172
 31
0.0
  0
LINE
  5
CDBC
330
CD83
100
AcDbEntity
  8
0
  6
CONTINUOUS
100
AcDbLine
 10
12.90511304310612
 20
6.685068927725435
 30
0.0
 11
10.8270819708403
 21
8.763099999991255
 31
0.0
  0
LINE
  5
CDBD
330
CD83
100
AcDbEntity
  8
0
  6
CONTINUOUS
100
AcDbLine
 10
12.41513331849066
 20
7.848567861421083
 30
0.0
 11
11.50060117992049
 21
8.763099999991255
 31
0.0
  0
LINE
  5
CDBE
330
CD83
100
AcDbEntity
  8
0
  6
CONTINUOUS
100
AcDbLine
 10
19.35714748038395
 20
1.580072908607975
 30
0.0
 11
17.03709479228923
 21
3.900125596702697
 31
0.0
  0
LINE
  5
CDBF
330
CD83
100
AcDbEntity
  8
0
  6
CONTINUOUS
100
AcDbLine
 10
19.55672823115909
 20
2.054011366913028
 30
0.0
 11
16.63151396416958
 21
4.979225633902534
 31
0.0
  0
LINE
  5
CDC0
330
CD83
100
AcDbEntity
  8
0
  6
CONTINUOUS
100
AcDbLine
 10
16.19956790346445
 20
4.737652485527476
 30
0.0
 11
15.22497139420302
 21
5.712248994788904
 31
0.0
  0
LINE
  5
CDC1
330
CD83
100
AcDbEntity
  8
0
  6
CONTINUOUS
100
AcDbLine
 10
16.38362068022866
 20
5.227118917843457
 30
0.0
 11
15.40900056526648
 21
6.201739032805637
 31
0.0
  0
LINE
  5
CDC2
330
CD83
100
AcDbEntity
  8
0
  6
CONTINUOUS
100
AcDbLine
 10
19.75630898193422
 20
2.527949825218081
 30
0.0
 11
18.70774536448286
 21
3.576513442669441
 31
0.0
  0
LINE
  5
CDC3
330
CD83
100
AcDbEntity
  8
0
  6
CONTINUOUS
100
AcDbLine
 10
19.95588973270936
 20
3.001888283523134
 30
0.0
 11
18.90726987211446
 21
4.050508144118028
 31
0.0
  0
LINE
  5
CDC4
330
CD83
100
AcDbEntity
  8
0
  6
CONTINUOUS
100
AcDbLine
 10
20.15547048348449
 20
3.475826741828186
 30
0.0
 11
19.10679437974606
 21
4.524502845566614
 31
0.0
  0
LINE
  5
CDC5
330
CD83
100
AcDbEntity
  8
0
  6
CONTINUOUS
100
AcDbLine
 10
20.35505123425962
 20
3.94976520013324
 30
0.0
 11
19.30631888737766
 21
4.998497547015201
 31
0.0
  0
LINE
  5
CDC6
330
CD83
100
AcDbEntity
  8
0
  6
CONTINUOUS
100
AcDbLine
 10
20.55463198503475
 20
4.423703658438292
 30
0.0
 11
19.50584339500926
 21
5.472492248463787
 31
0.0
  0
LINE
  5
CDC7
330
CD83
100
AcDbEntity
  8
0
  6
CONTINUOUS
100
AcDbLine
 10
18.37481191085755
 20
3.909446896294752
 30
0.0
 11
15.59302973632993
 21
6.691229070822371
 31
0.0
  0
LINE
  5
CDC8
330
CD83
100
AcDbEntity
  8
0
  6
CONTINUOUS
100
AcDbLine
 10
17.96904084440766
 20
4.988737171824825
 30
0.0
 11
15.77705890739338
 21
7.180719108839104
 31
0.0
  0
LINE
  5
CDC9
330
CD83
100
AcDbEntity
  8
0
  6
CONTINUOUS
100
AcDbLine
 10
17.56326977795777
 20
6.068027447354899
 30
0.0
 11
15.96108807845684
 21
7.670209146855838
 31
0.0
  0
LINE
  5
CDCA
330
CD83
100
AcDbEntity
  8
0
  6
CONTINUOUS
100
AcDbLine
 10
17.15749871150789
 20
7.147317722884972
 30
0.0
 11
16.14511724952029
 21
8.15969918487257
 31
0.0
  0
LINE
  5
CDCB
330
CD83
100
AcDbEntity
  8
0
  6
CONTINUOUS
100
AcDbLine
 10
16.751727645058
 20
8.226607998415046
 30
0.0
 11
16.32914642058374
 21
8.649189222889303
 31
0.0
  0
LINE
  5
CDCC
330
CD83
100
AcDbEntity
  8
0
  6
CONTINUOUS
100
AcDbLine
 10
20.75421273580989
 20
4.897642116743345
 30
0.0
 11
19.70536790264086
 21
5.946486949912374
 31
0.0
  0
LINE
  5
CDCD
330
CD83
100
AcDbEntity
  8
0
  6
CONTINUOUS
100
AcDbLine
 10
20.95379348658502
 20
5.371580575048398
 30
0.0
 11
19.90489241027246
 21
6.42048165136096
 31
0.0
  0
LINE
  5
CDCE
330
CD83
100
AcDbEntity
  8
0
  6
CONTINUOUS
100
AcDbLine
 10
21.15337423736015
 20
5.845519033353452
 30
0.0
 11
20.10441691790406
 21
6.894476352809547
 31
0.0
  0
LINE
  5
CDCF
330
CD83
100
AcDbEntity
  8
0
  6
CONTINUOUS
100
AcDbLine
 10
21.35295498813529
 20
6.319457491658505
 30
0.0
 11
20.30394142553566
 21
7.368471054258134
 31
0.0
  0
LINE
  5
CDD0
330
CD83
100
AcDbEntity
  8
0
  6
CONTINUOUS
100
AcDbLine
 10
21.55253573891042
 20
6.793395949963558
 30
0.0
 11
20.50346593316726
 21
7.842465755706721
 31
0.0
  0
LINE
  5
CDD1
330
CD83
100
AcDbEntity
  8
0
  6
CONTINUOUS
100
AcDbLine
 10
21.75211648968556
 20
7.267334408268612
 30
0.0
 11
20.70299044079886
 21
8.316460457155308
 31
0.0
  0
LINE
  5
CDD2
330
CD83
100
AcDbEntity
  8
0
  6
CONTINUOUS
100
AcDbLine
 10
21.95169724046069
 20
7.741272866573663
 30
0.0
 11
20.9298701070431
 21
8.763099999991256
 31
0.0
  0
LINE
  5
CDD3
330
CD83
100
AcDbEntity
  8
0
  6
CONTINUOUS
100
AcDbLine
 10
22.15127799123582
 20
8.215211324878716
 30
0.0
 11
21.60338931612328
 21
8.763099999991256
 31
0.0
  0
LINE
  5
CDD4
330
CD83
100
AcDbEntity
  8
0
  6
CONTINUOUS
100
AcDbLine
 10
22.35085874201096
 20
8.689149783183769
 30
0.0
 11
22.27690852520347
 21
8.763099999991255
 31
0.0
  0
ENDBLK
  5
CEC5
330
CD83
100
AcDbEntity
  8
0
100
AcDbBlockEnd
  0
BLOCK
  5
CEC6
330
CDD5
100
AcDbEntity
  8
0
100
AcDbBlockBegin
  2
*X30
 70
     1
 10
0.0
 20
0.0
 30
0.0
  3
*X30
  1

  0
LINE
  5
CDD6
330
CDD5
100
AcDbEntity
  8
0
  6
CONTINUOUS
100
AcDbLine
 10
23.19462913593892
 20
8.169917934846424
 30
0.0
 11
23.70775465517246
 21
8.683043454079957
 31
0.0
  0
LINE
  5
CDD7
330
CDD5
100
AcDbEntity
  8
0
  6
CONTINUOUS
100
AcDbLine
 10
22.64923161835078
 20
6.951001208178088
 30
0.0
 11
23.9159364069932
 21
8.217705996820516
 31
0.0
  0
LINE
  5
CDD8
330
CDD5
100
AcDbEntity
  8
0
  6
CONTINUOUS
100
AcDbLine
 10
22.10383410076263
 20
5.732084481509751
 30
0.0
 11
24.12411815881395
 21
7.752368539561078
 31
0.0
  0
LINE
  5
CDD9
330
CDD5
100
AcDbEntity
  8
0
  6
CONTINUOUS
100
AcDbLine
 10
21.55843658317447
 20
4.513167754841414
 30
0.0
 11
24.3322999106347
 21
7.287031082301639
 31
0.0
  0
LINE
  5
CDDA
330
CDD5
100
AcDbEntity
  8
0
  6
CONTINUOUS
100
AcDbLine
 10
21.01303906558632
 20
3.294251028173077
 30
0.0
 11
24.54048166245544
 21
6.821693625042199
 31
0.0
  0
LINE
  5
CDDB
330
CDD5
100
AcDbEntity
  8
0
  6
CONTINUOUS
100
AcDbLine
 10
20.46764154799817
 20
2.075334301504738
 30
0.0
 11
23.28571549467848
 21
4.89340824818505
 31
0.0
  0
LINE
  5
CDDC
330
CDD5
100
AcDbEntity
  8
0
  6
CONTINUOUS
100
AcDbLine
 10
19.92224403041002
 20
0.8564175748364002
 30
0.0
 11
22.74075865492779
 21
3.674932199354171
 31
0.0
  0
LINE
  5
CDDD
330
CDD5
100
AcDbEntity
  8
0
  6
CONTINUOUS
100
AcDbLine
 10
23.67305085490148
 20
5.280743608408048
 30
0.0
 11
24.74866341427619
 21
6.356356167782759
 31
0.0
  0
LINE
  5
CDDE
330
CDD5
100
AcDbEntity
  8
0
  6
CONTINUOUS
100
AcDbLine
 10
23.88118970842314
 20
4.815363252849522
 30
0.0
 11
24.95684516609694
 21
5.89101871052332
 31
0.0
  0
LINE
  5
CDDF
330
CDD5
100
AcDbEntity
  8
0
  6
CONTINUOUS
100
AcDbLine
 10
19.73925852647308
 20
-0.0000871381807288
 30
0.0
 11
23.4103456646501
 21
3.670999999996297
 31
0.0
  0
LINE
  5
CDE0
330
CDD5
100
AcDbEntity
  8
0
  6
CONTINUOUS
100
AcDbLine
 10
24.0893285619448
 20
4.349982897290997
 30
0.0
 11
25.16502691791769
 21
5.42568125326388
 31
0.0
  0
LINE
  5
CDE1
330
CDD5
100
AcDbEntity
  8
0
  6
CONTINUOUS
100
AcDbLine
 10
20.41282099582748
 20
-0.0000438779065108
 30
0.0
 11
21.64944178675636
 21
1.236576913022366
 31
0.0
  0
LINE
  5
CDE2
330
CDD5
100
AcDbEntity
  8
0
  6
CONTINUOUS
100
AcDbLine
 10
22.78126487373161
 20
2.36839999999762
 30
0.0
 11
24.08386487373029
 21
3.670999999996297
 31
0.0
  0
LINE
  5
CDE3
330
CDD5
100
AcDbEntity
  8
0
  6
CONTINUOUS
100
AcDbLine
 10
24.29746741546646
 20
3.884602541732471
 30
0.0
 11
25.37320866973843
 21
4.960343796004441
 31
0.0
  0
LINE
  5
CDE4
330
CDD5
100
AcDbEntity
  8
0
  6
CONTINUOUS
100
AcDbLine
 10
21.08638346518189
 20
-0.0000006176322938
 30
0.0
 11
21.10379033335899
 21
0.0174062505448083
 31
0.0
  0
LINE
  5
CDE5
330
CDD5
100
AcDbEntity
  8
0
  6
CONTINUOUS
100
AcDbLine
 10
23.4547840828118
 20
2.36839999999762
 30
0.0
 11
25.58139042155918
 21
4.495006338745002
 31
0.0
  0
LINE
  5
CDE6
330
CDD5
100
AcDbEntity
  8
0
  6
CONTINUOUS
100
AcDbLine
 10
29.30199999996933
 20
8.215615917155148
 30
0.0
 11
29.84948408280543
 21
8.763099999991255
 31
0.0
  0
LINE
  5
CDE7
330
CDD5
100
AcDbEntity
  8
0
  6
CONTINUOUS
100
AcDbLine
 10
24.12830329189199
 20
2.36839999999762
 30
0.0
 11
25.78957217337993
 21
4.029668881485562
 31
0.0
  0
LINE
  5
CDE8
330
CDD5
100
AcDbEntity
  8
0
  6
CONTINUOUS
100
AcDbLine
 10
29.30199999996933
 20
7.54209670807496
 30
0.0
 11
30.52300329188562
 21
8.763099999991255
 31
0.0
  0
LINE
  5
CDE9
330
CDD5
100
AcDbEntity
  8
0
  6
CONTINUOUS
100
AcDbLine
 10
24.80182250097217
 20
2.36839999999762
 30
0.0
 11
25.99775392520067
 21
3.564331424226122
 31
0.0
  0
LINE
  5
CDEA
330
CDD5
100
AcDbEntity
  8
0
  6
CONTINUOUS
100
AcDbLine
 10
29.30199999996933
 20
6.868577498994774
 30
0.0
 11
30.74199999996926
 21
8.308577498994712
 31
0.0
  0
LINE
  5
CDEB
330
CDD5
100
AcDbEntity
  8
0
  6
CONTINUOUS
100
AcDbLine
 10
25.13028238392013
 20
2.023340673865392
 30
0.0
 11
26.20593567702142
 21
3.098993966966683
 31
0.0
  0
LINE
  5
CDEC
330
CDD5
100
AcDbEntity
  8
0
  6
CONTINUOUS
100
AcDbLine
 10
25.33838066033617
 20
1.557919741201244
 30
0.0
 11
26.41411742884217
 21
2.633656509707244
 31
0.0
  0
LINE
  5
CDED
330
CDD5
100
AcDbEntity
  8
0
  6
CONTINUOUS
100
AcDbLine
 10
25.54647893675221
 20
1.092498808537098
 30
0.0
 11
26.62229918066291
 21
2.168319052447804
 31
0.0
  0
LINE
  5
CDEE
330
CDD5
100
AcDbEntity
  8
0
  6
CONTINUOUS
100
AcDbLine
 10
25.75457721316825
 20
0.62707787587295
 30
0.0
 11
26.83048093248366
 21
1.702981595188365
 31
0.0
  0
LINE
  5
CDEF
330
CDD5
100
AcDbEntity
  8
0
  6
CONTINUOUS
100
AcDbLine
 10
29.30199999996933
 20
6.195058289914587
 30
0.0
 11
30.74199999996926
 21
7.635058289914522
 31
0.0
  0
LINE
  5
CDF0
330
CDD5
100
AcDbEntity
  8
0
  6
CONTINUOUS
100
AcDbLine
 10
29.30199999996933
 20
5.521539080834401
 30
0.0
 11
30.74199999996926
 21
6.961539080834331
 31
0.0
  0
LINE
  5
CDF1
330
CDD5
100
AcDbEntity
  8
0
  6
CONTINUOUS
100
AcDbLine
 10
29.30199999996933
 20
4.848019871754214
 30
0.0
 11
30.74199999996925
 21
6.288019871754143
 31
0.0
  0
LINE
  5
CDF2
330
CDD5
100
AcDbEntity
  8
0
  6
CONTINUOUS
100
AcDbLine
 10
29.30199999996933
 20
4.174500662674028
 30
0.0
 11
30.74199999996925
 21
5.614500662673953
 31
0.0
  0
LINE
  5
CDF3
330
CDD5
100
AcDbEntity
  8
0
  6
CONTINUOUS
100
AcDbLine
 10
25.96267548958429
 20
0.1616569432088024
 30
0.0
 11
27.18411854636669
 21
1.383099999991207
 31
0.0
  0
LINE
  5
CDF4
330
CDD5
100
AcDbEntity
  8
0
  6
CONTINUOUS
100
AcDbLine
 10
29.30199999996933
 20
3.500981453593841
 30
0.0
 11
30.74199999996925
 21
4.940981453593762
 31
0.0
  0
LINE
  5
CDF5
330
CDD5
100
AcDbEntity
  8
0
  6
CONTINUOUS
100
AcDbLine
 10
26.50763775544691
 20
0.0330999999912356
 30
0.0
 11
27.85763775544689
 21
1.383099999991223
 31
0.0
  0
LINE
  5
CDF6
330
CDD5
100
AcDbEntity
  8
0
  6
CONTINUOUS
100
AcDbLine
 10
29.30199999996933
 20
2.827462244513656
 30
0.0
 11
30.74199999996925
 21
4.267462244513574
 31
0.0
  0
LINE
  5
CDF7
330
CDD5
100
AcDbEntity
  8
0
  6
CONTINUOUS
100
AcDbLine
 10
27.18115696452709
 20
0.0330999999912356
 30
0.0
 11
28.6224847300034
 21
1.474427765467545
 31
0.0
  0
LINE
  5
CDF8
330
CDD5
100
AcDbEntity
  8
0
  6
CONTINUOUS
100
AcDbLine
 10
29.21067223449293
 20
2.062615269957069
 30
0.0
 11
30.74199999996924
 21
3.593943035433383
 31
0.0
  0
LINE
  5
CDF9
330
CDD5
100
AcDbEntity
  8
0
  6
CONTINUOUS
100
AcDbLine
 10
27.85467617360728
 20
0.0330999999912356
 30
0.0
 11
30.74199999996924
 21
2.920423826353195
 31
0.0
  0
LINE
  5
CDFA
330
CDD5
100
AcDbEntity
  8
0
  6
CONTINUOUS
100
AcDbLine
 10
28.61742899356196
 20
0.1223336108657271
 30
0.0
 11
30.65276638909473
 21
2.157671006398498
 31
0.0
  0
LINE
  5
CDFB
330
CDD5
100
AcDbEntity
  8
0
  6
CONTINUOUS
100
AcDbLine
 10
29.76719820264213
 20
0.5985836108657137
 30
0.0
 11
30.17651638909472
 21
1.0079017973183
 31
0.0
  0
LINE
  5
CDFC
330
CDD5
100
AcDbEntity
  8
0
  6
CONTINUOUS
100
AcDbLine
 10
19.59027867740337
 20
-0.0000967065718083
 30
0.0
 11
19.55485265190471
 21
0.035329318926844
 31
0.0
  0
LINE
  5
CDFD
330
CDD5
100
AcDbEntity
  8
0
  6
CONTINUOUS
100
AcDbLine
 10
20.26375463176586
 20
-0.0000534518541091
 30
0.0
 11
19.76305575737534
 21
0.5006454225364014
 31
0.0
  0
LINE
  5
CDFE
330
CDD5
100
AcDbEntity
  8
0
  6
CONTINUOUS
100
AcDbLine
 10
20.93723058612834
 20
-0.0000101971364099
 30
0.0
 11
19.97125886284597
 21
0.965961526145958
 31
0.0
  0
LINE
  5
CDFF
330
CDD5
100
AcDbEntity
  8
0
  6
CONTINUOUS
100
AcDbLine
 10
21.25514828313686
 20
0.355591314935257
 30
0.0
 11
20.1794619683166
 21
1.431277629755512
 31
0.0
  0
LINE
  5
CE00
330
CDD5
100
AcDbEntity
  8
0
  6
CONTINUOUS
100
AcDbLine
 10
21.46338838394921
 20
0.8208704232030986
 30
0.0
 11
20.38766507378723
 21
1.896593733365069
 31
0.0
  0
LINE
  5
CE01
330
CDD5
100
AcDbEntity
  8
0
  6
CONTINUOUS
100
AcDbLine
 10
21.67162848476155
 20
1.28614953147094
 30
0.0
 11
20.59586817925786
 21
2.361909836974626
 31
0.0
  0
LINE
  5
CE02
330
CDD5
100
AcDbEntity
  8
0
  6
CONTINUOUS
100
AcDbLine
 10
21.8798685855739
 20
1.751428639738782
 30
0.0
 11
20.80407128472849
 21
2.827225940584183
 31
0.0
  0
LINE
  5
CE03
330
CDD5
100
AcDbEntity
  8
0
  6
CONTINUOUS
100
AcDbLine
 10
22.08810868638624
 20
2.216707748006623
 30
0.0
 11
21.01227439019912
 21
3.292542044193739
 31
0.0
  0
LINE
  5
CE04
330
CDD5
100
AcDbEntity
  8
0
  6
CONTINUOUS
100
AcDbLine
 10
22.60993564347543
 20
2.36839999999762
 30
0.0
 11
21.22047749566975
 21
3.757858147803296
 31
0.0
  0
LINE
  5
CE05
330
CDD5
100
AcDbEntity
  8
0
  6
CONTINUOUS
100
AcDbLine
 10
23.28345485255561
 20
2.36839999999762
 30
0.0
 11
21.42868060114038
 21
4.223174251412853
 31
0.0
  0
LINE
  5
CE06
330
CDD5
100
AcDbEntity
  8
0
  6
CONTINUOUS
100
AcDbLine
 10
26.29227406164219
 20
0.0330999999912356
 30
0.0
 11
25.80009199592872
 21
0.5252820657046957
 31
0.0
  0
LINE
  5
CE07
330
CDD5
100
AcDbEntity
  8
0
  6
CONTINUOUS
100
AcDbLine
 10
23.9569740616358
 20
2.36839999999762
 30
0.0
 11
21.63688370661101
 21
4.688490355022409
 31
0.0
  0
LINE
  5
CE08
330
CDD5
100
AcDbEntity
  8
0
  6
CONTINUOUS
100
AcDbLine
 10
26.96579327072237
 20
0.0330999999912356
 30
0.0
 11
25.2554132311971
 21
1.743480039516508
 31
0.0
  0
LINE
  5
CE09
330
CDD5
100
AcDbEntity
  8
0
  6
CONTINUOUS
100
AcDbLine
 10
24.63049327071599
 20
2.36839999999762
 30
0.0
 11
23.32789327071731
 21
3.670999999996297
 31
0.0
  0
LINE
  5
CE0A
330
CDD5
100
AcDbEntity
  8
0
  6
CONTINUOUS
100
AcDbLine
 10
22.92098674744635
 20
4.077906523267254
 30
0.0
 11
21.84508681208164
 21
5.153806458631966
 31
0.0
  0
LINE
  5
CE0B
330
CDD5
100
AcDbEntity
  8
0
  6
CONTINUOUS
100
AcDbLine
 10
27.63931247980256
 20
0.0330999999912356
 30
0.0
 11
24.0014124797975
 21
3.670999999996297
 31
0.0
  0
LINE
  5
CE0C
330
CDD5
100
AcDbEntity
  8
0
  6
CONTINUOUS
100
AcDbLine
 10
23.129125600968
 20
4.5432868788258
 30
0.0
 11
22.05328991755227
 21
5.619122562241522
 31
0.0
  0
LINE
  5
CE0D
330
CDD5
100
AcDbEntity
  8
0
  6
CONTINUOUS
100
AcDbLine
 10
28.31283168888275
 20
0.0330999999912356
 30
0.0
 11
24.16488385994816
 21
4.181047828925828
 31
0.0
  0
LINE
  5
CE0E
330
CDD5
100
AcDbEntity
  8
0
  6
CONTINUOUS
100
AcDbLine
 10
23.33726445448964
 20
5.008667234384345
 30
0.0
 11
22.2614930230229
 21
6.084438665851079
 31
0.0
  0
LINE
  5
CE0F
330
CDD5
100
AcDbEntity
  8
0
  6
CONTINUOUS
100
AcDbLine
 10
28.81519848253303
 20
0.2042524154211396
 30
0.0
 11
27.63635089796295
 21
1.383099999991217
 31
0.0
  0
LINE
  5
CE10
330
CDD5
100
AcDbEntity
  8
0
  6
CONTINUOUS
100
AcDbLine
 10
26.43704649509776
 20
2.582404402856405
 30
0.0
 11
23.61992702019732
 21
5.399523877756844
 31
0.0
  0
LINE
  5
CE11
330
CDD5
100
AcDbEntity
  8
0
  6
CONTINUOUS
100
AcDbLine
 10
23.54540330801128
 20
5.47404758994289
 30
0.0
 11
22.46969612849353
 21
6.549754769460635
 31
0.0
  0
LINE
  5
CE12
330
CDD5
100
AcDbEntity
  8
0
  6
CONTINUOUS
100
AcDbLine
 10
29.29144848253303
 20
0.4015216245013242
 30
0.0
 11
28.30987010704312
 21
1.383099999991234
 31
0.0
  0
LINE
  5
CE13
330
CDD5
100
AcDbEntity
  8
0
  6
CONTINUOUS
100
AcDbLine
 10
25.89179548232307
 20
3.801174624711282
 30
0.0
 11
22.67789923396416
 21
7.015070873070191
 31
0.0
  0
LINE
  5
CE14
330
CDD5
100
AcDbEntity
  8
0
  6
CONTINUOUS
100
AcDbLine
 10
29.76769848253303
 20
0.5987908335815084
 30
0.0
 11
28.81310432793121
 21
1.553384988183336
 31
0.0
  0
LINE
  5
CE15
330
CDD5
100
AcDbEntity
  8
0
  6
CONTINUOUS
100
AcDbLine
 10
25.34654446954838
 20
5.01994484656616
 30
0.0
 11
22.88610233943479
 21
7.480386976679748
 31
0.0
  0
LINE
  5
CE16
330
CDD5
100
AcDbEntity
  8
0
  6
CONTINUOUS
100
AcDbLine
 10
30.13421977859274
 20
0.9057887466019845
 30
0.0
 11
29.14234640337737
 21
1.897662121817355
 31
0.0
  0
LINE
  5
CE17
330
CDD5
100
AcDbEntity
  8
0
  6
CONTINUOUS
100
AcDbLine
 10
24.80129345677369
 20
6.238715068421037
 30
0.0
 11
23.09430544490542
 21
7.945703080289305
 31
0.0
  0
LINE
  5
CE18
330
CDD5
100
AcDbEntity
  8
0
  6
CONTINUOUS
100
AcDbLine
 10
30.33148898767293
 20
1.382038746601982
 30
0.0
 11
29.30199999996933
 21
2.411527734305588
 31
0.0
  0
LINE
  5
CE19
330
CDD5
100
AcDbEntity
  8
0
  6
CONTINUOUS
100
AcDbLine
 10
30.52875819675312
 20
1.85828874660198
 30
0.0
 11
29.30199999996933
 21
3.085046943385775
 31
0.0
  0
LINE
  5
CE1A
330
CDD5
100
AcDbEntity
  8
0
  6
CONTINUOUS
100
AcDbLine
 10
24.256042443999
 20
7.457485290275915
 30
0.0
 11
23.30250855037605
 21
8.411019183898862
 31
0.0
  0
LINE
  5
CE1B
330
CDD5
100
AcDbEntity
  8
0
  6
CONTINUOUS
100
AcDbLine
 10
23.71079143122431
 20
8.676255512130794
 30
0.0
 11
23.51071165584668
 21
8.876335287508418
 31
0.0
  0
LINE
  5
CE1C
330
CDD5
100
AcDbEntity
  8
0
  6
CONTINUOUS
100
AcDbLine
 10
30.72602740583331
 20
2.334538746601978
 30
0.0
 11
29.30199999996933
 21
3.758566152465961
 31
0.0
  0
LINE
  5
CE1D
330
CDD5
100
AcDbEntity
  8
0
  6
CONTINUOUS
100
AcDbLine
 10
30.74199999996924
 20
2.992085361546236
 30
0.0
 11
29.30199999996933
 21
4.432085361546148
 31
0.0
  0
LINE
  5
CE1E
330
CDD5
100
AcDbEntity
  8
0
  6
CONTINUOUS
100
AcDbLine
 10
30.74199999996924
 20
3.665604570626419
 30
0.0
 11
29.30199999996933
 21
5.105604570626333
 31
0.0
  0
LINE
  5
CE1F
330
CDD5
100
AcDbEntity
  8
0
  6
CONTINUOUS
100
AcDbLine
 10
30.74199999996925
 20
4.339123779706602
 30
0.0
 11
29.30199999996933
 21
5.77912377970652
 31
0.0
  0
LINE
  5
CE20
330
CDD5
100
AcDbEntity
  8
0
  6
CONTINUOUS
100
AcDbLine
 10
30.74199999996925
 20
5.012642988786785
 30
0.0
 11
29.30199999996933
 21
6.452642988786707
 31
0.0
  0
LINE
  5
CE21
330
CDD5
100
AcDbEntity
  8
0
  6
CONTINUOUS
100
AcDbLine
 10
30.74199999996925
 20
5.68616219786697
 30
0.0
 11
29.30199999996933
 21
7.126162197866894
 31
0.0
  0
LINE
  5
CE22
330
CDD5
100
AcDbEntity
  8
0
  6
CONTINUOUS
100
AcDbLine
 10
30.74199999996925
 20
6.359681406947153
 30
0.0
 11
29.30199999996933
 21
7.799681406947081
 31
0.0
  0
LINE
  5
CE23
330
CDD5
100
AcDbEntity
  8
0
  6
CONTINUOUS
100
AcDbLine
 10
30.74199999996926
 20
7.033200616027337
 30
0.0
 11
29.30199999996933
 21
8.473200616027269
 31
0.0
  0
LINE
  5
CE24
330
CDD5
100
AcDbEntity
  8
0
  6
CONTINUOUS
100
AcDbLine
 10
30.74199999996926
 20
7.706719825107518
 30
0.0
 11
29.68561982508552
 21
8.763099999991255
 31
0.0
  0
LINE
  5
CE25
330
CDD5
100
AcDbEntity
  8
0
  6
CONTINUOUS
100
AcDbLine
 10
30.74199999996926
 20
8.380239034187703
 30
0.0
 11
30.35913903416571
 21
8.763099999991255
 31
0.0
  0
ENDBLK
  5
CEC7
330
CDD5
100
AcDbEntity
  8
0
100
AcDbBlockEnd
  0
BLOCK
  5
CEC8
330
CE26
100
AcDbEntity
  8
0
100
AcDbBlockBegin
  2
*X31
 70
     1
 10
0.0
 20
0.0
 30
0.0
  3
*X31
  1

  0
LINE
  5
CE27
330
CE26
100
AcDbEntity
  8
0
  6
CONTINUOUS
100
AcDbLine
 10
31.64199999996833
 20
8.535058289913598
 30
0.0
 11
31.87004171004599
 21
8.763099999991255
 31
0.0
  0
LINE
  5
CE28
330
CE26
100
AcDbEntity
  8
0
  6
CONTINUOUS
100
AcDbLine
 10
31.64199999996833
 20
7.861539080833412
 30
0.0
 11
32.54356091912618
 21
8.763099999991255
 31
0.0
  0
LINE
  5
CE29
330
CE26
100
AcDbEntity
  8
0
  6
CONTINUOUS
100
AcDbLine
 10
31.64199999996833
 20
7.188019871753226
 30
0.0
 11
33.08199999996839
 21
8.628019871753281
 31
0.0
  0
LINE
  5
CE2A
330
CE26
100
AcDbEntity
  8
0
  6
CONTINUOUS
100
AcDbLine
 10
31.64199999996833
 20
6.51450066267304
 30
0.0
 11
33.08199999996839
 21
7.954500662673095
 31
0.0
  0
LINE
  5
CE2B
330
CE26
100
AcDbEntity
  8
0
  6
CONTINUOUS
100
AcDbLine
 10
31.64199999996833
 20
5.840981453592853
 30
0.0
 11
33.08199999996839
 21
7.280981453592908
 31
0.0
  0
LINE
  5
CE2C
330
CE26
100
AcDbEntity
  8
0
  6
CONTINUOUS
100
AcDbLine
 10
31.64199999996833
 20
5.167462244512667
 30
0.0
 11
33.08199999996839
 21
6.607462244512721
 31
0.0
  0
LINE
  5
CE2D
330
CE26
100
AcDbEntity
  8
0
  6
CONTINUOUS
100
AcDbLine
 10
31.64199999996833
 20
4.493943035432481
 30
0.0
 11
33.08199999996839
 21
5.933943035432535
 31
0.0
  0
LINE
  5
CE2E
330
CE26
100
AcDbEntity
  8
0
  6
CONTINUOUS
100
AcDbLine
 10
31.64199999996833
 20
3.820423826352293
 30
0.0
 11
33.08199999996839
 21
5.260423826352348
 31
0.0
  0
LINE
  5
CE2F
330
CE26
100
AcDbEntity
  8
0
  6
CONTINUOUS
100
AcDbLine
 10
31.64199999996833
 20
3.146904617272106
 30
0.0
 11
33.08199999996839
 21
4.586904617272161
 31
0.0
  0
LINE
  5
CE30
330
CE26
100
AcDbEntity
  8
0
  6
CONTINUOUS
100
AcDbLine
 10
36.23199999996837
 20
8.410423826352325
 30
0.0
 11
36.5846761736073
 21
8.763099999991255
 31
0.0
  0
LINE
  5
CE31
330
CE26
100
AcDbEntity
  8
0
  6
CONTINUOUS
100
AcDbLine
 10
36.23199999996837
 20
7.73690461727214
 30
0.0
 11
37.25819538268748
 21
8.763099999991255
 31
0.0
  0
LINE
  5
CE32
330
CE26
100
AcDbEntity
  8
0
  6
CONTINUOUS
100
AcDbLine
 10
31.64374005202358
 20
2.475125460247167
 30
0.0
 11
33.08199999996839
 21
3.913385408191974
 31
0.0
  0
LINE
  5
CE33
330
CE26
100
AcDbEntity
  8
0
  6
CONTINUOUS
100
AcDbLine
 10
31.78607140823076
 20
1.943937607374161
 30
0.0
 11
33.08199999996839
 21
3.239866199111788
 31
0.0
  0
LINE
  5
CE34
330
CE26
100
AcDbEntity
  8
0
  6
CONTINUOUS
100
AcDbLine
 10
31.92840276443794
 20
1.412749754501155
 30
0.0
 11
33.08199999996839
 21
2.566346990031601
 31
0.0
  0
LINE
  5
CE35
330
CE26
100
AcDbEntity
  8
0
  6
CONTINUOUS
100
AcDbLine
 10
36.23199999996837
 20
7.063385408191953
 30
0.0
 11
37.67199999996831
 21
8.503385408191894
 31
0.0
  0
LINE
  5
CE36
330
CE26
100
AcDbEntity
  8
0
  6
CONTINUOUS
100
AcDbLine
 10
36.23199999996837
 20
6.389866199111767
 30
0.0
 11
37.67199999996831
 21
7.829866199111708
 31
0.0
  0
LINE
  5
CE37
330
CE26
100
AcDbEntity
  8
0
  6
CONTINUOUS
100
AcDbLine
 10
36.23199999996837
 20
5.71634699003158
 30
0.0
 11
37.67199999996831
 21
7.156346990031521
 31
0.0
  0
LINE
  5
CE38
330
CE26
100
AcDbEntity
  8
0
  6
CONTINUOUS
100
AcDbLine
 10
32.1787326690177
 20
0.9895604500007256
 30
0.0
 11
33.20642631446081
 21
2.017254095443837
 31
0.0
  0
LINE
  5
CE39
330
CE26
100
AcDbEntity
  8
0
  6
CONTINUOUS
100
AcDbLine
 10
36.23199999996837
 20
5.042827780951393
 30
0.0
 11
37.67199999996831
 21
6.482827780951334
 31
0.0
  0
LINE
  5
CE3A
330
CE26
100
AcDbEntity
  8
0
  6
CONTINUOUS
100
AcDbLine
 10
32.51549227355815
 20
0.652800845460991
 30
0.0
 11
33.49903056428258
 21
1.636339136185419
 31
0.0
  0
LINE
  5
CE3B
330
CE26
100
AcDbEntity
  8
0
  6
CONTINUOUS
100
AcDbLine
 10
36.23199999996837
 20
4.369308571871207
 30
0.0
 11
37.67199999996831
 21
5.809308571871147
 31
0.0
  0
LINE
  5
CE3C
330
CE26
100
AcDbEntity
  8
0
  6
CONTINUOUS
100
AcDbLine
 10
32.8522518780986
 20
0.3160412409212565
 30
0.0
 11
33.93324121824649
 21
1.397030581069147
 31
0.0
  0
LINE
  5
CE3D
330
CE26
100
AcDbEntity
  8
0
  6
CONTINUOUS
100
AcDbLine
 10
36.23199999996837
 20
3.69578936279102
 30
0.0
 11
37.67199999996831
 21
5.135789362790962
 31
0.0
  0
LINE
  5
CE3E
330
CE26
100
AcDbEntity
  8
0
  6
CONTINUOUS
100
AcDbLine
 10
33.32873687730419
 20
0.1190070310466638
 30
0.0
 11
34.46442907112041
 21
1.254699224862875
 31
0.0
  0
LINE
  5
CE3F
330
CE26
100
AcDbEntity
  8
0
  6
CONTINUOUS
100
AcDbLine
 10
36.23199999996837
 20
3.022270153710834
 30
0.0
 11
37.67199999996831
 21
4.462270153710775
 31
0.0
  0
LINE
  5
CE40
330
CE26
100
AcDbEntity
  8
0
  6
CONTINUOUS
100
AcDbLine
 10
33.85992473017767
 20
-0.0233243251600488
 30
0.0
 11
35.24350171668284
 21
1.360252661345124
 31
0.0
  0
LINE
  5
CE41
330
CE26
100
AcDbEntity
  8
0
  6
CONTINUOUS
100
AcDbLine
 10
36.18336676155003
 20
2.300117706212307
 30
0.0
 11
37.67199999996831
 21
3.788750944630588
 31
0.0
  0
LINE
  5
CE42
330
CE26
100
AcDbEntity
  8
0
  6
CONTINUOUS
100
AcDbLine
 10
34.39111258305115
 20
-0.1656556813667613
 30
0.0
 11
37.67199999996831
 21
3.115231735550401
 31
0.0
  0
LINE
  5
CE43
330
CE26
100
AcDbEntity
  8
0
  6
CONTINUOUS
100
AcDbLine
 10
35.11651383431612
 20
-0.1137736391819715
 30
0.0
 11
37.65739306207836
 21
2.427105588580266
 31
0.0
  0
LINE
  5
CE44
330
CE26
100
AcDbEntity
  8
0
  6
CONTINUOUS
100
AcDbLine
 10
36.03655818385387
 20
0.1327515012755951
 30
0.0
 11
37.41086792161699
 21
1.507061239038712
 31
0.0
  0
LINE
  5
CE45
330
CE26
100
AcDbEntity
  8
0
  6
CONTINUOUS
100
AcDbLine
 10
33.71988657648365
 20
0.0141987850318213
 30
0.0
 11
31.78457936207464
 21
1.949505999440826
 31
0.0
  0
LINE
  5
CE46
330
CE26
100
AcDbEntity
  8
0
  6
CONTINUOUS
100
AcDbLine
 10
34.63993092602409
 20
-0.2323263554284312
 30
0.0
 11
31.64199999996833
 21
2.765604570627321
 31
0.0
  0
LINE
  5
CE47
330
CE26
100
AcDbEntity
  8
0
  6
CONTINUOUS
100
AcDbLine
 10
35.17833301840466
 20
-0.0972092387288228
 30
0.0
 11
31.64199999996833
 21
3.439123779707508
 31
0.0
  0
LINE
  5
CE48
330
CE26
100
AcDbEntity
  8
0
  6
CONTINUOUS
100
AcDbLine
 10
35.70952087127903
 20
0.0451221174769945
 30
0.0
 11
34.51294304365551
 21
1.241699945100516
 31
0.0
  0
LINE
  5
CE49
330
CE26
100
AcDbEntity
  8
0
  6
CONTINUOUS
100
AcDbLine
 10
33.08199999996839
 20
2.67264298878764
 30
0.0
 11
31.64199999996833
 21
4.112642988787695
 31
0.0
  0
LINE
  5
CE4A
330
CE26
100
AcDbEntity
  8
0
  6
CONTINUOUS
100
AcDbLine
 10
36.2407087241534
 20
0.1874534736828117
 30
0.0
 11
35.10501653033629
 21
1.323145667499924
 31
0.0
  0
LINE
  5
CE4B
330
CE26
100
AcDbEntity
  8
0
  6
CONTINUOUS
100
AcDbLine
 10
33.08199999996839
 20
3.346162197867826
 30
0.0
 11
31.64199999996833
 21
4.786162197867881
 31
0.0
  0
LINE
  5
CE4C
330
CE26
100
AcDbEntity
  8
0
  6
CONTINUOUS
100
AcDbLine
 10
36.62369414391585
 20
0.4779872630005553
 30
0.0
 11
35.63620438320989
 21
1.465477023706505
 31
0.0
  0
LINE
  5
CE4D
330
CE26
100
AcDbEntity
  8
0
  6
CONTINUOUS
100
AcDbLine
 10
33.08199999996839
 20
4.019681406948012
 30
0.0
 11
31.64199999996833
 21
5.459681406948068
 31
0.0
  0
LINE
  5
CE4E
330
CE26
100
AcDbEntity
  8
0
  6
CONTINUOUS
100
AcDbLine
 10
36.96045374845689
 20
0.8147468675397027
 30
0.0
 11
35.97691545773309
 21
1.798285158263504
 31
0.0
  0
LINE
  5
CE4F
330
CE26
100
AcDbEntity
  8
0
  6
CONTINUOUS
100
AcDbLine
 10
33.08199999996839
 20
4.693200616028199
 30
0.0
 11
31.64199999996833
 21
6.133200616028255
 31
0.0
  0
LINE
  5
CE50
330
CE26
100
AcDbEntity
  8
0
  6
CONTINUOUS
100
AcDbLine
 10
37.29721335299792
 20
1.151506472078851
 30
0.0
 11
36.17602012811361
 21
2.272699696963168
 31
0.0
  0
LINE
  5
CE51
330
CE26
100
AcDbEntity
  8
0
  6
CONTINUOUS
100
AcDbLine
 10
33.08199999996839
 20
5.366719825108386
 30
0.0
 11
31.64199999996833
 21
6.80671982510844
 31
0.0
  0
LINE
  5
CE52
330
CE26
100
AcDbEntity
  8
0
  6
CONTINUOUS
100
AcDbLine
 10
37.45404367813572
 20
1.668195356021243
 30
0.0
 11
36.23199999996837
 21
2.890239034188594
 31
0.0
  0
LINE
  5
CE53
330
CE26
100
AcDbEntity
  8
0
  6
CONTINUOUS
100
AcDbLine
 10
37.5963750343428
 20
2.199383208894345
 30
0.0
 11
36.23199999996837
 21
3.56375824326878
 31
0.0
  0
LINE
  5
CE54
330
CE26
100
AcDbEntity
  8
0
  6
CONTINUOUS
100
AcDbLine
 10
33.08199999996839
 20
6.040239034188573
 30
0.0
 11
31.64199999996833
 21
7.480239034188627
 31
0.0
  0
LINE
  5
CE55
330
CE26
100
AcDbEntity
  8
0
  6
CONTINUOUS
100
AcDbLine
 10
33.08199999996839
 20
6.713758243268758
 30
0.0
 11
31.64199999996833
 21
8.153758243268815
 31
0.0
  0
LINE
  5
CE56
330
CE26
100
AcDbEntity
  8
0
  6
CONTINUOUS
100
AcDbLine
 10
37.67199999996831
 20
2.797277452349026
 30
0.0
 11
36.23199999996837
 21
4.237277452348967
 31
0.0
  0
LINE
  5
CE57
330
CE26
100
AcDbEntity
  8
0
  6
CONTINUOUS
100
AcDbLine
 10
37.67199999996831
 20
3.470796661429213
 30
0.0
 11
36.23199999996837
 21
4.910796661429154
 31
0.0
  0
LINE
  5
CE58
330
CE26
100
AcDbEntity
  8
0
  6
CONTINUOUS
100
AcDbLine
 10
37.67199999996831
 20
4.144315870509399
 30
0.0
 11
36.23199999996837
 21
5.58431587050934
 31
0.0
  0
LINE
  5
CE59
330
CE26
100
AcDbEntity
  8
0
  6
CONTINUOUS
100
AcDbLine
 10
33.08199999996839
 20
7.387277452348945
 30
0.0
 11
31.70617745232608
 21
8.763099999991255
 31
0.0
  0
LINE
  5
CE5A
330
CE26
100
AcDbEntity
  8
0
  6
CONTINUOUS
100
AcDbLine
 10
33.08199999996839
 20
8.060796661429132
 30
0.0
 11
32.37969666140626
 21
8.763099999991255
 31
0.0
  0
LINE
  5
CE5B
330
CE26
100
AcDbEntity
  8
0
  6
CONTINUOUS
100
AcDbLine
 10
33.08199999996839
 20
8.734315870509318
 30
0.0
 11
33.05321587048645
 21
8.763099999991255
 31
0.0
  0
LINE
  5
CE5C
330
CE26
100
AcDbEntity
  8
0
  6
CONTINUOUS
100
AcDbLine
 10
37.67199999996831
 20
4.817835079589585
 30
0.0
 11
36.23199999996837
 21
6.257835079589526
 31
0.0
  0
LINE
  5
CE5D
330
CE26
100
AcDbEntity
  8
0
  6
CONTINUOUS
100
AcDbLine
 10
37.67199999996831
 20
5.491354288669771
 30
0.0
 11
36.23199999996837
 21
6.931354288669713
 31
0.0
  0
LINE
  5
CE5E
330
CE26
100
AcDbEntity
  8
0
  6
CONTINUOUS
100
AcDbLine
 10
37.67199999996831
 20
6.164873497749958
 30
0.0
 11
36.23199999996837
 21
7.6048734977499
 31
0.0
  0
LINE
  5
CE5F
330
CE26
100
AcDbEntity
  8
0
  6
CONTINUOUS
100
AcDbLine
 10
37.67199999996831
 20
6.838392706830144
 30
0.0
 11
36.23199999996837
 21
8.278392706830086
 31
0.0
  0
LINE
  5
CE60
330
CE26
100
AcDbEntity
  8
0
  6
CONTINUOUS
100
AcDbLine
 10
37.67199999996831
 20
7.511911915910332
 30
0.0
 11
36.42081191588738
 21
8.763099999991255
 31
0.0
  0
LINE
  5
CE61
330
CE26
100
AcDbEntity
  8
0
  6
CONTINUOUS
100
AcDbLine
 10
37.67199999996831
 20
8.185431124990519
 30
0.0
 11
37.09433112496757
 21
8.763099999991255
 31
0.0
  0
ENDBLK
  5
CEC9
330
CE26
100
AcDbEntity
  8
0
100
AcDbBlockEnd
  0
BLOCK
  5
CECA
330
CE62
100
AcDbEntity
  8
0
100
AcDbBlockBegin
  2
*X32
 70
     1
 10
0.0
 20
0.0
 30
0.0
  3
*X32
  1

  0
LINE
  5
CE63
330
CE62
100
AcDbEntity
  8
0
  6
CONTINUOUS
100
AcDbLine
 10
38.60499999996136
 20
8.762866199104765
 30
0.0
 11
38.71672554182345
 21
8.874591740966855
 31
0.0
  0
LINE
  5
CE64
330
CE62
100
AcDbEntity
  8
0
  6
CONTINUOUS
100
AcDbLine
 10
38.60499999996136
 20
8.089346990024577
 30
0.0
 11
39.03418785440363
 21
8.518534844466847
 31
0.0
  0
LINE
  5
CE65
330
CE62
100
AcDbEntity
  8
0
  6
CONTINUOUS
100
AcDbLine
 10
38.60499999996136
 20
7.41582778094439
 30
0.0
 11
39.35165016698382
 21
8.16247794796684
 31
0.0
  0
LINE
  5
CE66
330
CE62
100
AcDbEntity
  8
0
  6
CONTINUOUS
100
AcDbLine
 10
38.60499999996136
 20
6.742308571864204
 30
0.0
 11
39.66911247956399
 21
7.806421051466834
 31
0.0
  0
LINE
  5
CE67
330
CE62
100
AcDbEntity
  8
0
  6
CONTINUOUS
100
AcDbLine
 10
38.60499999996136
 20
6.068789362784018
 30
0.0
 11
39.98657479214418
 21
7.450364154966827
 31
0.0
  0
LINE
  5
CE68
330
CE62
100
AcDbEntity
  8
0
  6
CONTINUOUS
100
AcDbLine
 10
38.60499999996136
 20
5.395270153703832
 30
0.0
 11
40.30403710472435
 21
7.09430725846682
 31
0.0
  0
LINE
  5
CE69
330
CE62
100
AcDbEntity
  8
0
  6
CONTINUOUS
100
AcDbLine
 10
38.60499999996136
 20
4.721750944623645
 30
0.0
 11
40.62149941730453
 21
6.738250361966813
 31
0.0
  0
LINE
  5
CE6A
330
CE62
100
AcDbEntity
  8
0
  6
CONTINUOUS
100
AcDbLine
 10
38.60499999996136
 20
4.048231735543458
 30
0.0
 11
40.93896172988471
 21
6.382193465466806
 31
0.0
  0
LINE
  5
CE6B
330
CE62
100
AcDbEntity
  8
0
  6
CONTINUOUS
100
AcDbLine
 10
38.60499999996136
 20
3.374712526463272
 30
0.0
 11
40.02599999995994
 21
4.795712526461843
 31
0.0
  0
LINE
  5
CE6C
330
CE62
100
AcDbEntity
  8
0
  6
CONTINUOUS
100
AcDbLine
 10
38.60499999996136
 20
2.701193317383085
 30
0.0
 11
40.02599999995994
 21
4.122193317381657
 31
0.0
  0
LINE
  5
CE6D
330
CE62
100
AcDbEntity
  8
0
  6
CONTINUOUS
100
AcDbLine
 10
40.28339754687704
 20
5.053110073378947
 30
0.0
 11
41.25642404246489
 21
6.026136568966799
 31
0.0
  0
LINE
  5
CE6E
330
CE62
100
AcDbEntity
  8
0
  6
CONTINUOUS
100
AcDbLine
 10
40.60085985945722
 20
4.697053176878939
 30
0.0
 11
41.57388635504507
 21
5.670079672466793
 31
0.0
  0
LINE
  5
CE6F
330
CE62
100
AcDbEntity
  8
0
  6
CONTINUOUS
100
AcDbLine
 10
43.57899999995641
 20
8.348712526458318
 30
0.0
 11
43.99338747348935
 21
8.763099999991255
 31
0.0
  0
LINE
  5
CE70
330
CE62
100
AcDbEntity
  8
0
  6
CONTINUOUS
100
AcDbLine
 10
43.57899999995641
 20
7.675193317378131
 30
0.0
 11
44.66690668256953
 21
8.763099999991255
 31
0.0
  0
LINE
  5
CE71
330
CE62
100
AcDbEntity
  8
0
  6
CONTINUOUS
100
AcDbLine
 10
38.60499999996136
 20
2.027674108302898
 30
0.0
 11
40.02599999995994
 21
3.44867410830147
 31
0.0
  0
LINE
  5
CE72
330
CE62
100
AcDbEntity
  8
0
  6
CONTINUOUS
100
AcDbLine
 10
38.60499999996136
 20
1.354154899222712
 30
0.0
 11
40.02599999995994
 21
2.775154899221284
 31
0.0
  0
LINE
  5
CE73
330
CE62
100
AcDbEntity
  8
0
  6
CONTINUOUS
100
AcDbLine
 10
38.60499999996136
 20
0.6806356901425255
 30
0.0
 11
40.02599999995994
 21
2.101635690141098
 31
0.0
  0
LINE
  5
CE74
330
CE62
100
AcDbEntity
  8
0
  6
CONTINUOUS
100
AcDbLine
 10
38.60499999996136
 20
0.0071164810623383
 30
0.0
 11
40.02599999995994
 21
1.428116481060911
 31
0.0
  0
LINE
  5
CE75
330
CE62
100
AcDbEntity
  8
0
  6
CONTINUOUS
100
AcDbLine
 10
40.9183221720374
 20
4.340996280378933
 30
0.0
 11
41.89134866762525
 21
5.314022775966786
 31
0.0
  0
LINE
  5
CE76
330
CE62
100
AcDbEntity
  8
0
  6
CONTINUOUS
100
AcDbLine
 10
41.23578448461758
 20
3.984939383878926
 30
0.0
 11
42.20881098020543
 21
4.957965879466778
 31
0.0
  0
LINE
  5
CE77
330
CE62
100
AcDbEntity
  8
0
  6
CONTINUOUS
100
AcDbLine
 10
41.55324679719776
 20
3.628882487378919
 30
0.0
 11
42.52627329278561
 21
4.601908982966772
 31
0.0
  0
LINE
  5
CE78
330
CE62
100
AcDbEntity
  8
0
  6
CONTINUOUS
100
AcDbLine
 10
41.87070910977793
 20
3.272825590878912
 30
0.0
 11
42.84373560536579
 21
4.245852086466765
 31
0.0
  0
LINE
  5
CE79
330
CE62
100
AcDbEntity
  8
0
  6
CONTINUOUS
100
AcDbLine
 10
43.57899999995641
 20
7.001674108297943
 30
0.0
 11
44.99999999995498
 21
8.422674108296516
 31
0.0
  0
LINE
  5
CE7A
330
CE62
100
AcDbEntity
  8
0
  6
CONTINUOUS
100
AcDbLine
 10
43.57899999995641
 20
6.328154899217758
 30
0.0
 11
44.99999999995498
 21
7.749154899216329
 31
0.0
  0
LINE
  5
CE7B
330
CE62
100
AcDbEntity
  8
0
  6
CONTINUOUS
100
AcDbLine
 10
43.57899999995641
 20
5.654635690137571
 30
0.0
 11
44.99999999995498
 21
7.075635690136142
 31
0.0
  0
LINE
  5
CE7C
330
CE62
100
AcDbEntity
  8
0
  6
CONTINUOUS
100
AcDbLine
 10
43.57899999995641
 20
4.981116481057384
 30
0.0
 11
44.99999999995498
 21
6.402116481055955
 31
0.0
  0
LINE
  5
CE7D
330
CE62
100
AcDbEntity
  8
0
  6
CONTINUOUS
100
AcDbLine
 10
39.27140272797921
 20
-0.0000000000000009
 30
0.0
 11
40.02599999995994
 21
0.7545972719807246
 31
0.0
  0
LINE
  5
CE7E
330
CE62
100
AcDbEntity
  8
0
  6
CONTINUOUS
100
AcDbLine
 10
39.9449219370594
 20
-0.0000000000000009
 30
0.0
 11
40.02599999995994
 21
0.0810780629005379
 31
0.0
  0
LINE
  5
CE7F
330
CE62
100
AcDbEntity
  8
0
  6
CONTINUOUS
100
AcDbLine
 10
42.18817142235812
 20
2.916768694378905
 30
0.0
 11
43.16119791794597
 21
3.889795189966758
 31
0.0
  0
LINE
  5
CE80
330
CE62
100
AcDbEntity
  8
0
  6
CONTINUOUS
100
AcDbLine
 10
42.50563373493829
 20
2.560711797878898
 30
0.0
 11
43.47866023052615
 21
3.533738293466751
 31
0.0
  0
LINE
  5
CE81
330
CE62
100
AcDbEntity
  8
0
  6
CONTINUOUS
100
AcDbLine
 10
43.57899999995641
 20
4.307597271977198
 30
0.0
 11
44.99999999995498
 21
5.728597271975769
 31
0.0
  0
LINE
  5
CE82
330
CE62
100
AcDbEntity
  8
0
  6
CONTINUOUS
100
AcDbLine
 10
43.57899999995641
 20
3.634078062897011
 30
0.0
 11
44.99999999995498
 21
5.055078062895582
 31
0.0
  0
LINE
  5
CE83
330
CE62
100
AcDbEntity
  8
0
  6
CONTINUOUS
100
AcDbLine
 10
42.82309604751848
 20
2.204654901378891
 30
0.0
 11
44.99999999995498
 21
4.381558853815395
 31
0.0
  0
LINE
  5
CE84
330
CE62
100
AcDbEntity
  8
0
  6
CONTINUOUS
100
AcDbLine
 10
43.14055836009865
 20
1.848598004878885
 30
0.0
 11
44.99999999995498
 21
3.70803964473521
 31
0.0
  0
LINE
  5
CE85
330
CE62
100
AcDbEntity
  8
0
  6
CONTINUOUS
100
AcDbLine
 10
43.45802067267883
 20
1.492541108378878
 30
0.0
 11
44.99999999995498
 21
3.034520435655023
 31
0.0
  0
LINE
  5
CE86
330
CE62
100
AcDbEntity
  8
0
  6
CONTINUOUS
100
AcDbLine
 10
43.77548298525902
 20
1.136484211878871
 30
0.0
 11
44.99999999995498
 21
2.361001226574837
 31
0.0
  0
LINE
  5
CE87
330
CE62
100
AcDbEntity
  8
0
  6
CONTINUOUS
100
AcDbLine
 10
44.09294529783919
 20
0.7804273153788639
 30
0.0
 11
44.99999999995498
 21
1.687482017494649
 31
0.0
  0
LINE
  5
CE88
330
CE62
100
AcDbEntity
  8
0
  6
CONTINUOUS
100
AcDbLine
 10
44.41040761041938
 20
0.4243704188788566
 30
0.0
 11
44.99999999995498
 21
1.013962808414463
 31
0.0
  0
LINE
  5
CE89
330
CE62
100
AcDbEntity
  8
0
  6
CONTINUOUS
100
AcDbLine
 10
44.72786992299955
 20
0.0683135223788494
 30
0.0
 11
44.99999999995498
 21
0.340443599334276
 31
0.0
  0
LINE
  5
CE8A
330
CE62
100
AcDbEntity
  8
0
  6
CONTINUOUS
100
AcDbLine
 10
39.12223903415696
 20
-0.0000000000000009
 30
0.0
 11
38.60499999996136
 21
0.5172390341955961
 31
0.0
  0
LINE
  5
CE8B
330
CE62
100
AcDbEntity
  8
0
  6
CONTINUOUS
100
AcDbLine
 10
39.79575824323715
 20
-0.0000000000000009
 30
0.0
 11
38.60499999996136
 21
1.190758243275783
 31
0.0
  0
LINE
  5
CE8C
330
CE62
100
AcDbEntity
  8
0
  6
CONTINUOUS
100
AcDbLine
 10
40.02599999995994
 20
0.443277452357397
 30
0.0
 11
38.60499999996136
 21
1.864277452355969
 31
0.0
  0
LINE
  5
CE8D
330
CE62
100
AcDbEntity
  8
0
  6
CONTINUOUS
100
AcDbLine
 10
40.02599999995994
 20
1.116796661437583
 30
0.0
 11
38.60499999996136
 21
2.537796661436155
 31
0.0
  0
LINE
  5
CE8E
330
CE62
100
AcDbEntity
  8
0
  6
CONTINUOUS
100
AcDbLine
 10
40.02599999995994
 20
1.79031587051777
 30
0.0
 11
38.60499999996136
 21
3.211315870516341
 31
0.0
  0
LINE
  5
CE8F
330
CE62
100
AcDbEntity
  8
0
  6
CONTINUOUS
100
AcDbLine
 10
40.02599999995994
 20
2.463835079597956
 30
0.0
 11
38.60499999996136
 21
3.884835079596527
 31
0.0
  0
LINE
  5
CE90
330
CE62
100
AcDbEntity
  8
0
  6
CONTINUOUS
100
AcDbLine
 10
40.02599999995994
 20
3.137354288678143
 30
0.0
 11
38.60499999996136
 21
4.558354288676714
 31
0.0
  0
LINE
  5
CE91
330
CE62
100
AcDbEntity
  8
0
  6
CONTINUOUS
100
AcDbLine
 10
40.02599999995994
 20
3.810873497758329
 30
0.0
 11
38.60499999996136
 21
5.2318734977569
 31
0.0
  0
LINE
  5
CE92
330
CE62
100
AcDbEntity
  8
0
  6
CONTINUOUS
100
AcDbLine
 10
40.02599999995994
 20
4.484392706838515
 30
0.0
 11
38.60499999996136
 21
5.905392706837086
 31
0.0
  0
LINE
  5
CE93
330
CE62
100
AcDbEntity
  8
0
  6
CONTINUOUS
100
AcDbLine
 10
44.99999999995498
 20
0.183911915923658
 30
0.0
 11
41.53858364506288
 21
3.64532827081576
 31
0.0
  0
LINE
  5
CE94
330
CE62
100
AcDbEntity
  8
0
  6
CONTINUOUS
100
AcDbLine
 10
40.02599999995994
 20
5.157911915918703
 30
0.0
 11
38.60499999996136
 21
6.578911915917274
 31
0.0
  0
LINE
  5
CE95
330
CE62
100
AcDbEntity
  8
0
  6
CONTINUOUS
100
AcDbLine
 10
44.99999999995498
 20
0.8574311250038447
 30
0.0
 11
38.60499999996136
 21
7.25243112499746
 31
0.0
  0
LINE
  5
CE96
330
CE62
100
AcDbEntity
  8
0
  6
CONTINUOUS
100
AcDbLine
 10
44.99999999995498
 20
1.530950334084031
 30
0.0
 11
38.60499999996136
 21
7.925950334077647
 31
0.0
  0
LINE
  5
CE97
330
CE62
100
AcDbEntity
  8
0
  6
CONTINUOUS
100
AcDbLine
 10
44.99999999995498
 20
2.204469543164218
 30
0.0
 11
43.57899999995641
 21
3.625469543162789
 31
0.0
  0
LINE
  5
CE98
330
CE62
100
AcDbEntity
  8
0
  6
CONTINUOUS
100
AcDbLine
 10
41.89876730984767
 20
5.305702233271528
 30
0.0
 11
38.60499999996136
 21
8.599469543157834
 31
0.0
  0
LINE
  5
CE99
330
CE62
100
AcDbEntity
  8
0
  6
CONTINUOUS
100
AcDbLine
 10
44.99999999995498
 20
2.877988752244405
 30
0.0
 11
43.57899999995641
 21
4.298988752242975
 31
0.0
  0
LINE
  5
CE9A
330
CE62
100
AcDbEntity
  8
0
  6
CONTINUOUS
100
AcDbLine
 10
44.99999999995498
 20
3.551507961324591
 30
0.0
 11
43.57899999995641
 21
4.972507961323163
 31
0.0
  0
LINE
  5
CE9B
330
CE62
100
AcDbEntity
  8
0
  6
CONTINUOUS
100
AcDbLine
 10
44.99999999995498
 20
4.225027170404777
 30
0.0
 11
43.57899999995641
 21
5.646027170403348
 31
0.0
  0
LINE
  5
CE9C
330
CE62
100
AcDbEntity
  8
0
  6
CONTINUOUS
100
AcDbLine
 10
44.99999999995498
 20
4.898546379484964
 30
0.0
 11
43.57899999995641
 21
6.319546379483535
 31
0.0
  0
LINE
  5
CE9D
330
CE62
100
AcDbEntity
  8
0
  6
CONTINUOUS
100
AcDbLine
 10
44.99999999995498
 20
5.572065588565151
 30
0.0
 11
43.57899999995641
 21
6.993065588563722
 31
0.0
  0
LINE
  5
CE9E
330
CE62
100
AcDbEntity
  8
0
  6
CONTINUOUS
100
AcDbLine
 10
44.99999999995498
 20
6.245584797645336
 30
0.0
 11
43.57899999995641
 21
7.666584797643908
 31
0.0
  0
LINE
  5
CE9F
330
CE62
100
AcDbEntity
  8
0
  6
CONTINUOUS
100
AcDbLine
 10
44.99999999995498
 20
6.919104006725522
 30
0.0
 11
43.57899999995641
 21
8.340104006724093
 31
0.0
  0
LINE
  5
CEA0
330
CE62
100
AcDbEntity
  8
0
  6
CONTINUOUS
100
AcDbLine
 10
44.99999999995498
 20
7.592623215805709
 30
0.0
 11
43.82952321576943
 21
8.763099999991255
 31
0.0
  0
LINE
  5
CEA1
330
CE62
100
AcDbEntity
  8
0
  6
CONTINUOUS
100
AcDbLine
 10
44.99999999995498
 20
8.266142424885896
 30
0.0
 11
44.50304242484962
 21
8.763099999991255
 31
0.0
  0
ENDBLK
  5
CECB
330
CE62
100
AcDbEntity
  8
0
100
AcDbBlockEnd
  0
BLOCK
  5
CECC
330
CEA2
100
AcDbEntity
  8
0
100
AcDbBlockBegin
  2
*X33
 70
     1
 10
0.0
 20
0.0
 30
0.0
  3
*X33
  1

  0
LINE
  5
CEA3
330
CEA2
100
AcDbEntity
  8
0
  6
CONTINUOUS
100
AcDbLine
 10
0.0
 20
8.548461116714023
 30
0.0
 11
0.2146388832772324
 21
8.763099999991255
 31
0.0
  0
LINE
  5
CEA4
330
CEA2
100
AcDbEntity
  8
0
  6
CONTINUOUS
100
AcDbLine
 10
-0.0000000000000002
 20
7.874941907633837
 30
0.0
 11
0.8881580923574184
 21
8.763099999991255
 31
0.0
  0
LINE
  5
CEA5
330
CEA2
100
AcDbEntity
  8
0
  6
CONTINUOUS
100
AcDbLine
 10
0.0
 20
7.20142269855365
 30
0.0
 11
1.420999999998572
 21
8.622422698552223
 31
0.0
  0
LINE
  5
CEA6
330
CEA2
100
AcDbEntity
  8
0
  6
CONTINUOUS
100
AcDbLine
 10
-0.0000000000000001
 20
6.527903489473465
 30
0.0
 11
1.420999999998571
 21
7.948903489472036
 31
0.0
  0
LINE
  5
CEA7
330
CEA2
100
AcDbEntity
  8
0
  6
CONTINUOUS
100
AcDbLine
 10
-0.0000000000000002
 20
5.854384280393278
 30
0.0
 11
1.420999999998571
 21
7.275384280391849
 31
0.0
  0
LINE
  5
CEA8
330
CEA2
100
AcDbEntity
  8
0
  6
CONTINUOUS
100
AcDbLine
 10
-0.0000000000000002
 20
5.180865071313091
 30
0.0
 11
1.420999999998571
 21
6.601865071311663
 31
0.0
  0
LINE
  5
CEA9
330
CEA2
100
AcDbEntity
  8
0
  6
CONTINUOUS
100
AcDbLine
 10
0.0
 20
4.507345862232905
 30
0.0
 11
1.420999999998571
 21
5.928345862231477
 31
0.0
  0
LINE
  5
CEAA
330
CEA2
100
AcDbEntity
  8
0
  6
CONTINUOUS
100
AcDbLine
 10
-0.0000000000000003
 20
3.833826653152718
 30
0.0
 11
1.420999999998571
 21
5.25482665315129
 31
0.0
  0
LINE
  5
CEAB
330
CEA2
100
AcDbEntity
  8
0
  6
CONTINUOUS
100
AcDbLine
 10
-0.0000000000000002
 20
3.160307444072532
 30
0.0
 11
1.420999999998571
 21
4.581307444071103
 31
0.0
  0
LINE
  5
CEAC
330
CEA2
100
AcDbEntity
  8
0
  6
CONTINUOUS
100
AcDbLine
 10
-0.0000000000000001
 20
2.486788234992345
 30
0.0
 11
1.420999999998571
 21
3.907788234990917
 31
0.0
  0
LINE
  5
CEAD
330
CEA2
100
AcDbEntity
  8
0
  6
CONTINUOUS
100
AcDbLine
 10
-0.0000000000000006
 20
1.813269025912159
 30
0.0
 11
1.420999999998571
 21
3.234269025910731
 31
0.0
  0
LINE
  5
CEAE
330
CEA2
100
AcDbEntity
  8
0
  6
CONTINUOUS
100
AcDbLine
 10
0.0
 20
1.139749816831973
 30
0.0
 11
1.420999999998571
 21
2.560749816830544
 31
0.0
  0
LINE
  5
CEAF
330
CEA2
100
AcDbEntity
  8
0
  6
CONTINUOUS
100
AcDbLine
 10
0.0000000000000002
 20
0.466230607751787
 30
0.0
 11
1.420999999998571
 21
1.887230607750358
 31
0.0
  0
LINE
  5
CEB0
330
CEA2
100
AcDbEntity
  8
0
  6
CONTINUOUS
100
AcDbLine
 10
0.2072886013284003
 20
-0.0000000000000009
 30
0.0
 11
1.420999999998571
 21
1.213711398670171
 31
0.0
  0
LINE
  5
CEB1
330
CEA2
100
AcDbEntity
  8
0
  6
CONTINUOUS
100
AcDbLine
 10
0.8808078104085864
 20
-0.0000000000000009
 30
0.0
 11
1.420999999998571
 21
0.5401921895899839
 31
0.0
  0
LINE
  5
CEB2
330
CEA2
100
AcDbEntity
  8
0
  6
CONTINUOUS
100
AcDbLine
 10
0.0581249075061505
 20
-0.0000000000000009
 30
0.0
 11
-0.0000000000000002
 21
0.0581249075061496
 31
0.0
  0
LINE
  5
CEB3
330
CEA2
100
AcDbEntity
  8
0
  6
CONTINUOUS
100
AcDbLine
 10
0.7316441165863372
 20
-0.0000000000000009
 30
0.0
 11
-0.0000000000000002
 21
0.7316441165863363
 31
0.0
  0
LINE
  5
CEB4
330
CEA2
100
AcDbEntity
  8
0
  6
CONTINUOUS
100
AcDbLine
 10
1.405163325666523
 20
-0.0000000000000009
 30
0.0
 11
-0.0000000000000002
 21
1.405163325666523
 31
0.0
  0
LINE
  5
CEB5
330
CEA2
100
AcDbEntity
  8
0
  6
CONTINUOUS
100
AcDbLine
 10
1.420999999998572
 20
0.6576825347481381
 30
0.0
 11
-0.0000000000000001
 21
2.07868253474671
 31
0.0
  0
LINE
  5
CEB6
330
CEA2
100
AcDbEntity
  8
0
  6
CONTINUOUS
100
AcDbLine
 10
1.420999999998571
 20
1.331201743828324
 30
0.0
 11
-0.0000000000000001
 21
2.752201743826896
 31
0.0
  0
LINE
  5
CEB7
330
CEA2
100
AcDbEntity
  8
0
  6
CONTINUOUS
100
AcDbLine
 10
1.420999999998571
 20
2.004720952908511
 30
0.0
 11
-0.0000000000000002
 21
3.425720952907082
 31
0.0
  0
LINE
  5
CEB8
330
CEA2
100
AcDbEntity
  8
0
  6
CONTINUOUS
100
AcDbLine
 10
1.420999999998571
 20
2.678240161988697
 30
0.0
 11
-0.0000000000000001
 21
4.099240161987269
 31
0.0
  0
LINE
  5
CEB9
330
CEA2
100
AcDbEntity
  8
0
  6
CONTINUOUS
100
AcDbLine
 10
1.420999999998572
 20
3.351759371068884
 30
0.0
 11
0.0
 21
4.772759371067455
 31
0.0
  0
LINE
  5
CEBA
330
CEA2
100
AcDbEntity
  8
0
  6
CONTINUOUS
100
AcDbLine
 10
1.420999999998571
 20
4.02527858014907
 30
0.0
 11
-0.0000000000000003
 21
5.446278580147642
 31
0.0
  0
LINE
  5
CEBB
330
CEA2
100
AcDbEntity
  8
0
  6
CONTINUOUS
100
AcDbLine
 10
1.420999999998571
 20
4.698797789229257
 30
0.0
 11
0.0
 21
6.119797789227828
 31
0.0
  0
LINE
  5
CEBC
330
CEA2
100
AcDbEntity
  8
0
  6
CONTINUOUS
100
AcDbLine
 10
1.420999999998571
 20
5.372316998309444
 30
0.0
 11
-0.0000000000000001
 21
6.793316998308015
 31
0.0
  0
LINE
  5
CEBD
330
CEA2
100
AcDbEntity
  8
0
  6
CONTINUOUS
100
AcDbLine
 10
1.420999999998572
 20
6.045836207389629
 30
0.0
 11
-0.0000000000000004
 21
7.466836207388202
 31
0.0
  0
LINE
  5
CEBE
330
CEA2
100
AcDbEntity
  8
0
  6
CONTINUOUS
100
AcDbLine
 10
1.420999999998571
 20
6.719355416469816
 30
0.0
 11
0.0
 21
8.140355416468388
 31
0.0
  0
LINE
  5
CEBF
330
CEA2
100
AcDbEntity
  8
0
  6
CONTINUOUS
100
AcDbLine
 10
1.420999999998571
 20
7.392874625550003
 30
0.0
 11
0.0507746255573185
 21
8.763099999991255
 31
0.0
  0
LINE
  5
CEC0
330
CEA2
100
AcDbEntity
  8
0
  6
CONTINUOUS
100
AcDbLine
 10
1.420999999998571
 20
8.06639383463019
 30
0.0
 11
0.7242938346375052
 21
8.763099999991255
 31
0.0
  0
LINE
  5
CEC1
330
CEA2
100
AcDbEntity
  8
0
  6
CONTINUOUS
100
AcDbLine
 10
1.420999999998571
 20
8.739913043710375
 30
0.0
 11
1.397813043717691
 21
8.763099999991255
 31
0.0
  0
ENDBLK
  5
CECD
330
CEA2
100
AcDbEntity
  8
0
100
AcDbBlockEnd
  0
ENDSEC
  0
SECTION
  2
ENTITIES
  0
TEXT
  5
7F6F
330
18
100
AcDbEntity
  8
1TEXT
100
AcDbText
 10
479.0171462093828
 20
-226.7376021734217
 30
0.0
 40
4.0
  1
付属ねじ
100
AcDbText
  0
TEXT
  5
83F8
330
18
100
AcDbEntity
  8
1TEXT
100
AcDbText
 10
461.4180680140555
 20
-33.20283819944281
 30
0.0
 40
8.0
  1
KLJ-2C-X
100
AcDbText
  0
LINE
  5
93F6
330
18
100
AcDbEntity
  8
01
100
AcDbLine
 10
499.9425278925563
 20
-110.861764689302
 30
0.0
 11
460.9425278925567
 21
-110.8617646893022
 31
0.0
  0
ARC
  5
93F7
330
18
100
AcDbEntity
  8
01
100
AcDbCircle
 10
460.9425278925567
 20
-111.3617646893022
 30
0.0
 40
0.5
100
AcDbArc
 50
90.0
 51
180.0
  0
LINE
  5
93F8
330
18
100
AcDbEntity
  8
01
100
AcDbLine
 10
499.9425278925565
 20
-150.861764689302
 30
0.0
 11
460.9425278925565
 21
-150.8617646893024
 31
0.0
  0
ARC
  5
93F9
330
18
100
AcDbEntity
  8
01
100
AcDbCircle
 10
499.9425278925565
 20
-150.361764689302
 30
0.0
 40
0.5
100
AcDbArc
 50
270.0
 51
0.0
  0
LINE
  5
93FC
330
18
100
AcDbEntity
  8
01
100
AcDbLine
 10
500.4425278925565
 20
-150.361764689302
 30
0.0
 11
500.4425278925563
 21
-111.361764689302
 31
0.0
  0
ARC
  5
93FD
330
18
100
AcDbEntity
  8
01
100
AcDbCircle
 10
499.9425278925563
 20
-111.361764689302
 30
0.0
 40
0.5
100
AcDbArc
 50
0.0
 51
90.0
  0
LINE
  5
9403
330
18
100
AcDbEntity
  8
01
100
AcDbLine
 10
460.4425278925565
 20
-150.3617646893024
 30
0.0
 11
460.4425278925567
 21
-111.3617646893022
 31
0.0
  0
ARC
  5
9404
330
18
100
AcDbEntity
  8
01
100
AcDbCircle
 10
460.9425278925565
 20
-150.3617646893024
 30
0.0
 40
0.5
100
AcDbArc
 50
180.0
 51
270.0
  0
LINE
  5
97E8
330
18
100
AcDbEntity
  8
01
100
AcDbLine
 10
460.4425401137656
 20
-64.9615171235103
 30
0.0
 11
500.4425401137656
 21
-64.96151712350974
 31
0.0
  0
LINE
  5
97E9
330
18
100
AcDbEntity
  8
01
100
AcDbLine
 10
499.9425401137656
 20
-71.26151712351026
 30
0.0
 11
460.9425401137658
 21
-71.26151712351049
 31
0.0
  0
LINE
  5
97F0
330
18
100
AcDbEntity
  8
01
100
AcDbLine
 10
460.4425401137656
 20
-64.9615171235103
 30
0.0
 11
460.4425401137658
 21
-70.76151712351049
 31
0.0
  0
ARC
  5
97F2
330
18
100
AcDbEntity
  8
01
100
AcDbCircle
 10
460.9425401137657
 20
-70.76151712351026
 30
0.0
 40
0.5
100
AcDbArc
 50
180.0
 51
270.0
  0
LINE
  5
9810
330
18
100
AcDbEntity
  8
01
100
AcDbLine
 10
500.4425401137656
 20
-64.96151712350974
 30
0.0
 11
500.4425401137656
 21
-70.76151712351026
 31
0.0
  0
ARC
  5
9814
330
18
100
AcDbEntity
  8
01
100
AcDbCircle
 10
499.9425401137656
 20
-70.76151712351026
 30
0.0
 40
0.5
100
AcDbArc
 50
270.0
 51
0.0
  0
LINE
  5
983C
330
18
100
AcDbEntity
  8
1CENTER
100
AcDbLine
 10
480.4425278925582
 20
-63.09473162592997
 30
0.0
 11
480.4425278925582
 21
-73.68094054148219
 31
0.0
  0
LINE
  5
9D69
330
18
100
AcDbEntity
  8
1CENTER
100
AcDbLine
 10
692.9903351506603
 20
-179.2689032851741
 30
0.0
 11
692.9903351506605
 21
-193.4546136851732
 31
0.0
  0
LINE
  5
9D6A
330
18
100
AcDbEntity
  8
1CENTER
100
AcDbLine
 10
685.8974799506608
 20
-186.3617584851738
 30
0.0
 11
700.08319035066
 21
-186.3617584851735
 31
0.0
  0
LINE
  5
9D70
330
18
100
AcDbEntity
  8
01
100
AcDbLine
 10
676.256408345577
 20
-88.26151712351009
 30
0.0
 11
709.7242619557439
 21
-88.26151712351009
 31
0.0
  0
ARC
  5
9D71
330
18
100
AcDbEntity
  8
01
100
AcDbCircle
 10
709.7242619557439
 20
-87.26151712350998
 30
0.0
 40
1.000000000000028
100
AcDbArc
 50
270.0
 51
358.0340000000047
  0
LINE
  5
9D72
330
18
100
AcDbEntity
  8
01
100
AcDbLine
 10
711.4903351506605
 20
-64.9615171235099
 30
0.0
 11
710.7236733165785
 21
-87.29582356364745
 31
0.0
  0
LINE
  5
9D73
330
18
100
AcDbEntity
  8
01
100
AcDbLine
 10
711.4903351506605
 20
-64.96151712351002
 30
0.0
 11
674.4903351506605
 21
-64.96151712351002
 31
0.0
  0
LINE
  5
9D74
330
18
100
AcDbEntity
  8
01
100
AcDbLine
 10
675.2569969847425
 20
-87.29582356364745
 30
0.0
 11
674.4903351506605
 21
-64.96151712351002
 31
0.0
  0
ARC
  5
9D75
330
18
100
AcDbEntity
  8
01
100
AcDbCircle
 10
676.256408345577
 20
-87.26151712350998
 30
0.0
 40
1.000000000000028
100
AcDbArc
 50
181.9659999999953
 51
270.0
  0
LINE
  5
9D76
330
18
100
AcDbEntity
  8
01
100
AcDbLine
 10
691.4903351506604
 20
-141.0790182473564
 30
0.0
 11
691.4903351506604
 21
-131.6445071312465
 31
0.0
  0
ARC
  5
9D77
330
18
100
AcDbEntity
  8
01
100
AcDbCircle
 10
692.9903351506604
 20
-136.3617626893014
 30
0.0
 40
4.950000000000013
100
AcDbArc
 50
107.6397013942331
 51
252.3602986057668
  0
LINE
  5
9D78
330
18
100
AcDbEntity
  8
01
100
AcDbLine
 10
694.4903351506604
 20
-131.6445071312465
 30
0.0
 11
694.4903351506604
 21
-141.0790182473564
 31
0.0
  0
ARC
  5
9D79
330
18
100
AcDbEntity
  8
01
100
AcDbCircle
 10
692.9903351506604
 20
-136.3617626893014
 30
0.0
 40
4.950000000000013
100
AcDbArc
 50
287.6397013942332
 51
287.7375975388389
  0
ARC
  5
9D7A
330
18
100
AcDbEntity
  8
01
100
AcDbCircle
 10
692.9903351506604
 20
-136.3617626893014
 30
0.0
 40
4.950000000000013
100
AcDbArc
 50
287.6397013942332
 51
72.36029860576686
  0
LINE
  5
9D7B
330
18
100
AcDbEntity
  8
01
100
AcDbLine
 10
693.5903351506603
 20
-141.2752644955493
 30
0.0
 11
693.5903351506603
 21
-140.8617626893014
 31
0.0
  0
LINE
  5
9D7C
330
18
100
AcDbEntity
  8
01
100
AcDbLine
 10
693.5903351506603
 20
-140.8617626893014
 30
0.0
 11
692.3903351506603
 21
-140.8617626893014
 31
0.0
  0
LINE
  5
9D7D
330
18
100
AcDbEntity
  8
01
100
AcDbLine
 10
692.3903351506603
 20
-140.8617626893014
 30
0.0
 11
692.3903351506603
 21
-140.507347101573
 31
0.0
  0
LINE
  5
9D7E
330
18
100
AcDbEntity
  8
01
100
AcDbLine
 10
692.3903351506603
 20
-140.507347101573
 30
0.0
 11
693.5903351506603
 21
-139.307347101573
 31
0.0
  0
LINE
  5
9D7F
330
18
100
AcDbEntity
  8
01
100
AcDbLine
 10
693.5903351506603
 20
-139.307347101573
 30
0.0
 11
693.5903351506603
 21
-133.7617626893014
 31
0.0
  0
LINE
  5
9D80
330
18
100
AcDbEntity
  8
01
100
AcDbLine
 10
693.5903351506603
 20
-133.7617626893014
 30
0.0
 11
692.3903351506603
 21
-133.7617626893014
 31
0.0
  0
LINE
  5
9D81
330
18
100
AcDbEntity
  8
01
100
AcDbLine
 10
692.3903351506603
 20
-133.7617626893014
 30
0.0
 11
692.3903351506603
 21
-137.9617626893015
 31
0.0
  0
LINE
  5
9D82
330
18
100
AcDbEntity
  8
01
100
AcDbLine
 10
692.3903351506603
 20
-137.9617626893015
 30
0.0
 11
691.4903351506604
 21
-138.8617626893014
 31
0.0
  0
ARC
  5
9D83
330
18
100
AcDbEntity
  8
01
100
AcDbCircle
 10
692.9903351506604
 20
-136.3617626893014
 30
0.0
 40
4.950000000000013
100
AcDbArc
 50
276.9620626910847
 51
287.6397013942332
  0
ARC
  5
9D84
330
18
100
AcDbEntity
  8
01
100
AcDbCircle
 10
692.9903351506604
 20
-136.3617626893014
 30
0.0
 40
4.949999999999999
100
AcDbArc
 50
72.36029860576686
 51
107.6397013942331
  0
CIRCLE
  5
9D8F
330
18
100
AcDbEntity
  8
01
100
AcDbCircle
 10
692.9903351506604
 20
-130.8617626893014
 30
0.0
 40
18.50000000000001
  0
CIRCLE
  5
9D90
330
18
100
AcDbEntity
  8
1HATCH
100
AcDbCircle
 10
692.9903351506604
 20
-130.8617626893014
 30
0.0
 40
17.70018914480337
  0
CIRCLE
  5
9D91
330
18
100
AcDbEntity
  8
01
100
AcDbCircle
 10
692.9903351506604
 20
-130.8617626893014
 30
0.0
 40
18.50000000000001
  0
LINE
  5
9D95
330
18
100
AcDbEntity
  8
01
  6
BYBLOCK
100
AcDbLine
 10
571.470663068114
 20
-30.71159650256357
 30
0.0
 11
571.470663068114
 21
-37.71159650256357
 31
0.0
  0
LINE
  5
9D96
330
18
100
AcDbEntity
  8
1HATCH
100
AcDbLine
 10
572.970663068114
 20
-32.09828486645426
 30
0.0
 11
572.970663068114
 21
-36.32490813867298
 31
0.0
  0
LINE
  5
9D97
330
18
100
AcDbEntity
  8
01
  6
BYBLOCK
100
AcDbLine
 10
595.4706630681138
 20
-30.71159650256357
 30
0.0
 11
595.470663068114
 21
-37.71159650256357
 31
0.0
  0
LINE
  5
9D98
330
18
100
AcDbEntity
  8
1HATCH
100
AcDbLine
 10
593.9706630681138
 20
-32.09828486645415
 30
0.0
 11
593.970663068114
 21
-36.32490813867298
 31
0.0
  0
LINE
  5
9D99
330
18
100
AcDbEntity
  8
01
  6
BYBLOCK
100
AcDbLine
 10
578.748562327049
 20
-23.21159650256357
 30
0.0
 11
588.470663068114
 21
-23.21159650256357
 31
0.0
  0
LINE
  5
9D9A
330
18
100
AcDbEntity
  8
01
  6
BYBLOCK
100
AcDbLine
 10
580.7580271226669
 20
-25.51159650256352
 30
0.0
 11
586.6032984272855
 21
-25.51159650256352
 31
0.0
  0
LINE
  5
9D9B
330
18
100
AcDbEntity
  8
01
  6
BYBLOCK
100
AcDbLine
 10
577.2206630681138
 20
-49.21159650256357
 30
0.0
 11
578.4706630681138
 21
-49.21159650256357
 31
0.0
  0
LINE
  5
9D9C
330
18
100
AcDbEntity
  8
01
  6
BYBLOCK
100
AcDbLine
 10
588.1706630681141
 20
-49.21159650256357
 30
0.0
 11
589.720663068114
 21
-49.21159650256357
 31
0.0
  0
LINE
  5
9D9D
330
18
100
AcDbEntity
  8
01
  6
BYBLOCK
100
AcDbLine
 10
588.1706630681141
 20
-51.21159650256357
 30
0.0
 11
588.470663068114
 21
-51.21159650256357
 31
0.0
  0
LINE
  5
9D9E
330
18
100
AcDbEntity
  8
01
  6
BYBLOCK
100
AcDbLine
 10
578.470663068114
 20
-55.21159650256357
 30
0.0
 11
581.4706630681138
 21
-55.21159650256357
 31
0.0
  0
LINE
  5
9D9F
330
18
100
AcDbEntity
  8
01
  6
BYBLOCK
100
AcDbLine
 10
584.4706630681138
 20
-75.81159650256359
 30
0.0
 11
585.4706630681138
 21
-75.81159650256359
 31
0.0
  0
LINE
  5
9DA0
330
18
100
AcDbEntity
  8
01
  6
BYBLOCK
100
AcDbLine
 10
592.970663068114
 20
-40.39843160741088
 30
0.0
 11
592.970663068114
 21
-42.89843160741088
 31
0.0
  0
LINE
  5
9DA1
330
18
100
AcDbEntity
  8
01
  6
BYBLOCK
100
AcDbLine
 10
573.9706630681138
 20
-40.39843160741088
 30
0.0
 11
573.970663068114
 21
-42.89843160741088
 31
0.0
  0
LINE
  5
9DA2
330
18
100
AcDbEntity
  8
01
  6
BYBLOCK
100
AcDbLine
 10
594.470663068114
 20
-37.79157425407402
 30
0.0
 11
594.470663068114
 21
-40.29157425407402
 31
0.0
  0
LINE
  5
9DA3
330
18
100
AcDbEntity
  8
01
  6
BYBLOCK
100
AcDbLine
 10
572.4706630681138
 20
-37.79157425407402
 30
0.0
 11
572.470663068114
 21
-40.29157425407402
 31
0.0
  0
LINE
  5
9DA4
330
18
100
AcDbEntity
  8
01
  6
BYBLOCK
100
AcDbLine
 10
578.4706630681138
 20
-49.21159650256357
 30
0.0
 11
578.470663068114
 21
-55.21159650256357
 31
0.0
  0
LINE
  5
9DA5
330
18
100
AcDbEntity
  8
01
  6
BYBLOCK
100
AcDbLine
 10
588.1706630681141
 20
-49.21159650256357
 30
0.0
 11
588.1706630681141
 21
-51.21159650256357
 31
0.0
  0
LINE
  5
9DA6
330
18
100
AcDbEntity
  8
01
  6
BYBLOCK
100
AcDbLine
 10
588.470663068114
 20
-51.21159650256357
 30
0.0
 11
588.4706630681138
 21
-72.81159650256359
 31
0.0
  0
LINE
  5
9DA7
330
18
100
AcDbEntity
  8
01
  6
BYBLOCK
100
AcDbLine
 10
587.1706630681141
 20
-49.21159650256357
 30
0.0
 11
587.1706630681141
 21
-74.11159650256354
 31
0.0
  0
LINE
  5
9DA8
330
18
100
AcDbEntity
  8
01
  6
BYBLOCK
100
AcDbLine
 10
586.1706630681141
 20
-49.21159650256357
 30
0.0
 11
586.1706630681141
 21
-75.11159650256343
 31
0.0
  0
LINE
  5
9DA9
330
18
100
AcDbEntity
  8
01
  6
BYBLOCK
100
AcDbLine
 10
585.1706630681141
 20
-56.21159650256357
 30
0.0
 11
585.1706630681141
 21
-75.81159650256359
 31
0.0
  0
LINE
  5
9DAA
330
18
100
AcDbEntity
  8
01
  6
BYBLOCK
100
AcDbLine
 10
581.4706630681138
 20
-55.21159650256357
 30
0.0
 11
581.4706630681138
 21
-72.81159650256359
 31
0.0
  0
LINE
  5
9DAB
330
18
100
AcDbEntity
  8
01
  6
BYBLOCK
100
AcDbLine
 10
575.970663068114
 20
-43.21159650256357
 30
0.0
 11
577.220663068114
 21
-49.21159650256357
 31
0.0
  0
LINE
  5
9DAC
330
18
100
AcDbEntity
  8
01
  6
BYBLOCK
100
AcDbLine
 10
589.720663068114
 20
-49.21159650256357
 30
0.0
 11
590.970663068114
 21
-43.21159650256357
 31
0.0
  0
ARC
  5
9DAD
330
18
100
AcDbEntity
  8
01
  6
BYBLOCK
100
AcDbCircle
 10
583.470663068114
 20
101.0384034974363
 30
0.0
 40
144.2499999999999
100
AcDbArc
 50
266.2238880807499
 51
273.7761119192501
  0
ARC
  5
9DAE
330
18
100
AcDbEntity
  8
01
  6
BYBLOCK
100
AcDbCircle
 10
583.470663068114
 20
103.5384034974363
 30
0.0
 40
144.2499999999999
100
AcDbArc
 50
265.6265788215867
 51
274.3734211784133
  0
ARC
  5
9DAF
330
18
100
AcDbEntity
  8
01
  6
BYBLOCK
100
AcDbCircle
 10
583.470663068114
 20
106.0384034974363
 30
0.0
 40
144.2499999999999
100
AcDbArc
 50
265.2281119392252
 51
274.7718880607748
  0
ARC
  5
9DB0
330
18
100
AcDbEntity
  8
1HATCH
100
AcDbCircle
 10
583.470663068114
 20
106.0384034974363
 30
0.0
 40
142.7499999999999
100
AcDbArc
 50
265.7817898839807
 51
274.2182101160193
  0
ARC
  5
9DB1
330
18
100
AcDbEntity
  8
01
  6
BYBLOCK
100
AcDbCircle
 10
583.470663068114
 20
-174.4615965025635
 30
0.0
 40
144.2499999999999
100
AcDbArc
 50
85.22811193922529
 51
94.77188806077471
  0
ARC
  5
9DB2
330
18
100
AcDbEntity
  8
1HATCH
100
AcDbCircle
 10
583.470663068114
 20
-174.4615965025635
 30
0.0
 40
142.7499999999999
100
AcDbArc
 50
85.78178988398071
 51
94.21821011601929
  0
LINE
  5
9DB3
330
18
100
AcDbEntity
  8
01
  6
BYBLOCK
100
AcDbLine
 10
578.2493324254273
 20
-24.2660926416994
 30
0.0
 11
576.970663068114
 21
-30.35811805738513
 31
0.0
  0
LINE
  5
9DB4
330
18
100
AcDbEntity
  8
01
  6
BYBLOCK
100
AcDbLine
 10
580.1681024836508
 20
-26.32117935940073
 30
0.0
 11
579.3391125287379
 21
-30.27077574707801
 31
0.0
  0
LINE
  5
9DB5
330
18
100
AcDbEntity
  8
01
  6
BYBLOCK
100
AcDbLine
 10
588.470663068114
 20
-23.21159650256357
 30
0.0
 11
589.970663068114
 21
-30.35811805738513
 31
0.0
  0
LINE
  5
9DB6
330
18
100
AcDbEntity
  8
01
  6
BYBLOCK
100
AcDbLine
 10
586.6032984272855
 20
-25.51159650256352
 30
0.0
 11
587.6022136074902
 21
-30.27077574707801
 31
0.0
  0
LINE
  5
9DB7
330
18
100
AcDbEntity
  8
01
  6
BYBLOCK
100
AcDbLine
 10
581.4706630681138
 20
-72.81159650256359
 30
0.0
 11
584.4706630681138
 21
-75.81159650256359
 31
0.0
  0
LINE
  5
9DB8
330
18
100
AcDbEntity
  8
01
  6
BYBLOCK
100
AcDbLine
 10
588.4706630681138
 20
-72.81159650256359
 30
0.0
 11
585.4706630681138
 21
-75.81159650256359
 31
0.0
  0
LINE
  5
9DB9
330
18
100
AcDbEntity
  8
01
  6
BYBLOCK
100
AcDbLine
 10
587.1706630681141
 20
-49.21159650256357
 30
0.0
 11
586.1706630681141
 21
-49.21159650256357
 31
0.0
  0
ARC
  5
9DBA
330
18
100
AcDbEntity
  8
01
  6
BYBLOCK
100
AcDbCircle
 10
610.2667476856994
 20
-56.22532287650392
 30
0.0
 40
25.09608837142445
100
AcDbArc
 50
163.771133376028
 51
179.9686619156618
  0
LINE
  5
9DBB
330
18
100
AcDbEntity
  8
1HATCH
100
AcDbLine
 10
590.9654186232018
 20
-32.59843872490217
 30
0.0
 11
591.470663067614
 21
-32.59843872490217
 31
0.0
  0
LINE
  5
9DBC
330
18
100
AcDbEntity
  8
1HATCH
100
AcDbLine
 10
589.1968852899807
 20
-35.71420761359332
 30
0.0
 11
589.702129734393
 21
-35.71420761359332
 31
0.0
  0
LINE
  5
9DBD
330
18
100
AcDbEntity
  8
1HATCH
100
AcDbLine
 10
591.470663067614
 20
-35.79843872469883
 30
0.0
 11
589.702129734393
 21
-33.81490094704725
 31
0.0
  0
LINE
  5
9DBE
330
18
100
AcDbEntity
  8
1HATCH
100
AcDbLine
 10
589.702129734393
 20
-33.81490094704725
 30
0.0
 11
589.702129734393
 21
-35.71420761359332
 31
0.0
  0
LINE
  5
9DBF
330
18
100
AcDbEntity
  8
1HATCH
100
AcDbLine
 10
589.1968852899807
 20
-32.51420761379666
 30
0.0
 11
589.1968852899807
 21
-35.71420761359332
 31
0.0
  0
LINE
  5
9DC0
330
18
100
AcDbEntity
  8
1HATCH
100
AcDbLine
 10
591.470663067614
 20
-32.59843872490217
 30
0.0
 11
591.470663067614
 21
-35.79843872469883
 31
0.0
  0
LINE
  5
9DC1
330
18
100
AcDbEntity
  8
1HATCH
100
AcDbLine
 10
590.9654186232018
 20
-34.49778094700378
 30
0.0
 11
589.1968852899807
 21
-32.51424316935186
 31
0.0
  0
LINE
  5
9DC2
330
18
100
AcDbEntity
  8
1HATCH
100
AcDbLine
 10
590.9654186232018
 20
-32.59843872490217
 30
0.0
 11
590.9654186232018
 21
-34.49778094700378
 31
0.0
  0
LINE
  5
9DC3
330
18
100
AcDbEntity
  8
1HATCH
100
AcDbLine
 10
588.8651519566705
 20
-32.59843872490217
 30
0.0
 11
588.3531519567026
 21
-32.59843872490217
 31
0.0
  0
LINE
  5
9DC4
330
18
100
AcDbEntity
  8
1HATCH
100
AcDbLine
 10
587.2331519567725
 20
-32.59843872490217
 30
0.0
 11
586.7211519568044
 21
-32.59843872490217
 31
0.0
  0
LINE
  5
9DC5
330
18
100
AcDbEntity
  8
1HATCH
100
AcDbLine
 10
585.8891519568568
 20
-32.59843872490217
 30
0.0
 11
586.4011519568247
 21
-32.59843872490217
 31
0.0
  0
ARC
  5
9DC6
330
18
100
AcDbEntity
  8
1HATCH
100
AcDbCircle
 10
587.9371519567284
 20
-34.83185404105268
 30
0.0
 40
0.415999999974
100
AcDbArc
 50
299.9999999999698
 51
0.0
  0
ARC
  5
9DC7
330
18
100
AcDbEntity
  8
1HATCH
100
AcDbCircle
 10
587.6491519567466
 20
-34.83185404105268
 30
0.0
 40
0.415999999974
100
AcDbArc
 50
180.0
 51
240.0000000000227
  0
ARC
  5
9DC8
330
18
100
AcDbEntity
  8
1HATCH
100
AcDbCircle
 10
587.7931519567375
 20
-34.58243872477817
 30
0.0
 40
0.7039999999559964
100
AcDbArc
 50
240.0000000000227
 51
299.9999999999698
  0
ARC
  5
9DC9
330
18
100
AcDbEntity
  8
1HATCH
100
AcDbCircle
 10
587.7931519567375
 20
-34.58243872477817
 30
0.0
 40
1.215999999924003
100
AcDbArc
 50
240.0000000000302
 51
299.9999999999773
  0
ARC
  5
9DCA
330
18
100
AcDbEntity
  8
1HATCH
100
AcDbCircle
 10
587.6491519567466
 20
-34.83185404105268
 30
0.0
 40
0.9279999999419999
100
AcDbArc
 50
180.0
 51
240.0000000000302
  0
LINE
  5
9DCB
330
18
100
AcDbEntity
  8
1HATCH
100
AcDbLine
 10
585.0612724647416
 20
-35.22243872473825
 30
0.0
 11
585.5691519568769
 21
-35.22243872473825
 31
0.0
  0
ARC
  5
9DCC
330
18
100
AcDbEntity
  8
1HATCH
100
AcDbCircle
 10
585.5691519568769
 20
-34.90243872475821
 30
0.0
 40
0.3199999999800001
100
AcDbArc
 50
270.0
 51
0.0
  0
LINE
  5
9DCD
330
18
100
AcDbEntity
  8
1HATCH
100
AcDbLine
 10
583.5556408458946
 20
-34.40896316923181
 30
0.0
 11
584.143729734746
 21
-34.40896316923181
 31
0.0
  0
LINE
  5
9DCE
330
18
100
AcDbEntity
  8
1HATCH
100
AcDbLine
 10
584.7222739722732
 20
-35.70243872470826
 30
0.0
 11
585.5691519568767
 21
-35.70243872470826
 31
0.0
  0
LINE
  5
9DCF
330
18
100
AcDbEntity
  8
1HATCH
100
AcDbLine
 10
584.7222739722732
 20
-35.70243872470826
 30
0.0
 11
584.3510186236216
 21
-34.87210983586908
 31
0.0
  0
ARC
  5
9DD0
330
18
100
AcDbEntity
  8
1HATCH
100
AcDbCircle
 10
585.5691519568767
 20
-34.87043872476022
 30
0.0
 40
0.831999999948
100
AcDbArc
 50
270.0
 51
0.0
  0
LINE
  5
9DD1
330
18
100
AcDbEntity
  8
1HATCH
100
AcDbLine
 10
585.0612724647416
 20
-35.22243872473825
 30
0.0
 11
583.8496852903203
 21
-32.51424316935186
 31
0.0
  0
LINE
  5
9DD2
330
18
100
AcDbEntity
  8
1HATCH
100
AcDbLine
 10
583.5556408458946
 20
-34.40896316923181
 30
0.0
 11
583.8496852903203
 21
-33.75150539149558
 31
0.0
  0
LINE
  5
9DD3
330
18
100
AcDbEntity
  8
1HATCH
100
AcDbLine
 10
584.143729734746
 20
-34.40896316923181
 30
0.0
 11
583.8496852903203
 21
-33.75150539149558
 31
0.0
  0
LINE
  5
9DD4
330
18
100
AcDbEntity
  8
1HATCH
100
AcDbLine
 10
586.7211519568044
 20
-32.59843872490217
 30
0.0
 11
586.7211519568044
 21
-34.83185404105268
 31
0.0
  0
LINE
  5
9DD5
330
18
100
AcDbEntity
  8
1HATCH
100
AcDbLine
 10
588.8651519566705
 20
-32.59843872490217
 30
0.0
 11
588.8651519566705
 21
-34.83185404105268
 31
0.0
  0
LINE
  5
9DD6
330
18
100
AcDbEntity
  8
1HATCH
100
AcDbLine
 10
588.3531519567026
 20
-32.59843872490217
 30
0.0
 11
588.3531519567026
 21
-34.83185404105268
 31
0.0
  0
LINE
  5
9DD7
330
18
100
AcDbEntity
  8
1HATCH
100
AcDbLine
 10
587.2331519567725
 20
-32.59843872490217
 30
0.0
 11
587.2331519567725
 21
-34.83185404105268
 31
0.0
  0
LINE
  5
9DD8
330
18
100
AcDbEntity
  8
1HATCH
100
AcDbLine
 10
586.4011519568247
 20
-32.59843872490217
 30
0.0
 11
586.4011519568247
 21
-34.87043872476022
 31
0.0
  0
LINE
  5
9DD9
330
18
100
AcDbEntity
  8
1HATCH
100
AcDbLine
 10
585.8891519568568
 20
-32.59843872490217
 30
0.0
 11
585.8891519568568
 21
-34.90243872475821
 31
0.0
  0
ARC
  5
9DDA
330
18
100
AcDbEntity
  8
1HATCH
100
AcDbCircle
 10
587.9371519567286
 20
-34.83185404105268
 30
0.0
 40
0.9279999999419999
100
AcDbArc
 50
299.9999999999773
 51
0.0
  0
LINE
  5
9DDB
330
18
100
AcDbEntity
  8
1HATCH
100
AcDbLine
 10
582.8985741792695
 20
-32.59843872490217
 30
0.0
 11
583.4287075125693
 21
-32.59843872490217
 31
0.0
  0
LINE
  5
9DDC
330
18
100
AcDbEntity
  8
1HATCH
100
AcDbLine
 10
579.2178630683921
 20
-32.59843872490217
 30
0.0
 11
579.7479964016919
 21
-32.59843872490217
 31
0.0
  0
LINE
  5
9DDD
330
18
100
AcDbEntity
  8
1HATCH
100
AcDbLine
 10
582.4178630681889
 20
-35.71420761359332
 30
0.0
 11
582.9714630681536
 21
-35.71420761359332
 31
0.0
  0
LINE
  5
9DDE
330
18
100
AcDbEntity
  8
1HATCH
100
AcDbLine
 10
582.9714630681536
 20
-35.71424316914897
 30
0.0
 11
583.3483519570187
 21
-34.87210983586908
 31
0.0
  0
LINE
  5
9DDF
330
18
100
AcDbEntity
  8
1HATCH
100
AcDbLine
 10
578.2535964017867
 20
-34.87210983586908
 30
0.0
 11
579.2562630683896
 21
-34.87210983586908
 31
0.0
  0
LINE
  5
9DE0
330
18
100
AcDbEntity
  8
1HATCH
100
AcDbLine
 10
578.4608852906625
 20
-34.40896316923181
 30
0.0
 11
579.048974179514
 21
-34.40896316923181
 31
0.0
  0
LINE
  5
9DE1
330
18
100
AcDbEntity
  8
1HATCH
100
AcDbLine
 10
579.632796401699
 20
-35.71420761359332
 30
0.0
 11
580.186396401664
 21
-35.71420761359332
 31
0.0
  0
LINE
  5
9DE2
330
18
100
AcDbEntity
  8
1HATCH
100
AcDbLine
 10
579.632796401699
 20
-35.71424316914897
 30
0.0
 11
579.2562630683896
 21
-34.87210983586908
 31
0.0
  0
LINE
  5
9DE3
330
18
100
AcDbEntity
  8
1HATCH
100
AcDbLine
 10
580.186396401664
 20
-35.71424316914897
 30
0.0
 11
578.7549297350882
 21
-32.51424316935186
 31
0.0
  0
LINE
  5
9DE4
330
18
100
AcDbEntity
  8
1HATCH
100
AcDbLine
 10
582.0811519570992
 20
-35.79843872469883
 30
0.0
 11
581.3234630682585
 21
-33.78250983593819
 31
0.0
  0
LINE
  5
9DE5
330
18
100
AcDbEntity
  8
1HATCH
100
AcDbLine
 10
582.0811519570992
 20
-35.79843872469883
 30
0.0
 11
583.4287075125693
 21
-32.59843872490217
 31
0.0
  0
LINE
  5
9DE6
330
18
100
AcDbEntity
  8
1HATCH
100
AcDbLine
 10
580.565418623862
 20
-35.79843872469883
 30
0.0
 11
581.3234630682585
 21
-33.78250983593819
 31
0.0
  0
LINE
  5
9DE7
330
18
100
AcDbEntity
  8
1HATCH
100
AcDbLine
 10
580.565418623862
 20
-35.79843872469883
 30
0.0
 11
579.2178630683921
 21
-32.59843872490217
 31
0.0
  0
LINE
  5
9DE8
330
18
100
AcDbEntity
  8
1HATCH
100
AcDbLine
 10
580.5636408460845
 20
-34.5352565025571
 30
0.0
 11
581.3234630682585
 21
-32.51424316935186
 31
0.0
  0
LINE
  5
9DE9
330
18
100
AcDbEntity
  8
1HATCH
100
AcDbLine
 10
580.5636408460845
 20
-34.5352565025571
 30
0.0
 11
579.7479964016919
 21
-32.59843872490217
 31
0.0
  0
LINE
  5
9DEA
330
18
100
AcDbEntity
  8
1HATCH
100
AcDbLine
 10
579.048974179514
 20
-34.40896316923181
 30
0.0
 11
578.7549297350882
 21
-33.75150539149558
 31
0.0
  0
LINE
  5
9DEB
330
18
100
AcDbEntity
  8
1HATCH
100
AcDbLine
 10
578.4608852906625
 20
-34.40896316923181
 30
0.0
 11
578.7549297350882
 21
-33.75150539149558
 31
0.0
  0
LINE
  5
9DEC
330
18
100
AcDbEntity
  8
1HATCH
100
AcDbLine
 10
582.0832852904324
 20
-34.5352565025571
 30
0.0
 11
582.8985741792695
 21
-32.59843872490217
 31
0.0
  0
LINE
  5
9DED
330
18
100
AcDbEntity
  8
1HATCH
100
AcDbLine
 10
582.0832852904324
 20
-34.5352565025571
 30
0.0
 11
581.3234630682585
 21
-32.51424316935186
 31
0.0
  0
LINE
  5
9DEE
330
18
100
AcDbEntity
  8
1HATCH
100
AcDbLine
 10
577.1126186240814
 20
-32.59843872490217
 30
0.0
 11
577.7579519573736
 21
-32.59843872490217
 31
0.0
  0
LINE
  5
9DEF
330
18
100
AcDbEntity
  8
1HATCH
100
AcDbLine
 10
575.47066306863
 20
-32.59843872490217
 30
0.0
 11
575.9759075130424
 21
-32.59843872490217
 31
0.0
  0
LINE
  5
9DF0
330
18
100
AcDbEntity
  8
1HATCH
100
AcDbLine
 10
577.7579519573736
 20
-32.59843872490217
 30
0.0
 11
576.6020408463361
 21
-34.05426094703182
 31
0.0
  0
LINE
  5
9DF1
330
18
100
AcDbEntity
  8
1HATCH
100
AcDbLine
 10
577.1126186240814
 20
-32.59843872490217
 30
0.0
 11
575.9759075130424
 21
-34.03001205814451
 31
0.0
  0
LINE
  5
9DF2
330
18
100
AcDbEntity
  8
1HATCH
100
AcDbLine
 10
577.1126186240814
 20
-35.71420761359332
 30
0.0
 11
577.8767075129218
 21
-35.71420761359332
 31
0.0
  0
LINE
  5
9DF3
330
18
100
AcDbEntity
  8
1HATCH
100
AcDbLine
 10
575.47066306863
 20
-35.71420761359332
 30
0.0
 11
575.9759075130424
 21
-35.71420761359332
 31
0.0
  0
LINE
  5
9DF4
330
18
100
AcDbEntity
  8
1HATCH
100
AcDbLine
 10
577.4823964018357
 20
-35.35865205806044
 30
0.0
 11
576.6020408463361
 21
-34.05426094703182
 31
0.0
  0
LINE
  5
9DF5
330
18
100
AcDbEntity
  8
1HATCH
100
AcDbLine
 10
577.1126186240814
 20
-35.71424316914897
 30
0.0
 11
575.9759075130424
 21
-34.03001205814451
 31
0.0
  0
LINE
  5
9DF6
330
18
100
AcDbEntity
  8
1HATCH
100
AcDbLine
 10
575.9759075130424
 20
-32.59843872490217
 30
0.0
 11
575.9759075130424
 21
-35.71420761359332
 31
0.0
  0
LINE
  5
9DF7
330
18
100
AcDbEntity
  8
1HATCH
100
AcDbLine
 10
575.47066306863
 20
-32.59843872490217
 30
0.0
 11
575.47066306863
 21
-35.71420761359332
 31
0.0
  0
LINE
  5
9DF8
330
18
100
AcDbEntity
  8
1HATCH
100
AcDbLine
 10
577.4823964018357
 20
-35.35865205806044
 30
0.0
 11
578.7549297350882
 21
-32.51420761379666
 31
0.0
  0
LINE
  5
9DF9
330
18
100
AcDbEntity
  8
1HATCH
100
AcDbLine
 10
577.8767075129218
 20
-35.71424316914897
 30
0.0
 11
578.2535964017867
 21
-34.87210983586908
 31
0.0
  0
LINE
  5
9DFA
330
18
100
AcDbEntity
  8
1HATCH
100
AcDbLine
 10
582.4178630681889
 20
-35.71424316914897
 30
0.0
 11
583.8496852903203
 21
-32.51424316935186
 31
0.0
  0
LINE
  5
9DFB
330
18
100
AcDbEntity
  8
1HATCH
100
AcDbLine
 10
583.3483519570187
 20
-34.87210983586908
 30
0.0
 11
584.3510186236216
 21
-34.87210983586908
 31
0.0
  0
LINE
  5
9DFC
330
18
100
AcDbEntity
  8
01
  6
BYBLOCK
100
AcDbLine
 10
603.5084271404456
 20
-23.25265913447254
 30
0.0
 11
607.0084271404456
 21
-29.31483696096359
 31
0.0
  0
LINE
  5
9DFD
330
18
100
AcDbEntity
  8
01
  6
BYBLOCK
100
AcDbLine
 10
590.2135113727135
 20
-22.26822829398168
 30
0.0
 11
593.6962493139546
 21
-20.25746860608922
 31
0.0
  0
LINE
  5
9DFE
330
18
100
AcDbEntity
  8
01
  6
BYBLOCK
100
AcDbLine
 10
588.9796167718899
 20
-25.63642891219104
 30
0.0
 11
590.183110489212
 21
-24.94159149052712
 31
0.0
  0
LINE
  5
9DFF
330
18
100
AcDbEntity
  8
01
  6
BYBLOCK
100
AcDbLine
 10
592.1779755650051
 20
-23.78985560202091
 30
0.0
 11
593.229064096868
 21
-23.18300935520767
 31
0.0
  0
LINE
  5
9E00
330
18
100
AcDbEntity
  8
01
  6
BYBLOCK
100
AcDbLine
 10
588.1706630681141
 20
-49.73278853812053
 30
0.0
 11
588.2999962699758
 21
-49.69813381112715
 31
0.0
  0
LINE
  5
9E01
330
18
100
AcDbEntity
  8
01
  6
BYBLOCK
100
AcDbLine
 10
606.4364416928191
 20
-42.92412910448468
 30
0.0
 11
607.7787810686849
 21
-42.14912910448459
 31
0.0
  0
LINE
  5
9E02
330
18
100
AcDbEntity
  8
01
  6
BYBLOCK
100
AcDbLine
 10
607.4364416928191
 20
-44.65617991205352
 30
0.0
 11
607.6962493139544
 21
-44.50617991205354
 31
0.0
  0
LINE
  5
9E03
330
18
100
AcDbEntity
  8
01
  6
BYBLOCK
100
AcDbLine
 10
601.0359952761102
 20
-52.97028152719122
 30
0.0
 11
603.6340714874635
 21
-51.47028152719122
 31
0.0
  0
LINE
  5
9E04
330
18
100
AcDbEntity
  8
01
  6
BYBLOCK
100
AcDbLine
 10
616.5321476988164
 20
-67.81040484515074
 30
0.0
 11
617.3981731026009
 21
-67.31040484515074
 31
0.0
  0
LINE
  5
9E05
330
18
100
AcDbEntity
  8
01
  6
BYBLOCK
100
AcDbLine
 10
606.186781183408
 20
-32.89170441754118
 30
0.0
 11
607.436781183408
 21
-35.05676792700228
 31
0.0
  0
LINE
  5
9E06
330
18
100
AcDbEntity
  8
01
  6
BYBLOCK
100
AcDbLine
 10
606.1823906124163
 20
-29.88409972550926
 30
0.0
 11
607.4323906124163
 21
-32.04916323497025
 31
0.0
  0
LINE
  5
9E07
330
18
100
AcDbEntity
  8
01
  6
BYBLOCK
100
AcDbLine
 10
598.0359952761099
 20
-47.77412910448459
 30
0.0
 11
601.0359952761102
 21
-52.97028152719122
 31
0.0
  0
LINE
  5
9E08
330
18
100
AcDbEntity
  8
01
  6
BYBLOCK
100
AcDbLine
 10
606.4364416928191
 20
-42.92412910448468
 30
0.0
 11
607.4364416928191
 21
-44.65617991205352
 31
0.0
  0
LINE
  5
9E09
330
18
100
AcDbEntity
  8
01
  6
BYBLOCK
100
AcDbLine
 10
607.6962493139544
 20
-44.50617991205354
 30
0.0
 11
618.4962493139545
 21
-63.21232863379737
 31
0.0
  0
LINE
  5
9E0A
330
18
100
AcDbEntity
  8
01
  6
BYBLOCK
100
AcDbLine
 10
605.5704162890346
 20
-43.42412910448456
 30
0.0
 11
618.0204162890344
 21
-64.9881616587171
 31
0.0
  0
LINE
  5
9E0B
330
18
100
AcDbEntity
  8
01
  6
BYBLOCK
100
AcDbLine
 10
604.7043908852501
 20
-43.92412910448468
 30
0.0
 11
617.6543908852503
 21
-66.35418706250141
 31
0.0
  0
LINE
  5
9E0C
330
18
100
AcDbEntity
  8
01
  6
BYBLOCK
100
AcDbLine
 10
607.3383654814655
 20
-50.48630693097573
 30
0.0
 11
617.1383654814657
 21
-67.46040484515072
 31
0.0
  0
LINE
  5
9E0D
330
18
100
AcDbEntity
  8
01
  6
BYBLOCK
100
AcDbLine
 10
603.6340714874635
 20
-51.47028152719122
 30
0.0
 11
612.4340714874633
 21
-66.71232863379737
 31
0.0
  0
LINE
  5
9E0E
330
18
100
AcDbEntity
  8
01
  6
BYBLOCK
100
AcDbLine
 10
607.7787810686849
 20
-42.14912910448459
 30
0.0
 11
605.8613128234155
 21
-36.32797668177795
 31
0.0
  0
ARC
  5
9E0F
330
18
100
AcDbEntity
  8
01
  6
BYBLOCK
100
AcDbCircle
 10
527.2411222950324
 20
84.84618781412723
 30
0.0
 40
144.2499999999999
100
AcDbArc
 50
300.5739861080395
 51
303.776111919253
  0
ARC
  5
9E10
330
18
100
AcDbEntity
  8
01
  6
BYBLOCK
100
AcDbCircle
 10
525.9911222950324
 20
87.01125132358834
 30
0.0
 40
144.2499999999999
100
AcDbArc
 50
301.461243233756
 51
304.3734211784137
  0
ARC
  5
9E11
330
18
100
AcDbEntity
  8
01
  6
BYBLOCK
100
AcDbCircle
 10
524.7411222950324
 20
89.17631483304945
 30
0.0
 40
144.2499999999999
100
AcDbArc
 50
302.1446280944699
 51
304.7718880607769
  0
ARC
  5
9E12
330
18
100
AcDbEntity
  8
01
  6
BYBLOCK
100
AcDbCircle
 10
664.9911222950321
 20
-153.7438109284855
 30
0.0
 40
144.2499999999999
100
AcDbArc
 50
115.228111939218
 51
119.3406055281437
  0
LINE
  5
9E13
330
18
100
AcDbEntity
  8
01
  6
BYBLOCK
100
AcDbLine
 10
593.6962493139544
 20
-20.25746860608922
 30
0.0
 11
598.5685481970419
 21
-25.69653782125772
 31
0.0
  0
LINE
  5
9E14
330
18
100
AcDbEntity
  8
01
  6
BYBLOCK
100
AcDbLine
 10
593.229064096868
 20
-23.18300935520767
 30
0.0
 11
596.4737396414083
 21
-26.80512189201841
 31
0.0
  0
LINE
  5
9E15
330
18
100
AcDbEntity
  8
01
  6
BYBLOCK
100
AcDbLine
 10
612.4340714874633
 20
-66.71232863379737
 30
0.0
 11
616.5321476988164
 21
-67.81040484515074
 31
0.0
  0
LINE
  5
9E16
330
18
100
AcDbEntity
  8
01
  6
BYBLOCK
100
AcDbLine
 10
618.4962493139545
 20
-63.21232863379737
 30
0.0
 11
617.3981731026009
 21
-67.31040484515074
 31
0.0
  0
LINE
  5
9E17
330
18
100
AcDbEntity
  8
01
  6
BYBLOCK
100
AcDbLine
 10
605.5704162890346
 20
-43.42412910448456
 30
0.0
 11
604.7043908852501
 21
-43.92412910448468
 31
0.0
  0
ARC
  5
9E18
330
18
100
AcDbEntity
  8
01
  6
BYBLOCK
100
AcDbCircle
 10
629.0790754827889
 20
-37.95015201071726
 30
0.0
 40
25.09608837142445
100
AcDbArc
 50
193.7711333760302
 51
209.9686619156584
  0
LINE
  5
9E19
330
18
100
AcDbEntity
  8
01
  6
BYBLOCK
100
AcDbLine
 10
599.9325829824933
 20
-27.4285822580365
 30
0.0
 11
601.7443162982112
 21
-34.19006304206005
 31
0.0
  0
LINE
  5
9E1A
330
18
100
AcDbEntity
  8
01
  6
BYBLOCK
100
AcDbLine
 10
586.6928132880406
 20
-23.21159650256357
 30
0.0
 11
591.229959360201
 21
-21.99587187658608
 31
0.0
  0
LINE
  5
9E1B
330
18
100
AcDbEntity
  8
01
  6
BYBLOCK
100
AcDbLine
 10
583.9697206347215
 20
-26.32238219487874
 30
0.0
 11
586.6241876259502
 21
-25.61111990824395
 31
0.0
  0
LINE
  5
9E1C
330
18
100
AcDbEntity
  8
01
  6
BYBLOCK
100
AcDbLine
 10
588.8491705054945
 20
-25.01493754249691
 30
0.0
 11
590.0215074302615
 21
-24.70081081024841
 31
0.0
  0
LINE
  5
9E1D
330
18
100
AcDbEntity
  8
01
  6
BYBLOCK
100
AcDbLine
 10
597.6694767849798
 20
-47.18758907363269
 30
0.0
 11
599.1666618157279
 21
-46.7864195537237
 31
0.0
  0
LINE
  5
9E1E
330
18
100
AcDbEntity
  8
01
  6
BYBLOCK
100
AcDbLine
 10
598.1871148751849
 20
-49.11944072621077
 30
0.0
 11
598.4768926230716
 21
-49.04179501268004
 31
0.0
  0
LINE
  5
9E1F
330
18
100
AcDbEntity
  8
01
  6
BYBLOCK
100
AcDbLine
 10
589.8529105405911
 20
-55.49368876886149
 30
0.0
 11
592.7506880194582
 21
-54.71723163355398
 31
0.0
  0
LINE
  5
9E20
330
18
100
AcDbEntity
  8
01
  6
BYBLOCK
100
AcDbLine
 10
600.9801378274373
 20
-73.83884651980122
 30
0.0
 11
601.9460636537264
 21
-73.58002747469868
 31
0.0
  0
LINE
  5
9E21
330
18
100
AcDbEntity
  8
01
  6
BYBLOCK
100
AcDbLine
 10
600.024905828673
 20
-37.43239407356839
 30
0.0
 11
600.6719534414291
 21
-39.84720863929101
 31
0.0
  0
LINE
  5
9E22
330
18
100
AcDbEntity
  8
01
  6
BYBLOCK
100
AcDbLine
 10
600.7990902371974
 20
-34.52613466287494
 30
0.0
 11
601.4461378499535
 21
-36.94094922859767
 31
0.0
  0
LINE
  5
9E23
330
18
100
AcDbEntity
  8
01
  6
BYBLOCK
100
AcDbLine
 10
588.2999962699758
 20
-49.69813381112715
 30
0.0
 11
589.8529105405911
 21
-55.49368876886149
 31
0.0
  0
LINE
  5
9E24
330
18
100
AcDbEntity
  8
01
  6
BYBLOCK
100
AcDbLine
 10
597.6694767849798
 20
-47.18758907363269
 30
0.0
 11
598.1871148751849
 21
-49.11944072621077
 31
0.0
  0
LINE
  5
9E25
330
18
100
AcDbEntity
  8
01
  6
BYBLOCK
100
AcDbLine
 10
598.4768926230716
 20
-49.04179501268004
 30
0.0
 11
604.0673839972859
 21
-69.90579286052389
 31
0.0
  0
LINE
  5
9E26
330
18
100
AcDbEntity
  8
01
  6
BYBLOCK
100
AcDbLine
 10
596.7035509586907
 20
-47.44640811873512
 30
0.0
 11
603.1481451817434
 21
-71.49796119333291
 31
0.0
  0
LINE
  5
9E27
330
18
100
AcDbEntity
  8
01
  6
BYBLOCK
100
AcDbLine
 10
595.7376251324016
 20
-47.70522716383766
 30
0.0
 11
602.441038400557
 21
-72.72270606472443
 31
0.0
  0
LINE
  5
9E28
330
18
100
AcDbEntity
  8
01
  6
BYBLOCK
100
AcDbLine
 10
596.5834326218304
 20
-54.72552699296364
 30
0.0
 11
601.6562859058396
 21
-73.65767318822941
 31
0.0
  0
LINE
  5
9E29
330
18
100
AcDbEntity
  8
01
  6
BYBLOCK
100
AcDbLine
 10
592.7506880194582
 20
-54.71723163355398
 30
0.0
 11
597.3059032132627
 21
-71.71752617624156
 31
0.0
  0
LINE
  5
9E2A
330
18
100
AcDbEntity
  8
01
  6
BYBLOCK
100
AcDbLine
 10
599.1666618157279
 20
-46.7864195537237
 30
0.0
 11
598.821154827974
 21
-40.66734078961122
 31
0.0
  0
ARC
  5
9E2B
330
18
100
AcDbEntity
  8
01
  6
BYBLOCK
100
AcDbCircle
 10
554.2420638747675
 20
96.7263168143179
 30
0.0
 40
144.2499999999999
100
AcDbArc
 50
285.5739861080416
 51
288.7761119192527
  0
ARC
  5
9E2C
330
18
100
AcDbEntity
  8
01
  6
BYBLOCK
100
AcDbCircle
 10
553.5950162620112
 20
99.14113138004063
 30
0.0
 40
144.2499999999999
100
AcDbArc
 50
286.4612432337553
 51
289.3734211784117
  0
ARC
  5
9E2D
330
18
100
AcDbEntity
  8
01
  6
BYBLOCK
100
AcDbCircle
 10
552.9479686492549
 20
101.5559459457631
 30
0.0
 40
144.2499999999999
100
AcDbArc
 50
287.1446280944801
 51
289.7718880607745
  0
ARC
  5
9E2E
330
18
100
AcDbEntity
  8
01
  6
BYBLOCK
100
AcDbCircle
 10
625.5467108005117
 20
-169.3862483283202
 30
0.0
 40
144.2499999999999
100
AcDbArc
 50
100.2281119392214
 51
104.3406055281487
  0
LINE
  5
9E2F
330
18
100
AcDbEntity
  8
01
  6
BYBLOCK
100
AcDbLine
 10
581.6216835515633
 20
-25.51159650256352
 30
0.0
 11
581.6579391269901
 21
-26.17120157128409
 31
0.0
  0
LINE
  5
9E30
330
18
100
AcDbEntity
  8
01
  6
BYBLOCK
100
AcDbLine
 10
581.7241659224704
 20
-27.37607915133788
 30
0.0
 11
581.8805035491818
 21
-30.22036143885396
 31
0.0
  0
LINE
  5
9E31
330
18
100
AcDbEntity
  8
01
  6
BYBLOCK
100
AcDbLine
 10
583.9697206347215
 20
-26.32238219487874
 30
0.0
 11
584.0219582338074
 21
-27.27275147544185
 31
0.0
  0
LINE
  5
9E32
330
18
100
AcDbEntity
  8
01
  6
BYBLOCK
100
AcDbLine
 10
584.0800790287029
 20
-28.33015493572861
 30
0.0
 11
584.1835903926807
 21
-30.21335826503821
 31
0.0
  0
LINE
  5
9E33
330
18
100
AcDbEntity
  8
01
  6
BYBLOCK
100
AcDbLine
 10
591.229959360201
 20
-21.99587187658608
 30
0.0
 11
594.5285039842582
 21
-28.51065304686597
 31
0.0
  0
LINE
  5
9E34
330
18
100
AcDbEntity
  8
01
  6
BYBLOCK
100
AcDbLine
 10
590.0215074302615
 20
-24.70081081024841
 30
0.0
 11
592.2181516286304
 21
-29.03928668138474
 31
0.0
  0
LINE
  5
9E35
330
18
100
AcDbEntity
  8
01
  6
BYBLOCK
100
AcDbLine
 10
597.3059032132627
 20
-71.71752617624156
 30
0.0
 11
600.9801378274373
 21
-73.83884651980122
 31
0.0
  0
LINE
  5
9E36
330
18
100
AcDbEntity
  8
01
  6
BYBLOCK
100
AcDbLine
 10
604.0673839972859
 20
-69.90579286052389
 30
0.0
 11
601.9460636537264
 21
-73.58002747469868
 31
0.0
  0
LINE
  5
9E37
330
18
100
AcDbEntity
  8
01
  6
BYBLOCK
100
AcDbLine
 10
596.7035509586907
 20
-47.44640811873512
 30
0.0
 11
595.7376251324016
 21
-47.70522716383766
 31
0.0
  0
ARC
  5
9E38
330
18
100
AcDbEntity
  8
01
  6
BYBLOCK
100
AcDbCircle
 10
620.8279415396877
 20
-48.24344099551854
 30
0.0
 40
25.09608837142445
100
AcDbArc
 50
178.7711333760267
 51
194.9686619156642
  0
ARC
  5
9E39
330
18
100
AcDbEntity
  8
01
  6
BYBLOCK
100
AcDbCircle
 10
586.8144163424657
 20
-18.19243332510212
 30
0.0
 40
9.5
100
AcDbArc
 50
285.4139799106692
 51
296.379222324482
  0
ARC
  5
9E3A
330
18
100
AcDbEntity
  8
01
  6
BYBLOCK
100
AcDbCircle
 10
586.8144163424657
 20
-18.19243332510212
 30
0.0
 40
9.5
100
AcDbArc
 50
310.3760163376899
 51
320.6215320564889
  0
ARC
  5
9E3B
330
18
100
AcDbEntity
  8
01
  6
BYBLOCK
100
AcDbCircle
 10
586.8144163424657
 20
-18.19243332510212
 30
0.0
 40
9.5
100
AcDbArc
 50
335.0907413191976
 51
271.4835511155014
  0
ARC
  5
9E3C
330
18
100
AcDbEntity
  8
01
  6
BYBLOCK
100
AcDbCircle
 10
586.8144163424657
 20
-18.19243332510212
 30
0.0
 40
10.5
100
AcDbArc
 50
285.0745453738473
 51
296.4244277613397
  0
ARC
  5
9E3D
330
18
100
AcDbEntity
  8
01
  6
BYBLOCK
100
AcDbCircle
 10
586.8144163424657
 20
-18.19243332510212
 30
0.0
 40
10.5
100
AcDbArc
 50
309.0672187189969
 51
319.780858296452
  0
ARC
  5
9E3E
330
18
100
AcDbEntity
  8
01
  6
BYBLOCK
100
AcDbCircle
 10
586.8144163424657
 20
-18.19243332510212
 30
0.0
 40
10.5
100
AcDbArc
 50
332.7674072845762
 51
272.4805916030467
  0
CIRCLE
  5
9E5F
330
18
100
AcDbEntity
  8
01
100
AcDbCircle
 10
692.9903351506601
 20
-136.3617626893014
 30
0.0
 40
5.599999999999952
  0
CIRCLE
  5
9E60
330
18
100
AcDbEntity
  8
01
100
AcDbCircle
 10
692.9903351506601
 20
-136.3617626893014
 30
0.0
 40
6.49999999999998
  0
LINE
  5
9E65
330
18
100
AcDbEntity
  8
1CENTER
100
AcDbLine
 10
701.5769664434376
 20
-136.3617626893014
 30
0.0
 11
684.4037038578831
 21
-136.3617626893014
 31
0.0
  0
LINE
  5
9E66
330
18
100
AcDbEntity
  8
1CENTER
100
AcDbLine
 10
692.9903351506604
 20
-127.7751313965242
 30
0.0
 11
692.9903351506604
 21
-144.9483939820787
 31
0.0
  0
LINE
  5
9FA8
330
18
100
AcDbEntity
  8
1CENTER
100
AcDbLine
 10
480.4425278925586
 20
-131.361764689302
 30
0.0
 11
480.4425278925586
 21
-141.361764689302
 31
0.0
  0
LINE
  5
9FB3
330
18
100
AcDbEntity
  8
01
100
AcDbLine
 10
650.3900895848691
 20
-147.5956894943849
 30
0.0
 11
650.3900895848691
 21
-114.127835884218
 31
0.0
  0
ARC
  5
9FB4
330
18
100
AcDbEntity
  8
01
100
AcDbCircle
 10
649.390089584869
 20
-114.127835884218
 30
0.0
 40
1.000000000000028
100
AcDbArc
 50
0.0
 51
88.03400000000465
  0
LINE
  5
9FB5
330
18
100
AcDbEntity
  8
01
100
AcDbLine
 10
627.0900895848689
 20
-112.3617626893014
 30
0.0
 11
649.4243960250064
 21
-113.1284245233834
 31
0.0
  0
LINE
  5
9FB6
330
18
100
AcDbEntity
  8
01
100
AcDbLine
 10
627.090089584869
 20
-112.3617626893014
 30
0.0
 11
627.090089584869
 21
-149.3617626893014
 31
0.0
  0
LINE
  5
9FB7
330
18
100
AcDbEntity
  8
01
100
AcDbLine
 10
649.4243960250064
 20
-148.5951008552194
 30
0.0
 11
627.090089584869
 21
-149.3617626893014
 31
0.0
  0
ARC
  5
9FB8
330
18
100
AcDbEntity
  8
01
100
AcDbCircle
 10
649.390089584869
 20
-147.5956894943849
 30
0.0
 40
1.000000000000028
100
AcDbArc
 50
271.9659999999953
 51
0.0
  0
LINE
  5
9FBB
330
18
100
AcDbEntity
  8
1CENTER
100
AcDbLine
 10
635.6767208776465
 20
-136.3617626893014
 30
0.0
 11
618.503458292092
 21
-136.3617626893014
 31
0.0
  0
LINE
  5
9FBC
330
18
100
AcDbEntity
  8
1CENTER
100
AcDbLine
 10
692.3903351506603
 20
-56.37488583073275
 30
0.0
 11
692.3903351506603
 21
-73.54814841628729
 31
0.0
  0
LINE
  5
A4E2
330
18
100
AcDbEntity
  8
01
100
AcDbLine
 10
627.090089584869
 20
-144.3823752417065
 30
0.0
 11
624.8900895848689
 21
-144.3823752417065
 31
0.0
  0
LINE
  5
A4E3
330
18
100
AcDbEntity
  8
01
100
AcDbLine
 10
624.8900895848689
 20
-128.2823752417066
 30
0.0
 11
627.090089584869
 21
-128.2823752417066
 31
0.0
  0
ARC
  5
A4E5
330
18
100
AcDbEntity
  8
01
100
AcDbCircle
 10
624.8900895848689
 20
-129.2823752417066
 30
0.0
 40
1.000000000000007
100
AcDbArc
 50
90.0
 51
180.0
  0
ARC
  5
A4E6
330
18
100
AcDbEntity
  8
01
100
AcDbCircle
 10
624.8900895848689
 20
-143.3823752417065
 30
0.0
 40
1.000000000000007
100
AcDbArc
 50
180.0
 51
270.0
  0
LINE
  5
A4E7
330
18
100
AcDbEntity
  8
01
100
AcDbLine
 10
623.8900895848689
 20
-129.2823752417066
 30
0.0
 11
623.8900895848689
 21
-143.3823752417065
 31
0.0
  0
LINE
  5
A4E8
330
18
100
AcDbEntity
  8
01
100
AcDbLine
 10
611.0838846666911
 20
-133.5039481169603
 30
0.0
 11
611.5838846666911
 21
-133.0039481169603
 31
0.0
  0
LINE
  5
A4E9
330
18
100
AcDbEntity
  8
01
100
AcDbLine
 10
611.5838846666911
 20
-139.6608023664527
 30
0.0
 11
611.0838846666911
 21
-139.1608023664527
 31
0.0
  0
LINE
  5
A4EA
330
18
100
AcDbEntity
  8
01
100
AcDbLine
 10
623.8900895848689
 20
-130.4323752417065
 30
0.0
 11
623.6838846666911
 21
-130.4323752417065
 31
0.0
  0
LINE
  5
A4EB
330
18
100
AcDbEntity
  8
01
100
AcDbLine
 10
623.3838846666911
 20
-130.7323752417065
 30
0.0
 11
623.6838846666911
 21
-130.4323752417065
 31
0.0
  0
LINE
  5
A4EC
330
18
100
AcDbEntity
  8
01
100
AcDbLine
 10
623.3838846666911
 20
-141.9323752417065
 30
0.0
 11
623.3838846666911
 21
-130.7323752417065
 31
0.0
  0
LINE
  5
A4ED
330
18
100
AcDbEntity
  8
01
100
AcDbLine
 10
611.5838846666911
 20
-133.0039481169603
 30
0.0
 11
617.0838846666911
 21
-133.0039481169603
 31
0.0
  0
LINE
  5
A4EE
330
18
100
AcDbEntity
  8
01
100
AcDbLine
 10
618.0838846666911
 20
-133.0039481169604
 30
0.0
 11
623.3838846666911
 21
-133.0039481169603
 31
0.0
  0
LINE
  5
A4EF
330
18
100
AcDbEntity
  8
01
100
AcDbLine
 10
611.0838846666911
 20
-139.1608023664527
 30
0.0
 11
611.0838846666911
 21
-133.5039481169603
 31
0.0
  0
LINE
  5
A4F0
330
18
100
AcDbEntity
  8
01
100
AcDbLine
 10
623.3838846666911
 20
-139.6608023664527
 30
0.0
 11
618.0838846666911
 21
-139.6608023664527
 31
0.0
  0
LINE
  5
A4F1
330
18
100
AcDbEntity
  8
01
100
AcDbLine
 10
617.0838846666911
 20
-139.6608023664527
 30
0.0
 11
611.5838846666911
 21
-139.6608023664527
 31
0.0
  0
LINE
  5
A4F3
330
18
100
AcDbEntity
  8
01
100
AcDbLine
 10
623.6838846666911
 20
-142.2323752417065
 30
0.0
 11
623.3838846666911
 21
-141.9323752417065
 31
0.0
  0
LINE
  5
A4F4
330
18
100
AcDbEntity
  8
01
100
AcDbLine
 10
623.6838846666911
 20
-142.2323752417065
 30
0.0
 11
623.8900895848689
 21
-142.2323752417065
 31
0.0
  0
LINE
  5
A4F5
330
18
100
AcDbEntity
  8
01
100
AcDbLine
 10
617.0838846666911
 20
-133.0039481169603
 30
0.0
 11
617.3717526353545
 21
-133.2918160826044
 31
0.0
  0
ARC
  5
A4F6
330
18
100
AcDbEntity
  8
01
100
AcDbCircle
 10
617.5838846697104
 20
-133.0796840482484
 30
0.0
 40
0.3
100
AcDbArc
 50
225.0000000000046
 51
314.9999999999953
  0
LINE
  5
A4F7
330
18
100
AcDbEntity
  8
01
100
AcDbLine
 10
618.0838846666911
 20
-133.0039481169603
 30
0.0
 11
617.7960167040663
 21
-133.2918160826044
 31
0.0
  0
LINE
  5
A4F8
330
18
100
AcDbEntity
  8
01
100
AcDbLine
 10
617.0838846666911
 20
-139.6608023664527
 30
0.0
 11
617.3717526353545
 21
-139.3729344008087
 31
0.0
  0
ARC
  5
A4F9
330
18
100
AcDbEntity
  8
01
100
AcDbCircle
 10
617.5838846697104
 20
-139.5850664351647
 30
0.0
 40
0.3
100
AcDbArc
 50
45.0000000000046
 51
134.9999999999954
  0
LINE
  5
A4FA
330
18
100
AcDbEntity
  8
01
100
AcDbLine
 10
618.0838846666911
 20
-139.6608023664527
 30
0.0
 11
617.7960167040663
 21
-139.3729344008087
 31
0.0
  0
LINE
  5
A500
330
18
100
AcDbEntity
  8
01
100
AcDbLine
 10
618.0838846666911
 20
-133.0039481169604
 30
0.0
 11
618.0838846666911
 21
-139.6608023664527
 31
0.0
  0
LINE
  5
A501
330
18
100
AcDbEntity
  8
01
100
AcDbLine
 10
617.0838846666911
 20
-133.0039481169603
 30
0.0
 11
617.0838846666911
 21
-139.6608023664527
 31
0.0
  0
LINE
  5
A502
330
18
100
AcDbEntity
  8
01
100
AcDbLine
 10
611.5838846666911
 20
-133.0039481169603
 30
0.0
 11
611.5838846666911
 21
-139.6608023664527
 31
0.0
  0
LINE
  5
A668
330
18
100
AcDbEntity
  8
01
100
AcDbLine
 10
623.3838846666911
 20
-136.3617626893014
 30
0.0
 11
618.0838846666911
 21
-136.3617626893014
 31
0.0
  0
LINE
  5
A669
330
18
100
AcDbEntity
  8
01
100
AcDbLine
 10
617.0838846666912
 20
-136.3617626893014
 30
0.0
 11
611.5838846666911
 21
-136.3617626893014
 31
0.0
  0
LINE
  5
A9F7
330
18
100
AcDbEntity
  8
01
100
AcDbLine
 10
544.805303879248
 20
-150.3617646892947
 30
0.0
 11
544.8053038792478
 21
-111.3617646892952
 31
0.0
  0
LINE
  5
A9F8
330
18
100
AcDbEntity
  8
01
100
AcDbLine
 10
551.1053038792478
 20
-110.8617646892947
 30
0.0
 11
551.1053038792435
 21
-150.8617646892948
 31
0.0
  0
LINE
  5
A9F9
330
18
100
AcDbEntity
  8
01
100
AcDbLine
 10
551.1053038792435
 20
-150.8617646892948
 30
0.0
 11
545.3053038792478
 21
-150.8617646892947
 31
0.0
  0
ARC
  5
A9FA
330
18
100
AcDbEntity
  8
01
100
AcDbCircle
 10
545.3053038792478
 20
-150.3617646892947
 30
0.0
 40
0.5
100
AcDbArc
 50
180.0
 51
270.0
  0
LINE
  5
A9FB
330
18
100
AcDbEntity
  8
01
100
AcDbLine
 10
551.1053038792478
 20
-110.8617646892947
 30
0.0
 11
545.3053038792478
 21
-110.8617646892952
 31
0.0
  0
ARC
  5
A9FC
330
18
100
AcDbEntity
  8
01
100
AcDbCircle
 10
545.3053038792478
 20
-111.3617646892952
 30
0.0
 40
0.5
100
AcDbArc
 50
90.0
 51
180.0
  0
LINE
  5
A9FD
330
18
100
AcDbEntity
  8
01
100
AcDbLine
 10
549.6053038792494
 20
-150.8617646893015
 30
0.0
 11
551.1053038792494
 21
-150.8617646893015
 31
0.0
  0
LINE
  5
AA02
330
18
100
AcDbEntity
  8
1CENTER
100
AcDbLine
 10
556.1053038792451
 20
-136.361764689302
 30
0.0
 11
546.1053038792451
 21
-136.361764689302
 31
0.0
  0
SPLINE
  5
AA4C
330
18
100
AcDbEntity
  8
01
100
AcDbSpline
210
0.0
220
0.0
230
1.0
 70
    24
 71
     1
 72
     4
 73
     2
 74
     0
 42
0.0000000001
 43
0.0000000001
 40
0.1160848018737504
 40
0.1160848018737504
 40
1.0
 40
1.0
 10
544.8053038792478
 20
-146.111764689302
 30
0.0
 10
530.1052790682356
 20
-146.111764689302
 30
0.0
  0
SPLINE
  5
AA4D
330
18
100
AcDbEntity
  8
01
100
AcDbSpline
210
0.0
220
0.0
230
1.0
 70
    24
 71
     1
 72
     4
 73
     2
 74
     0
 42
0.0000000001
 43
0.0000000001
 40
0.0
 40
0.0
 40
0.8839151981262495
 40
0.8839151981262495
 10
530.1052790682356
 20
-126.611764689302
 30
0.0
 10
544.8053038792477
 20
-126.611764689302
 30
0.0
  0
ARC
  5
AA4E
330
18
100
AcDbEntity
  8
01
100
AcDbCircle
 10
530.1052790682356
 20
-145.111764689302
 30
0.0
 40
1.0
100
AcDbArc
 50
180.0
 51
270.0
  0
ARC
  5
AA4F
330
18
100
AcDbEntity
  8
01
100
AcDbCircle
 10
530.1052790682356
 20
-127.611764689302
 30
0.0
 40
1.0
100
AcDbArc
 50
90.0
 51
180.0
  0
LINE
  5
AA50
330
18
100
AcDbEntity
  8
01
100
AcDbLine
 10
543.6052790682356
 20
-127.7994927945302
 30
0.0
 11
543.6052790682356
 21
-144.9240365840738
 31
0.0
  0
SPLINE
  5
AA51
330
18
100
AcDbEntity
  8
01
100
AcDbSpline
210
0.0
220
0.0
230
1.0
 70
     8
 71
     3
 72
    14
 73
    10
 74
     0
 42
0.0000000001
 43
0.0000000001
 40
0.0
 40
0.0
 40
0.0
 40
0.0
 40
0.25
 40
0.25
 40
0.5
 40
0.5
 40
0.75
 40
0.75
 40
1.0
 40
1.0
 40
1.0
 40
1.0
 10
542.6052790682356
 20
-127.3305687552078
 30
0.0
 10
542.7452467459887
 20
-127.3305687552078
 30
0.0
 10
542.8836680201343
 20
-127.3402047105146
 30
0.0
 10
543.1337183600888
 20
-127.3792856194562
 30
0.0
 10
543.2460359229178
 20
-127.4090917543299
 30
0.0
 10
543.4270832940048
 20
-127.490011491114
 30
0.0
 10
543.4948839303087
 20
-127.5404010273054
 30
0.0
 10
543.5845028468518
 20
-127.6597706163204
 30
0.0
 10
543.6052790682356
 20
-127.7265700670317
 30
0.0
 10
543.6052790682356
 20
-127.7994927945302
 30
0.0
  0
SPLINE
  5
AA52
330
18
100
AcDbEntity
  8
01
100
AcDbSpline
210
0.0
220
0.0
230
1.0
 70
     8
 71
     3
 72
    14
 73
    10
 74
     0
 42
0.0000000001
 43
0.0000000001
 40
0.0
 40
0.0
 40
0.0
 40
0.0
 40
0.25
 40
0.25
 40
0.5
 40
0.5
 40
0.75
 40
0.75
 40
1.0
 40
1.0
 40
1.0
 40
1.0
 10
543.6052790682356
 20
-144.9240365840738
 30
0.0
 10
543.6052790682356
 20
-144.9969532712083
 30
0.0
 10
543.5839186609751
 20
-145.0647379670692
 30
0.0
 10
543.4947794692991
 20
-145.1830648410328
 30
0.0
 10
543.4258468391449
 20
-145.234177695801
 30
0.0
 10
543.245799398778
 20
-145.3144352879547
 30
0.0
 10
543.1330937252826
 20
-145.3443981076613
 30
0.0
 10
542.8825231116639
 20
-145.3834464831953
 30
0.0
 10
542.7451369623453
 20
-145.3929606233963
 30
0.0
 10
542.6052790682356
 20
-145.3929606233963
 30
0.0
  0
LINE
  5
AA53
330
18
100
AcDbEntity
  8
01
100
AcDbLine
 10
542.6052790682356
 20
-145.3929606233963
 30
0.0
 11
530.1052790682356
 21
-145.3929606233963
 31
0.0
  0
LINE
  5
AA54
330
18
100
AcDbEntity
  8
01
100
AcDbLine
 10
530.1052790682356
 20
-127.3305687552078
 30
0.0
 11
542.6052790682356
 21
-127.3305687552078
 31
0.0
  0
SPLINE
  5
AA55
330
18
100
AcDbEntity
  8
01
100
AcDbSpline
210
0.0
220
0.0
230
1.0
 70
     8
 71
     3
 72
    14
 73
    10
 74
     0
 42
0.0000000001
 43
0.0000000001
 40
0.0
 40
0.0
 40
0.0
 40
0.0
 40
0.2500000000000001
 40
0.2500000000000001
 40
0.5000000000000002
 40
0.5000000000000002
 40
0.7500000000000003
 40
0.7500000000000003
 40
1.0
 40
1.0
 40
1.0
 40
1.0
 10
530.1052790682356
 20
-127.3305687552078
 30
0.0
 10
529.9680701533082
 20
-127.3305687552078
 30
0.0
 10
529.833066607796
 20
-127.341943565303
 30
0.0
 10
529.5857301491429
 20
-127.3848984326233
 30
0.0
 10
529.4752287197784
 20
-127.4161427597278
 30
0.0
 10
529.29303504625
 20
-127.4933282771189
 30
0.0
 10
529.2240419438654
 20
-127.5376688923785
 30
0.0
 10
529.129274405379
 20
-127.6356505437568
 30
0.0
 10
529.1052790682356
 20
-127.6881439667735
 30
0.0
 10
529.1052790682356
 20
-127.7412948645187
 30
0.0
  0
SPLINE
  5
AA56
330
18
100
AcDbEntity
  8
01
100
AcDbSpline
210
0.0
220
0.0
230
1.0
 70
     8
 71
     3
 72
    14
 73
    10
 74
     0
 42
0.0000000001
 43
0.0000000001
 40
0.0
 40
0.0
 40
0.0
 40
0.0
 40
0.2500000000000001
 40
0.2500000000000001
 40
0.5000000000000002
 40
0.5000000000000002
 40
0.7500000000000003
 40
0.7500000000000003
 40
1.0
 40
1.0
 40
1.0
 40
1.0
 10
530.1052790682356
 20
-145.3929606233963
 30
0.0
 10
529.9680701533082
 20
-145.3929606233963
 30
0.0
 10
529.833066607796
 20
-145.381585813301
 30
0.0
 10
529.5857301491429
 20
-145.3386309459807
 30
0.0
 10
529.4752287197784
 20
-145.3073866188761
 30
0.0
 10
529.29303504625
 20
-145.2302011014851
 30
0.0
 10
529.2240419438654
 20
-145.1858604862255
 30
0.0
 10
529.129274405379
 20
-145.0878788348472
 30
0.0
 10
529.1052790682356
 20
-145.0353854118306
 30
0.0
 10
529.1052790682356
 20
-144.9822345140854
 30
0.0
  0
LINE
  5
AA57
330
18
100
AcDbEntity
  8
01
100
AcDbLine
 10
529.1052790682356
 20
-127.7412948645187
 30
0.0
 11
529.1052790682356
 21
-144.9822345140854
 31
0.0
  0
LINE
  5
AA58
330
18
100
AcDbEntity
  8
01
100
AcDbLine
 10
529.1052790682356
 20
-144.9822345140854
 30
0.0
 11
529.1052790682356
 21
-145.111764689302
 31
0.0
  0
SPLINE
  5
AA5B
330
18
100
AcDbEntity
  8
01
100
AcDbSpline
210
0.0
220
0.0
230
1.0
 70
    24
 71
     1
 72
     5
 73
     3
 74
     0
 42
0.0000000001
 43
0.0000000001
 40
0.0000000000000249
 40
0.0000000000000249
 40
0.3003855657215301
 40
1.0
 40
1.0
 10
553.8049183135236
 20
-131.361764689302
 30
0.0
 10
554.1053038792451
 20
-131.6621502550235
 30
0.0
 10
554.8049183135236
 20
-132.361764689302
 30
0.0
  0
SPLINE
  5
AA5C
330
18
100
AcDbEntity
  8
01
100
AcDbSpline
210
0.0
220
0.0
230
1.0
 70
    24
 71
     1
 72
     5
 73
     3
 74
     0
 42
0.0000000001
 43
0.0000000001
 40
0.0
 40
0.0
 40
0.6996144342784699
 40
0.9999999999999467
 40
0.9999999999999467
 10
554.8049183135236
 20
-140.361764689302
 30
0.0
 10
554.1053038792451
 20
-141.0613791235805
 30
0.0
 10
553.8049183135236
 20
-141.361764689302
 30
0.0
  0
SPLINE
  5
AA5F
330
18
100
AcDbEntity
  8
01
100
AcDbSpline
210
0.0
220
0.0
230
1.0
 70
    24
 71
     1
 72
     4
 73
     2
 74
     0
 42
0.0000000001
 43
0.0000000001
 40
0.0
 40
0.0
 40
1.0
 40
1.0
 10
566.3049183135236
 20
-133.0333375645558
 30
0.0
 10
566.8049183135236
 20
-133.5333375645558
 30
0.0
  0
SPLINE
  5
AA60
330
18
100
AcDbEntity
  8
01
100
AcDbSpline
210
0.0
220
0.0
230
1.0
 70
    24
 71
     1
 72
     4
 73
     2
 74
     0
 42
0.0000000001
 43
0.0000000001
 40
0.0
 40
0.0
 40
1.0
 40
1.0
 10
560.6584717041169
 20
-133.0333375645558
 30
0.0
 10
566.3049183135236
 20
-133.0333375645558
 30
0.0
  0
SPLINE
  5
AA61
330
18
100
AcDbEntity
  8
01
100
AcDbSpline
210
0.0
220
0.0
230
1.0
 70
    24
 71
     1
 72
     4
 73
     2
 74
     0
 42
0.0000000001
 43
0.0000000001
 40
0.0
 40
0.0
 40
1.0
 40
1.0
 10
566.8049183135236
 20
-139.1901918140482
 30
0.0
 10
566.3049183135236
 20
-139.6901918140482
 30
0.0
  0
SPLINE
  5
AA62
330
18
100
AcDbEntity
  8
01
100
AcDbSpline
210
0.0
220
0.0
230
1.0
 70
    24
 71
     1
 72
     4
 73
     2
 74
     0
 42
0.0000000001
 43
0.0000000001
 40
0.0
 40
0.0
 40
1.0
 40
1.0
 10
566.3049183135236
 20
-139.6901918140482
 30
0.0
 10
560.6584717041169
 20
-139.6901918140482
 30
0.0
  0
SPLINE
  5
AA63
330
18
100
AcDbEntity
  8
01
100
AcDbSpline
210
0.0
220
0.0
230
1.0
 70
    24
 71
     1
 72
     4
 73
     2
 74
     0
 42
0.0000000001
 43
0.0000000001
 40
0.0
 40
0.0
 40
1.0
 40
1.0
 10
554.8049183135236
 20
-133.0333375645558
 30
0.0
 10
559.9513649229303
 20
-133.0333375645558
 30
0.0
  0
SPLINE
  5
AA64
330
18
100
AcDbEntity
  8
01
100
AcDbSpline
210
0.0
220
0.0
230
1.0
 70
    24
 71
     1
 72
     4
 73
     2
 74
     0
 42
0.0000000001
 43
0.0000000001
 40
0.0
 40
0.0
 40
1.0
 40
1.0
 10
559.9513649229302
 20
-139.6901918140482
 30
0.0
 10
554.8049183135236
 20
-139.6901918140482
 30
0.0
  0
LINE
  5
AA65
330
18
100
AcDbEntity
  8
01
100
AcDbLine
 10
553.8049183135236
 20
-136.361764689302
 30
0.0
 11
553.8049183135236
 21
-141.361764689302
 31
0.0
  0
LINE
  5
AA66
330
18
100
AcDbEntity
  8
01
100
AcDbLine
 10
553.8049183135236
 20
-131.361764689302
 30
0.0
 11
553.8049183135236
 21
-136.361764689302
 31
0.0
  0
LINE
  5
AA67
330
18
100
AcDbEntity
  8
01
100
AcDbLine
 10
554.8049183135236
 20
-136.361764689302
 30
0.0
 11
554.8049183135236
 21
-132.361764689302
 31
0.0
  0
LINE
  5
AA68
330
18
100
AcDbEntity
  8
01
100
AcDbLine
 10
554.8049183135236
 20
-140.361764689302
 30
0.0
 11
554.8049183135236
 21
-136.361764689302
 31
0.0
  0
LINE
  5
AA6B
330
18
100
AcDbEntity
  8
01
100
AcDbLine
 10
566.015794611359
 20
-136.3617646887088
 30
0.0
 11
560.8049183135236
 21
-136.3617646887088
 31
0.0
  0
ELLIPSE
  5
AA6C
330
18
100
AcDbEntity
  8
01
100
AcDbEllipse
 10
560.3049183135236
 20
-136.361764689302
 30
0.0
 11
-0.4619397662556537
 21
-0.4619397662556395
 31
0.0
210
0.0
220
0.0
230
-1.0
 40
0.414213562373094
 41
3.53429173528851
 42
4.319689898685994
  0
ELLIPSE
  5
AA6D
330
18
100
AcDbEntity
  8
01
100
AcDbEllipse
 10
560.3049183135236
 20
-136.361764689302
 30
0.0
 11
-0.4619397662556537
 21
0.4619397662556467
 31
0.0
210
0.0
220
0.0
230
-1.0
 40
0.4142135623730754
 41
1.963495408493638
 42
2.748893571891077
  0
LINE
  5
AA6E
330
18
100
AcDbEntity
  8
01
100
AcDbLine
 10
560.8049183135236
 20
-139.5437452046415
 30
0.0
 11
560.8049183135236
 21
-136.7153180798953
 31
0.0
  0
LINE
  5
AA6F
330
18
100
AcDbEntity
  8
01
100
AcDbLine
 10
560.6584717041169
 20
-139.6901918140482
 30
0.0
 11
560.5170503478796
 21
-139.4901918140482
 31
0.0
  0
LINE
  5
AA70
330
18
100
AcDbEntity
  8
01
100
AcDbLine
 10
560.8049183135236
 20
-136.0082112987088
 30
0.0
 11
560.8049183135236
 21
-133.1797841739626
 31
0.0
  0
LINE
  5
AA71
330
18
100
AcDbEntity
  8
01
100
AcDbLine
 10
560.6584717041169
 20
-133.0333375645558
 30
0.0
 11
560.5170503478796
 21
-133.2333375645558
 31
0.0
  0
LINE
  5
AA72
330
18
100
AcDbEntity
  8
01
100
AcDbLine
 10
559.8049183135236
 20
-136.0082112987088
 30
0.0
 11
559.8049183135236
 21
-133.1797841739626
 31
0.0
  0
ELLIPSE
  5
AA73
330
18
100
AcDbEntity
  8
01
100
AcDbEllipse
 10
560.3049183135236
 20
-136.361764689302
 30
0.0
 11
-0.4619397662556395
 21
0.4619397662556395
 31
0.0
210
0.0
220
0.0
230
-1.0
 40
0.414213562373085
 41
5.105088062083387
 42
5.890486225480888
  0
LINE
  5
AA74
330
18
100
AcDbEntity
  8
01
100
AcDbLine
 10
560.0927862791676
 20
-133.2333375645558
 30
0.0
 11
559.9513649229302
 21
-133.0333375645558
 31
0.0
  0
ELLIPSE
  5
AA75
330
18
100
AcDbEntity
  8
01
100
AcDbEllipse
 10
560.3049183135236
 20
-136.361764689302
 30
0.0
 11
0.4619397662556395
 21
0.4619397662556466
 31
0.0
210
0.0
220
0.0
230
-1.0
 40
0.4142135623730818
 41
3.534291735288567
 42
4.319689898685963
  0
LINE
  5
AA76
330
18
100
AcDbEntity
  8
01
100
AcDbLine
 10
559.8049183135236
 20
-139.5437452046415
 30
0.0
 11
559.8049183135236
 21
-136.7153180798953
 31
0.0
  0
LINE
  5
AA77
330
18
100
AcDbEntity
  8
01
100
AcDbLine
 10
560.0927862791676
 20
-139.4901918140482
 30
0.0
 11
559.9513649229302
 21
-139.6901918140482
 31
0.0
  0
LINE
  5
AA78
330
18
100
AcDbEntity
  8
01
100
AcDbLine
 10
559.8049183135236
 20
-136.3617646887088
 30
0.0
 11
554.8049183135236
 21
-136.3617646887088
 31
0.0
  0
LINE
  5
AA79
330
18
100
AcDbEntity
  8
01
100
AcDbLine
 10
566.3049183135236
 20
-133.1797841739626
 30
0.0
 11
566.3049183135236
 21
-136.3617646887088
 31
0.0
  0
LINE
  5
AA7A
330
18
100
AcDbEntity
  8
01
100
AcDbLine
 10
566.8049183135236
 20
-136.361764689302
 30
0.0
 11
566.8049183135236
 21
-133.5333375645558
 31
0.0
  0
LINE
  5
AA7B
330
18
100
AcDbEntity
  8
01
100
AcDbLine
 10
566.8049183135236
 20
-139.1901918140482
 30
0.0
 11
566.8049183135236
 21
-136.361764689302
 31
0.0
  0
LINE
  5
AA7C
330
18
100
AcDbEntity
  8
01
100
AcDbLine
 10
566.3049183135236
 20
-136.3617646887088
 30
0.0
 11
566.3049183135236
 21
-139.5437452046415
 31
0.0
  0
ELLIPSE
  5
AA7D
330
18
100
AcDbEntity
  8
01
100
AcDbEllipse
 10
560.3049183135236
 20
-132.9333375645559
 30
0.0
 11
0.0
 21
0.4242640687119347
 31
2.198241588757811E-15
210
0.0
220
5.181305113656384E-15
230
-1.0
 40
0.7071067811865304
 41
2.356194490192316
 42
3.926990816987264
  0
ELLIPSE
  5
AA7E
330
18
100
AcDbEntity
  8
01
100
AcDbEllipse
 10
560.3049183135236
 20
-139.7901918140482
 30
0.0
 11
0.0
 21
-0.4242640687119347
 31
-7.160938508832247E-16
210
0.0
220
1.687849393085030E-15
230
-1.0
 40
0.7071067811865304
 41
2.356194490192326
 42
3.926990816987297
  0
LINE
  5
AA7F
330
18
100
AcDbEntity
  8
01
100
AcDbLine
 10
560.3049183135236
 20
-133.6651563524527
 30
-0.0000000000000022
 11
560.3049183135236
 21
-139.1107000588308
 31
-0.0000000000000022
  0
ELLIPSE
  5
AA80
330
18
100
AcDbEntity
  8
01
100
AcDbEllipse
 10
565.8049183135236
 20
-136.361764689302
 30
0.0
 11
-0.4619397662556537
 21
-0.4619397662556395
 31
0.0
210
0.0
220
0.0
230
-1.0
 40
0.414213562373094
 41
3.53429173528851
 42
4.319689898685994
  0
ELLIPSE
  5
AA81
330
18
100
AcDbEntity
  8
01
100
AcDbEllipse
 10
565.8049183135236
 20
-136.361764689302
 30
0.0
 11
-0.4619397662556537
 21
0.4619397662556467
 31
0.0
210
0.0
220
0.0
230
-1.0
 40
0.4142135623730754
 41
1.963495408493638
 42
2.748893571891077
  0
LINE
  5
AB73
330
18
100
AcDbEntity
  8
01
100
AcDbLine
 10
483.9425278925522
 20
-72.46151379030994
 30
-0.0000000000562354
 11
489.6925278925577
 21
-72.46151379031107
 31
-0.0000000000562354
  0
LINE
  5
AB74
330
18
100
AcDbEntity
  8
01
100
AcDbLine
 10
482.9425278925503
 20
-85.96153673451659
 30
-0.0000000000562354
 11
482.9425278925522
 21
-73.46151379030994
 31
-0.0000000000562354
  0
LINE
  5
AB75
330
18
100
AcDbEntity
  8
01
100
AcDbLine
 10
477.9425278925503
 20
-85.96153673451477
 30
-0.0000000000562354
 11
477.9425278925503
 21
-73.46151379031176
 31
-0.0000000000562354
  0
ARC
  5
AB76
330
18
100
AcDbEntity
  8
01
100
AcDbCircle
 10
478.9425278925495
 20
-85.96153673451659
 30
-0.0000000000562354
 40
1.0
100
AcDbArc
 50
180.0000000000521
 51
270.0
  0
ARC
  5
AB77
330
18
100
AcDbEntity
  8
01
100
AcDbCircle
 10
481.9425278925495
 20
-85.96153673451659
 30
-0.0000000000562354
 40
1.0
100
AcDbArc
 50
270.0
 51
0.0
  0
LINE
  5
AB78
330
18
100
AcDbEntity
  8
01
100
AcDbLine
 10
478.9425278925503
 20
-86.9615367345184
 30
-0.0000000000562354
 11
481.9425278925494
 21
-86.9615367345184
 31
-0.0000000000562354
  0
LINE
  5
AB79
330
18
100
AcDbEntity
  8
01
100
AcDbLine
 10
471.1925278925586
 20
-72.46151379031187
 30
-0.0000000000562354
 11
476.9425278925503
 21
-72.46151379031176
 31
-0.0000000000562354
  0
ARC
  5
AB7A
330
18
100
AcDbEntity
  8
01
100
AcDbCircle
 10
476.9425278925495
 20
-73.46151379031176
 30
-0.0000000000562354
 40
1.0
100
AcDbArc
 50
0.0
 51
90.0
  0
ARC
  5
AB7B
330
18
100
AcDbEntity
  8
01
100
AcDbCircle
 10
483.9425278925514
 20
-73.46151379030994
 30
-0.0000000000562354
 40
1.0
100
AcDbArc
 50
89.99999999998697
 51
180.0
  0
LINE
  5
AB7C
330
18
100
AcDbEntity
  8
01
100
AcDbLine
 10
490.192527892558
 20
-71.96151379031141
 30
0.0000000000000222
 11
490.192527892558
 21
-71.26151712351043
 31
0.0
  0
ARC
  5
AB7D
330
18
100
AcDbEntity
  8
01
100
AcDbCircle
 10
489.6925278925578
 20
-71.96151379031141
 30
0.0000000000000222
 40
0.5
100
AcDbArc
 50
269.999999999987
 51
0.0
  0
SPLINE
  5
AB80
330
18
100
AcDbEntity
  8
01
100
AcDbSpline
210
0.0
220
0.0
230
1.0
 70
    24
 71
     1
 72
     5
 73
     3
 74
     0
 42
0.0000000001
 43
0.0000000001
 40
-0.0000000000001448
 40
-0.0000000000001448
 40
0.3003855657215301
 40
1.0
 40
1.0
 10
475.4425278925581
 20
-62.26190268923154
 30
-0.0000000000562526
 10
475.7429134582798
 20
-61.96151712350991
 30
-0.0000000000562526
 10
476.4425278925582
 20
-61.26190268923153
 30
-0.0000000000562526
  0
SPLINE
  5
AB81
330
18
100
AcDbEntity
  8
01
100
AcDbSpline
210
0.0
220
0.0
230
1.0
 70
    24
 71
     1
 72
     5
 73
     3
 74
     0
 42
0.0000000001
 43
0.0000000001
 40
0.0
 40
0.0
 40
0.6996144342784699
 40
1.000000000000145
 40
1.000000000000145
 10
484.4425278925582
 20
-61.26190268923153
 30
-0.0000000000562526
 10
485.1421423268367
 20
-61.96151712350991
 30
-0.0000000000562526
 10
485.4425278925584
 20
-62.26190268923154
 30
-0.0000000000562526
  0
SPLINE
  5
AB84
330
18
100
AcDbEntity
  8
01
100
AcDbSpline
210
0.0
220
0.0
230
1.0
 70
    24
 71
     1
 72
     4
 73
     2
 74
     0
 42
0.0000000001
 43
0.0000000001
 40
0.0
 40
0.0
 40
1.0
 40
1.0
 10
477.114100767812
 20
-49.76190268923153
 30
-0.0000000000562526
 10
477.614100767812
 20
-49.26190268923153
 30
-0.0000000000562526
  0
SPLINE
  5
AB85
330
18
100
AcDbEntity
  8
01
100
AcDbSpline
210
0.0
220
0.0
230
1.0
 70
    24
 71
     1
 72
     4
 73
     2
 74
     0
 42
0.0000000001
 43
0.0000000001
 40
0.0
 40
0.0
 40
1.0
 40
1.0
 10
477.114100767812
 20
-55.4083492986382
 30
-0.0000000000562526
 10
477.114100767812
 20
-49.76190268923153
 30
-0.0000000000562526
  0
SPLINE
  5
AB86
330
18
100
AcDbEntity
  8
01
100
AcDbSpline
210
0.0
220
0.0
230
1.0
 70
    24
 71
     1
 72
     4
 73
     2
 74
     0
 42
0.0000000001
 43
0.0000000001
 40
0.0
 40
0.0
 40
1.0
 40
1.0
 10
483.2709550173045
 20
-49.26190268923153
 30
-0.0000000000562526
 10
483.7709550173045
 20
-49.76190268923153
 30
-0.0000000000562526
  0
SPLINE
  5
AB87
330
18
100
AcDbEntity
  8
01
100
AcDbSpline
210
0.0
220
0.0
230
1.0
 70
    24
 71
     1
 72
     4
 73
     2
 74
     0
 42
0.0000000001
 43
0.0000000001
 40
0.0
 40
0.0
 40
1.0
 40
1.0
 10
483.7709550173045
 20
-49.76190268923153
 30
-0.0000000000562526
 10
483.7709550173045
 20
-55.4083492986382
 30
-0.0000000000562526
  0
SPLINE
  5
AB88
330
18
100
AcDbEntity
  8
01
100
AcDbSpline
210
0.0
220
0.0
230
1.0
 70
    24
 71
     1
 72
     4
 73
     2
 74
     0
 42
0.0000000001
 43
0.0000000001
 40
0.0
 40
0.0
 40
1.0
 40
1.0
 10
477.114100767812
 20
-61.26190268923153
 30
-0.0000000000562526
 10
477.114100767812
 20
-56.11545607982464
 30
-0.0000000000562526
  0
SPLINE
  5
AB89
330
18
100
AcDbEntity
  8
01
100
AcDbSpline
210
0.0
220
0.0
230
1.0
 70
    24
 71
     1
 72
     4
 73
     2
 74
     0
 42
0.0000000001
 43
0.0000000001
 40
0.0
 40
0.0
 40
1.0
 40
1.0
 10
483.7709550173045
 20
-56.11545607982487
 30
-0.0000000000562526
 10
483.7709550173045
 20
-61.26190268923153
 30
-0.0000000000562526
  0
LINE
  5
AB8A
330
18
100
AcDbEntity
  8
01
100
AcDbLine
 10
475.4425278925581
 20
-62.26190268923153
 30
-0.0000000000562526
 11
485.4425278925584
 21
-62.26190268923153
 31
-0.0000000000562526
  0
LINE
  5
AB8C
330
18
100
AcDbEntity
  8
01
100
AcDbLine
 10
480.4425278925582
 20
-61.26190268923153
 30
-0.0000000000562526
 11
476.4425278925582
 21
-61.26190268923153
 31
-0.0000000000562526
  0
LINE
  5
AB8D
330
18
100
AcDbEntity
  8
01
100
AcDbLine
 10
484.4425278925582
 20
-61.26190268923153
 30
-0.0000000000562526
 11
480.4425278925582
 21
-61.26190268923153
 31
-0.0000000000562526
  0
LINE
  5
AB90
330
18
100
AcDbEntity
  8
01
100
AcDbLine
 10
480.442527891965
 20
-50.05102639139602
 30
-0.0000000000562526
 11
480.442527891965
 21
-55.26190268923153
 31
-0.0000000000562526
  0
ELLIPSE
  5
AB91
330
18
100
AcDbEntity
  8
01
100
AcDbEllipse
 10
480.4425278925582
 20
-55.76190268923153
 30
-0.0000000000562526
 11
0.4619397662556395
 21
-0.4619397662556537
 31
0.0
210
0.0
220
0.0
230
-1.0
 40
0.414213562373094
 41
3.53429173528851
 42
4.319689898685994
  0
ELLIPSE
  5
AB92
330
18
100
AcDbEntity
  8
01
100
AcDbEllipse
 10
480.4425278925582
 20
-55.76190268923153
 30
-0.0000000000562526
 11
-0.4619397662556467
 21
-0.4619397662556537
 31
0.0
210
0.0
220
0.0
230
-1.0
 40
0.4142135623730754
 41
1.963495408493638
 42
2.748893571891077
  0
LINE
  5
AB93
330
18
100
AcDbEntity
  8
01
100
AcDbLine
 10
483.6245084078978
 20
-55.26190268923153
 30
-0.0000000000562526
 11
480.7960812831516
 21
-55.26190268923153
 31
-0.0000000000562526
  0
LINE
  5
AB94
330
18
100
AcDbEntity
  8
01
100
AcDbLine
 10
483.7709550173045
 20
-55.4083492986382
 30
-0.0000000000562526
 11
483.5709550173044
 21
-55.54977065487549
 31
-0.0000000000562526
  0
LINE
  5
AB95
330
18
100
AcDbEntity
  8
01
100
AcDbLine
 10
480.088974501965
 20
-55.26190268923153
 30
-0.0000000000562526
 11
477.2605473772188
 21
-55.26190268923153
 31
-0.0000000000562526
  0
LINE
  5
AB96
330
18
100
AcDbEntity
  8
01
100
AcDbLine
 10
477.114100767812
 20
-55.4083492986382
 30
-0.0000000000562526
 11
477.3141007678121
 21
-55.54977065487549
 31
-0.0000000000562526
  0
LINE
  5
AB97
330
18
100
AcDbEntity
  8
01
100
AcDbLine
 10
480.088974501965
 20
-56.26190268923153
 30
-0.0000000000562526
 11
477.2605473772188
 21
-56.26190268923153
 31
-0.0000000000562526
  0
ELLIPSE
  5
AB98
330
18
100
AcDbEntity
  8
01
100
AcDbEllipse
 10
480.4425278925582
 20
-55.76190268923153
 30
-0.0000000000562526
 11
-0.4619397662556395
 21
-0.4619397662556395
 31
0.0
210
0.0
220
0.0
230
-1.0
 40
0.414213562373085
 41
5.105088062083387
 42
5.890486225480888
  0
LINE
  5
AB99
330
18
100
AcDbEntity
  8
01
100
AcDbLine
 10
477.3141007678121
 20
-55.97403472358735
 30
-0.0000000000562526
 11
477.114100767812
 21
-56.11545607982487
 31
-0.0000000000562526
  0
ELLIPSE
  5
AB9A
330
18
100
AcDbEntity
  8
01
100
AcDbEllipse
 10
480.4425278925582
 20
-55.76190268923153
 30
-0.0000000000562526
 11
-0.4619397662556466
 21
0.4619397662556395
 31
0.0
210
0.0
220
0.0
230
-1.0
 40
0.4142135623730818
 41
3.534291735288567
 42
4.319689898685963
  0
LINE
  5
AB9B
330
18
100
AcDbEntity
  8
01
100
AcDbLine
 10
483.6245084078978
 20
-56.26190268923153
 30
-0.0000000000562526
 11
480.7960812831516
 21
-56.26190268923153
 31
-0.0000000000562526
  0
LINE
  5
AB9C
330
18
100
AcDbEntity
  8
01
100
AcDbLine
 10
483.5709550173044
 20
-55.97403472358735
 30
-0.0000000000562526
 11
483.7709550173045
 21
-56.11545607982487
 31
-0.0000000000562526
  0
LINE
  5
AB9D
330
18
100
AcDbEntity
  8
01
100
AcDbLine
 10
480.442527891965
 20
-56.26190268923153
 30
-0.0000000000562526
 11
480.442527891965
 21
-61.26190268923153
 31
-0.0000000000562526
  0
LINE
  5
AB9E
330
18
100
AcDbEntity
  8
01
100
AcDbLine
 10
477.2605473772188
 20
-49.76190268923153
 30
-0.0000000000562526
 11
480.442527891965
 21
-49.76190268923153
 31
-0.0000000000562526
  0
LINE
  5
AB9F
330
18
100
AcDbEntity
  8
01
100
AcDbLine
 10
480.4425278925582
 20
-49.26190268923153
 30
-0.0000000000562526
 11
477.614100767812
 21
-49.26190268923153
 31
-0.0000000000562526
  0
LINE
  5
ABA0
330
18
100
AcDbEntity
  8
01
100
AcDbLine
 10
483.2709550173045
 20
-49.26190268923153
 30
-0.0000000000562526
 11
480.4425278925582
 21
-49.26190268923153
 31
-0.0000000000562526
  0
LINE
  5
ABA1
330
18
100
AcDbEntity
  8
01
100
AcDbLine
 10
480.442527891965
 20
-49.76190268923153
 30
-0.0000000000562526
 11
483.6245084078978
 21
-49.76190268923153
 31
-0.0000000000562526
  0
ELLIPSE
  5
ABA2
330
18
100
AcDbEntity
  8
01
100
AcDbEllipse
 10
477.0141007678121
 20
-55.76190268923153
 30
-0.0000000000562526
 11
-0.4242640687119347
 21
2.597868168706518E-17
 31
2.198241588757811E-15
210
-5.181305113656384E-15
220
3.172634361422552E-31
230
-1.0
 40
0.7071067811865304
 41
2.356194490192316
 42
3.926990816987264
  0
ELLIPSE
  5
ABA3
330
18
100
AcDbEntity
  8
01
100
AcDbEllipse
 10
483.8709550173045
 20
-55.76190268923153
 30
-0.0000000000562526
 11
0.4242640687119347
 21
-2.597868168706518E-17
 31
-7.160938508832247E-16
210
-1.687849393085030E-15
220
1.033509678342193E-31
230
-1.0
 40
0.7071067811865304
 41
2.356194490192326
 42
3.926990816987297
  0
LINE
  5
ABA4
330
18
100
AcDbEntity
  8
01
100
AcDbLine
 10
477.745919555709
 20
-55.76190268923153
 30
-0.0000000000562548
 11
483.191463262087
 21
-55.76190268923153
 31
-0.0000000000562548
  0
ELLIPSE
  5
ABA5
330
18
100
AcDbEntity
  8
01
100
AcDbEllipse
 10
480.4425278925582
 20
-50.26190268923153
 30
-0.0000000000562526
 11
0.4619397662556395
 21
-0.4619397662556537
 31
0.0
210
0.0
220
0.0
230
-1.0
 40
0.414213562373094
 41
3.53429173528851
 42
4.319689898685994
  0
ELLIPSE
  5
ABA6
330
18
100
AcDbEntity
  8
01
100
AcDbEllipse
 10
480.4425278925582
 20
-50.26190268923153
 30
-0.0000000000562526
 11
-0.4619397662556467
 21
-0.4619397662556537
 31
0.0
210
0.0
220
0.0
230
-1.0
 40
0.4142135623730754
 41
1.963495408493638
 42
2.748893571891077
  0
LINE
  5
ABB6
330
18
100
AcDbEntity
  8
01
100
AcDbLine
 10
470.6925278925585
 20
-71.96151379031141
 30
0.0000000000000222
 11
470.6925278925585
 21
-71.26151712351043
 31
0.0
  0
ARC
  5
ABB7
330
18
100
AcDbEntity
  8
01
100
AcDbCircle
 10
471.1925278925586
 20
-71.96151379031141
 30
0.0000000000000222
 40
0.5
100
AcDbArc
 50
180.0
 51
270.000000000013
  0
LINE
  5
ABB8
330
18
100
AcDbEntity
  8
1CENTER
100
AcDbLine
 10
475.4425278925586
 20
-136.361764689302
 30
0.0
 11
485.4425278925586
 21
-136.361764689302
 31
0.0
  0
ARC
  5
ABBA
330
18
100
AcDbEntity
  8
01
100
AcDbCircle
 10
482.4425278925586
 20
-127.3305687552078
 30
0.0
 40
0.5000000000000013
100
AcDbArc
 50
0.0
 51
77.51311018584514
  0
ARC
  5
ABBB
330
18
100
AcDbEntity
  8
01
100
AcDbCircle
 10
478.4425278925586
 20
-145.3929606233963
 30
0.0
 40
0.5000000000000029
100
AcDbArc
 50
180.0
 51
257.5131101858385
  0
ARC
  5
ABBC
330
18
100
AcDbEntity
  8
01
100
AcDbCircle
 10
482.4425278925586
 20
-145.3929606233963
 30
0.0
 40
0.5000000000000013
100
AcDbArc
 50
282.4868898141548
 51
0.0
  0
ARC
  5
ABBD
330
18
100
AcDbEntity
  8
01
100
AcDbCircle
 10
480.4425278925586
 20
-136.361764689302
 30
0.0
 40
9.749999999999995
100
AcDbArc
 50
77.51311018584514
 51
102.4868898141549
  0
ARC
  5
ABBE
330
18
100
AcDbEntity
  8
01
100
AcDbCircle
 10
478.4425278925586
 20
-127.3305687552078
 30
0.0
 40
0.5000000000000029
100
AcDbArc
 50
102.4868898141549
 51
180.0
  0
ARC
  5
ABBF
330
18
100
AcDbEntity
  8
01
100
AcDbCircle
 10
480.4425278925586
 20
-136.361764689302
 30
0.0
 40
9.75
100
AcDbArc
 50
257.5131101858452
 51
282.4868898141548
  0
LINE
  5
ABC0
330
18
100
AcDbEntity
  8
01
100
AcDbLine
 10
482.9425278925586
 20
-127.3305687552078
 30
0.0
 11
482.9425278925586
 21
-145.3929606233963
 31
0.0
  0
LINE
  5
ABC1
330
18
100
AcDbEntity
  8
01
100
AcDbLine
 10
477.9425278925586
 20
-145.3929606233963
 30
0.0
 11
477.9425278925586
 21
-127.3305687552078
 31
0.0
  0
SPLINE
  5
ABC2
330
18
100
AcDbEntity
  8
01
100
AcDbSpline
210
0.0
220
0.0
230
1.0
 70
     8
 71
     3
 72
    18
 73
    14
 74
     0
 42
0.0000000001
 43
0.0000000001
 40
0.0
 40
0.0
 40
0.0
 40
0.0
 40
0.2500000000000002
 40
0.2500000000000002
 40
0.375
 40
0.375
 40
0.4999999999999998
 40
0.4999999999999998
 40
0.6249999999999996
 40
0.6249999999999996
 40
0.7499999999999993
 40
0.7499999999999993
 40
1.0
 40
1.0
 40
1.0
 40
1.0
 10
484.1317170817478
 20
-145.3868620918994
 30
0.0
 10
483.9384560244715
 20
-145.465861416936
 30
0.0
 10
483.7461344127441
 20
-145.5371289515056
 30
0.0
 10
483.4668089542844
 20
-145.6313860626792
 30
0.0
 10
483.377315811776
 20
-145.6600192878669
 30
0.0
 10
483.2060386039844
 20
-145.7123543636675
 30
0.0
 10
483.1233891908145
 20
-145.7362865285882
 30
0.0
 10
482.9719160513738
 20
-145.7782859449349
 30
0.0
 10
482.9032444804176
 20
-145.7963478124943
 30
0.0
 10
482.7808765061573
 20
-145.8274189506549
 30
0.0
 10
482.7270362695407
 20
-145.8404504832618
 30
0.0
 10
482.5976819823102
 20
-145.8710055880223
 30
0.0
 10
482.5506360006667
 20
-145.8811333765905
 30
0.0
 10
482.5506360006667
 20
-145.8811333765905
 30
0.0
  0
SPLINE
  5
ABC3
330
18
100
AcDbEntity
  8
01
100
AcDbSpline
210
0.0
220
0.0
230
1.0
 70
     8
 71
     3
 72
    18
 73
    14
 74
     0
 42
0.0000000001
 43
0.0000000001
 40
0.0
 40
0.0
 40
0.0
 40
0.0
 40
0.2500000000000002
 40
0.2500000000000002
 40
0.3750000000000002
 40
0.3750000000000002
 40
0.5000000000000002
 40
0.5000000000000002
 40
0.6250000000000002
 40
0.6250000000000002
 40
0.7500000000000001
 40
0.7500000000000001
 40
1.0
 40
1.0
 40
1.0
 40
1.0
 10
476.7533387033694
 20
-127.3366672867047
 30
0.0
 10
476.9465997606457
 20
-127.257667961668
 30
0.0
 10
477.138921372373
 20
-127.1864004270986
 30
0.0
 10
477.4182468308327
 20
-127.0921433159249
 30
0.0
 10
477.507739973341
 20
-127.0635100907372
 30
0.0
 10
477.6790171811326
 20
-127.0111750149366
 30
0.0
 10
477.7616665943027
 20
-126.9872428500159
 30
0.0
 10
477.9131397337434
 20
-126.9452434336693
 30
0.0
 10
477.9818113046996
 20
-126.9271815661098
 30
0.0
 10
478.1041792789598
 20
-126.8961104279491
 30
0.0
 10
478.1580195155765
 20
-126.8830788953422
 30
0.0
 10
478.287373802807
 20
-126.8525237905818
 30
0.0
 10
478.3344197844505
 20
-126.8423960020136
 30
0.0
 10
478.3344197844505
 20
-126.8423960020136
 30
0.0
  0
SPLINE
  5
ABC4
330
18
100
AcDbEntity
  8
01
100
AcDbSpline
210
0.0
220
0.0
230
1.0
 70
     8
 71
     3
 72
    16
 73
    12
 74
     0
 42
0.0000000001
 43
0.0000000001
 40
0.0
 40
0.0
 40
0.0
 40
0.0
 40
0.1249999999999998
 40
0.1249999999999998
 40
0.2499999999999997
 40
0.2499999999999997
 40
0.4999999999999998
 40
0.4999999999999998
 40
0.7499999999999999
 40
0.7499999999999999
 40
1.0
 40
1.0
 40
1.0
 40
1.0
 10
478.3344197844505
 20
-145.8811333765905
 30
0.0
 10
478.3344197844505
 20
-145.8811333765905
 30
0.0
 10
478.3230042623238
 20
-145.8786254205996
 30
0.0
 10
478.2785712059829
 20
-145.8686206394394
 30
0.0
 10
478.2448756054293
 20
-145.8609639743898
 30
0.0
 10
478.1155282839679
 20
-145.8304194698572
 30
0.0
 10
477.989072403661
 20
-145.7993193160802
 30
0.0
 10
477.6881262026653
 20
-145.7159163077086
 30
0.0
 10
477.5113327678979
 20
-145.6627673781861
 30
0.0
 10
477.141636495895
 20
-145.5380750515824
 30
0.0
 10
476.9465653376602
 20
-145.4658473458518
 30
0.0
 10
476.7533387033694
 20
-145.3868620918994
 30
0.0
  0
SPLINE
  5
ABC5
330
18
100
AcDbEntity
  8
01
100
AcDbSpline
210
0.0
220
0.0
230
1.0
 70
     8
 71
     3
 72
    16
 73
    12
 74
     0
 42
0.0000000001
 43
0.0000000001
 40
0.0
 40
0.0
 40
0.0
 40
0.0
 40
0.1249999999999997
 40
0.1249999999999997
 40
0.2499999999999993
 40
0.2499999999999993
 40
0.4999999999999996
 40
0.4999999999999996
 40
0.7499999999999998
 40
0.7499999999999998
 40
1.0
 40
1.0
 40
1.0
 40
1.0
 10
482.5506360006667
 20
-126.8423960020136
 30
0.0
 10
482.5506360006667
 20
-126.8423960020136
 30
0.0
 10
482.5620515227932
 20
-126.8449039580046
 30
0.0
 10
482.6064845791342
 20
-126.8549087391648
 30
0.0
 10
482.6401801796877
 20
-126.8625654042144
 30
0.0
 10
482.7695275011492
 20
-126.893109908747
 30
0.0
 10
482.8959833814562
 20
-126.9242100625239
 30
0.0
 10
483.1969295824518
 20
-127.0076130708955
 30
0.0
 10
483.3737230172193
 20
-127.060762000418
 30
0.0
 10
483.7434192892221
 20
-127.1854543270217
 30
0.0
 10
483.9384904474568
 20
-127.2576820327523
 30
0.0
 10
484.1317170817478
 20
-127.3366672867047
 30
0.0
  0
ARC
  5
ABC6
330
18
100
AcDbEntity
  8
01
100
AcDbCircle
 10
480.4425278925586
 20
-136.361764689302
 30
0.0
 40
9.750000000000005
100
AcDbArc
 50
112.2332717982969
 51
247.7667282017032
  0
ARC
  5
ABC7
330
18
100
AcDbEntity
  8
01
100
AcDbCircle
 10
480.4425278925586
 20
-136.361764689302
 30
0.0
 40
9.750000000000009
100
AcDbArc
 50
292.2332717982968
 51
67.76672820170313
  0
CIRCLE
  5
ABC8
330
18
100
AcDbEntity
  8
01
100
AcDbCircle
 10
480.4425278925586
 20
-136.361764689302
 30
0.0
 40
10.3
  0
TEXT
  5
AC58
330
18
100
AcDbEntity
  8
1TEXT
100
AcDbText
 10
557.3723191947245
 20
-165.1477628450925
 30
0.0
 40
4.0
  1
材質：亜鉛ダイキャスト・真鍮・ポリアセタール
 11
557.3723191947245
 21
-163.1477628450925
 31
0.0
100
AcDbText
 73
     2
  0
TEXT
  5
AC5A
330
18
100
AcDbEntity
  8
1TEXT
100
AcDbText
 10
614.8276690316318
 20
-172.4137904314147
 30
0.0
 40
4.0
  1
表面処理
 72
     1
 11
624.0943356982984
 21
-172.4137904314147
 31
0.0
100
AcDbText
  0
TEXT
  5
AC5B
330
18
100
AcDbEntity
  8
1TEXT
100
AcDbText
 10
614.6276690316317
 20
-186.2490790909391
 30
0.0
 40
4.0
  1
クローム
 72
     1
 11
624.0943356982984
 21
-186.2490790909391
 31
0.0
100
AcDbText
  0
TEXT
  5
AC5C
330
18
100
AcDbEntity
  8
1TEXT
100
AcDbText
 10
612.5610023649651
 20
-179.391685451399
 30
0.0
 40
4.0
  1
本金メッキ
 72
     1
 11
624.0943356982984
 21
-179.391685451399
 31
0.0
100
AcDbText
  0
LINE
  5
AC5D
330
18
100
AcDbEntity
  8
1DIM
100
AcDbLine
 10
556.6943356982986
 20
-166.9137904314147
 30
0.0
 11
676.6943356982983
 21
-166.9137904314147
 31
0.0
  0
LINE
  5
AC5E
330
18
100
AcDbEntity
  8
1DIM
100
AcDbLine
 10
606.6943356982983
 20
-180.9137904314147
 30
0.0
 11
676.6943356982983
 21
-180.9137904314147
 31
0.0
  0
LINE
  5
AC5F
330
18
100
AcDbEntity
  8
1DIM
100
AcDbLine
 10
556.6943356982986
 20
-173.9137904314147
 30
0.0
 11
676.6943356982983
 21
-173.9137904314147
 31
0.0
  0
LINE
  5
AC60
330
18
100
AcDbEntity
  8
1DIM
100
AcDbLine
 10
606.6943356982983
 20
-187.9137904314147
 30
0.0
 11
676.6943356982983
 21
-187.9137904314147
 31
0.0
  0
LINE
  5
AC61
330
18
100
AcDbEntity
  8
1DIM
100
AcDbLine
 10
606.6943356982983
 20
-187.9137904314147
 30
0.0
 11
676.6943356982983
 21
-187.9137904314147
 31
0.0
  0
LINE
  5
AC62
330
18
100
AcDbEntity
  8
1DIM
100
AcDbLine
 10
641.6943356982983
 20
-166.9137904314147
 30
0.0
 11
641.6943356982985
 21
-229.9137904314147
 31
0.0
  0
TEXT
  5
AC63
330
18
100
AcDbEntity
  8
1TEXT
100
AcDbText
 10
643.7610023649655
 20
-179.6281474150641
 30
0.0
 40
4.0
  1
KLJ-2C-G
 72
     1
 11
659.0943356982989
 21
-179.6281474150641
 31
0.0
100
AcDbText
  0
TEXT
  5
AC64
330
18
100
AcDbEntity
  8
1TEXT
100
AcDbText
 10
652.2276690316318
 20
-172.4137904314147
 30
0.0
 40
4.0
  1
コード
 72
     1
 11
659.0943356982984
 21
-172.4137904314147
 31
0.0
100
AcDbText
  0
LINE
  5
AC65
330
18
100
AcDbEntity
  8
1DIM
100
AcDbLine
 10
606.6943356982985
 20
-229.9137904314146
 30
0.0
 11
606.6943356982983
 21
-166.9137904314147
 31
0.0
  0
LINE
  5
AC66
330
18
100
AcDbEntity
  8
1DIM
100
AcDbLine
 10
581.6943356982983
 20
-229.9137904314146
 30
0.0
 11
581.6943356982985
 21
-166.9137904314147
 31
0.0
  0
LINE
  5
AC67
330
18
100
AcDbEntity
  8
1DIM
100
AcDbLine
 10
676.6943356982983
 20
-229.9137904314147
 30
0.0
 11
676.6943356982983
 21
-166.9137904314147
 31
0.0
  0
LINE
  5
AC68
330
18
100
AcDbEntity
  8
1DIM
100
AcDbLine
 10
606.6943356982983
 20
-194.9137904314147
 30
0.0
 11
676.6943356982983
 21
-194.9137904314147
 31
0.0
  0
LINE
  5
AC69
330
18
100
AcDbEntity
  8
1DIM
100
AcDbLine
 10
606.6943356982983
 20
-194.9137904314147
 30
0.0
 11
676.6943356982983
 21
-194.9137904314147
 31
0.0
  0
LINE
  5
AC6B
330
18
100
AcDbEntity
  8
1DIM
100
AcDbLine
 10
606.6943356982983
 20
-201.9137904314147
 30
0.0
 11
676.6943356982983
 21
-201.9137904314147
 31
0.0
  0
LINE
  5
AC6C
330
18
100
AcDbEntity
  8
1DIM
100
AcDbLine
 10
606.6943356982983
 20
-201.9137904314147
 30
0.0
 11
676.6943356982983
 21
-201.9137904314147
 31
0.0
  0
TEXT
  5
AC6D
330
18
100
AcDbEntity
  8
1TEXT
100
AcDbText
 10
607.5610023649651
 20
-200.2490790909391
 30
0.0
 40
4.0
  1
サテンニッケル
 72
     1
 11
624.0943356982984
 21
-200.2490790909391
 31
0.0
100
AcDbText
  0
LINE
  5
AC6E
330
18
100
AcDbEntity
  8
1DIM
100
AcDbLine
 10
606.6943356982983
 20
-208.9137904314147
 30
0.0
 11
676.6943356982983
 21
-208.9137904314147
 31
0.0
  0
LINE
  5
AC6F
330
18
100
AcDbEntity
  8
1DIM
100
AcDbLine
 10
606.6943356982983
 20
-208.9137904314147
 30
0.0
 11
676.6943356982983
 21
-208.9137904314147
 31
0.0
  0
TEXT
  5
AC70
330
18
100
AcDbEntity
  8
1TEXT
100
AcDbText
 10
607.6943356982985
 20
-193.2490790909391
 30
0.0
 40
4.0
  1
パールクローム
 72
     1
 11
624.0943356982984
 21
-193.2490790909391
 31
0.0
100
AcDbText
  0
TEXT
  5
AC71
330
18
100
AcDbEntity
  8
1TEXT
100
AcDbText
 10
643.7610023649655
 20
-186.6281474150641
 30
0.0
 40
4.0
  1
KLJ-2C-C
 72
     1
 11
659.0943356982989
 21
-186.6281474150641
 31
0.0
100
AcDbText
  0
TEXT
  5
AC73
330
18
100
AcDbEntity
  8
1TEXT
100
AcDbText
 10
643.7610023649655
 20
-200.6281474150641
 30
0.0
 40
4.0
  1
KLJ-2C-N
 72
     1
 11
659.0943356982989
 21
-200.6281474150641
 31
0.0
100
AcDbText
  0
TEXT
  5
AC74
330
18
100
AcDbEntity
  8
1TEXT
100
AcDbText
 10
643.7610023649655
 20
-193.6281474150641
 30
0.0
 40
4.0
  1
KLJ-2C-B
 72
     1
 11
659.0943356982989
 21
-193.6281474150641
 31
0.0
100
AcDbText
  0
TEXT
  5
AC75
330
18
100
AcDbEntity
  8
1TEXT
100
AcDbText
 10
643.4893356982982
 20
-214.4137904314147
 30
0.0
 40
4.0
  1
KLJ-2C-4Q
 41
0.9
 72
     1
 11
659.0943356982982
 21
-214.4137904314147
 31
0.0
100
AcDbText
  0
TEXT
  5
AC76
330
18
100
AcDbEntity
  8
1TEXT
100
AcDbText
 10
607.8943356982982
 20
-214.4137904314147
 30
0.0
 40
4.0
  1
ダークアンバー
 72
     1
 11
624.0943356982982
 21
-214.4137904314147
 31
0.0
100
AcDbText
  0
LINE
  5
AC78
330
18
100
AcDbEntity
  8
1DIM
100
AcDbLine
 10
606.6943356982983
 20
-215.9137904314147
 30
0.0
 11
676.6943356982983
 21
-215.9137904314147
 31
0.0
  0
LINE
  5
AC79
330
18
100
AcDbEntity
  8
1DIM
100
AcDbLine
 10
606.6943356982983
 20
-222.9137904314147
 30
0.0
 11
676.6943356982983
 21
-222.9137904314147
 31
0.0
  0
TEXT
  5
AC7A
330
18
100
AcDbEntity
  8
1TEXT
100
AcDbText
 10
643.7610023649648
 20
-207.4137904314147
 30
0.0
 40
4.0
  1
KLJ-2C-D
 72
     1
 11
659.0943356982982
 21
-207.4137904314147
 31
0.0
100
AcDbText
  0
TEXT
  5
AC7B
330
18
100
AcDbEntity
  8
1TEXT
100
AcDbText
 10
607.0943356982982
 20
-207.4137904314147
 30
0.0
 40
4.0
  1
ミラーニッケル
 72
     1
 11
624.0943356982982
 21
-207.4137904314147
 31
0.0
100
AcDbText
  0
TEXT
  5
AC7C
330
18
100
AcDbEntity
  8
1TEXT
100
AcDbText
 10
643.4768356982983
 20
-221.4137904314147
 30
0.0
 40
4.0
  1
KLJ-2C-GQ
 41
0.9
 72
     1
 11
659.0943356982982
 21
-221.4137904314147
 31
0.0
100
AcDbText
  0
TEXT
  5
AC7D
330
18
100
AcDbEntity
  8
1TEXT
100
AcDbText
 10
607.9610023649649
 20
-221.4137904314147
 30
0.0
 40
4.0
  1
パールブラック
 72
     1
 11
624.0943356982982
 21
-221.4137904314147
 31
0.0
100
AcDbText
  0
TEXT
  5
AC8D
330
18
100
AcDbEntity
  8
1TEXT
100
AcDbText
 10
582.8743356982984
 20
-172.4137904314147
 30
0.0
 40
4.0
  1
材質：サムターン
 41
0.6
 72
     4
 11
594.1943356982985
 21
-170.4137904314147
 31
0.0
100
AcDbText
  0
TEXT
  5
AC90
330
18
100
AcDbEntity
  8
1TEXT
100
AcDbText
 10
589.661002364965
 20
-202.4884915107843
 30
0.0
 40
4.0
  1
亜鉛
 72
     4
 11
594.1943356982983
 21
-200.355158177451
 31
0.0
100
AcDbText
  0
TEXT
  5
AC91
330
18
100
AcDbEntity
  8
1TEXT
100
AcDbText
 10
583.2610023649651
 20
-207.5596340375861
 30
0.0
 40
4.0
  1
ダイキャスト
 41
0.8
 72
     4
 11
594.1943356982983
 21
-205.4263007042528
 31
0.0
100
AcDbText
  0
LINE
  5
AC92
330
18
100
AcDbEntity
  8
1DIM
100
AcDbLine
 10
556.6943356982985
 20
-229.9137904314145
 30
0.0
 11
556.6943356982986
 21
-166.9137904314147
 31
0.0
  0
TEXT
  5
AC93
330
18
100
AcDbEntity
  8
1TEXT
100
AcDbText
 10
559.4869282908911
 20
-172.4137904314147
 30
0.0
 40
4.0
  1
材質:カバー
 41
0.8
 72
     4
 11
569.1943356982986
 21
-170.4137904314147
 31
0.0
100
AcDbText
  0
TEXT
  5
AC94
330
18
100
AcDbEntity
  8
1TEXT
100
AcDbText
 10
564.7276690316318
 20
-202.8649158321813
 30
0.0
 40
4.0
  1
真鍮
 72
     4
 11
569.1943356982985
 21
-200.7982491655146
 31
0.0
100
AcDbText
  0
TEXT
  5
AC97
330
18
100
AcDbEntity
  8
1TEXT
100
AcDbText
 10
643.4893356982982
 20
-228.4137904314148
 30
0.0
 40
4.0
  1
KLJ-2C-8Q
 41
0.9
 72
     1
 11
659.0943356982982
 21
-228.4137904314148
 31
0.0
100
AcDbText
  0
TEXT
  5
AC98
330
18
100
AcDbEntity
  8
1TEXT
100
AcDbText
 10
607.4276690316316
 20
-228.4137904314148
 30
0.0
 40
4.0
  1
ミラーブラック
 72
     1
 11
624.0943356982982
 21
-228.4137904314148
 31
0.0
100
AcDbText
  0
LINE
  5
AC99
330
18
100
AcDbEntity
  8
1DIM
100
AcDbLine
 10
556.6943356982985
 20
-229.9137904314145
 30
0.0
 11
676.6943356982982
 21
-229.9137904314147
 31
0.0
  0
LINE
  5
B7A6
330
18
100
AcDbEntity
  8
01
100
AcDbLine
 10
553.549584393083
 20
-145.861764689302
 30
0.0
 11
551.105303879244
 21
-145.861764689302
 31
0.0
  0
LINE
  5
B7A7
330
18
100
AcDbEntity
  8
01
100
AcDbLine
 10
553.5495843930837
 20
-130.8789979573205
 30
0.0
 11
553.549584393083
 21
-145.861764689302
 31
0.0
  0
LINE
  5
B7A8
330
18
100
AcDbEntity
  8
01
100
AcDbLine
 10
553.549584393083
 20
-130.8789979573204
 30
0.0
 11
553.549584393083
 21
-121.1617646195489
 31
0.0
  0
LINE
  5
B7A9
330
18
100
AcDbEntity
  8
01
100
AcDbLine
 10
553.549584393083
 20
-121.1617646195489
 30
0.0
 11
551.1053038792467
 21
-121.1617646195489
 31
0.0
  0
SPLINE
  5
B7AA
330
18
100
AcDbEntity
  8
01
100
AcDbSpline
210
0.0
220
0.0
230
1.0
 70
    24
 71
     1
 72
     4
 73
     2
 74
     0
 42
0.0000000001
 43
0.0000000001
 40
0.7872217329667975
 40
0.7872217329667975
 40
1.0
 40
1.0
 10
553.5495843930837
 20
-131.361764689302
 30
0.0
 10
553.8049183135236
 20
-131.361764689302
 30
0.0
  0
SPLINE
  5
B7AB
330
18
100
AcDbEntity
  8
01
100
AcDbSpline
210
0.0
220
0.0
230
1.0
 70
    24
 71
     1
 72
     4
 73
     2
 74
     0
 42
0.0000000001
 43
0.0000000001
 40
0.0
 40
0.0
 40
0.2127782670335814
 40
0.2127782670335814
 10
553.8049183135236
 20
-141.361764689302
 30
0.0
 10
553.5495843930833
 20
-141.361764689302
 30
0.0
  0
LINE
  5
B7B9
330
18
100
AcDbEntity
  8
01
100
AcDbLine
 10
469.9425278925582
 20
-63.09473162592997
 30
0.0
 11
469.9425278925582
 21
-64.96151712351018
 31
0.0
  0
LINE
  5
B7BA
330
18
100
AcDbEntity
  8
01
100
AcDbLine
 10
490.9425278925582
 20
-62.51723660967382
 30
0.0
 11
490.9425278925582
 21
-64.96151712350988
 31
0.0
  0
LINE
  5
B7BB
330
18
100
AcDbEntity
  8
01
100
AcDbLine
 10
490.9425278925582
 20
-62.51723660967382
 30
0.0
 11
469.9425278925582
 21
-62.51723660967382
 31
0.0
  0
LINE
  5
B7BC
330
18
100
AcDbEntity
  8
01
100
AcDbLine
 10
469.9425278925582
 20
-62.51723660967382
 30
0.0
 11
469.9425278925582
 21
-64.96151712351018
 31
0.0
  0
LINE
  5
B7BD
330
18
100
AcDbEntity
  8
01
100
AcDbLine
 10
475.4425278925581
 20
-62.26190268923154
 30
-0.0000000000562526
 11
475.4425278925581
 21
-62.51723660967382
 31
0.0
  0
LINE
  5
B7BE
330
18
100
AcDbEntity
  8
01
100
AcDbLine
 10
485.4425278925584
 20
-62.26190268923154
 30
-0.0000000000562526
 11
485.4425278925584
 21
-62.51723660967382
 31
0.0
  0
LINE
  5
C13E
330
18
100
AcDbEntity
  8
01
100
AcDbLine
 10
602.090089584869
 20
-128.1617626965199
 30
0.0
 11
627.090089584869
 21
-128.1617626965199
 31
0.0
  0
LINE
  5
C13F
330
18
100
AcDbEntity
  8
01
100
AcDbLine
 10
599.8900895848678
 20
-127.1617626264867
 30
0.0
 11
599.8900895848678
 21
-124.4617626962423
 31
0.0
  0
LINE
  5
C140
330
18
100
AcDbEntity
  8
01
100
AcDbLine
 10
599.8900895848678
 20
-124.4617626962423
 30
0.0
 11
599.8900895848678
 21
-122.2769146249945
 31
0.0
  0
LINE
  5
C141
330
18
100
AcDbEntity
  8
01
100
AcDbLine
 10
602.0900895848677
 20
-128.1617626962423
 30
0.0
 11
602.0900895848677
 21
-124.6617626264867
 31
0.0
  0
LINE
  5
C142
330
18
100
AcDbEntity
  8
01
100
AcDbLine
 10
602.0900895848677
 20
-127.6617626264867
 30
0.0
 11
600.3900895848678
 21
-127.6617626264867
 31
0.0
  0
LINE
  5
C143
330
18
100
AcDbEntity
  8
01
100
AcDbLine
 10
624.4900895848691
 20
-121.6617626264867
 30
0.0
 11
619.8900895848678
 21
-121.6617626264867
 31
0.0
  0
LINE
  5
C144
330
18
100
AcDbEntity
  8
01
100
AcDbLine
 10
600.3900895848678
 20
-127.6617626264867
 30
0.0
 11
599.8900895848678
 21
-127.1617626264867
 31
0.0
  0
LINE
  5
C145
330
18
100
AcDbEntity
  8
01
100
AcDbLine
 10
600.3900895848678
 20
-121.7570251185144
 30
0.0
 11
619.1400895848678
 21
-121.7570251185144
 31
0.0
  0
LINE
  5
C146
330
18
100
AcDbEntity
  8
01
100
AcDbLine
 10
599.8900895848678
 20
-122.2769146249945
 30
0.0
 11
600.3900895848678
 21
-121.7570251185144
 31
0.0
  0
ELLIPSE
  5
C147
330
18
100
AcDbEntity
  8
01
100
AcDbEllipse
 10
619.1400895848678
 20
-121.6617626264867
 30
0.0
 11
0.75
 21
0.0
 31
0.0
210
0.0
220
0.0
230
1.0
 40
0.1270166560369338
 41
4.71238898038469
 42
6.283185307179586
  0
LINE
  5
C148
330
18
100
AcDbEntity
  8
01
100
AcDbLine
 10
600.3900895848678
 20
-121.7570251185144
 30
0.0
 11
600.3900895848678
 21
-127.6617626264867
 31
0.0
  0
ARC
  5
C149
330
18
100
AcDbEntity
  8
01
100
AcDbCircle
 10
626.4900895848691
 20
-124.36176269652
 30
0.0
 40
2.0
100
AcDbArc
 50
180.0
 51
188.6269245294133
  0
LINE
  5
C14A
330
18
100
AcDbEntity
  8
01
100
AcDbLine
 10
624.4900895848691
 20
-121.3617626965201
 30
0.0
 11
624.4900895848691
 21
-124.36176269652
 31
0.0
  0
ARC
  5
C14B
330
18
100
AcDbEntity
  8
01
100
AcDbCircle
 10
626.4900895848691
 20
-121.3617626965201
 30
0.0
 40
2.0
100
AcDbArc
 50
90.0
 51
180.0
  0
LINE
  5
C14C
330
18
100
AcDbEntity
  8
01
100
AcDbLine
 10
627.090089584869
 20
-119.3617626965201
 30
0.0
 11
626.4900895848691
 21
-119.3617626965201
 31
0.0
  0
LINE
  5
C14D
330
18
100
AcDbEntity
  8
01
100
AcDbLine
 10
602.0900895848677
 20
-127.1617627651602
 30
0.0
 11
627.090089584869
 21
-127.1617627651602
 31
0.0
  0
LINE
  5
C14E
330
18
100
AcDbEntity
  8
01
100
AcDbLine
 10
602.0900895848677
 20
-124.6617626264867
 30
0.0
 11
627.090089584869
 21
-124.6617626264867
 31
0.0
  0
LINE
  5
C15A
330
18
100
AcDbEntity
  8
01
100
AcDbLine
 10
702.3952716352803
 20
-38.26478149108925
 30
0.0
 11
701.8919867786033
 21
-37.76151712350884
 31
0.0
  0
LINE
  5
C15B
330
18
100
AcDbEntity
  8
01
100
AcDbLine
 10
696.8918797882659
 20
-37.76151712350884
 30
0.0
 11
696.3886163520081
 21
-38.26478149108925
 31
0.0
  0
LINE
  5
C15C
330
18
100
AcDbEntity
  8
01
100
AcDbLine
 10
702.3918797584636
 20
-39.96151897423306
 30
0.0
 11
702.3918797584636
 21
-38.26139147691765
 31
0.0
  0
LINE
  5
C15D
330
18
100
AcDbEntity
  8
01
100
AcDbLine
 10
696.3918801719708
 20
-38.2615181367878
 30
0.0
 11
696.3918801719708
 21
-39.96151897423306
 31
0.0
  0
LINE
  5
C160
330
18
100
AcDbEntity
  8
01
100
AcDbLine
 10
688.3918797919912
 20
-39.96151897423306
 30
0.0
 11
688.3918797919912
 21
-38.26139147691765
 31
0.0
  0
LINE
  5
C161
330
18
100
AcDbEntity
  8
01
100
AcDbLine
 10
682.3918802054984
 20
-38.2615181367878
 30
0.0
 11
682.3918802054984
 21
-39.96151897423306
 31
0.0
  0
LINE
  5
C162
330
18
100
AcDbEntity
  8
01
100
AcDbLine
 10
696.8918793226046
 20
-37.76151712350884
 30
0.0
 11
696.3886768879754
 21
-38.26472188644448
 31
0.0
  0
LINE
  5
C163
330
18
100
AcDbEntity
  8
01
100
AcDbLine
 10
682.8918793561322
 20
-37.76151712350884
 30
0.0
 11
682.3886773871643
 21
-38.26472188644448
 31
0.0
  0
SPLINE
  5
C167
330
18
100
AcDbEntity
  8
01
100
AcDbSpline
210
0.0
220
0.0
230
1.0
 70
    24
 71
     3
 72
    11
 73
     7
 74
     0
 42
0.0000000001
 43
0.0000000001
 40
0.0
 40
0.0
 40
0.0
 40
0.0
 40
0.0003607178768828
 40
0.0003607178768828
 40
0.0003607178768828
 40
0.0007214404088506
 40
0.0007214404088506
 40
0.0007214404088506
 40
0.0007214404088506
 10
700.1418799819821
 20
-38.26165449828179
 30
0.0
 10
700.1418799819821
 20
-38.17800934288761
 30
0.0
 10
700.1418799819821
 20
-38.09448220416394
 30
0.0
 10
700.1418799819821
 20
-38.01111143956533
 30
0.0
 10
700.1418799819821
 20
-37.92773965233019
 30
0.0
 10
700.1418799819821
 20
-37.84452323753001
 30
0.0
 10
700.1418799819821
 20
-37.76151830370281
 30
0.0
  0
SPLINE
  5
C168
330
18
100
AcDbEntity
  8
01
100
AcDbSpline
210
0.0
220
0.0
230
1.0
 70
    24
 71
     3
 72
    16
 73
    12
 74
     0
 42
0.0000000001
 43
0.0000000001
 40
0.0
 40
0.0
 40
0.0
 40
0.0
 40
0.0134835891622112
 40
0.1486773039996227
 40
0.2798573639350279
 40
0.4148419006937338
 40
0.5461977267117744
 40
0.6813647953550469
 40
0.8126075957812087
 40
0.9476293466950491
 40
1.0
 40
1.0
 40
1.0
 40
1.0
 10
701.8887904795272
 20
-37.76151712350884
 30
0.0
 10
701.8898242422072
 20
-37.76151712350884
 30
0.0
 10
701.9012230653525
 20
-37.76151712350887
 30
0.0
 10
701.8553298189483
 20
-37.76151712350884
 30
0.0
 10
701.7472588602211
 20
-37.76151712350884
 30
0.0
 10
701.5660626779783
 20
-37.76151712350884
 30
0.0
 10
701.3238114185675
 20
-37.76151712350884
 30
0.0
 10
701.0282983363732
 20
-37.76151712350884
 30
0.0
 10
700.6836355415082
 20
-37.76151712350884
 30
0.0
 10
700.3813323196554
 20
-37.76151712350884
 30
0.0
 10
700.1941826667809
 20
-37.76151712350884
 30
0.0
 10
700.1418798553211
 20
-37.76151712350884
 30
0.0
  0
SPLINE
  5
C169
330
18
100
AcDbEntity
  8
01
100
AcDbSpline
210
0.0
220
0.0
230
1.0
 70
     8
 71
     3
 72
    15
 73
    11
 74
     0
 42
0.0000000001
 43
0.0000000001
 40
0.0
 40
0.0
 40
0.0
 40
0.0
 40
0.1258590206341089
 40
0.2556966312497209
 40
0.381875535932899
 40
0.5117136234224768
 40
0.6378922006179232
 40
0.7677298033291556
 40
0.882500160812819
 40
1.0
 40
1.0
 40
1.0
 40
1.0
 10
702.3917754503352
 20
-38.26139147691765
 30
0.0
 10
702.3837766723033
 20
-38.26145958176386
 30
0.0
 10
702.3675262630233
 20
-38.26159794435134
 30
0.0
 10
702.2367971537637
 20
-38.26134886791075
 30
0.0
 10
702.0298324400267
 20
-38.2617319722894
 30
0.0
 10
701.748537859215
 20
-38.26143773991734
 30
0.0
 10
701.3980414799163
 20
-38.26138818766367
 30
0.0
 10
701.0055414462786
 20
-38.26164613158156
 30
0.0
 10
700.5829306136122
 20
-38.26128789362886
 30
0.0
 10
700.290044042815
 20
-38.26153232210962
 30
0.0
 10
700.1418798553211
 20
-38.26165597252884
 30
0.0
  0
LINE
  5
C16A
330
18
100
AcDbEntity
  8
01
100
AcDbLine
 10
702.3918797584636
 20
-64.9615184154395
 30
0.0
 11
702.3918797584636
 21
-39.96151897423306
 31
0.0
  0
LINE
  5
C16B
330
18
100
AcDbEntity
  8
01
100
AcDbLine
 10
696.3918801719708
 20
-39.96151897423306
 30
0.0
 11
696.3918801719708
 21
-64.9615184154395
 31
0.0
  0
LINE
  5
C16C
330
18
100
AcDbEntity
  8
01
100
AcDbLine
 10
698.6418800751132
 20
-57.01151795052327
 30
0.0
 11
698.6418800751132
 21
-38.2615144114975
 31
0.0
  0
SPLINE
  5
C16D
330
18
100
AcDbEntity
  8
01
100
AcDbSpline
210
0.0
220
0.0
230
1.0
 70
     8
 71
     3
 72
    18
 73
    14
 74
     0
 42
0.0000000001
 43
0.0000000001
 40
0.0
 40
0.0
 40
0.0
 40
0.0
 40
0.1249999999999994
 40
0.1249999999999994
 40
0.2499999999999989
 40
0.2499999999999989
 40
0.4999999999999991
 40
0.4999999999999991
 40
0.6249999999999992
 40
0.6249999999999992
 40
0.7499999999999993
 40
0.7499999999999993
 40
1.0
 40
1.0
 40
1.0
 40
1.0
 10
700.1418799819821
 20
-57.0115183036862
 30
0.0
 10
700.1418799819821
 20
-57.11098817904012
 30
0.0
 10
700.1221668068351
 20
-57.2085550892694
 30
0.0
 10
700.0468262614089
 20
-57.38991982653188
 30
0.0
 10
699.9911907873578
 20
-57.47282694380537
 30
0.0
 10
699.7847186156425
 20
-57.67942115549805
 30
0.0
 10
699.590795485844
 20
-57.7615221939117
 30
0.0
 10
699.2924002290403
 20
-57.76151635835852
 30
0.0
 10
699.1948281129248
 20
-57.74180318651088
 30
0.0
 10
699.0134372150609
 20
-57.66644312482697
 30
0.0
 10
698.9305224978541
 20
-57.61079165990496
 30
0.0
 10
698.7239433716433
 20
-57.40430045591285
 30
0.0
 10
698.6418799819821
 20
-57.21044711597025
 30
0.0
 10
698.6418799819821
 20
-57.0115183036862
 30
0.0
  0
LINE
  5
C16E
330
18
100
AcDbEntity
  8
01
100
AcDbLine
 10
700.1418798553211
 20
-38.26165597252884
 30
0.0
 11
700.1418798553211
 21
-57.01151795052327
 31
0.0
  0
SPLINE
  5
C16F
330
18
100
AcDbEntity
  8
01
100
AcDbSpline
210
0.0
220
0.0
230
1.0
 70
     8
 71
     3
 72
    14
 73
    10
 74
     0
 42
0.0000000001
 43
0.0000000001
 40
0.0
 40
0.0
 40
0.0
 40
0.0
 40
0.2500000000000002
 40
0.2500000000000002
 40
0.5000000000000004
 40
0.5000000000000004
 40
0.7500000000000002
 40
0.7500000000000002
 40
1.0
 40
1.0
 40
1.0
 40
1.0
 10
698.6418799825624
 20
-38.26151478842485
 30
0.0
 10
698.3198809319913
 20
-38.26144393105153
 30
0.0
 10
698.0202081512805
 20
-38.26170752316023
 30
0.0
 10
697.4653363901743
 20
-38.26153632673876
 30
0.0
 10
697.2241148181115
 20
-38.26146251720374
 30
0.0
 10
696.8176685040221
 20
-38.26171605535265
 30
0.0
 10
696.6612377689354
 20
-38.2613544853308
 30
0.0
 10
696.4464656210218
 20
-38.26161997824636
 30
0.0
 10
696.3918799822071
 20
-38.26126205818755
 30
0.0
 10
696.3918799819827
 20
-38.26151830368747
 30
0.0
  0
SPLINE
  5
C170
330
18
100
AcDbEntity
  8
01
100
AcDbSpline
210
0.0
220
0.0
230
1.0
 70
    24
 71
     3
 72
    11
 73
     7
 74
     0
 42
0.0000000001
 43
0.0000000001
 40
0.0
 40
0.0
 40
0.0
 40
0.0
 40
0.0003607178768874
 40
0.0003607178768874
 40
0.0003607178768874
 40
0.0007214404088598
 40
0.0007214404088598
 40
0.0007214404088598
 40
0.0007214404088598
 10
686.1418799819813
 20
-38.26165449828289
 30
0.0
 10
686.1418799819813
 20
-38.17800934288894
 30
0.0
 10
686.1418799819813
 20
-38.0944822041655
 30
0.0
 10
686.1418799819813
 20
-38.01111143956734
 30
0.0
 10
686.1418799819813
 20
-37.92773965233263
 30
0.0
 10
686.1418799819813
 20
-37.844523237533
 30
0.0
 10
686.1418799819813
 20
-37.76151830370662
 30
0.0
  0
SPLINE
  5
C171
330
18
100
AcDbEntity
  8
01
100
AcDbSpline
210
0.0
220
0.0
230
1.0
 70
    24
 71
     3
 72
    16
 73
    12
 74
     0
 42
0.0000000001
 43
0.0000000001
 40
0.0
 40
0.0
 40
0.0
 40
0.0
 40
0.0134835799619913
 40
0.1486772998782719
 40
0.2798574042794923
 40
0.414841820429102
 40
0.5461978198207288
 40
0.6813647901760788
 40
0.8126075955326842
 40
0.9476294837875501
 40
0.9999999999999999
 40
0.9999999999999999
 40
0.9999999999999999
 40
0.9999999999999999
 10
687.8887909787161
 20
-37.76151712350884
 30
0.0
 10
687.8898245776411
 20
-37.76151712350884
 30
0.0
 10
687.9012216025966
 20
-37.76151712350884
 30
0.0
 10
687.8553307350319
 20
-37.76151712350881
 30
0.0
 10
687.7472578115505
 20
-37.76151712350884
 30
0.0
 10
687.5660636400501
 20
-37.76151712350884
 30
0.0
 10
687.3238107529837
 20
-37.76151712350884
 30
0.0
 10
687.0282984474683
 20
-37.76151712350884
 30
0.0
 10
686.6836354562138
 20
-37.76151712350884
 30
0.0
 10
686.3813321082915
 20
-37.76151712350884
 30
0.0
 10
686.1941825397545
 20
-37.76151712350884
 30
0.0
 10
686.1418798888487
 20
-37.76151712350884
 30
0.0
  0
SPLINE
  5
C172
330
18
100
AcDbEntity
  8
01
100
AcDbSpline
210
0.0
220
0.0
230
1.0
 70
     8
 71
     3
 72
    15
 73
    11
 74
     0
 42
0.0000000001
 43
0.0000000001
 40
0.0
 40
0.0
 40
0.0
 40
0.0
 40
0.1258589057345688
 40
0.255696460288807
 40
0.3818754157444429
 40
0.5117135384558782
 40
0.637891946975275
 40
0.7677296940508126
 40
0.8825001583629242
 40
1.0
 40
1.0
 40
1.0
 40
1.0
 10
688.3917750182015
 20
-38.26139147691765
 30
0.0
 10
688.3837761184586
 20
-38.26145958174402
 30
0.0
 10
688.3675254579388
 20
-38.26159794432496
 30
0.0
 10
688.236798125941
 20
-38.26134886793096
 30
0.0
 10
688.0298320037929
 20
-38.26173197231731
 30
0.0
 10
687.7485389976416
 20
-38.26143774003538
 30
0.0
 10
687.3980412560815
 20
-38.26138818777048
 30
0.0
 10
687.0055422309979
 20
-38.26164613164724
 30
0.0
 10
686.5829306941428
 20
-38.2612878936165
 30
0.0
 10
686.2900440478932
 20
-38.26153232214241
 30
0.0
 10
686.1418798888487
 20
-38.26165597252884
 30
0.0
  0
LINE
  5
C173
330
18
100
AcDbEntity
  8
01
100
AcDbLine
 10
688.3918797919912
 20
-64.9615184154395
 30
0.0
 11
688.3918797919912
 21
-39.96151897423306
 31
0.0
  0
LINE
  5
C174
330
18
100
AcDbEntity
  8
01
100
AcDbLine
 10
682.3918802054984
 20
-64.9615184154395
 30
0.0
 11
682.3918802054984
 21
-39.96151897423306
 31
0.0
  0
LINE
  5
C175
330
18
100
AcDbEntity
  8
01
100
AcDbLine
 10
684.6418801086409
 20
-57.01151795052327
 30
0.0
 11
684.6418801086409
 21
-38.2615144114975
 31
0.0
  0
SPLINE
  5
C176
330
18
100
AcDbEntity
  8
01
100
AcDbSpline
210
0.0
220
0.0
230
1.0
 70
     8
 71
     3
 72
    18
 73
    14
 74
     0
 42
0.0000000001
 43
0.0000000001
 40
0.0
 40
0.0
 40
0.0
 40
0.0
 40
0.1250000000000005
 40
0.1250000000000005
 40
0.2500000000000011
 40
0.2500000000000011
 40
0.4999999999999996
 40
0.4999999999999996
 40
0.6249999999999993
 40
0.6249999999999993
 40
0.749999999999999
 40
0.749999999999999
 40
1.0
 40
1.0
 40
1.0
 40
1.0
 10
686.1418799819812
 20
-57.01151830334175
 30
0.0
 10
686.1418799820269
 20
-57.11098817869696
 30
0.0
 10
686.1221668068395
 20
-57.20855508924826
 30
0.0
 10
686.046826261422
 20
-57.38991982650663
 30
0.0
 10
685.9911907873711
 20
-57.47282694378656
 30
0.0
 10
685.7847186156658
 20
-57.67942115548293
 30
0.0
 10
685.5907954858692
 20
-57.76152219390572
 30
0.0
 10
685.29240022906
 20
-57.7615163583615
 30
0.0
 10
685.1948281129426
 20
-57.74180318651625
 30
0.0
 10
685.0134372150727
 20
-57.66644312483464
 30
0.0
 10
684.9305224978629
 20
-57.61079165991281
 30
0.0
 10
684.7239433716445
 20
-57.40430045591864
 30
0.0
 10
684.6418799819812
 20
-57.21044711597271
 30
0.0
 10
684.6418799819812
 20
-57.0115183036862
 30
0.0
  0
LINE
  5
C177
330
18
100
AcDbEntity
  8
01
100
AcDbLine
 10
686.1418798888487
 20
-38.26165597252884
 30
0.0
 11
686.1418798888487
 21
-57.01151795052327
 31
0.0
  0
SPLINE
  5
C178
330
18
100
AcDbEntity
  8
01
100
AcDbSpline
210
0.0
220
0.0
230
1.0
 70
     8
 71
     3
 72
    14
 73
    10
 74
     0
 42
0.0000000001
 43
0.0000000001
 40
0.0
 40
0.0
 40
0.0
 40
0.0
 40
0.25
 40
0.25
 40
0.5
 40
0.5
 40
0.75
 40
0.75
 40
1.0
 40
1.0
 40
1.0
 40
1.0
 10
684.6418799822716
 20
-38.26151478842488
 30
0.0
 10
684.3198809315664
 20
-38.26144393105156
 30
0.0
 10
684.0202081507391
 20
-38.26170752315934
 30
0.0
 10
683.4653363894371
 20
-38.26153632674877
 30
0.0
 10
683.2241148173281
 20
-38.26146251722383
 30
0.0
 10
682.817668503191
 20
-38.26171605536078
 30
0.0
 10
682.6612377681481
 20
-38.2613544853032
 30
0.0
 10
682.4464656203827
 20
-38.26161997826219
 30
0.0
 10
682.3918799817052
 20
-38.26126205841459
 30
0.0
 10
682.3918799816552
 20
-38.26151830368747
 30
0.0
  0
SPLINE
  5
C179
330
18
100
AcDbEntity
  8
01
100
AcDbSpline
210
0.0
220
0.0
230
1.0
 70
    24
 71
     3
 72
    11
 73
     7
 74
     0
 42
0.0000000001
 43
0.0000000001
 40
12.5422763557778
 40
12.5422763557778
 40
12.5422763557778
 40
12.5422763557778
 40
12.69201870703971
 40
13.67932092783035
 40
14.67163434622995
 40
15.70745408779297
 40
15.70745408779297
 40
15.70745408779297
 40
15.70745408779297
 10
698.6418799820638
 20
-37.76151830368761
 30
0.0
 10
698.5942575412693
 20
-37.76151830368761
 30
0.0
 10
698.2360699061902
 20
-37.76151830368761
 30
0.0
 10
697.6236069600087
 20
-37.76151830368758
 30
0.0
 10
697.034003639817
 20
-37.76151830368764
 30
0.0
 10
696.8916138784142
 20
-37.76151830368764
 30
0.0
 10
696.8918799819065
 20
-37.76151830368764
 30
0.0
  0
SPLINE
  5
C17A
330
18
100
AcDbEntity
  8
01
100
AcDbSpline
210
0.0
220
0.0
230
1.0
 70
    24
 71
     3
 72
    11
 73
     7
 74
     0
 42
0.0000000001
 43
0.0000000001
 40
0.0000000000000061
 40
0.0000000000000061
 40
0.0000000000000061
 40
0.0000000000000061
 40
0.00036063810356
 40
0.00036063810356
 40
0.00036063810356
 40
0.0007212803997743
 40
0.0007212803997743
 40
0.0007212803997743
 40
0.0007212803997743
 10
698.6418799819808
 20
-37.76151830370532
 30
0.0
 10
698.6418799819808
 20
-37.8444975114505
 30
0.0
 10
698.6418799819821
 20
-37.92768918413259
 30
0.0
 10
698.6418799819821
 20
-38.01103686304458
 30
0.0
 10
698.6418799819821
 20
-38.09438579077238
 30
0.0
 10
698.6418799819821
 20
-38.17789161334019
 30
0.0
 10
698.6418799819821
 20
-38.26151614924802
 30
0.0
  0
SPLINE
  5
C17B
330
18
100
AcDbEntity
  8
01
100
AcDbSpline
210
0.0
220
0.0
230
1.0
 70
    24
 71
     3
 72
    11
 73
     7
 74
     0
 42
0.0000000001
 43
0.0000000001
 40
12.54227635613844
 40
12.54227635613844
 40
12.54227635613844
 40
12.54227635613844
 40
12.69201870773213
 40
13.67932092866409
 40
14.67163434720575
 40
15.70745408779297
 40
15.70745408779297
 40
15.70745408779297
 40
15.70745408779297
 10
684.641879982034
 20
-37.76151830368761
 30
0.0
 10
684.594257541139
 20
-37.76151830368761
 30
0.0
 10
684.2360699059536
 20
-37.76151830368761
 30
0.0
 10
683.6236069596829
 20
-37.76151830368767
 30
0.0
 10
683.0340036397109
 20
-37.76151830368767
 30
0.0
 10
682.8916138782462
 20
-37.76151830368764
 30
0.0
 10
682.8918799815807
 20
-37.76151830368767
 30
0.0
  0
SPLINE
  5
C17C
330
18
100
AcDbEntity
  8
01
100
AcDbSpline
210
0.0
220
0.0
230
1.0
 70
    24
 71
     3
 72
    11
 73
     7
 74
     0
 42
0.0000000001
 43
0.0000000001
 40
0.0000000000000039
 40
0.0000000000000039
 40
0.0000000000000039
 40
0.0000000000000039
 40
0.0003606376145055
 40
0.0003606376145055
 40
0.0003606376145055
 40
0.0007212799106826
 40
0.0007212799106826
 40
0.0007212799106826
 40
0.0007212799106826
 10
684.6418799819805
 20
-37.76151830369869
 30
0.0
 10
684.6418799819805
 20
-37.84449739891917
 30
0.0
 10
684.6418799819813
 20
-37.92768895850494
 30
0.0
 10
684.6418799819813
 20
-38.0110365239637
 30
0.0
 10
684.6418799819813
 20
-38.09438533823388
 30
0.0
 10
684.6418799819813
 20
-38.17789104698267
 30
0.0
 10
684.6418799819813
 20
-38.26151546883682
 30
0.0
  0
SPLINE
  5
C17D
330
18
100
AcDbEntity
  8
01
100
AcDbSpline
210
0.0
220
0.0
230
1.0
 70
    24
 71
     3
 72
    18
 73
    14
 74
     0
 42
0.0000000001
 43
0.0000000001
 40
-1.333745785452581
 40
-1.333745785452581
 40
-1.333745785452581
 40
-1.333745785452581
 40
0.0
 40
0.0
 40
0.0
 40
0.1324261494914724
 40
0.3657262375835942
 40
0.5990083132974809
 40
0.8318817844114575
 40
1.0
 40
1.0
 40
1.0
 40
1.032726893625971
 40
1.032726893625971
 40
1.032726893625971
 40
1.032726893625971
 10
696.8918797882659
 20
-37.76151712350884
 30
0.0
 10
697.4900305593771
 20
-37.76151712350884
 30
0.0
 10
698.0881813304884
 20
-37.76151712350884
 30
0.0
 10
698.6863321015996
 20
-37.76151712350884
 30
0.0
 10
698.7457218326095
 20
-37.76151712350884
 30
0.0
 10
698.9097406684419
 20
-37.76151712350884
 30
0.0
 10
699.1973943596109
 20
-37.76151712350884
 30
0.0
 10
699.534604004878
 20
-37.76151712350881
 30
0.0
 10
699.8397591283929
 20
-37.76151712350884
 30
0.0
 10
700.021311068334
 20
-37.76151712350884
 30
0.0
 10
700.0974278288347
 20
-37.76151712350884
 30
0.0
 10
700.1122451709969
 20
-37.76151712350884
 30
0.0
 10
700.127062513159
 20
-37.76151712350884
 30
0.0
 10
700.1418798553211
 20
-37.76151712350884
 30
0.0
  0
SPLINE
  5
C17E
330
18
100
AcDbEntity
  8
01
100
AcDbSpline
210
0.0
220
0.0
230
1.0
 70
    24
 71
     3
 72
    18
 73
    14
 74
     0
 42
0.0000000001
 43
0.0000000001
 40
-1.3337293096312
 40
-1.3337293096312
 40
-1.3337293096312
 40
-1.3337293096312
 40
0.0
 40
0.0
 40
0.0
 40
0.1324324317371045
 40
0.3657308304647318
 40
0.5990112169445546
 40
0.8318830017832409
 40
1.0
 40
1.0
 40
1.0
 40
1.032726656530257
 40
1.032726656530257
 40
1.032726656530257
 40
1.032726656530257
 10
682.8918802874547
 20
-37.76151712350884
 30
0.0
 10
683.4900276437165
 20
-37.76151712350884
 30
0.0
 10
684.0881749999784
 20
-37.76151712350884
 30
0.0
 10
684.6863223562402
 20
-37.76151712350884
 30
0.0
 10
684.7457152992871
 20
-37.76151712350884
 30
0.0
 10
684.9097372846824
 20
-37.76151712350881
 30
0.0
 10
685.1973943734371
 20
-37.76151712350884
 30
0.0
 10
685.534604043706
 20
-37.76151712350884
 30
0.0
 10
685.839759161016
 20
-37.76151712350884
 30
0.0
 10
686.0213111015944
 20
-37.76151712350884
 30
0.0
 10
686.0974278623623
 20
-37.76151712350884
 30
0.0
 10
686.1122452045245
 20
-37.76151712350884
 30
0.0
 10
686.1270625466866
 20
-37.76151712350884
 30
0.0
 10
686.1418798888487
 20
-37.76151712350884
 30
0.0
  0
LINE
  5
C17F
330
18
100
AcDbEntity
  8
01
100
AcDbLine
 10
695.8918800900144
 20
-39.96151897423306
 30
0.0
 11
696.3918801719708
 21
-39.96151897423306
 31
0.0
  0
LINE
  5
C180
330
18
100
AcDbEntity
  8
01
100
AcDbLine
 10
688.3918797919912
 20
-39.96151897423306
 30
0.0
 11
688.8918798739476
 21
-39.96151897423306
 31
0.0
  0
LINE
  5
C181
330
18
100
AcDbEntity
  8
01
100
AcDbLine
 10
688.8918798739476
 20
-39.96151897423306
 30
0.0
 11
695.8918800900144
 21
-39.96151897423306
 31
0.0
  0
LINE
  5
C197
330
18
100
AcDbEntity
  8
1CENTER
100
AcDbLine
 10
635.6767208776466
 20
-124.6617626264867
 30
0.0
 11
596.5171737348815
 21
-124.6617626264867
 31
0.0
  0
LINE
  5
CA61
330
18
100
AcDbEntity
  8
01
100
AcDbLine
 10
693.8903351506603
 20
-62.36151712351011
 30
0.0
 11
690.8903351506603
 21
-62.36151712351011
 31
0.0
  0
ARC
  5
CA62
330
18
100
AcDbEntity
  8
01
100
AcDbCircle
 10
693.8903351506603
 20
-64.36151712351011
 30
0.0
 40
2.0
100
AcDbArc
 50
0.0
 51
90.0
  0
LINE
  5
CA63
330
18
100
AcDbEntity
  8
01
100
AcDbLine
 10
695.8903351506603
 20
-64.96151712351002
 30
0.0
 11
695.8903351506603
 21
-64.36151712351011
 31
0.0
  0
ARC
  5
CA69
330
18
100
AcDbEntity
  8
01
100
AcDbCircle
 10
690.8903351506603
 20
-64.36151712351011
 30
0.0
 40
2.0
100
AcDbArc
 50
90.0
 51
180.0
  0
LINE
  5
CA6A
330
18
100
AcDbEntity
  8
01
100
AcDbLine
 10
688.8903351506603
 20
-64.96151712351002
 30
0.0
 11
688.8903351506603
 21
-64.36151712351011
 31
0.0
  0
LINE
  5
CC7A
330
18
100
AcDbEntity
  8
1CENTER
100
AcDbLine
 10
504.2476092156036
 20
-202.2937712554434
 30
0.0
 11
471.0871653156036
 21
-202.2937712554434
 31
0.0
  0
LINE
  5
CC7B
330
18
100
AcDbEntity
  8
1HATCH
100
AcDbLine
 10
502.6459342156036
 20
-200.6437712554434
 30
0.0
 11
474.2959342156036
 21
-200.6437712554434
 31
0.0
  0
LINE
  5
CC7C
330
18
100
AcDbEntity
  8
1HATCH
100
AcDbLine
 10
502.6459342156036
 20
-203.9437712554434
 30
0.0
 11
474.2959342156036
 21
-203.9437712554434
 31
0.0
  0
LINE
  5
CC7E
330
18
100
AcDbEntity
  8
1HATCH
100
AcDbLine
 10
502.2959342156036
 20
-200.2937712554434
 30
0.0
 11
502.2959342156036
 21
-204.2937712554434
 31
0.0
  0
LINE
  5
CC7F
330
18
100
AcDbEntity
  8
1HATCH
100
AcDbLine
 10
472.9459342256036
 20
-199.2937712554434
 30
0.0
 11
472.9459342256036
 21
-205.2937712554434
 31
0.0
  0
LINE
  5
CC80
330
18
100
AcDbEntity
  8
1HATCH
100
AcDbLine
 10
473.9459343896776
 20
-204.2937712554434
 30
0.0
 11
474.2959342156036
 21
-203.9437712554434
 31
0.0
  0
LINE
  5
CC81
330
18
100
AcDbEntity
  8
1HATCH
100
AcDbLine
 10
474.2959342156036
 20
-200.6437712554434
 30
0.0
 11
473.9459343896776
 21
-200.2937712554434
 31
0.0
  0
LINE
  5
CC82
330
18
100
AcDbEntity
  8
01
100
AcDbLine
 10
688.3952712031466
 20
-38.26478149108925
 30
0.0
 11
688.1436287748081
 21
-38.01314930729905
 31
0.0
  0
LINE
  5
CC83
330
18
100
AcDbEntity
  8
01
100
AcDbLine
 10
688.1436287748081
 20
-38.01314930729905
 30
0.0
 11
687.8919868121309
 21
-37.76151712350884
 31
0.0
  0
LINE
  5
CC84
330
18
100
AcDbEntity
  8
01
100
AcDbLine
 10
682.8918802874548
 20
-37.76151712350884
 30
0.0
 11
682.6402481036646
 21
-38.01314930729905
 31
0.0
  0
LINE
  5
CC85
330
18
100
AcDbEntity
  8
01
100
AcDbLine
 10
682.6402481036646
 20
-38.01314930729905
 30
0.0
 11
682.388616851197
 21
-38.26478149108925
 31
0.0
  0
LINE
  5
CC8E
330
18
100
AcDbEntity
  8
1CENTER
100
AcDbLine
 10
504.2476092156036
 20
-214.0026503286041
 30
0.0
 11
471.0871653156036
 21
-214.0026503286041
 31
0.0
  0
LINE
  5
CC8F
330
18
100
AcDbEntity
  8
1HATCH
100
AcDbLine
 10
502.6459342156036
 20
-212.3526503286041
 30
0.0
 11
474.2959342156036
 21
-212.3526503286041
 31
0.0
  0
LINE
  5
CC90
330
18
100
AcDbEntity
  8
1HATCH
100
AcDbLine
 10
502.6459342156036
 20
-215.6526503286041
 30
0.0
 11
474.2959342156036
 21
-215.6526503286041
 31
0.0
  0
LINE
  5
CC92
330
18
100
AcDbEntity
  8
1HATCH
100
AcDbLine
 10
502.2959342156036
 20
-212.0026503286041
 30
0.0
 11
502.2959342156036
 21
-216.0026503286041
 31
0.0
  0
LINE
  5
CC93
330
18
100
AcDbEntity
  8
1HATCH
100
AcDbLine
 10
472.9459342256036
 20
-211.0026503286041
 30
0.0
 11
472.9459342256036
 21
-217.0026503286041
 31
0.0
  0
LINE
  5
CC94
330
18
100
AcDbEntity
  8
1HATCH
100
AcDbLine
 10
473.9459343896776
 20
-216.0026503286041
 30
0.0
 11
474.2959342156036
 21
-215.6526503286041
 31
0.0
  0
LINE
  5
CC95
330
18
100
AcDbEntity
  8
1HATCH
100
AcDbLine
 10
474.2959342156036
 20
-212.3526503286041
 30
0.0
 11
473.9459343896776
 21
-212.0026503286041
 31
0.0
  0
LINE
  5
CC96
330
18
100
AcDbEntity
  8
01
100
AcDbLine
 10
473.9459343896776
 20
-204.2937712554434
 30
0.0
 11
502.2959342156036
 21
-204.2937712554434
 31
0.0
  0
LINE
  5
CC97
330
18
100
AcDbEntity
  8
01
100
AcDbLine
 10
502.2959342156036
 20
-204.2937712554434
 30
0.0
 11
502.6459342156036
 21
-203.9437712554433
 31
0.0
  0
LINE
  5
CC98
330
18
100
AcDbEntity
  8
01
100
AcDbLine
 10
502.6459342156036
 20
-203.9437712554433
 30
0.0
 11
502.6459342156036
 21
-200.6437712554434
 31
0.0
  0
LINE
  5
CC99
330
18
100
AcDbEntity
  8
01
100
AcDbLine
 10
502.6459342156036
 20
-200.6437712554434
 30
0.0
 11
502.2959342156036
 21
-200.2937712554434
 31
0.0
  0
LINE
  5
CC9A
330
18
100
AcDbEntity
  8
01
100
AcDbLine
 10
502.2959342156036
 20
-200.2937712554434
 30
0.0
 11
473.9459343896776
 21
-200.2937712554434
 31
0.0
  0
LINE
  5
CC9B
330
18
100
AcDbEntity
  8
01
100
AcDbLine
 10
473.9459343896776
 20
-200.2937712554434
 30
0.0
 11
472.9459342256036
 21
-199.2937712554434
 31
0.0
  0
LINE
  5
CC9C
330
18
100
AcDbEntity
  8
01
100
AcDbLine
 10
472.9459342256036
 20
-199.2937712554434
 30
0.0
 11
472.6459342156036
 21
-199.2937712554434
 31
0.0
  0
LINE
  5
CC9D
330
18
100
AcDbEntity
  8
01
100
AcDbLine
 10
472.6459342156036
 20
-199.2937712554434
 30
0.0
 11
472.6459342156036
 21
-205.2937712554434
 31
0.0
  0
LINE
  5
CC9E
330
18
100
AcDbEntity
  8
01
100
AcDbLine
 10
472.6459342156036
 20
-205.2937712554434
 30
0.0
 11
472.9459343156036
 21
-205.2937712554434
 31
0.0
  0
LINE
  5
CC9F
330
18
100
AcDbEntity
  8
01
100
AcDbLine
 10
472.9459343156036
 20
-205.2937712554434
 30
0.0
 11
473.9459343896776
 21
-204.2937712554434
 31
0.0
  0
LINE
  5
CCA0
330
18
100
AcDbEntity
  8
01
100
AcDbLine
 10
473.9459343896776
 20
-216.0026503286041
 30
0.0
 11
502.2959342156036
 21
-216.0026503286041
 31
0.0
  0
LINE
  5
CCA1
330
18
100
AcDbEntity
  8
01
100
AcDbLine
 10
502.2959342156036
 20
-216.0026503286041
 30
0.0
 11
502.6459342156036
 21
-215.652650328604
 31
0.0
  0
LINE
  5
CCA2
330
18
100
AcDbEntity
  8
01
100
AcDbLine
 10
502.6459342156036
 20
-215.652650328604
 30
0.0
 11
502.6459342156036
 21
-212.3526503286041
 31
0.0
  0
LINE
  5
CCA3
330
18
100
AcDbEntity
  8
01
100
AcDbLine
 10
502.6459342156036
 20
-212.3526503286041
 30
0.0
 11
502.2959342156036
 21
-212.0026503286041
 31
0.0
  0
LINE
  5
CCA4
330
18
100
AcDbEntity
  8
01
100
AcDbLine
 10
502.2959342156036
 20
-212.0026503286041
 30
0.0
 11
473.9459343896776
 21
-212.0026503286041
 31
0.0
  0
LINE
  5
CCA5
330
18
100
AcDbEntity
  8
01
100
AcDbLine
 10
473.9459343896776
 20
-212.0026503286041
 30
0.0
 11
472.9459342256036
 21
-211.0026503286041
 31
0.0
  0
LINE
  5
CCA6
330
18
100
AcDbEntity
  8
01
100
AcDbLine
 10
472.9459342256036
 20
-211.0026503286041
 30
0.0
 11
472.6459342156036
 21
-211.0026503286041
 31
0.0
  0
LINE
  5
CCA7
330
18
100
AcDbEntity
  8
01
100
AcDbLine
 10
472.6459342156036
 20
-211.0026503286041
 30
0.0
 11
472.6459342156036
 21
-217.0026503286041
 31
0.0
  0
LINE
  5
CCA8
330
18
100
AcDbEntity
  8
01
100
AcDbLine
 10
472.6459342156036
 20
-217.0026503286041
 30
0.0
 11
472.9459343156036
 21
-217.0026503286041
 31
0.0
  0
LINE
  5
CCA9
330
18
100
AcDbEntity
  8
01
100
AcDbLine
 10
472.9459343156036
 20
-217.0026503286041
 30
0.0
 11
473.9459343896776
 21
-216.0026503286041
 31
0.0
  0
LINE
  5
CCAA
330
18
100
AcDbEntity
  8
1DIM
100
AcDbLine
 10
472.6459342156036
 20
-199.2937712554434
 30
0.0
 11
472.6459342156036
 21
-195.1725740634437
 31
0.0
  0
LINE
  5
CCAB
330
18
100
AcDbEntity
  8
1DIM
100
AcDbLine
 10
502.6459342156036
 20
-200.6437712554434
 30
0.0
 11
502.6459342156036
 21
-195.1725740634437
 31
0.0
  0
LINE
  5
CCAC
330
18
100
AcDbEntity
  8
1DIM
100
AcDbLine
 10
474.6459342156036
 20
-196.1725740634437
 30
0.0
 11
500.6459342156036
 21
-196.1725740634437
 31
0.0
  0
LINE
  5
CCB1
330
18
100
AcDbEntity
  8
1DIM
100
AcDbLine
 10
471.8585553594426
 20
-200.4716353038993
 30
0.0
 11
468.2904441532727
 21
-191.544671953453
 31
0.0
  0
LINE
  5
CCB2
330
18
100
AcDbEntity
  8
1DIM
100
AcDbLine
 10
468.2904441532727
 20
-191.544671953453
 30
0.0
 11
465.5904441532727
 21
-191.544671953453
 31
0.0
  0
TEXT
  5
CCB3
330
18
100
AcDbEntity
  8
1DIM
  6
CONTINUOUS
100
AcDbText
 10
456.2571108199393
 20
-190.844671953453
 30
0.0
 40
3.5
  1
SUS
100
AcDbText
  0
LINE
  5
CCB4
330
18
100
AcDbEntity
  8
1DIM
100
AcDbLine
 10
500.4425278925604
 20
-150.3617646893021
 30
0.0
 11
500.4425278925604
 21
-174.4426346728866
 31
0.0
1001
ACAD
1000
DSTYLE
1002
{
1070
     3
1000
□<>
1070
    40
1040
1.3
1002
}
  0
LINE
  5
CCB5
330
18
100
AcDbEntity
  8
1DIM
100
AcDbLine
 10
460.4425278925602
 20
-150.361764689302
 30
0.0
 11
460.4425278925602
 21
-174.4426346728866
 31
0.0
1001
ACAD
1000
DSTYLE
1002
{
1070
     3
1000
□<>
1070
    40
1040
1.3
1002
}
  0
LINE
  5
CCB6
330
18
100
AcDbEntity
  8
1DIM
100
AcDbLine
 10
497.8425278925604
 20
-173.1426346728866
 30
0.0
 11
463.0425278925602
 21
-173.1426346728866
 31
0.0
1001
ACAD
1000
DSTYLE
1002
{
1070
     3
1000
□<>
1070
    40
1040
1.3
1002
}
  0
LINE
  5
CCBA
330
18
100
AcDbEntity
  8
1DIM
100
AcDbLine
 10
551.1053038792453
 20
-150.8617646893022
 30
0.0
 11
551.1053038792453
 21
-164.1862613193412
 31
0.0
1001
ACAD
1000
DSTYLE
1002
{
1070
    40
1040
1.3
1070
   271
1070
     0
1002
}
  0
LINE
  5
CCBB
330
18
100
AcDbEntity
  8
1DIM
100
AcDbLine
 10
544.8053038792451
 20
-150.3617646893022
 30
0.0
 11
544.8053038792451
 21
-164.1862613193412
 31
0.0
1001
ACAD
1000
DSTYLE
1002
{
1070
    40
1040
1.3
1070
   271
1070
     0
1002
}
  0
LINE
  5
CCBC
330
18
100
AcDbEntity
  8
1DIM
100
AcDbLine
 10
553.7053038792453
 20
-162.8862613193412
 30
0.0
 11
556.3053038792453
 21
-162.8862613193412
 31
0.0
1001
ACAD
1000
DSTYLE
1002
{
1070
    40
1040
1.3
1070
   271
1070
     0
1002
}
  0
LINE
  5
CCBD
330
18
100
AcDbEntity
  8
1DIM
100
AcDbLine
 10
542.2053038792451
 20
-162.8862613193412
 30
0.0
 11
534.9686372125785
 21
-162.8862613193412
 31
0.0
1001
ACAD
1000
DSTYLE
1002
{
1070
    40
1040
1.3
1070
   271
1070
     0
1002
}
  0
LINE
  5
CCBE
330
18
100
AcDbEntity
  8
1DIM
100
AcDbLine
 10
551.1053038792453
 20
-162.8862613193412
 30
0.0
 11
544.8053038792451
 21
-162.8862613193412
 31
0.0
1001
ACAD
1000
DSTYLE
1002
{
1070
    40
1040
1.3
1070
   271
1070
     0
1002
}
  0
LINE
  5
CCC2
330
18
100
AcDbEntity
  8
1DIM
100
AcDbLine
 10
551.1053038792453
 20
-150.8617646893022
 30
0.0
 11
551.1053038792453
 21
-174.4426346728866
 31
0.0
1001
ACAD
1000
DSTYLE
1002
{
1070
    40
1040
1.3
1002
}
  0
LINE
  5
CCC3
330
18
100
AcDbEntity
  8
1DIM
100
AcDbLine
 10
529.1052790682355
 20
-146.3617696892991
 30
0.0
 11
529.1052790682355
 21
-174.4426346728866
 31
0.0
1001
ACAD
1000
DSTYLE
1002
{
1070
    40
1040
1.3
1002
}
  0
LINE
  5
CCC4
330
18
100
AcDbEntity
  8
1DIM
100
AcDbLine
 10
548.5053038792453
 20
-173.1426346728866
 30
0.0
 11
531.7052790682355
 21
-173.1426346728866
 31
0.0
1001
ACAD
1000
DSTYLE
1002
{
1070
    40
1040
1.3
1002
}
  0
LINE
  5
CCC8
330
18
100
AcDbEntity
  8
1DIM
100
AcDbLine
 10
700.08319035066
 20
-186.3617584851735
 30
0.0
 11
733.5687438227005
 21
-186.3617584851736
 31
0.0
1001
ACAD
1000
DSTYLE
1002
{
1070
    40
1040
1.3
1002
}
  0
LINE
  5
CCC9
330
18
100
AcDbEntity
  8
1DIM
100
AcDbLine
 10
700.792779075256
 20
-136.3617586893014
 30
0.0
 11
733.5687438227005
 21
-136.3617586893015
 31
0.0
1001
ACAD
1000
DSTYLE
1002
{
1070
    40
1040
1.3
1002
}
  0
LINE
  5
CCCA
330
18
100
AcDbEntity
  8
1DIM
100
AcDbLine
 10
732.2687438227006
 20
-183.7617584851736
 30
0.0
 11
732.2687438227006
 21
-138.9617586893015
 31
0.0
1001
ACAD
1000
DSTYLE
1002
{
1070
    40
1040
1.3
1002
}
  0
LINE
  5
CCCB
330
18
100
AcDbEntity
  8
1DIM
100
AcDbLine
 10
732.2687438227006
 20
-136.3617586893015
 30
0.0
 11
732.2687438227006
 21
-74.61175868930145
 31
0.0
1001
ACAD
1000
DSTYLE
1002
{
1070
    40
1040
1.3
1002
}
  0
LINE
  5
CCCF
330
18
100
AcDbEntity
  8
1DIM
100
AcDbLine
 10
650.3900895848691
 20
-114.127835884218
 30
0.0
 11
650.3900895848691
 21
-102.8439633989483
 31
0.0
1001
ACAD
1000
DSTYLE
1002
{
1070
   271
1070
     1
1002
}
  0
LINE
  5
CCD0
330
18
100
AcDbEntity
  8
1DIM
100
AcDbLine
 10
627.0900895848689
 20
-112.3617626893014
 30
0.0
 11
627.0900895848689
 21
-102.8439633989483
 31
0.0
1001
ACAD
1000
DSTYLE
1002
{
1070
   271
1070
     1
1002
}
  0
LINE
  5
CCD1
330
18
100
AcDbEntity
  8
1DIM
100
AcDbLine
 10
648.3900895848691
 20
-103.8439633989483
 30
0.0
 11
629.0900895848689
 21
-103.8439633989483
 31
0.0
1001
ACAD
1000
DSTYLE
1002
{
1070
   271
1070
     1
1002
}
  0
LINE
  5
CCD5
330
18
100
AcDbEntity
  8
1DIM
100
AcDbLine
 10
674.4903351506604
 20
-130.8617626893014
 30
0.0
 11
674.4903351506604
 21
-102.8439633989483
 31
0.0
1001
ACAD
1000
DSTYLE
1002
{
1070
     3
1000
φ<>
1002
}
  0
LINE
  5
CCD6
330
18
100
AcDbEntity
  8
1DIM
100
AcDbLine
 10
711.4903351506604
 20
-130.8617626893014
 30
0.0
 11
711.4903351506604
 21
-102.8439633989483
 31
0.0
1001
ACAD
1000
DSTYLE
1002
{
1070
     3
1000
φ<>
1002
}
  0
LINE
  5
CCD7
330
18
100
AcDbEntity
  8
1DIM
100
AcDbLine
 10
676.4903351506604
 20
-103.8439633989483
 30
0.0
 11
709.4903351506604
 21
-103.8439633989483
 31
0.0
1001
ACAD
1000
DSTYLE
1002
{
1070
     3
1000
φ<>
1002
}
  0
LINE
  5
CCDC
330
18
100
AcDbEntity
  8
1DIM
100
AcDbLine
 10
553.2121933252919
 20
-128.2285956548195
 30
0.0
 11
564.2132994083502
 21
-92.06436656930222
 31
0.0
1001
ACAD
1000
DSTYLE
1002
{
1070
    40
1040
1.3
1002
}
  0
LINE
  5
CCDD
330
18
100
AcDbEntity
  8
1DIM
100
AcDbLine
 10
564.2132994083502
 20
-92.06436656930222
 30
0.0
 11
608.9066327416836
 21
-92.06436656930222
 31
0.0
1001
ACAD
1000
DSTYLE
1002
{
1070
    40
1040
1.3
1002
}
  0
TEXT
  5
CCDE
330
18
100
AcDbEntity
  8
1DIM
  6
CONTINUOUS
100
AcDbText
 10
567.4899660750168
 20
-91.15436656930223
 30
0.0
 40
3.5
  1
材質：ポリアセタール
100
AcDbText
  0
LINE
  5
CCE0
330
18
100
AcDbEntity
  8
1DIM
100
AcDbLine
 10
534.616405745732
 20
-125.3174233835318
 30
0.0
 11
533.9099521559386
 21
-81.8573708130457
 31
0.0
  0
LINE
  5
CCE1
330
18
100
AcDbEntity
  8
1DIM
100
AcDbLine
 10
533.9099521559386
 20
-81.8573708130457
 30
0.0
 11
581.1766188226053
 21
-81.8573708130457
 31
0.0
  0
TEXT
  5
CCE2
330
18
100
AcDbEntity
  8
1DIM
  6
CONTINUOUS
100
AcDbText
 10
536.3766188226053
 20
-75.32403747971236
 30
0.0
 40
3.5
  1
材質：亜鉛ダイキャスト
100
AcDbText
  0
TEXT
  5
CCE3
330
18
100
AcDbEntity
  8
1DIM
  6
CONTINUOUS
100
AcDbText
 10
536.493285489272
 20
-81.15737081304569
 30
0.0
 40
3.5
  1
仕上げ：各種メッキ
100
AcDbText
  0
LINE
  5
CCE5
330
18
100
AcDbEntity
  8
1DIM
100
AcDbLine
 10
634.3584731758218
 20
-118.2843610419639
 30
0.0
 11
621.9234578671675
 21
-91.23815671217575
 31
0.0
  0
LINE
  5
CCE6
330
18
100
AcDbEntity
  8
1DIM
100
AcDbLine
 10
621.9234578671675
 20
-91.23815671217575
 30
0.0
 11
661.3734578671675
 21
-91.23815671217575
 31
0.0
  0
TEXT
  5
CCE7
330
18
100
AcDbEntity
  8
1DIM
  6
CONTINUOUS
100
AcDbText
 10
624.3901245338342
 20
-84.70482337884242
 30
0.0
 40
3.5
  1
材質：真鍮
100
AcDbText
  0
TEXT
  5
CCE8
330
18
100
AcDbEntity
  8
1DIM
  6
CONTINUOUS
100
AcDbText
 10
624.5067912005009
 20
-90.53815671217575
 30
0.0
 40
3.5
  1
仕上げ：各種メッキ
100
AcDbText
  0
TEXT
  5
CCE9
330
18
100
AcDbEntity
  8
1TEXT
  6
CONTINUOUS
100
AcDbText
 10
468.9833374125454
 20
-248.6795792403821
 30
0.0
 40
4.0
  1
カギ違い数　：1000通り
100
AcDbText
  0
TEXT
  5
CCEA
330
18
100
AcDbEntity
  8
1TEXT
  6
CONTINUOUS
100
AcDbText
 10
469.1166707458788
 20
-255.3462459070488
 30
0.0
 40
4.0
  1
同一キー　　：対応可
100
AcDbText
  0
TEXT
  5
CCEB
330
18
100
AcDbEntity
  8
1TEXT
  6
CONTINUOUS
100
AcDbText
 10
469.2500040792121
 20
-262.0129125737154
 30
0.0
 40
4.0
  1
マスターキー：対応不可
100
AcDbText
  0
LINE
  5
CCED
330
18
100
AcDbEntity
  8
1DIM
100
AcDbLine
 10
473.3432921337181
 20
-114.0695300707389
 30
0.0
 11
471.7200576564649
 21
-99.79518763051698
 31
0.0
1001
ACAD
1000
DSTYLE
1002
{
1070
    40
1040
1.3
1002
}
  0
LINE
  5
CCEE
330
18
100
AcDbEntity
  8
1DIM
100
AcDbLine
 10
471.7200576564649
 20
-99.79518763051698
 30
0.0
 11
420.4350576564648
 21
-99.79518763051698
 31
0.0
1001
ACAD
1000
DSTYLE
1002
{
1070
    40
1040
1.3
1002
}
  0
TEXT
  5
CCEF
330
18
100
AcDbEntity
  8
1DIM
  6
CONTINUOUS
100
AcDbText
 10
419.9800576564648
 20
-91.30185429718365
 30
0.0
 40
4.55
  1
材質：真鍮
100
AcDbText
  0
TEXT
  5
CCF0
330
18
100
AcDbEntity
  8
1DIM
  6
CONTINUOUS
100
AcDbText
 10
420.1317243231315
 20
-98.88518763051698
 30
0.0
 40
4.55
  1
仕上げ：各種メッキ
100
AcDbText
  0
LINE
  5
CCF1
330
18
100
AcDbEntity
  8
0
  6
BYBLOCK
100
AcDbLine
 10
474.6459342156036
 20
-196.7084724434437
 30
0.0
 11
472.6459342156036
 21
-196.1725740634437
 31
0.0
  0
LINE
  5
CCF2
330
18
100
AcDbEntity
  8
0
  6
BYBLOCK
100
AcDbLine
 10
472.6459342156036
 20
-196.1725740634437
 30
0.0
 11
474.6459342156036
 21
-195.6366756834437
 31
0.0
  0
LINE
  5
CCF3
330
18
100
AcDbEntity
  8
0
  6
BYBLOCK
100
AcDbLine
 10
472.6459342156036
 20
-196.1725740634437
 30
0.0
 11
474.6459342156036
 21
-196.1725740634437
 31
0.0
  0
LINE
  5
CCF4
330
18
100
AcDbEntity
  8
0
  6
BYBLOCK
100
AcDbLine
 10
500.6459342156036
 20
-195.6366756834437
 30
0.0
 11
502.6459342156036
 21
-196.1725740634437
 31
0.0
  0
LINE
  5
CCF5
330
18
100
AcDbEntity
  8
0
  6
BYBLOCK
100
AcDbLine
 10
502.6459342156036
 20
-196.1725740634437
 30
0.0
 11
500.6459342156036
 21
-196.7084724434437
 31
0.0
  0
LINE
  5
CCF6
330
18
100
AcDbEntity
  8
0
  6
BYBLOCK
100
AcDbLine
 10
502.6459342156036
 20
-196.1725740634437
 30
0.0
 11
500.6459342156036
 21
-196.1725740634437
 31
0.0
  0
TEXT
  5
CCF7
330
18
100
AcDbEntity
  8
1DIM
  6
CONTINUOUS
100
AcDbText
 10
484.9480175489369
 20
-195.4725740634437
 30
0.0
 40
3.5
  1
30
100
AcDbText
  0
LINE
  5
CCF8
330
18
100
AcDbEntity
  8
0
  6
BYBLOCK
100
AcDbLine
 10
472.3561758993259
 20
-200.2727361536424
 30
0.0
 11
472.6008571005184
 21
-202.3287804584835
 31
0.0
  0
LINE
  5
CCF9
330
18
100
AcDbEntity
  8
0
  6
BYBLOCK
100
AcDbLine
 10
472.6008571005184
 20
-202.3287804584835
 30
0.0
 11
471.3609348195593
 21
-200.6705344541561
 31
0.0
  0
LINE
  5
CCFA
330
18
100
AcDbEntity
  8
0
  6
BYBLOCK
100
AcDbLine
 10
472.6008571005184
 20
-202.3287804584835
 30
0.0
 11
471.8585553594426
 21
-200.4716353038993
 31
0.0
  0
LINE
  5
CCFB
330
18
100
AcDbEntity
  8
0
  6
BYBLOCK
100
AcDbLine
 10
497.8425278925604
 20
-172.4459667788866
 30
0.0
 11
500.4425278925604
 21
-173.1426346728866
 31
0.0
  0
LINE
  5
CCFC
330
18
100
AcDbEntity
  8
0
  6
BYBLOCK
100
AcDbLine
 10
500.4425278925604
 20
-173.1426346728866
 30
0.0
 11
497.8425278925604
 21
-173.8393025668866
 31
0.0
  0
LINE
  5
CCFD
330
18
100
AcDbEntity
  8
0
  6
BYBLOCK
100
AcDbLine
 10
500.4425278925604
 20
-173.1426346728866
 30
0.0
 11
497.8425278925604
 21
-173.1426346728866
 31
0.0
  0
LINE
  5
CCFE
330
18
100
AcDbEntity
  8
0
  6
BYBLOCK
100
AcDbLine
 10
463.0425278925602
 20
-173.8393025668866
 30
0.0
 11
460.4425278925602
 21
-173.1426346728866
 31
0.0
  0
LINE
  5
CCFF
330
18
100
AcDbEntity
  8
0
  6
BYBLOCK
100
AcDbLine
 10
460.4425278925602
 20
-173.1426346728866
 30
0.0
 11
463.0425278925602
 21
-172.4459667788866
 31
0.0
  0
LINE
  5
CD00
330
18
100
AcDbEntity
  8
0
  6
BYBLOCK
100
AcDbLine
 10
460.4425278925602
 20
-173.1426346728866
 30
0.0
 11
463.0425278925602
 21
-173.1426346728866
 31
0.0
  0
TEXT
  5
CD01
330
18
100
AcDbEntity
  8
1DIM
  6
CONTINUOUS
100
AcDbText
 10
474.053569559227
 20
-172.2326346728866
 30
0.0
 40
4.55
  1
□40
100
AcDbText
1001
ACAD
1000
DSTYLE
1002
{
1070
     3
1000
□<>
1070
    40
1040
1.3
1002
}
  0
LINE
  5
CD02
330
18
100
AcDbEntity
  8
0
  6
BYBLOCK
100
AcDbLine
 10
553.7053038792453
 20
-163.5829292133412
 30
0.0
 11
551.1053038792453
 21
-162.8862613193412
 31
0.0
  0
LINE
  5
CD03
330
18
100
AcDbEntity
  8
0
  6
BYBLOCK
100
AcDbLine
 10
551.1053038792453
 20
-162.8862613193412
 30
0.0
 11
553.7053038792453
 21
-162.1895934253412
 31
0.0
  0
LINE
  5
CD04
330
18
100
AcDbEntity
  8
0
  6
BYBLOCK
100
AcDbLine
 10
551.1053038792453
 20
-162.8862613193412
 30
0.0
 11
553.7053038792453
 21
-162.8862613193412
 31
0.0
  0
LINE
  5
CD05
330
18
100
AcDbEntity
  8
0
  6
BYBLOCK
100
AcDbLine
 10
542.2053038792451
 20
-162.1895934253412
 30
0.0
 11
544.8053038792451
 21
-162.8862613193412
 31
0.0
  0
LINE
  5
CD06
330
18
100
AcDbEntity
  8
0
  6
BYBLOCK
100
AcDbLine
 10
544.8053038792451
 20
-162.8862613193412
 30
0.0
 11
542.2053038792451
 21
-163.5829292133412
 31
0.0
  0
LINE
  5
CD07
330
18
100
AcDbEntity
  8
0
  6
BYBLOCK
100
AcDbLine
 10
544.8053038792451
 20
-162.8862613193412
 30
0.0
 11
542.2053038792451
 21
-162.8862613193412
 31
0.0
  0
TEXT
  5
CD08
330
18
100
AcDbEntity
  8
1DIM
  6
CONTINUOUS
100
AcDbText
 10
535.7703038792451
 20
-161.9762613193412
 30
0.0
 40
4.55
  1
6
100
AcDbText
1001
ACAD
1000
DSTYLE
1002
{
1070
    40
1040
1.3
1070
   271
1070
     0
1002
}
  0
LINE
  5
CD09
330
18
100
AcDbEntity
  8
0
  6
BYBLOCK
100
AcDbLine
 10
548.5053038792453
 20
-172.4459667788866
 30
0.0
 11
551.1053038792453
 21
-173.1426346728866
 31
0.0
  0
LINE
  5
CD0A
330
18
100
AcDbEntity
  8
0
  6
BYBLOCK
100
AcDbLine
 10
551.1053038792453
 20
-173.1426346728866
 30
0.0
 11
548.5053038792453
 21
-173.8393025668866
 31
0.0
  0
LINE
  5
CD0B
330
18
100
AcDbEntity
  8
0
  6
BYBLOCK
100
AcDbLine
 10
551.1053038792453
 20
-173.1426346728866
 30
0.0
 11
548.5053038792453
 21
-173.1426346728866
 31
0.0
  0
LINE
  5
CD0C
330
18
100
AcDbEntity
  8
0
  6
BYBLOCK
100
AcDbLine
 10
531.7052790682355
 20
-173.8393025668866
 30
0.0
 11
529.1052790682355
 21
-173.1426346728866
 31
0.0
  0
LINE
  5
CD0D
330
18
100
AcDbEntity
  8
0
  6
BYBLOCK
100
AcDbLine
 10
529.1052790682355
 20
-173.1426346728866
 30
0.0
 11
531.7052790682355
 21
-172.4459667788866
 31
0.0
  0
LINE
  5
CD0E
330
18
100
AcDbEntity
  8
0
  6
BYBLOCK
100
AcDbLine
 10
529.1052790682355
 20
-173.1426346728866
 30
0.0
 11
531.7052790682355
 21
-173.1426346728866
 31
0.0
  0
TEXT
  5
CD0F
330
18
100
AcDbEntity
  8
1DIM
  6
CONTINUOUS
100
AcDbText
 10
536.3136248070738
 20
-172.2326346728866
 30
0.0
 40
4.55
  1
22
100
AcDbText
1001
ACAD
1000
DSTYLE
1002
{
1070
    40
1040
1.3
1002
}
  0
LINE
  5
CD10
330
18
100
AcDbEntity
  8
0
  6
BYBLOCK
100
AcDbLine
 10
732.9654117167006
 20
-183.7617584851736
 30
0.0
 11
732.2687438227006
 21
-186.3617584851736
 31
0.0
  0
LINE
  5
CD11
330
18
100
AcDbEntity
  8
0
  6
BYBLOCK
100
AcDbLine
 10
732.2687438227006
 20
-186.3617584851736
 30
0.0
 11
731.5720759287005
 21
-183.7617584851736
 31
0.0
  0
LINE
  5
CD12
330
18
100
AcDbEntity
  8
0
  6
BYBLOCK
100
AcDbLine
 10
732.2687438227006
 20
-186.3617584851736
 30
0.0
 11
732.2687438227006
 21
-183.7617584851736
 31
0.0
  0
LINE
  5
CD13
330
18
100
AcDbEntity
  8
0
  6
BYBLOCK
100
AcDbLine
 10
731.5720759287005
 20
-138.9617586893015
 30
0.0
 11
732.2687438227006
 21
-136.3617586893015
 31
0.0
  0
LINE
  5
CD14
330
18
100
AcDbEntity
  8
0
  6
BYBLOCK
100
AcDbLine
 10
732.2687438227006
 20
-136.3617586893015
 30
0.0
 11
732.9654117167006
 21
-138.9617586893015
 31
0.0
  0
LINE
  5
CD15
330
18
100
AcDbEntity
  8
0
  6
BYBLOCK
100
AcDbLine
 10
732.2687438227006
 20
-136.3617586893015
 30
0.0
 11
732.2687438227006
 21
-138.9617586893015
 31
0.0
  0
TEXT
  5
CD16
330
18
100
AcDbEntity
  8
1DIM
  6
CONTINUOUS
100
AcDbText
 10
731.3587438227007
 20
-131.9006823004124
 30
0.0
 40
4.55
  1
ハンドル取付位置=50
 50
90.0
100
AcDbText
1001
ACAD
1000
DSTYLE
1002
{
1070
    40
1040
1.3
1002
}
  0
LINE
  5
CD17
330
18
100
AcDbEntity
  8
0
  6
BYBLOCK
100
AcDbLine
 10
648.3900895848691
 20
-103.3080650189483
 30
0.0
 11
650.3900895848691
 21
-103.8439633989483
 31
0.0
  0
LINE
  5
CD18
330
18
100
AcDbEntity
  8
0
  6
BYBLOCK
100
AcDbLine
 10
650.3900895848691
 20
-103.8439633989483
 30
0.0
 11
648.3900895848691
 21
-104.3798617789484
 31
0.0
  0
LINE
  5
CD19
330
18
100
AcDbEntity
  8
0
  6
BYBLOCK
100
AcDbLine
 10
650.3900895848691
 20
-103.8439633989483
 30
0.0
 11
648.3900895848691
 21
-103.8439633989483
 31
0.0
  0
LINE
  5
CD1A
330
18
100
AcDbEntity
  8
0
  6
BYBLOCK
100
AcDbLine
 10
629.0900895848689
 20
-104.3798617789484
 30
0.0
 11
627.0900895848689
 21
-103.8439633989483
 31
0.0
  0
LINE
  5
CD1B
330
18
100
AcDbEntity
  8
0
  6
BYBLOCK
100
AcDbLine
 10
627.0900895848689
 20
-103.8439633989483
 30
0.0
 11
629.0900895848689
 21
-103.3080650189483
 31
0.0
  0
LINE
  5
CD1C
330
18
100
AcDbEntity
  8
0
  6
BYBLOCK
100
AcDbLine
 10
627.0900895848689
 20
-103.8439633989483
 30
0.0
 11
629.0900895848689
 21
-103.8439633989483
 31
0.0
  0
TEXT
  5
CD1D
330
18
100
AcDbEntity
  8
1DIM
  6
CONTINUOUS
100
AcDbText
 10
633.8025251501674
 20
-103.1439633989483
 30
0.0
 40
3.5
  1
23.3
100
AcDbText
1001
ACAD
1000
DSTYLE
1002
{
1070
   271
1070
     1
1002
}
  0
LINE
  5
CD1E
330
18
100
AcDbEntity
  8
0
  6
BYBLOCK
100
AcDbLine
 10
676.4903351506604
 20
-104.3798617789484
 30
0.0
 11
674.4903351506604
 21
-103.8439633989483
 31
0.0
  0
LINE
  5
CD1F
330
18
100
AcDbEntity
  8
0
  6
BYBLOCK
100
AcDbLine
 10
674.4903351506604
 20
-103.8439633989483
 30
0.0
 11
676.4903351506604
 21
-103.3080650189483
 31
0.0
  0
LINE
  5
CD20
330
18
100
AcDbEntity
  8
0
  6
BYBLOCK
100
AcDbLine
 10
674.4903351506604
 20
-103.8439633989483
 30
0.0
 11
676.4903351506604
 21
-103.8439633989483
 31
0.0
  0
LINE
  5
CD21
330
18
100
AcDbEntity
  8
0
  6
BYBLOCK
100
AcDbLine
 10
709.4903351506604
 20
-103.3080650189483
 30
0.0
 11
711.4903351506604
 21
-103.8439633989483
 31
0.0
  0
LINE
  5
CD22
330
18
100
AcDbEntity
  8
0
  6
BYBLOCK
100
AcDbLine
 10
711.4903351506604
 20
-103.8439633989483
 30
0.0
 11
709.4903351506604
 21
-104.3798617789484
 31
0.0
  0
LINE
  5
CD23
330
18
100
AcDbEntity
  8
0
  6
BYBLOCK
100
AcDbLine
 10
711.4903351506604
 20
-103.8439633989483
 30
0.0
 11
709.4903351506604
 21
-103.8439633989483
 31
0.0
  0
TEXT
  5
CD24
330
18
100
AcDbEntity
  8
1DIM
  6
CONTINUOUS
100
AcDbText
 10
687.5070018173271
 20
-103.1439633989483
 30
0.0
 40
3.5
  1
φ37
100
AcDbText
1001
ACAD
1000
DSTYLE
1002
{
1070
     3
1000
φ<>
1002
}
  0
LINE
  5
CD25
330
18
100
AcDbEntity
  8
0
  6
BYBLOCK
100
AcDbLine
 10
553.8787050102212
 20
-128.4313475435482
 30
0.0
 11
552.4555129683605
 21
-130.716051149383
 31
0.0
  0
LINE
  5
CD26
330
18
100
AcDbEntity
  8
0
  6
BYBLOCK
100
AcDbLine
 10
552.4555129683605
 20
-130.716051149383
 30
0.0
 11
552.5456816403625
 21
-128.0258437660908
 31
0.0
  0
LINE
  5
CD27
330
18
100
AcDbEntity
  8
0
  6
BYBLOCK
100
AcDbLine
 10
552.4555129683605
 20
-130.716051149383
 30
0.0
 11
553.2121933252919
 21
-128.2285956548195
 31
0.0
  0
LINE
  5
CD28
330
18
100
AcDbEntity
  8
0
  6
BYBLOCK
100
AcDbLine
 10
535.1522333387868
 20
-125.3087133773483
 30
0.0
 11
534.6489119316379
 21
-127.3171592030534
 31
0.0
  0
LINE
  5
CD29
330
18
100
AcDbEntity
  8
0
  6
BYBLOCK
100
AcDbLine
 10
534.6489119316379
 20
-127.3171592030534
 30
0.0
 11
534.0805781526772
 21
-125.3261333897153
 31
0.0
  0
LINE
  5
CD2A
330
18
100
AcDbEntity
  8
0
  6
BYBLOCK
100
AcDbLine
 10
534.6489119316379
 20
-127.3171592030534
 30
0.0
 11
534.616405745732
 21
-125.3174233835318
 31
0.0
  0
LINE
  5
CD2B
330
18
100
AcDbEntity
  8
0
  6
BYBLOCK
100
AcDbLine
 10
634.8453743696978
 20
-118.060498805111
 30
0.0
 11
635.1939384252335
 21
-120.1015010522619
 31
0.0
  0
LINE
  5
CD2C
330
18
100
AcDbEntity
  8
0
  6
BYBLOCK
100
AcDbLine
 10
635.1939384252335
 20
-120.1015010522619
 30
0.0
 11
633.871571981946
 21
-118.5082232788169
 31
0.0
  0
LINE
  5
CD2D
330
18
100
AcDbEntity
  8
0
  6
BYBLOCK
100
AcDbLine
 10
635.1939384252335
 20
-120.1015010522619
 30
0.0
 11
634.3584731758218
 21
-118.2843610419639
 31
0.0
  0
LINE
  5
CD2E
330
18
100
AcDbEntity
  8
0
  6
BYBLOCK
100
AcDbLine
 10
474.0354987548847
 20
-113.9908144551114
 30
0.0
 11
473.6370628132546
 21
-116.6528803737069
 31
0.0
  0
LINE
  5
CD2F
330
18
100
AcDbEntity
  8
0
  6
BYBLOCK
100
AcDbLine
 10
473.6370628132546
 20
-116.6528803737069
 30
0.0
 11
472.6510855125516
 21
-114.1482456863665
 31
0.0
  0
LINE
  5
CD30
330
18
100
AcDbEntity
  8
0
  6
BYBLOCK
100
AcDbLine
 10
473.6370628132546
 20
-116.6528803737069
 30
0.0
 11
473.3432921337181
 21
-114.0695300707389
 31
0.0
  0
VIEWPORT
  5
20C3
330
15
100
AcDbEntity
 67
     1
  8
0
  6
CONTINUOUS
100
AcDbViewport
 68
     1
 10
0.0
 20
0.0
 30
0.0
 40
535.5106132075472
 41
297.0
 68
     1
 69
     1
1001
ACAD
1000
MVIEW
1002
{
1070
    16
1010
0.0
1020
0.0
1030
0.0
1010
0.0
1020
0.0
1030
1.0
1040
0.0
1040
297.0
1040
-4.171999999999855
1040
12.83899999999988
1040
50.0
1040
0.0
1040
0.0
1070
    16
1070
   100
1070
     0
1070
     1
1070
     0
1070
     0
1070
     0
1070
     0
1040
0.0
1040
0.0
1040
0.0
1040
1.0
1040
1.0
1040
0.0
1040
0.0
1070
     0
1002
{
1002
}
1002
}
  0
ENDSEC
  0
SECTION
  2
OBJECTS
  0
DICTIONARY
  5
C
330
0
100
AcDbDictionary
  3
ACAD_CIP_PREVIOUS_PRODUCT_INFO
350
AD1F
  3
ACAD_COLOR
350
6590
  3
ACAD_GROUP
350
D
  3
ACAD_LAYOUT
350
6591
  3
ACAD_MATERIAL
350
658F
  3
ACAD_MLEADERSTYLE
350
9B53
  3
ACAD_MLINESTYLE
350
1B
  3
ACAD_PLOTSETTINGS
350
6592
  3
ACAD_SCALELIST
350
9B31
  3
ACAD_VISUALSTYLE
350
9B20
  3
ACDBHEADERROUNDTRIPXREC
350
CD31
  3
ACDBVARIABLEDICTIONARY
350
2739
  3
AEC_PROPERTY_SET_DEFS
350
B292
  3
CONTENTDICTIONARY
350
1BFA
  3
DRAWINGVARIABLESDICT
350
3B87
  3
DWGPROPS
350
CD34
1001
ACAD
1000
TREAT_AS_HARD
1070
     0
  0
DICTIONARY
  5
83EE
330
2
100
AcDbDictionary
  3
ACAD_LAYERSTATES
360
83EF
1001
ACAD
1000
TREAT_AS_HARD
1070
     1
  0
DICTIONARY
  5
9B5B
330
E
100
AcDbDictionary
  3
ADSK_XREC_LAYER_RECONCILED
360
9B5C
1001
ACAD
1000
TREAT_AS_HARD
1070
     1
  0
DICTIONARY
  5
9B5D
330
1C0B
100
AcDbDictionary
  3
ADSK_XREC_LAYER_RECONCILED
360
9B5E
1001
ACAD
1000
TREAT_AS_HARD
1070
     1
  0
DICTIONARY
  5
9B5F
330
1C0C
100
AcDbDictionary
  3
ADSK_XREC_LAYER_RECONCILED
360
9B60
1001
ACAD
1000
TREAT_AS_HARD
1070
     1
  0
DICTIONARY
  5
9B61
330
1C0E
100
AcDbDictionary
  3
ADSK_XREC_LAYER_RECONCILED
360
9B62
1001
ACAD
1000
TREAT_AS_HARD
1070
     1
  0
DICTIONARY
  5
9B67
330
37AE
100
AcDbDictionary
  3
ADSK_XREC_LAYER_RECONCILED
360
9B68
1001
ACAD
1000
TREAT_AS_HARD
1070
     1
  0
DICTIONARY
  5
9283
330
18
100
AcDbDictionary
  3
ACAD_SORTENTS
360
9284
1001
ACAD
1000
TREAT_AS_HARD
1070
     1
  0
XRECORD
  5
AD1F
102
{ACAD_REACTORS
330
C
102
}
330
C
100
AcDbXrecord
300
ACDLT
300
2012
300
ACDLT_F_S
  0
DICTIONARY
  5
6590
102
{ACAD_REACTORS
330
C
102
}
330
C
100
AcDbDictionary
1001
ACAD
1000
TREAT_AS_HARD
1070
     0
  0
DICTIONARY
  5
D
102
{ACAD_REACTORS
330
C
102
}
330
C
100
AcDbDictionary
  3
*A1
350
BE76
  3
*A2
350
BE86
  3
*A3
350
C133
  3
*A4
350
C134
1001
ACAD
1000
TREAT_AS_HARD
1070
     0
  0
DICTIONARY
  5
6591
102
{ACAD_REACTORS
330
C
102
}
330
C
100
AcDbDictionary
1001
ACAD
1000
TREAT_AS_HARD
1070
     0
  0
DICTIONARY
  5
658F
102
{ACAD_REACTORS
330
C
102
}
330
C
100
AcDbDictionary
  3
BYBLOCK
350
9B18
  3
BYLAYER
350
9B10
  3
GLOBAL
350
93AD
1001
ACAD
1000
TREAT_AS_HARD
1070
     0
  0
DICTIONARY
  5
9B53
102
{ACAD_REACTORS
330
C
102
}
330
C
100
AcDbDictionary
  3
STANDARD
350
9B54
1001
ACAD
1000
TREAT_AS_HARD
1070
     0
  0
DICTIONARY
  5
1B
102
{ACAD_REACTORS
330
C
102
}
330
C
100
AcDbDictionary
  3
STANDARD
350
1C
1001
ACAD
1000
TREAT_AS_HARD
1070
     0
  0
DICTIONARY
  5
6592
102
{ACAD_REACTORS
330
C
102
}
330
C
100
AcDbDictionary
1001
ACAD
1000
TREAT_AS_HARD
1070
     0
  0
DICTIONARY
  5
9B31
102
{ACAD_REACTORS
330
C
102
}
330
C
100
AcDbDictionary
  3
A0
350
9B32
  3
A1
350
9B33
  3
A2
350
9B34
  3
A3
350
9B35
  3
A4
350
9B36
  3
A5
350
9B37
  3
A6
350
9B38
  3
A7
350
9B39
  3
A8
350
9B3A
  3
A9
350
9B3B
  3
B0
350
9B3C
  3
B1
350
9B3D
  3
B2
350
9B3E
  3
B3
350
9B3F
  3
B4
350
9B40
  3
B5
350
9B41
  3
B6
350
9B42
  3
B7
350
9B43
  3
B8
350
9B44
  3
B9
350
9B45
  3
C0
350
9B46
  3
C1
350
9B47
  3
C2
350
9B48
  3
C3
350
9B49
  3
C4
350
9B4A
  3
C5
350
9B4B
  3
C6
350
9B4C
  3
C7
350
9B4D
  3
C8
350
9B4E
  3
C9
350
9B4F
  3
D0
350
9B50
  3
D1
350
9B51
  3
D2
350
9B52
1001
ACAD
1000
TREAT_AS_HARD
1070
     0
  0
DICTIONARY
  5
9B20
102
{ACAD_REACTORS
330
C
102
}
330
C
100
AcDbDictionary
  3
2DWIREFRAME
350
9B26
  3
3D_HIDDEN
350
9B28
  3
3DWIREFRAME
350
9B27
  3
BASIC
350
9B25
  3
BRIGHTEN
350
9B2C
  3
COLORCHANGE
350
9B30
  3
CONCEPTUAL
350
9B29
  3
DIM
350
9B2B
  3
EDGECOLOROFF
350
AD1A
  3
FACEPATTERN
350
9B2F
  3
FLAT
350
9B21
  3
FLATWITHEDGES
350
9B22
  3
GOURAUD
350
9B23
  3
GOURAUDWITHEDGES
350
9B24
  3
HIDDEN
350
AD12
  3
JITTEROFF
350
AD18
  3
LINEPATTERN
350
9B2E
  3
MODELING
350
CB4D
  3
OVERHANGOFF
350
AD19
  3
REALISTIC
350
9B2A
  3
SHADED
350
AD17
  3
SHADED_WITH_EDGES
350
AD16
  3
SHADES_OF_GRAY
350
AD13
  3
SKETCHY
350
AD14
  3
THICKEN
350
9B2D
  3
WIREFRAME
350
AD11
  3
X-RAY
350
AD15
1001
ACAD
1000
TREAT_AS_HARD
1070
     0
  0
DICTIONARY
  5
CD31
102
{ACAD_REACTORS
330
C
102
}
330
C
100
AcDbDictionary
  3
COLORDICT
350
CD32
  3
MATERIALDICT
350
CD33
1001
ACAD
1000
TREAT_AS_HARD
1070
     0
  0
DICTIONARY
  5
2739
102
{ACAD_REACTORS
330
C
102
}
330
C
100
AcDbDictionary
  3
CANNOSCALE
350
9BA5
  3
CMLEADERSTYLE
350
9BA4
  3
CTABLESTYLE
350
8076
  3
DIMADEC
350
3FDC
  3
DIMASSOC
350
7B85
  3
HIDETEXT
350
9155
  3
INDEXCTL
350
9BA6
  3
INTERSECTIONCOLOR
350
9159
  3
INTERSECTIONDISPLAY
350
9158
  3
MSLTSCALE
350
CBCC
  3
OBSCOLOR
350
9156
  3
OBSLTYPE
350
9157
  3
PROJECTNAME
350
7B86
  3
SORTENTS
350
273A
  3
XCLIPFRAME
350
CB4C
1001
ACAD
1000
TREAT_AS_HARD
1070
     0
  0
DICTIONARY
  5
B292
102
{ACAD_REACTORS
330
C
102
}
330
C
100
AcDbDictionary
1001
ACAD
1000
TREAT_AS_HARD
1070
     0
  0
DICTIONARY
  5
1BFA
102
{ACAD_REACTORS
330
C
102
}
330
C
100
AcDbDictionary
1001
CONTENTTABDATA
1070
    11
1000
Child
1000
D:\ACLT\TABset\CHILDREN.dwg
1070
     0
1070
     0
1070
     1
1000
PK
1000
D:\ACLT\TABset\PK.dwg
1070
     0
1070
     0
1070
     1
1000
Lev1
1000
D:\ACLT\TABset\Lever01.dwg
1070
     0
1070
     0
1070
     1
1000
Lev2
1000
D:\ACLT\TABset\Lever02.dwg
1070
     0
1070
     0
1070
     1
1000
L3
1000
D:\Aclt\TABset\Lever03.dwg
1070
     0
1070
     0
1070
     1
1000
Form
1000
D:\ACLT\FORMAT
1070
     1
1070
     0
1070
     1
1000
Jnt
1000
D:\ACLT\TABset\JOINTPARTS.dwg
1070
     0
1070
     0
1070
     1
1000
ISO
1000
D:\ACLT\TABset\Isome01.dwg
1070
     0
1070
     0
1070
     1
1000
R
1000
D:\ACLT\TABset\REGION.dwg
1070
     0
1070
     0
1070
     1
1000
std
1000
D:\ACLT\TABset\std_sym_all.dwg
1070
     0
1070
     0
1070
     1
1000
丸
1000
D:\Aclt\TABset\MARU.dwg
1070
     0
1070
     0
1070
     1
1001
CONTENTCURRENTTAB
1070
     2
1001
ACAD
1000
TREAT_AS_HARD
1070
     0
  0
DICTIONARY
  5
3B87
102
{ACAD_REACTORS
330
C
102
}
330
C
100
AcDbDictionary
1001
DRAWINGVARIABLESXDATA
1000
POLARANG
1000
0.261799387799149410000000
1000
POLARMODE
1000
1
1000
POLARSTYLE
1000
1
1001
ACAD
1000
TREAT_AS_HARD
1070
     0
  0
XRECORD
  5
CD34
102
{ACAD_REACTORS
330
C
102
}
330
C
100
AcDbXrecord
  1
DWGPROPS COOKIE
  2

  3

  4

  6

  7

  8
3684
  9

300
=
301
=
302
=
303
=
304
=
305
=
306
=
307
=
308
=
309
=
 40
0.0
 41
2451024.204593021
 42
2458575.416695683
  1

 90
        0
  0
DICTIONARY
  5
83EF
102
{ACAD_REACTORS
330
83EE
102
}
330
83EE
100
AcDbDictionary
1001
ACAD
1000
TREAT_AS_HARD
1070
     0
  0
ACAD_PROXY_OBJECT
  5
9B5C
102
{ACAD_REACTORS
330
9B5B
102
}
330
9B5B
100
AcDbZombieObject
 90
      499
 91
      516
 93
       34
310
40C8804040
  0
ACAD_PROXY_OBJECT
  5
9B5E
102
{ACAD_REACTORS
330
9B5D
102
}
330
9B5D
100
AcDbZombieObject
 90
      499
 91
      516
 93
       34
310
40C8804040
  0
ACAD_PROXY_OBJECT
  5
9B60
102
{ACAD_REACTORS
330
9B5F
102
}
330
9B5F
100
AcDbZombieObject
 90
      499
 91
      516
 93
       34
310
40C8804040
  0
ACAD_PROXY_OBJECT
  5
9B62
102
{ACAD_REACTORS
330
9B61
102
}
330
9B61
100
AcDbZombieObject
 90
      499
 91
      516
 93
       34
310
40C8804040
  0
ACAD_PROXY_OBJECT
  5
9B68
102
{ACAD_REACTORS
330
9B67
102
}
330
9B67
100
AcDbZombieObject
 90
      499
 91
      516
 93
       34
310
40C8804040
  0
SORTENTSTABLE
  5
9284
102
{ACAD_REACTORS
330
9283
102
}
330
9283
100
AcDbSortentsTable
330
18
331
7F6F
  5
7F72
331
0
  5
7F73
331
0
  5
97F2
331
0
  5
9810
331
0
  5
9814
331
83F8
  5
9D97
331
0
  5
9D69
331
0
  5
9D6A
331
0
  5
9D6B
331
93F6
  5
9DC1
331
93F7
  5
9DC2
331
93F8
  5
9DC3
331
93F9
  5
9DC4
331
93FC
  5
9DC5
331
93FD
  5
9DC6
331
9403
  5
9DC7
331
9404
  5
9DC8
331
97E8
  5
9DC9
331
97E9
  5
9DCA
331
97F0
  5
9DCB
331
97F2
  5
9DCC
331
9810
  5
9DCD
331
9814
  5
9DCE
331
983C
  5
9DCF
331
9D69
  5
9DD2
331
9D6A
  5
9DD3
331
0
  5
9D82
331
0
  5
9D83
331
9D70
  5
9DE9
331
9D71
  5
9DEA
331
9D72
  5
9DEB
331
9D73
  5
9DEC
331
9D74
  5
9DED
331
9D75
  5
9DEE
331
9D76
  5
9DEF
331
9D77
  5
9DF0
331
9D78
  5
9DF1
331
9D79
  5
9DF2
331
9D7A
  5
9DF3
331
9D7B
  5
9DF4
331
9D7C
  5
9DF5
331
9D7D
  5
9DF6
331
9D7E
  5
9DF7
331
9D7F
  5
9DF8
331
9D80
  5
9DF9
331
9D81
  5
9DFA
331
9D82
  5
9DFB
331
9D83
  5
9DFC
331
9D84
  5
9DFD
331
9D8F
  5
9DFE
331
9D90
  5
9DFF
331
9D91
  5
9E00
331
9D95
  5
9E01
331
9D96
  5
9E02
331
9D97
  5
9E03
331
9D98
  5
9E04
331
9D99
  5
9E05
331
9D9A
  5
9E06
331
9D9B
  5
9E07
331
9D9C
  5
9E08
331
9D9D
  5
9E09
331
9D9E
  5
9E0A
331
9D9F
  5
9E0B
331
9DA0
  5
9E0C
331
9DA1
  5
9E0D
331
9DA2
  5
9E0E
331
9DA3
  5
9E0F
331
9DA4
  5
9E10
331
9DA5
  5
9E11
331
9DA6
  5
9E12
331
9DA7
  5
9E13
331
9DA8
  5
9E14
331
9DA9
  5
9E15
331
9DAA
  5
9E16
331
9DAB
  5
9E17
331
9DAC
  5
9E18
331
9DAD
  5
9E19
331
9DAE
  5
9E1A
331
9DAF
  5
9E1B
331
9DB0
  5
9E1C
331
9DB1
  5
9E1D
331
9DB2
  5
9E1E
331
9DB3
  5
9E1F
331
9DB4
  5
9E20
331
9DB5
  5
9E21
331
9DB6
  5
9E22
331
9DB7
  5
9E23
331
9DB8
  5
9E24
331
9DB9
  5
9E25
331
9DBA
  5
9E26
331
9DBB
  5
9E27
331
9DBC
  5
9E28
331
9DBD
  5
9E29
331
9DBE
  5
9E2A
331
9DBF
  5
9E2B
331
9DC0
  5
9E2C
331
9DC1
  5
9E2D
331
9DC2
  5
9E2E
331
9DC3
  5
9E2F
331
9DC4
  5
9E30
331
9DC5
  5
9E31
331
9DC6
  5
9E32
331
9DC7
  5
9E33
331
9DC8
  5
9E34
331
9DC9
  5
9E35
331
9DCA
  5
9E36
331
9DCB
  5
9E37
331
9DCC
  5
9E38
331
9DCD
  5
9E39
331
9DCE
  5
9E3A
331
9DCF
  5
9E3B
331
9DD0
  5
9E3C
331
9DD1
  5
9E3D
331
9DD2
  5
9E3E
331
9DD3
  5
9E5F
331
9DD4
  5
9E60
331
9DD5
  5
9E61
331
9DD6
  5
9E65
331
9DD7
  5
9E66
331
9DD8
  5
9FA8
331
9DD9
  5
9FB3
331
9DDA
  5
9FB4
331
9DDB
  5
9FB5
331
9DDC
  5
9FB6
331
9DDD
  5
9FB7
331
9DDE
  5
9FB8
331
9DDF
  5
9FBB
331
9DE0
  5
9FBC
331
9DE1
  5
A4E5
331
9DE2
  5
A4E6
331
9DE3
  5
A4E8
331
9DE4
  5
A4E9
331
9DE5
  5
A4EA
331
9DE6
  5
A4EB
331
9DE7
  5
A4EC
331
9DE8
  5
A4ED
331
9DE9
  5
A4EF
331
9DEA
  5
A4F0
331
9DEB
  5
A4F1
331
9DEC
  5
A4F3
331
9DED
  5
A4F4
331
9DEE
  5
A4F5
331
9DEF
  5
A4F6
331
9DF0
  5
A4F7
331
9DF1
  5
A4F8
331
9DF2
  5
A4F9
331
9DF3
  5
A4FA
331
9DF4
  5
A4FB
331
9DF5
  5
A4FC
331
9DF6
  5
A502
331
9DF7
  5
A59B
331
9DF8
  5
A59C
331
9DF9
  5
A668
331
9DFA
  5
A669
331
9DFB
  5
A762
331
9DFC
  5
A763
331
9DFD
  5
A764
331
9DFE
  5
A765
331
9DFF
  5
A7BA
331
9E00
  5
A7BB
331
9E01
  5
A8BB
331
9E02
  5
A8BC
331
9E03
  5
A9F9
331
9E04
  5
A9FA
331
9E05
  5
A9FB
331
9E06
  5
A9FC
331
9E07
  5
A9FD
331
9E08
  5
AA02
331
9E09
  5
AA4C
331
9E0A
  5
AA4D
331
9E0B
  5
AA4E
331
9E0C
  5
AA4F
331
9E0D
  5
AA50
331
9E0E
  5
AA51
331
9E0F
  5
AA52
331
9E10
  5
AA5B
331
9E11
  5
AA5C
331
9E12
  5
AA5F
331
9E13
  5
AA60
331
9E14
  5
AA61
331
9E15
  5
AA62
331
9E16
  5
AA63
331
9E17
  5
AA67
331
9E18
  5
AA68
331
9E19
  5
AA6B
331
9E1A
  5
AA6C
331
9E1B
  5
AA6D
331
9E1C
  5
AA6E
331
9E1D
  5
AA6F
331
9E1E
  5
AA70
331
9E1F
  5
AA71
331
9E20
  5
AA72
331
9E21
  5
AA73
331
9E22
  5
AA74
331
9E23
  5
AA75
331
9E24
  5
AA76
331
9E25
  5
AA77
331
9E26
  5
AA78
331
9E27
  5
AA79
331
9E28
  5
AA7A
331
9E29
  5
AA7B
331
9E2A
  5
AA7C
331
9E2B
  5
AA7D
331
9E2C
  5
AA7E
331
9E2D
  5
AA7F
331
9E2E
  5
AA80
331
9E2F
  5
AA81
331
9E30
  5
AB73
331
9E31
  5
AB74
331
9E32
  5
AB75
331
9E33
  5
AB76
331
9E34
  5
AB77
331
9E35
  5
AB78
331
9E36
  5
AB79
331
9E37
  5
AB7A
331
9E38
  5
AB7B
331
9E39
  5
AB7C
331
9E3A
  5
AB7D
331
9E3B
  5
AB7E
331
9E3C
  5
AB7F
331
9E3D
  5
AB82
331
9E3E
  5
AB86
331
9E5F
  5
AB87
331
9E60
  5
AB88
331
0
  5
A4EE
331
9E65
  5
AB98
331
9E66
  5
AB99
331
9FA8
  5
AB9A
331
9FB3
  5
AB9B
331
9FB4
  5
AB9C
331
9FB5
  5
AB9D
331
9FB6
  5
AB9E
331
9FB7
  5
AB9F
331
9FB8
  5
ABA0
331
9FBB
  5
ABA1
331
9FBC
  5
ABA2
331
A4E2
  5
ABA3
331
A4E3
  5
ABA4
331
A4E5
  5
ABA5
331
A4E6
  5
ABA6
331
A4E7
  5
ABA7
331
A4E8
  5
ABA8
331
A4E9
  5
ABB8
331
A4EA
  5
ABBA
331
A4EB
  5
ABBB
331
A4EC
  5
ABBC
331
A4ED
  5
ABBD
331
A4EE
  5
ABBE
331
A4EF
  5
ABBF
331
A4F0
  5
ABC0
331
A4F1
  5
ABC1
331
A4F3
  5
ABC2
331
A4F4
  5
ABC3
331
A4F5
  5
ABC4
331
A4F6
  5
ABC5
331
A4F7
  5
ABC6
331
A4F8
  5
ABC7
331
A4F9
  5
ABC8
331
A4FA
  5
ABC9
331
A500
  5
ABCA
331
A501
  5
AC5A
331
A502
  5
AC5B
331
A668
  5
AC5C
331
A669
  5
AC5D
331
0
  5
AA53
331
0
  5
AA54
331
0
  5
AA55
331
0
  5
AA56
331
0
  5
AA57
331
0
  5
AA58
331
A9F7
  5
AC75
331
A9F8
  5
AC76
331
A9F9
  5
AC78
331
A9FA
  5
AC79
331
A9FB
  5
AC7A
331
A9FC
  5
AC7B
331
A9FD
  5
AC7C
331
AA02
  5
AC7D
331
AA4C
  5
AC8D
331
AA4D
  5
AC90
331
AA4E
  5
AC91
331
AA4F
  5
AC92
331
AA50
  5
AC93
331
AA51
  5
AC94
331
AA52
  5
AC97
331
AA53
  5
AC98
331
AA54
  5
AC99
331
AA55
  5
AEEB
331
AA56
  5
AEED
331
AA57
  5
B294
331
AA58
  5
B295
331
AA5B
  5
B296
331
AA5C
  5
B7A9
331
AA5F
  5
B7AA
331
AA60
  5
B7AB
331
AA61
  5
B7B9
331
AA62
  5
B7BA
331
AA63
  5
B7BB
331
AA64
  5
B7BC
331
AA65
  5
B7BD
331
AA66
  5
B7BE
331
AA67
  5
B90B
331
AA68
  5
C13F
331
AA6B
  5
C140
331
AA6C
  5
C141
331
AA6D
  5
C142
331
AA6E
  5
C143
331
AA6F
  5
C144
331
AA70
  5
C147
331
AA71
  5
C148
331
AA72
  5
C149
331
AA73
  5
C14A
331
AA74
  5
C14B
331
AA75
  5
C14C
331
AA76
  5
C14D
331
AA77
  5
C14E
331
AA78
  5
C15A
331
AA79
  5
C15B
331
AA7A
  5
C15C
331
AA7B
  5
C15D
331
AA7C
  5
C15E
331
AA7D
  5
C161
331
AA7E
  5
C162
331
AA7F
  5
C163
331
AA80
  5
C167
331
AA81
  5
C168
331
AB73
  5
C169
331
AB74
  5
C16A
331
AB75
  5
C16B
331
AB76
  5
C16C
331
AB77
  5
C16D
331
AB78
  5
C16E
331
AB79
  5
C16F
331
AB7A
  5
C170
331
AB7B
  5
C171
331
AB7C
  5
C172
331
AB7D
  5
C173
331
AB80
  5
C174
331
AB81
  5
C175
331
AB84
  5
C176
331
AB85
  5
C177
331
AB86
  5
C178
331
AB87
  5
C179
331
AB88
  5
C17A
331
AB89
  5
C17B
331
AB8A
  5
C17C
331
AB8C
  5
C17D
331
AB8D
  5
C17E
331
AB90
  5
C17F
331
AB91
  5
C180
331
AB92
  5
C181
331
AB93
  5
C182
331
AB94
  5
CA60
331
AB95
  5
CA62
331
AB96
  5
CA63
331
AB97
  5
CA64
331
AB98
  5
CA69
331
AB99
  5
CA6A
331
AB9A
  5
CC7A
331
AB9B
  5
CC7B
331
AB9C
  5
CC7C
331
AB9D
  5
CC7D
331
AB9E
  5
CC7E
331
AB9F
  5
CC7F
331
ABA0
  5
CC80
331
ABA1
  5
CC81
331
ABA2
  5
CC82
331
ABA3
  5
CC84
331
ABA4
  5
CC85
331
ABA5
  5
CC8E
331
ABA6
  5
CC8F
331
ABB6
  5
CC90
331
ABB7
  5
CC91
331
ABB8
  5
CC92
331
ABBA
  5
CC94
331
ABBB
  5
CC95
331
ABBC
  5
CC96
331
ABBD
  5
CC97
331
ABBE
  5
CC98
331
ABBF
  5
CC99
331
ABC0
  5
CC9A
331
ABC1
  5
CC9B
331
ABC2
  5
CC9C
331
ABC3
  5
CC9D
331
ABC4
  5
CC9E
331
ABC5
  5
CC9F
331
ABC6
  5
CCA0
331
ABC7
  5
CCA1
331
ABC8
  5
CCA2
331
AC58
  5
CCA3
331
0
  5
AC6F
331
AC5A
  5
CCA7
331
AC5B
  5
CCA8
331
AC5C
  5
CCA9
331
AC5D
  5
CCAA
331
AC5E
  5
CCAB
331
AC5F
  5
CCAC
331
AC60
  5
CCAD
331
AC61
  5
CCAE
331
AC62
  5
CCAF
331
AC63
  5
CCB0
331
AC64
  5
CCB1
331
AC65
  5
CCB2
331
AC66
  5
CCB3
331
AC67
  5
CCB4
331
AC68
  5
CCB5
331
AC69
  5
CCB6
331
AC6B
  5
CCB7
331
AC6C
  5
CCB8
331
AC6D
  5
CCB9
331
AC6E
  5
CCBA
331
AC6F
  5
CCBB
331
AC70
  5
CCBC
331
AC71
  5
CCBD
331
AC73
  5
CCBE
331
AC74
  5
CCBF
331
AC75
  5
CCC0
331
AC76
  5
CCC1
331
AC78
  5
CCC2
331
AC79
  5
CCC3
331
AC7A
  5
CCC4
331
AC7B
  5
CCC5
331
AC7C
  5
CCC6
331
AC7D
  5
CCC7
331
AC8D
  5
CCC8
331
AC90
  5
CCC9
331
AC91
  5
CCCA
331
AC92
  5
CCCB
331
AC93
  5
CCCC
331
AC94
  5
CCCD
331
AC97
  5
CCCE
331
AC98
  5
CCCF
331
AC99
  5
CCD0
331
0
  5
C145
331
0
  5
C146
331
0
  5
B297
331
0
  5
B298
331
0
  5
B299
331
0
  5
B29A
331
0
  5
B29B
331
0
  5
B29C
331
0
  5
B29D
331
0
  5
B29E
331
0
  5
B29F
331
0
  5
B2A0
331
0
  5
B2A1
331
0
  5
B2A2
331
0
  5
B2A3
331
0
  5
B2A4
331
0
  5
B2A5
331
0
  5
B2A6
331
0
  5
B2A7
331
0
  5
B2A8
331
0
  5
B2A9
331
0
  5
B2AA
331
0
  5
B2AB
331
0
  5
B2AC
331
0
  5
B2AD
331
0
  5
B2AE
331
0
  5
B2AF
331
0
  5
B2B0
331
0
  5
B2B1
331
0
  5
B2B2
331
0
  5
B2B3
331
0
  5
B2B4
331
0
  5
B2B5
331
0
  5
B2B6
331
0
  5
B2B7
331
0
  5
B2B8
331
0
  5
B2B9
331
0
  5
B2BA
331
0
  5
B2BB
331
0
  5
B2BC
331
0
  5
B2BD
331
0
  5
B2BE
331
0
  5
B2BF
331
0
  5
B2C0
331
0
  5
B2C1
331
0
  5
B2C2
331
0
  5
B2C3
331
0
  5
B2C4
331
0
  5
B2C5
331
0
  5
B2C6
331
0
  5
B2C7
331
0
  5
B2C8
331
0
  5
B2C9
331
0
  5
B2CA
331
0
  5
B2CB
331
0
  5
B2CC
331
0
  5
B2CD
331
0
  5
B2CE
331
0
  5
B2CF
331
0
  5
B2D0
331
0
  5
B2D1
331
0
  5
B2D2
331
0
  5
B2D3
331
0
  5
B2D4
331
0
  5
B2D5
331
0
  5
B2D6
331
0
  5
B2D7
331
0
  5
B2D8
331
0
  5
B2D9
331
0
  5
B2DA
331
0
  5
B2DB
331
0
  5
B2DC
331
0
  5
B2DD
331
0
  5
B2DE
331
0
  5
B2DF
331
0
  5
B2E0
331
0
  5
B2E1
331
0
  5
B2E2
331
0
  5
B2E3
331
0
  5
B2E4
331
0
  5
B2E5
331
0
  5
B2E6
331
0
  5
B2E7
331
0
  5
B2E8
331
0
  5
B2E9
331
0
  5
B2EA
331
0
  5
B2EB
331
0
  5
B2EC
331
0
  5
B2ED
331
0
  5
B2EE
331
0
  5
B2EF
331
0
  5
B2F0
331
0
  5
B2F1
331
0
  5
B2F2
331
0
  5
B2F3
331
0
  5
B2F4
331
0
  5
B2F5
331
0
  5
B2F6
331
0
  5
B2F7
331
0
  5
B2F8
331
0
  5
B2F9
331
0
  5
B2FA
331
0
  5
B2FB
331
0
  5
B2FC
331
0
  5
B2FD
331
0
  5
B2FE
331
0
  5
B2FF
331
0
  5
B300
331
0
  5
B301
331
0
  5
B302
331
0
  5
B303
331
0
  5
B304
331
0
  5
B305
331
0
  5
B306
331
0
  5
B307
331
0
  5
B308
331
0
  5
B309
331
0
  5
B30A
331
0
  5
B30B
331
0
  5
B30C
331
0
  5
B30D
331
0
  5
B30E
331
0
  5
B30F
331
0
  5
B310
331
0
  5
B311
331
0
  5
B312
331
0
  5
B313
331
0
  5
B314
331
0
  5
B315
331
0
  5
B316
331
0
  5
B317
331
0
  5
B318
331
0
  5
B319
331
0
  5
B31A
331
0
  5
B31B
331
0
  5
B31C
331
0
  5
B31D
331
0
  5
B31E
331
0
  5
B31F
331
0
  5
B320
331
0
  5
B321
331
0
  5
B322
331
0
  5
B323
331
0
  5
B324
331
0
  5
B325
331
0
  5
B326
331
0
  5
B327
331
0
  5
B328
331
0
  5
B329
331
0
  5
B32A
331
0
  5
B32B
331
0
  5
B32C
331
0
  5
B32D
331
0
  5
B32E
331
0
  5
B32F
331
0
  5
B330
331
0
  5
B331
331
0
  5
B332
331
0
  5
B333
331
0
  5
B334
331
0
  5
B335
331
0
  5
B336
331
0
  5
B337
331
0
  5
B338
331
0
  5
B339
331
0
  5
B33A
331
0
  5
B33B
331
0
  5
B33C
331
0
  5
B33D
331
0
  5
B33E
331
0
  5
B33F
331
0
  5
B340
331
0
  5
B341
331
0
  5
B342
331
0
  5
B343
331
0
  5
B344
331
0
  5
B345
331
0
  5
B346
331
0
  5
B347
331
0
  5
B348
331
0
  5
B349
331
0
  5
B34A
331
0
  5
B34B
331
0
  5
B34C
331
0
  5
B34D
331
0
  5
B34E
331
0
  5
B34F
331
0
  5
B350
331
0
  5
B351
331
0
  5
B352
331
0
  5
B353
331
0
  5
B354
331
0
  5
B355
331
0
  5
B356
331
0
  5
B357
331
0
  5
B358
331
0
  5
B359
331
0
  5
B35A
331
0
  5
B35B
331
0
  5
B35C
331
0
  5
B35D
331
0
  5
B35E
331
0
  5
B35F
331
0
  5
B360
331
0
  5
B361
331
0
  5
B362
331
0
  5
B363
331
0
  5
B364
331
0
  5
B365
331
0
  5
B366
331
0
  5
B367
331
0
  5
B368
331
0
  5
B369
331
0
  5
B36A
331
0
  5
B36B
331
0
  5
B36C
331
0
  5
B36D
331
0
  5
B36E
331
0
  5
B36F
331
0
  5
B370
331
0
  5
B371
331
0
  5
B372
331
0
  5
B373
331
0
  5
B374
331
0
  5
B375
331
0
  5
B376
331
0
  5
B377
331
0
  5
B378
331
0
  5
B379
331
0
  5
B37A
331
0
  5
B37B
331
0
  5
B37C
331
0
  5
B37D
331
0
  5
B37E
331
0
  5
B37F
331
0
  5
B380
331
0
  5
B381
331
0
  5
B382
331
0
  5
B383
331
0
  5
B384
331
0
  5
B385
331
0
  5
B386
331
0
  5
B387
331
0
  5
B388
331
0
  5
B389
331
0
  5
B38A
331
0
  5
B38B
331
0
  5
B38C
331
0
  5
B38D
331
0
  5
B38E
331
0
  5
B38F
331
0
  5
B390
331
0
  5
B391
331
0
  5
B392
331
0
  5
B393
331
0
  5
B394
331
0
  5
B395
331
0
  5
B396
331
0
  5
B397
331
0
  5
B398
331
0
  5
B399
331
0
  5
B39A
331
0
  5
B39B
331
0
  5
B39C
331
0
  5
B39D
331
0
  5
B39E
331
0
  5
B39F
331
0
  5
B3A0
331
0
  5
B3A1
331
0
  5
B3A2
331
0
  5
B3A3
331
0
  5
B3A4
331
0
  5
B3A5
331
0
  5
B3A6
331
0
  5
B3A7
331
0
  5
B3A8
331
0
  5
B3A9
331
0
  5
B3AA
331
0
  5
B3AB
331
0
  5
B3AC
331
0
  5
B3AD
331
0
  5
B3AE
331
0
  5
B3AF
331
0
  5
B3B0
331
0
  5
B3B1
331
0
  5
B3B2
331
0
  5
B3B3
331
0
  5
B3B4
331
0
  5
B3B5
331
0
  5
B3B6
331
0
  5
B3B7
331
0
  5
B3B8
331
0
  5
B3B9
331
0
  5
B3BA
331
0
  5
B3BB
331
0
  5
B3BC
331
0
  5
B3BD
331
0
  5
B3BE
331
0
  5
B3BF
331
0
  5
B3C0
331
0
  5
B3C1
331
0
  5
B3C2
331
0
  5
B3C3
331
0
  5
B3C4
331
0
  5
B3C5
331
0
  5
B3C6
331
0
  5
B3C7
331
0
  5
B3C8
331
0
  5
B3C9
331
0
  5
B3CA
331
0
  5
B3CB
331
0
  5
B3CC
331
0
  5
B3CD
331
0
  5
B3CE
331
0
  5
B3CF
331
0
  5
B3D0
331
0
  5
B3D1
331
0
  5
B3D2
331
0
  5
B3D3
331
0
  5
B3D4
331
0
  5
B3D5
331
0
  5
B3D6
331
0
  5
B3D7
331
0
  5
B3D8
331
0
  5
B3D9
331
0
  5
B3DA
331
0
  5
B3DB
331
0
  5
B3DC
331
0
  5
B3DD
331
0
  5
B3DE
331
0
  5
B3DF
331
0
  5
B3E0
331
0
  5
B3E1
331
0
  5
B3E2
331
0
  5
B3E3
331
0
  5
B3E4
331
0
  5
B3E5
331
0
  5
B3E6
331
0
  5
B3E7
331
0
  5
B3E8
331
0
  5
B3E9
331
0
  5
B3EA
331
0
  5
B3EB
331
0
  5
B3EC
331
0
  5
B3ED
331
0
  5
B3EE
331
0
  5
B3EF
331
0
  5
B3F0
331
0
  5
B3F1
331
0
  5
B3F2
331
0
  5
B3F3
331
0
  5
B3F4
331
0
  5
B3F5
331
0
  5
B3F6
331
0
  5
B3F7
331
0
  5
B3F8
331
0
  5
B3F9
331
0
  5
B3FA
331
0
  5
B3FB
331
0
  5
B3FC
331
0
  5
B3FD
331
0
  5
B3FE
331
0
  5
B3FF
331
0
  5
B400
331
0
  5
B401
331
0
  5
B402
331
0
  5
B403
331
0
  5
B404
331
0
  5
B405
331
0
  5
B406
331
0
  5
B407
331
0
  5
B408
331
0
  5
B409
331
0
  5
B40A
331
0
  5
B40B
331
0
  5
B40C
331
0
  5
B40D
331
0
  5
B40E
331
0
  5
B40F
331
0
  5
B410
331
0
  5
B411
331
0
  5
B412
331
0
  5
B413
331
0
  5
B414
331
0
  5
B415
331
0
  5
B416
331
0
  5
B417
331
0
  5
B418
331
0
  5
B419
331
0
  5
B41A
331
0
  5
B41B
331
0
  5
B41C
331
0
  5
B41D
331
0
  5
B41E
331
0
  5
B41F
331
0
  5
B420
331
0
  5
B421
331
0
  5
B422
331
0
  5
B423
331
0
  5
B424
331
0
  5
B425
331
0
  5
B426
331
0
  5
B427
331
0
  5
B428
331
0
  5
B429
331
0
  5
B42A
331
0
  5
B42B
331
0
  5
B42C
331
0
  5
B42D
331
0
  5
B42E
331
0
  5
B42F
331
0
  5
B430
331
0
  5
B431
331
0
  5
B432
331
0
  5
B433
331
0
  5
B434
331
0
  5
B435
331
0
  5
B436
331
0
  5
B437
331
0
  5
B438
331
0
  5
B439
331
0
  5
B43A
331
0
  5
B43B
331
0
  5
B43C
331
0
  5
B43D
331
0
  5
B43E
331
0
  5
B43F
331
0
  5
B440
331
0
  5
B441
331
0
  5
B442
331
0
  5
B443
331
0
  5
B444
331
0
  5
B445
331
0
  5
B446
331
0
  5
B447
331
0
  5
B448
331
0
  5
B449
331
0
  5
B44A
331
0
  5
B44B
331
0
  5
B44C
331
0
  5
B44D
331
0
  5
B44E
331
0
  5
B44F
331
0
  5
B450
331
0
  5
B451
331
0
  5
B452
331
0
  5
B453
331
0
  5
B454
331
0
  5
B455
331
0
  5
B456
331
0
  5
B457
331
0
  5
B458
331
0
  5
B459
331
0
  5
B45A
331
0
  5
B45B
331
0
  5
B45C
331
0
  5
B45D
331
0
  5
B45E
331
0
  5
B45F
331
0
  5
B460
331
0
  5
B461
331
0
  5
B462
331
0
  5
B463
331
0
  5
B464
331
0
  5
B465
331
0
  5
B466
331
0
  5
B467
331
0
  5
B468
331
0
  5
B469
331
0
  5
B46A
331
0
  5
B46B
331
0
  5
B46C
331
0
  5
B46D
331
0
  5
B46E
331
0
  5
B46F
331
0
  5
B470
331
0
  5
B471
331
0
  5
B472
331
0
  5
B473
331
0
  5
B474
331
0
  5
B475
331
0
  5
B476
331
0
  5
B477
331
0
  5
B478
331
0
  5
B479
331
0
  5
B47A
331
0
  5
B47B
331
0
  5
B47C
331
0
  5
B47D
331
0
  5
B47E
331
0
  5
B47F
331
0
  5
B480
331
0
  5
B481
331
0
  5
B482
331
0
  5
B483
331
0
  5
B484
331
0
  5
B485
331
0
  5
B486
331
0
  5
B487
331
0
  5
B488
331
0
  5
B489
331
0
  5
B48A
331
0
  5
B48B
331
0
  5
B48C
331
0
  5
B48D
331
0
  5
B48E
331
0
  5
B48F
331
0
  5
B490
331
0
  5
B491
331
0
  5
B492
331
0
  5
B493
331
0
  5
B494
331
0
  5
B495
331
0
  5
B496
331
0
  5
B497
331
0
  5
B498
331
0
  5
B499
331
0
  5
B49A
331
0
  5
B49B
331
0
  5
B49C
331
0
  5
B49D
331
0
  5
B49E
331
0
  5
B49F
331
0
  5
B4A0
331
0
  5
B4A1
331
0
  5
B4A2
331
0
  5
B4A3
331
0
  5
B4A4
331
0
  5
B4A5
331
0
  5
B4A6
331
0
  5
B4A7
331
0
  5
B4A8
331
0
  5
B4A9
331
0
  5
B4AA
331
0
  5
B4AB
331
0
  5
B4AC
331
0
  5
B4AD
331
0
  5
B4AE
331
0
  5
B4AF
331
0
  5
B4B0
331
0
  5
B4B1
331
0
  5
B4B2
331
0
  5
B4B3
331
0
  5
B4B4
331
0
  5
B4B5
331
0
  5
B4B6
331
0
  5
B4B7
331
0
  5
B4B8
331
0
  5
B4B9
331
0
  5
B4BA
331
0
  5
B4BB
331
0
  5
B4BC
331
0
  5
B4BD
331
0
  5
B4BE
331
0
  5
B4BF
331
0
  5
B4C0
331
0
  5
B4C1
331
0
  5
B4C2
331
0
  5
B4C3
331
0
  5
B4C4
331
0
  5
B4C5
331
0
  5
B4C6
331
0
  5
B4C7
331
0
  5
B4C8
331
0
  5
B4C9
331
0
  5
B4CA
331
0
  5
B4CB
331
0
  5
B4CC
331
0
  5
B4CD
331
0
  5
B4CE
331
0
  5
B4CF
331
0
  5
B4D0
331
0
  5
B4D1
331
0
  5
B4D2
331
0
  5
B4D3
331
0
  5
B4D4
331
0
  5
B4D5
331
0
  5
B4D6
331
0
  5
B4D7
331
0
  5
B4D8
331
0
  5
B4D9
331
0
  5
B4DA
331
0
  5
B4DB
331
0
  5
B4DC
331
0
  5
B4DD
331
0
  5
B4DE
331
0
  5
B4DF
331
0
  5
B4E0
331
0
  5
B4E1
331
0
  5
B4E2
331
0
  5
B4E3
331
0
  5
B4E4
331
0
  5
B4E5
331
0
  5
B4E6
331
0
  5
B4E7
331
0
  5
B4E8
331
0
  5
B4E9
331
0
  5
B4EA
331
0
  5
B4EB
331
0
  5
B4EC
331
0
  5
B4ED
331
0
  5
B4EE
331
0
  5
B4EF
331
0
  5
B4F0
331
0
  5
B4F1
331
0
  5
B4F2
331
0
  5
B4F3
331
0
  5
B4F4
331
0
  5
B4F5
331
0
  5
B4F6
331
0
  5
B4F7
331
0
  5
B4F8
331
0
  5
B4F9
331
0
  5
B4FA
331
0
  5
B4FB
331
0
  5
B4FC
331
0
  5
B4FD
331
0
  5
B4FE
331
0
  5
B4FF
331
0
  5
B500
331
0
  5
B501
331
0
  5
B502
331
0
  5
B503
331
0
  5
B504
331
0
  5
B505
331
0
  5
B506
331
0
  5
B507
331
0
  5
B508
331
0
  5
B509
331
0
  5
B50A
331
0
  5
B50B
331
0
  5
B50C
331
0
  5
B50D
331
0
  5
B50E
331
0
  5
B50F
331
0
  5
B510
331
0
  5
B511
331
0
  5
B512
331
0
  5
B513
331
0
  5
B514
331
0
  5
B515
331
0
  5
B516
331
0
  5
B517
331
0
  5
B518
331
0
  5
B519
331
0
  5
B51A
331
0
  5
B51B
331
0
  5
B51C
331
0
  5
B51D
331
0
  5
B51E
331
0
  5
B51F
331
0
  5
B520
331
0
  5
B521
331
0
  5
B522
331
0
  5
B523
331
0
  5
B524
331
0
  5
B525
331
0
  5
B526
331
0
  5
B527
331
0
  5
B528
331
0
  5
B529
331
0
  5
B52A
331
0
  5
B52B
331
0
  5
B52C
331
0
  5
B52D
331
0
  5
B52E
331
0
  5
B52F
331
0
  5
B530
331
0
  5
B531
331
0
  5
B532
331
0
  5
B533
331
0
  5
B534
331
0
  5
B535
331
0
  5
B536
331
0
  5
B537
331
0
  5
B538
331
0
  5
B539
331
0
  5
B53A
331
0
  5
B53B
331
0
  5
B53C
331
0
  5
B53D
331
0
  5
B53E
331
0
  5
B53F
331
0
  5
B540
331
0
  5
B541
331
0
  5
B542
331
0
  5
B543
331
0
  5
B544
331
0
  5
B545
331
0
  5
B546
331
0
  5
B547
331
0
  5
B548
331
0
  5
B549
331
0
  5
B54A
331
0
  5
B54B
331
0
  5
B54C
331
0
  5
B54D
331
0
  5
B54E
331
0
  5
B54F
331
0
  5
B550
331
0
  5
B551
331
0
  5
B6AB
331
0
  5
B6AC
331
0
  5
B6AD
331
0
  5
B6AE
331
0
  5
B6AF
331
0
  5
B6B0
331
0
  5
B6B1
331
0
  5
B6B2
331
0
  5
B6B3
331
0
  5
B6B4
331
0
  5
B6B5
331
0
  5
B6B6
331
0
  5
B6B7
331
0
  5
B6B8
331
0
  5
B6B9
331
0
  5
B6BA
331
0
  5
B6BB
331
0
  5
B6BC
331
0
  5
B6BD
331
0
  5
B6BE
331
0
  5
B6BF
331
0
  5
B6C0
331
0
  5
B6C1
331
0
  5
B6C2
331
0
  5
B6C3
331
0
  5
B6C4
331
0
  5
B6C5
331
0
  5
B6C6
331
0
  5
B6C7
331
0
  5
B6C8
331
0
  5
B6C9
331
0
  5
B6CA
331
0
  5
B6CB
331
0
  5
B6CC
331
0
  5
B6CD
331
0
  5
B6CE
331
0
  5
B6CF
331
0
  5
B6D0
331
0
  5
B6D1
331
0
  5
B6D2
331
0
  5
B6D3
331
0
  5
B6D4
331
0
  5
B6D5
331
0
  5
B6D6
331
0
  5
B6D7
331
0
  5
B6D8
331
0
  5
B6D9
331
0
  5
B6DA
331
0
  5
B6DB
331
0
  5
B6DC
331
0
  5
B6DD
331
0
  5
B6DE
331
0
  5
B6DF
331
0
  5
B6E0
331
0
  5
B6E1
331
0
  5
B6E2
331
0
  5
B6E3
331
0
  5
B6E4
331
0
  5
B6E5
331
0
  5
B6E6
331
0
  5
B6E7
331
0
  5
B6E8
331
0
  5
B6E9
331
0
  5
B6EA
331
0
  5
B6EB
331
0
  5
B6EC
331
0
  5
B6ED
331
0
  5
B6EE
331
0
  5
B6EF
331
0
  5
B6F0
331
0
  5
B6F1
331
0
  5
B6F2
331
0
  5
B6F3
331
0
  5
B6F4
331
0
  5
B6F5
331
0
  5
B6F6
331
0
  5
B6F7
331
0
  5
B6F8
331
0
  5
B6F9
331
0
  5
B6FA
331
0
  5
B6FB
331
0
  5
B6FC
331
0
  5
B6FD
331
0
  5
B6FE
331
0
  5
B6FF
331
0
  5
B700
331
0
  5
B701
331
0
  5
B702
331
0
  5
B703
331
0
  5
B704
331
0
  5
B705
331
0
  5
B706
331
0
  5
B707
331
0
  5
B708
331
0
  5
B709
331
0
  5
B70A
331
0
  5
B70B
331
0
  5
B70C
331
0
  5
B70D
331
0
  5
B70E
331
0
  5
B70F
331
0
  5
B710
331
0
  5
B711
331
0
  5
B712
331
0
  5
B713
331
0
  5
B714
331
0
  5
B715
331
0
  5
B716
331
0
  5
B717
331
0
  5
B718
331
0
  5
B719
331
0
  5
B71A
331
0
  5
B71B
331
0
  5
B71C
331
0
  5
B71D
331
0
  5
B71E
331
0
  5
B71F
331
0
  5
B720
331
0
  5
B721
331
0
  5
B722
331
0
  5
B723
331
0
  5
B724
331
0
  5
B725
331
0
  5
B726
331
0
  5
B727
331
0
  5
B728
331
0
  5
B729
331
0
  5
B72A
331
0
  5
B72B
331
0
  5
B72C
331
0
  5
B72D
331
0
  5
B72E
331
0
  5
B72F
331
0
  5
B730
331
0
  5
B731
331
0
  5
B732
331
0
  5
B733
331
0
  5
B734
331
0
  5
B735
331
0
  5
B736
331
0
  5
B737
331
0
  5
B738
331
0
  5
B739
331
0
  5
B73A
331
0
  5
B73B
331
0
  5
B73C
331
0
  5
B73D
331
0
  5
B73E
331
0
  5
B73F
331
0
  5
B740
331
0
  5
B741
331
0
  5
B742
331
0
  5
B743
331
0
  5
B744
331
0
  5
B745
331
0
  5
B746
331
0
  5
B747
331
0
  5
B748
331
0
  5
B749
331
0
  5
B74A
331
0
  5
B74B
331
0
  5
B74C
331
0
  5
B74D
331
0
  5
B74E
331
0
  5
B74F
331
0
  5
B750
331
0
  5
B751
331
0
  5
B752
331
0
  5
B753
331
0
  5
B754
331
0
  5
B755
331
0
  5
B756
331
0
  5
B757
331
0
  5
B758
331
0
  5
B759
331
0
  5
B75A
331
0
  5
B75B
331
0
  5
B75C
331
0
  5
B75D
331
0
  5
B75E
331
0
  5
B75F
331
0
  5
B760
331
0
  5
B761
331
0
  5
B762
331
0
  5
B763
331
0
  5
B764
331
0
  5
B765
331
0
  5
B766
331
0
  5
B767
331
0
  5
B768
331
0
  5
B769
331
0
  5
B76A
331
0
  5
B76B
331
0
  5
B76C
331
0
  5
B76D
331
0
  5
B76E
331
0
  5
B76F
331
0
  5
B770
331
0
  5
B771
331
0
  5
B772
331
0
  5
B773
331
0
  5
B774
331
0
  5
B775
331
0
  5
B776
331
0
  5
B777
331
0
  5
B778
331
0
  5
B779
331
0
  5
B77A
331
0
  5
B77B
331
0
  5
B7A6
331
0
  5
B7A7
331
0
  5
B7A8
331
B7A6
  5
CCD8
331
B7A7
  5
CCD9
331
B7A8
  5
CCDA
331
B7A9
  5
CCDB
331
B7AA
  5
CCDC
331
B7AB
  5
CCDD
331
B7B9
  5
9DD1
331
B7BA
  5
9DD0
331
B7BB
  5
CCDE
331
B7BC
  5
CCDF
331
B7BD
  5
CCE0
331
B7BE
  5
CCE1
331
0
  5
B90C
331
0
  5
B90D
331
0
  5
B90E
331
0
  5
B90F
331
0
  5
B910
331
0
  5
B911
331
0
  5
B912
331
0
  5
B913
331
0
  5
B914
331
0
  5
B915
331
0
  5
B916
331
0
  5
B917
331
0
  5
B918
331
0
  5
B919
331
0
  5
B91A
331
0
  5
B91B
331
0
  5
B91C
331
0
  5
B91D
331
0
  5
B91E
331
0
  5
B91F
331
0
  5
B920
331
0
  5
B921
331
0
  5
B922
331
0
  5
B923
331
0
  5
B924
331
0
  5
B925
331
0
  5
B926
331
0
  5
B927
331
0
  5
B928
331
0
  5
B929
331
0
  5
B92A
331
0
  5
B92B
331
0
  5
B92C
331
0
  5
B92D
331
0
  5
B92E
331
0
  5
B92F
331
0
  5
B930
331
0
  5
B931
331
0
  5
B932
331
0
  5
B933
331
0
  5
B934
331
0
  5
B935
331
0
  5
B936
331
0
  5
B937
331
0
  5
B938
331
0
  5
B939
331
0
  5
B93A
331
0
  5
B93B
331
0
  5
B93C
331
0
  5
B93D
331
0
  5
B93E
331
0
  5
B93F
331
0
  5
B940
331
0
  5
B941
331
0
  5
B942
331
0
  5
B943
331
0
  5
B944
331
0
  5
B945
331
0
  5
B946
331
0
  5
B947
331
0
  5
B948
331
0
  5
B949
331
0
  5
B94A
331
0
  5
B94B
331
0
  5
B94C
331
0
  5
B94D
331
0
  5
B94E
331
0
  5
B94F
331
0
  5
B950
331
0
  5
B951
331
0
  5
B952
331
0
  5
B953
331
0
  5
B954
331
0
  5
B955
331
0
  5
B956
331
0
  5
B957
331
0
  5
B958
331
0
  5
B959
331
0
  5
B95A
331
0
  5
B95B
331
0
  5
B95C
331
0
  5
B95D
331
0
  5
B95E
331
0
  5
B95F
331
0
  5
B960
331
0
  5
B961
331
0
  5
B962
331
0
  5
B963
331
0
  5
B964
331
0
  5
B965
331
0
  5
B966
331
0
  5
B967
331
0
  5
B968
331
0
  5
B969
331
0
  5
B96A
331
0
  5
B96B
331
0
  5
B96C
331
0
  5
B96D
331
0
  5
B96E
331
0
  5
B96F
331
0
  5
B970
331
0
  5
B971
331
0
  5
B972
331
0
  5
B973
331
0
  5
B974
331
0
  5
B975
331
0
  5
B976
331
0
  5
B977
331
0
  5
B978
331
0
  5
B979
331
0
  5
B97A
331
0
  5
B97B
331
0
  5
B97C
331
0
  5
B97D
331
0
  5
B97E
331
0
  5
B97F
331
0
  5
B980
331
0
  5
B981
331
0
  5
B982
331
0
  5
B983
331
0
  5
B984
331
0
  5
B985
331
0
  5
B986
331
0
  5
B987
331
0
  5
B988
331
0
  5
B989
331
0
  5
B98A
331
0
  5
B98B
331
0
  5
B98C
331
0
  5
B98D
331
0
  5
B98E
331
0
  5
B98F
331
0
  5
B990
331
0
  5
B991
331
0
  5
B992
331
0
  5
B993
331
0
  5
B994
331
0
  5
B995
331
0
  5
B996
331
0
  5
B997
331
0
  5
B998
331
0
  5
B999
331
0
  5
B99A
331
0
  5
B99B
331
0
  5
B99C
331
0
  5
B99D
331
0
  5
B99E
331
0
  5
B99F
331
0
  5
B9A0
331
0
  5
B9A1
331
0
  5
B9A2
331
0
  5
B9A3
331
0
  5
B9A4
331
0
  5
B9A5
331
0
  5
B9A6
331
0
  5
B9A7
331
0
  5
B9A8
331
0
  5
B9A9
331
0
  5
B9AA
331
0
  5
B9AB
331
0
  5
B9AC
331
0
  5
B9AD
331
0
  5
B9AE
331
0
  5
B9AF
331
0
  5
B9B0
331
0
  5
B9B1
331
0
  5
B9B2
331
0
  5
B9B3
331
0
  5
B9B4
331
0
  5
B9B5
331
0
  5
B9B6
331
0
  5
B9B7
331
0
  5
B9B8
331
0
  5
B9B9
331
0
  5
B9BA
331
0
  5
B9BB
331
0
  5
B9BC
331
0
  5
B9BD
331
0
  5
B9BE
331
0
  5
B9BF
331
0
  5
B9C0
331
0
  5
B9C1
331
0
  5
B9C2
331
0
  5
B9C3
331
0
  5
B9C4
331
0
  5
B9C5
331
0
  5
B9C6
331
0
  5
B9C7
331
0
  5
B9C8
331
0
  5
B9C9
331
0
  5
B9CA
331
0
  5
B9CB
331
0
  5
B9CC
331
0
  5
B9CD
331
0
  5
B9CE
331
0
  5
B9CF
331
0
  5
B9D0
331
0
  5
B9D1
331
0
  5
B9D2
331
0
  5
B9D3
331
0
  5
B9D4
331
0
  5
B9D5
331
0
  5
B9D6
331
0
  5
B9D7
331
0
  5
B9D8
331
0
  5
B9D9
331
0
  5
B9DA
331
0
  5
B9DB
331
0
  5
B9DC
331
0
  5
B9DD
331
0
  5
B9DE
331
0
  5
B9DF
331
0
  5
B9E0
331
0
  5
B9E1
331
0
  5
B9E2
331
0
  5
B9E3
331
0
  5
B9E4
331
0
  5
B9E5
331
0
  5
B9E6
331
0
  5
B9E7
331
0
  5
B9E8
331
0
  5
B9E9
331
0
  5
B9EA
331
0
  5
B9EB
331
0
  5
B9EC
331
0
  5
B9ED
331
0
  5
B9EE
331
0
  5
B9EF
331
0
  5
B9F0
331
0
  5
B9F1
331
0
  5
B9F2
331
0
  5
B9F3
331
0
  5
B9F4
331
0
  5
B9F5
331
0
  5
B9F6
331
0
  5
B9F7
331
0
  5
B9F8
331
0
  5
B9F9
331
0
  5
B9FA
331
0
  5
B9FB
331
0
  5
B9FC
331
0
  5
B9FD
331
0
  5
B9FE
331
0
  5
B9FF
331
0
  5
BA00
331
0
  5
BA01
331
0
  5
BA02
331
0
  5
BA03
331
0
  5
BA04
331
0
  5
BA05
331
0
  5
BA06
331
0
  5
BA07
331
0
  5
BA08
331
0
  5
BA09
331
0
  5
BA0A
331
0
  5
BA0B
331
0
  5
BA0C
331
0
  5
BA0D
331
0
  5
BA0E
331
0
  5
BA0F
331
0
  5
BA10
331
0
  5
BA11
331
0
  5
BA12
331
0
  5
BA13
331
0
  5
BA14
331
0
  5
BA15
331
0
  5
BA16
331
0
  5
BA17
331
0
  5
BA18
331
0
  5
BA19
331
0
  5
BA1A
331
0
  5
BA1B
331
0
  5
BA1C
331
0
  5
BA1D
331
0
  5
BA1E
331
0
  5
BA1F
331
0
  5
BA20
331
0
  5
BA21
331
0
  5
BA22
331
0
  5
BA23
331
0
  5
BA24
331
0
  5
BA25
331
0
  5
BA26
331
0
  5
BA27
331
0
  5
BA28
331
0
  5
BA29
331
0
  5
BA2A
331
0
  5
BA2B
331
0
  5
BA2C
331
0
  5
BA2D
331
0
  5
BA2E
331
0
  5
BA2F
331
0
  5
BA30
331
0
  5
BA31
331
0
  5
BA32
331
0
  5
BA33
331
0
  5
BA34
331
0
  5
BA35
331
0
  5
BA36
331
0
  5
BA37
331
0
  5
BA38
331
0
  5
BA39
331
0
  5
BA3A
331
0
  5
BA3B
331
0
  5
BA3C
331
0
  5
BA3D
331
0
  5
BA3E
331
0
  5
BA3F
331
0
  5
BA40
331
0
  5
BA41
331
0
  5
BA42
331
0
  5
BA43
331
0
  5
BA44
331
0
  5
BA45
331
0
  5
BA46
331
0
  5
BA47
331
0
  5
BA48
331
0
  5
BA49
331
0
  5
BA4A
331
0
  5
BA4B
331
0
  5
BA4C
331
0
  5
BA4D
331
0
  5
BA4E
331
0
  5
BA4F
331
0
  5
BA50
331
0
  5
BC74
331
0
  5
BC75
331
0
  5
BC76
331
0
  5
BC77
331
0
  5
BC78
331
0
  5
BC79
331
0
  5
BC7A
331
0
  5
BC7B
331
0
  5
BC7C
331
0
  5
BC7D
331
0
  5
BC7E
331
0
  5
BC7F
331
0
  5
BC80
331
0
  5
BC81
331
0
  5
BC82
331
0
  5
BC83
331
0
  5
BC84
331
0
  5
BC85
331
0
  5
BC86
331
0
  5
BC87
331
0
  5
BC88
331
0
  5
BC89
331
0
  5
BC8A
331
0
  5
BC8B
331
0
  5
BC8C
331
0
  5
BC8D
331
0
  5
BC8E
331
0
  5
BC8F
331
0
  5
BC90
331
0
  5
BC91
331
0
  5
BC92
331
0
  5
BC93
331
0
  5
BC94
331
0
  5
BC95
331
0
  5
BC96
331
0
  5
BC97
331
0
  5
BC98
331
0
  5
BC99
331
0
  5
BC9A
331
0
  5
BC9B
331
0
  5
BC9C
331
0
  5
BC9D
331
0
  5
BC9E
331
0
  5
BC9F
331
0
  5
BCA0
331
0
  5
BCA1
331
0
  5
BCA2
331
0
  5
BCA3
331
0
  5
BCA4
331
0
  5
BCA5
331
0
  5
BCA6
331
0
  5
BCA7
331
0
  5
BCA8
331
0
  5
BCA9
331
0
  5
BCAA
331
0
  5
BCAB
331
0
  5
BCAC
331
0
  5
BCAD
331
0
  5
BCAE
331
0
  5
BCAF
331
0
  5
BCB0
331
0
  5
BCB1
331
0
  5
BCB2
331
0
  5
BCB3
331
0
  5
BCB4
331
0
  5
BCB5
331
0
  5
BCB6
331
0
  5
BCB7
331
0
  5
BCB8
331
0
  5
BCB9
331
0
  5
BCBA
331
0
  5
BCBB
331
0
  5
BCBC
331
0
  5
BCBD
331
0
  5
BCBE
331
0
  5
BCBF
331
0
  5
BCC0
331
0
  5
BCC1
331
0
  5
BCC2
331
0
  5
BCC3
331
0
  5
BCC4
331
0
  5
BCC5
331
0
  5
BCC6
331
0
  5
BCC7
331
0
  5
BCC8
331
0
  5
BCC9
331
0
  5
BCCA
331
0
  5
BCCB
331
0
  5
BCCC
331
0
  5
BCCD
331
0
  5
BCCE
331
0
  5
BCCF
331
0
  5
BCD0
331
0
  5
BCD1
331
0
  5
BCD2
331
0
  5
BCD3
331
0
  5
BCD4
331
0
  5
BCD5
331
0
  5
BCD6
331
0
  5
BCD7
331
0
  5
BCD8
331
0
  5
BCD9
331
0
  5
BCDA
331
0
  5
BCDB
331
0
  5
BCDC
331
0
  5
BCDD
331
0
  5
BCDE
331
0
  5
BCDF
331
0
  5
BCE0
331
0
  5
BCE1
331
0
  5
BCE2
331
0
  5
BCE3
331
0
  5
BCE4
331
0
  5
BCE5
331
0
  5
BCE6
331
0
  5
BCE7
331
0
  5
BCE8
331
0
  5
BCE9
331
0
  5
BCEA
331
0
  5
BCEB
331
0
  5
BCEC
331
0
  5
BCED
331
0
  5
BCEE
331
0
  5
BCEF
331
0
  5
BCF0
331
0
  5
BCF1
331
0
  5
BCF2
331
0
  5
BCF3
331
0
  5
BCF4
331
0
  5
BCF5
331
0
  5
BCF6
331
0
  5
BCF7
331
0
  5
BCF8
331
0
  5
BCF9
331
0
  5
BCFA
331
0
  5
BCFB
331
0
  5
BCFC
331
0
  5
BCFD
331
0
  5
BCFE
331
0
  5
BCFF
331
0
  5
BD00
331
0
  5
BD01
331
0
  5
BD02
331
0
  5
BD03
331
0
  5
BD04
331
0
  5
BD05
331
0
  5
BD06
331
0
  5
BD07
331
0
  5
BD08
331
0
  5
BD09
331
0
  5
BD0A
331
0
  5
BD0B
331
0
  5
BD0C
331
0
  5
BD0D
331
0
  5
BD0E
331
0
  5
BD0F
331
0
  5
BD10
331
0
  5
BD11
331
0
  5
BD12
331
0
  5
BD13
331
0
  5
BD14
331
0
  5
BD15
331
0
  5
BD16
331
0
  5
BD17
331
0
  5
BD18
331
0
  5
BD19
331
0
  5
BD1A
331
0
  5
BD1B
331
0
  5
BD1C
331
0
  5
BD1D
331
0
  5
BD1E
331
0
  5
BD1F
331
0
  5
BD20
331
0
  5
BD21
331
0
  5
BD22
331
0
  5
BD23
331
0
  5
BD24
331
0
  5
BD25
331
0
  5
BD26
331
0
  5
BD27
331
0
  5
BD28
331
0
  5
BD29
331
0
  5
BD2A
331
0
  5
BD2B
331
0
  5
BD2C
331
0
  5
BD2D
331
0
  5
BD2E
331
0
  5
BD2F
331
0
  5
BD30
331
0
  5
BD31
331
0
  5
BD32
331
0
  5
BD33
331
0
  5
BD34
331
0
  5
BD35
331
0
  5
BD36
331
0
  5
BD37
331
0
  5
BD38
331
0
  5
BD39
331
0
  5
BD3A
331
0
  5
BD3B
331
0
  5
BD3C
331
0
  5
BD3D
331
0
  5
BD3E
331
0
  5
BD3F
331
0
  5
BD40
331
0
  5
BD41
331
0
  5
BD42
331
0
  5
BD43
331
0
  5
BD44
331
0
  5
BD45
331
0
  5
BD46
331
0
  5
BD47
331
0
  5
BD48
331
0
  5
BD49
331
0
  5
BD4A
331
0
  5
BD4B
331
0
  5
BD4C
331
0
  5
BD4D
331
0
  5
BD4E
331
0
  5
BD4F
331
0
  5
BD50
331
0
  5
BD51
331
0
  5
BD52
331
0
  5
BD53
331
0
  5
BD54
331
0
  5
BD55
331
0
  5
BD56
331
0
  5
BD57
331
0
  5
BD58
331
0
  5
BD59
331
0
  5
BD5A
331
0
  5
BD5B
331
0
  5
BD5C
331
0
  5
BD5D
331
0
  5
BD5E
331
0
  5
BD5F
331
0
  5
BD60
331
0
  5
BD61
331
0
  5
BD62
331
0
  5
BD63
331
0
  5
BD64
331
0
  5
BD65
331
0
  5
BD66
331
0
  5
BD67
331
0
  5
BD68
331
0
  5
BD69
331
0
  5
BD6A
331
0
  5
BD6B
331
0
  5
BD6C
331
0
  5
BD6D
331
0
  5
BD6E
331
0
  5
BD6F
331
0
  5
BD70
331
0
  5
BD71
331
0
  5
BD72
331
0
  5
BD73
331
0
  5
BD74
331
0
  5
BD75
331
0
  5
BD76
331
0
  5
BD77
331
0
  5
BD78
331
0
  5
BD79
331
0
  5
BD7A
331
0
  5
BD7B
331
0
  5
BD7C
331
0
  5
BD7D
331
0
  5
BD7E
331
0
  5
BD7F
331
0
  5
BD80
331
0
  5
BD81
331
0
  5
BD82
331
0
  5
BD83
331
0
  5
BD84
331
0
  5
BD85
331
0
  5
BD86
331
0
  5
BD87
331
0
  5
BD88
331
0
  5
BD89
331
0
  5
BD8A
331
0
  5
BD8B
331
0
  5
BD8C
331
0
  5
BD8D
331
0
  5
BD8E
331
0
  5
BD8F
331
0
  5
BD90
331
0
  5
BD91
331
0
  5
BD92
331
0
  5
BD93
331
0
  5
BD94
331
0
  5
BD95
331
0
  5
BD96
331
0
  5
BD97
331
0
  5
BD98
331
0
  5
BD99
331
0
  5
BD9A
331
0
  5
BD9B
331
0
  5
BD9C
331
0
  5
BD9D
331
0
  5
BD9E
331
0
  5
BD9F
331
0
  5
BDA0
331
0
  5
BDA1
331
0
  5
BDA2
331
0
  5
BDA3
331
0
  5
BDA4
331
0
  5
BDA5
331
0
  5
BDA6
331
0
  5
BDA7
331
0
  5
BDA8
331
0
  5
BDA9
331
0
  5
BDAA
331
0
  5
BDAB
331
0
  5
BDAC
331
0
  5
BDAD
331
0
  5
BDAE
331
0
  5
BDAF
331
0
  5
BDB0
331
0
  5
BDB1
331
0
  5
BDB2
331
0
  5
BDB3
331
0
  5
BDB4
331
0
  5
BDB5
331
0
  5
BDB6
331
0
  5
BDB7
331
0
  5
BDB8
331
0
  5
BDB9
331
0
  5
BDBA
331
0
  5
BDBB
331
0
  5
BDBC
331
0
  5
BDBD
331
0
  5
BDBE
331
0
  5
BDBF
331
0
  5
BDC0
331
0
  5
BDC1
331
0
  5
BDC2
331
0
  5
BDC3
331
0
  5
BDC4
331
0
  5
BDC5
331
0
  5
BDC6
331
0
  5
BDC7
331
0
  5
BDC8
331
0
  5
BDC9
331
0
  5
BDCA
331
0
  5
BDCB
331
0
  5
BDCC
331
0
  5
BDCD
331
0
  5
BDCE
331
0
  5
BDCF
331
0
  5
BDD0
331
0
  5
BDD1
331
0
  5
BDD2
331
0
  5
BDD3
331
0
  5
BDD4
331
0
  5
BDD5
331
0
  5
BDD6
331
0
  5
BDD7
331
0
  5
BDD8
331
0
  5
BDD9
331
0
  5
BDDA
331
0
  5
BDDB
331
0
  5
BDDC
331
0
  5
BDDD
331
0
  5
BDDE
331
0
  5
BDDF
331
0
  5
BDE0
331
0
  5
BDE1
331
0
  5
BDE2
331
0
  5
BDE3
331
0
  5
BDE4
331
0
  5
BDE5
331
0
  5
BDE6
331
0
  5
BDE7
331
0
  5
BDE8
331
0
  5
BDE9
331
0
  5
BDEA
331
0
  5
BDEB
331
0
  5
BDEC
331
0
  5
BDED
331
0
  5
BDEE
331
0
  5
BDEF
331
0
  5
BDF0
331
0
  5
BDF1
331
0
  5
BDF2
331
0
  5
BDF3
331
0
  5
BDF4
331
0
  5
BDF5
331
0
  5
BDF6
331
0
  5
BDF7
331
0
  5
BDF8
331
0
  5
BDF9
331
0
  5
BDFA
331
0
  5
BDFB
331
0
  5
BDFC
331
0
  5
BDFD
331
0
  5
BDFE
331
0
  5
BDFF
331
0
  5
BE00
331
0
  5
BE01
331
0
  5
BE02
331
0
  5
BE03
331
0
  5
BE04
331
0
  5
BE05
331
0
  5
BE06
331
0
  5
BE07
331
0
  5
BE08
331
0
  5
BE09
331
0
  5
BE0A
331
0
  5
BE0B
331
0
  5
BE0C
331
0
  5
BE0D
331
0
  5
BE0E
331
0
  5
BE0F
331
0
  5
BE10
331
0
  5
BE11
331
0
  5
BE12
331
0
  5
BE13
331
0
  5
BE14
331
0
  5
BE15
331
0
  5
BE16
331
0
  5
BE17
331
0
  5
BE18
331
0
  5
BE19
331
0
  5
BE1A
331
0
  5
BE1B
331
0
  5
BE1C
331
0
  5
BE1D
331
0
  5
BE1E
331
0
  5
BE20
331
0
  5
BE22
331
0
  5
BE26
331
0
  5
BE28
331
0
  5
BE29
331
0
  5
BE2A
331
0
  5
BE2B
331
0
  5
BE2C
331
0
  5
BE2D
331
0
  5
BE2E
331
0
  5
BE2F
331
0
  5
BE30
331
0
  5
BE31
331
0
  5
BE32
331
0
  5
BE33
331
0
  5
BE34
331
0
  5
BE35
331
0
  5
BE36
331
0
  5
BE37
331
0
  5
BE38
331
0
  5
BE39
331
0
  5
BE3A
331
0
  5
BE3B
331
0
  5
BE3C
331
0
  5
BE3D
331
0
  5
BE3E
331
0
  5
BE3F
331
0
  5
BE40
331
0
  5
BE41
331
0
  5
BE42
331
0
  5
BE43
331
0
  5
BE44
331
0
  5
BE45
331
0
  5
BE46
331
0
  5
BE47
331
0
  5
BE48
331
0
  5
BE49
331
0
  5
BE4A
331
0
  5
BE4B
331
0
  5
BE4C
331
0
  5
BE4D
331
0
  5
BE4E
331
0
  5
BE4F
331
0
  5
BE50
331
0
  5
BE51
331
0
  5
BE52
331
0
  5
BE53
331
0
  5
BE54
331
0
  5
BE55
331
0
  5
BE56
331
0
  5
BE57
331
0
  5
BE58
331
0
  5
BE59
331
0
  5
BE5A
331
0
  5
BE5B
331
0
  5
BE5C
331
0
  5
BE5D
331
0
  5
BE5E
331
0
  5
BE5F
331
0
  5
BE60
331
0
  5
BE61
331
0
  5
BE62
331
0
  5
BE63
331
0
  5
BE64
331
0
  5
BE65
331
0
  5
BE66
331
0
  5
BE67
331
0
  5
BE68
331
0
  5
BE69
331
0
  5
BE6A
331
0
  5
BE6B
331
0
  5
BE6C
331
0
  5
BE6D
331
0
  5
BE6E
331
0
  5
BE6F
331
0
  5
BE70
331
0
  5
BE71
331
0
  5
BE72
331
0
  5
BE73
331
0
  5
BE74
331
0
  5
BE75
331
0
  5
BE77
331
0
  5
BE78
331
0
  5
BE79
331
0
  5
BE7A
331
0
  5
BE7B
331
0
  5
BE7C
331
0
  5
BE7D
331
0
  5
BE7E
331
0
  5
BE7F
331
0
  5
BE80
331
0
  5
BE81
331
0
  5
BE82
331
0
  5
BE83
331
0
  5
BE84
331
0
  5
BE85
331
0
  5
BFE0
331
0
  5
BFE1
331
0
  5
BFE2
331
0
  5
BFE3
331
0
  5
BFE4
331
0
  5
BFE5
331
0
  5
BFE6
331
0
  5
BFE7
331
0
  5
BFE8
331
0
  5
BFE9
331
0
  5
BFEA
331
0
  5
BFEB
331
0
  5
BFEC
331
0
  5
BFED
331
0
  5
BFEE
331
0
  5
BFEF
331
0
  5
BFF0
331
0
  5
BFF1
331
0
  5
BFF2
331
0
  5
BFF3
331
0
  5
BFF4
331
0
  5
BFF5
331
0
  5
BFF6
331
0
  5
BFF7
331
0
  5
BFF8
331
0
  5
BFF9
331
0
  5
BFFA
331
0
  5
BFFB
331
0
  5
BFFC
331
0
  5
BFFD
331
0
  5
BFFE
331
0
  5
BFFF
331
0
  5
C000
331
0
  5
C001
331
0
  5
C002
331
0
  5
C003
331
0
  5
C004
331
0
  5
C005
331
0
  5
C006
331
0
  5
C007
331
0
  5
C008
331
0
  5
C009
331
0
  5
C00A
331
0
  5
C00B
331
0
  5
C00C
331
0
  5
C00D
331
0
  5
C00E
331
0
  5
C00F
331
0
  5
C010
331
0
  5
C011
331
0
  5
C012
331
0
  5
C013
331
0
  5
C014
331
0
  5
C015
331
0
  5
C016
331
0
  5
C017
331
0
  5
C018
331
0
  5
C019
331
0
  5
C01A
331
0
  5
C01B
331
0
  5
C01C
331
0
  5
C01D
331
0
  5
C01E
331
0
  5
C01F
331
0
  5
C020
331
0
  5
C021
331
0
  5
C022
331
0
  5
C023
331
0
  5
C024
331
0
  5
C025
331
0
  5
C026
331
0
  5
C027
331
0
  5
C028
331
0
  5
C029
331
0
  5
C02A
331
0
  5
C02B
331
0
  5
C02C
331
0
  5
C02D
331
0
  5
C02E
331
0
  5
C02F
331
0
  5
C030
331
0
  5
C031
331
0
  5
C032
331
0
  5
C033
331
0
  5
C034
331
0
  5
C035
331
0
  5
C036
331
0
  5
C037
331
0
  5
C038
331
0
  5
C039
331
0
  5
C03A
331
0
  5
C03B
331
0
  5
C03C
331
0
  5
C03D
331
0
  5
C03E
331
0
  5
C03F
331
0
  5
C040
331
0
  5
C041
331
0
  5
C042
331
0
  5
C043
331
0
  5
C044
331
0
  5
C045
331
0
  5
C046
331
0
  5
C047
331
0
  5
C048
331
0
  5
C049
331
0
  5
C04A
331
0
  5
C04B
331
0
  5
C04C
331
0
  5
C04D
331
0
  5
C04E
331
0
  5
C04F
331
0
  5
C050
331
0
  5
C051
331
0
  5
C052
331
0
  5
C053
331
0
  5
C054
331
0
  5
C055
331
0
  5
C056
331
0
  5
C057
331
0
  5
C058
331
0
  5
C059
331
0
  5
C05A
331
0
  5
C05B
331
0
  5
C05C
331
0
  5
C05D
331
0
  5
C05E
331
0
  5
C05F
331
0
  5
C060
331
0
  5
C061
331
0
  5
C062
331
0
  5
C063
331
0
  5
C064
331
0
  5
C065
331
0
  5
C066
331
0
  5
C067
331
0
  5
C068
331
0
  5
C069
331
0
  5
C06A
331
0
  5
C06B
331
0
  5
C06C
331
0
  5
C06D
331
0
  5
C06E
331
0
  5
C06F
331
0
  5
C070
331
0
  5
C071
331
0
  5
C072
331
0
  5
C073
331
0
  5
C074
331
0
  5
C075
331
0
  5
C076
331
0
  5
C077
331
0
  5
C078
331
0
  5
C079
331
0
  5
C07A
331
0
  5
C07B
331
0
  5
C07C
331
0
  5
C07D
331
0
  5
C07E
331
0
  5
C07F
331
0
  5
C080
331
0
  5
C081
331
0
  5
C082
331
0
  5
C083
331
0
  5
C084
331
0
  5
C085
331
0
  5
C086
331
0
  5
C087
331
0
  5
C088
331
0
  5
C089
331
0
  5
C08A
331
0
  5
C08B
331
0
  5
C08C
331
0
  5
C08D
331
0
  5
C08E
331
0
  5
C08F
331
0
  5
C090
331
0
  5
C091
331
0
  5
C092
331
0
  5
C093
331
0
  5
C094
331
0
  5
C095
331
0
  5
C096
331
0
  5
C097
331
0
  5
C098
331
0
  5
C099
331
0
  5
C09A
331
0
  5
C09B
331
0
  5
C09C
331
0
  5
C09D
331
0
  5
C09E
331
0
  5
C09F
331
0
  5
C0A0
331
0
  5
C0A1
331
0
  5
C0A2
331
0
  5
C0A3
331
0
  5
C0A4
331
0
  5
C0A5
331
0
  5
C0A6
331
0
  5
C0A7
331
0
  5
C0A8
331
0
  5
C0A9
331
0
  5
C0AA
331
0
  5
C0AB
331
0
  5
C0AC
331
0
  5
C0AD
331
0
  5
C0AE
331
0
  5
C0AF
331
0
  5
C0B0
331
0
  5
C0B1
331
0
  5
C0B2
331
0
  5
C0B3
331
0
  5
C0B4
331
0
  5
C0B5
331
0
  5
C0B6
331
0
  5
C0B7
331
0
  5
C0B8
331
0
  5
C0B9
331
0
  5
C0BA
331
0
  5
C0BB
331
0
  5
C0BC
331
0
  5
C0BD
331
0
  5
C0BE
331
0
  5
C0BF
331
0
  5
C0C0
331
0
  5
C0C1
331
0
  5
C0C2
331
0
  5
C0C3
331
0
  5
C0C4
331
0
  5
C0C5
331
0
  5
C0C6
331
0
  5
C0C7
331
0
  5
C0C8
331
0
  5
C0C9
331
0
  5
C0CA
331
0
  5
C0CB
331
0
  5
C0CC
331
0
  5
C0CD
331
0
  5
C0CE
331
0
  5
C0CF
331
0
  5
C0D0
331
0
  5
C0D1
331
0
  5
C0D2
331
0
  5
C0D3
331
0
  5
C0D4
331
0
  5
C0D5
331
0
  5
C0D6
331
0
  5
C0D7
331
0
  5
C0D8
331
0
  5
C0D9
331
0
  5
C0DA
331
0
  5
C0DB
331
0
  5
C0DC
331
0
  5
C0DD
331
0
  5
C0DE
331
0
  5
C0DF
331
0
  5
C0E0
331
0
  5
C0E1
331
0
  5
C0E2
331
0
  5
C0E3
331
0
  5
C0E4
331
0
  5
C0E5
331
0
  5
C0E6
331
0
  5
C0E7
331
0
  5
C0E8
331
0
  5
C0E9
331
0
  5
C0EA
331
0
  5
C0EB
331
0
  5
C0EC
331
0
  5
C0ED
331
0
  5
C0EE
331
0
  5
C0EF
331
0
  5
C0F0
331
0
  5
C0F1
331
0
  5
C0F2
331
0
  5
C0F3
331
0
  5
C0F4
331
0
  5
C0F5
331
0
  5
C0F6
331
0
  5
C0F7
331
0
  5
C0F8
331
0
  5
C0F9
331
0
  5
C0FA
331
0
  5
C0FB
331
0
  5
C0FC
331
0
  5
C0FD
331
0
  5
C0FE
331
0
  5
C0FF
331
0
  5
C100
331
0
  5
C101
331
0
  5
C102
331
0
  5
C103
331
0
  5
C104
331
0
  5
C105
331
0
  5
C106
331
0
  5
C107
331
0
  5
C108
331
0
  5
C109
331
0
  5
C10A
331
0
  5
C10B
331
0
  5
C10C
331
0
  5
C10D
331
0
  5
C10E
331
0
  5
C10F
331
0
  5
C110
331
0
  5
C111
331
0
  5
C112
331
0
  5
C113
331
0
  5
C114
331
0
  5
C115
331
0
  5
C116
331
0
  5
C117
331
0
  5
C118
331
0
  5
C119
331
0
  5
C11A
331
0
  5
C11B
331
0
  5
C11C
331
0
  5
C11D
331
0
  5
C11E
331
0
  5
C11F
331
0
  5
C120
331
0
  5
C121
331
0
  5
C122
331
0
  5
C123
331
0
  5
C124
331
0
  5
C125
331
0
  5
C126
331
0
  5
C127
331
0
  5
C128
331
0
  5
C129
331
0
  5
C12A
331
0
  5
C12B
331
0
  5
C12C
331
0
  5
C12D
331
0
  5
C12E
331
0
  5
C12F
331
0
  5
C130
331
0
  5
C131
331
0
  5
C132
331
0
  5
C13E
331
C13E
  5
CCE2
331
C13F
  5
CCE3
331
C140
  5
CCE4
331
C141
  5
CCE5
331
C142
  5
CCE6
331
C143
  5
CCE7
331
C144
  5
CCE8
331
C145
  5
CCE9
331
C146
  5
CCEA
331
C147
  5
CCEB
331
C148
  5
CCEC
331
C149
  5
CCED
331
C14A
  5
CCEE
331
C14B
  5
CCEF
331
C14C
  5
CCF0
331
C14D
  5
CCF1
331
C14E
  5
CCF2
331
C15A
  5
CCF3
331
C15B
  5
CCF4
331
C15C
  5
CCF5
331
C15D
  5
CCF6
331
0
  5
C15F
331
0
  5
C160
331
C160
  5
CCFB
331
C161
  5
CCFC
331
C162
  5
CCFD
331
C163
  5
CCFE
331
C167
  5
CCFF
331
C168
  5
CD00
331
C169
  5
CD01
331
C16A
  5
CD02
331
C16B
  5
CD03
331
C16C
  5
CD04
331
C16D
  5
CD05
331
C16E
  5
CD06
331
C16F
  5
CD07
331
C170
  5
CD08
331
C171
  5
CD09
331
C172
  5
CD0A
331
C173
  5
CD0B
331
C174
  5
CD0C
331
C175
  5
CD0D
331
C176
  5
CD0E
331
C177
  5
CD0F
331
C178
  5
CD10
331
C179
  5
CD11
331
C17A
  5
CD12
331
C17B
  5
CD13
331
C17C
  5
CD14
331
C17D
  5
CD15
331
C17E
  5
CD16
331
C17F
  5
CD17
331
C180
  5
CD18
331
C181
  5
CD19
331
0
  5
C184
331
0
  5
C197
331
C197
  5
CD2B
331
CA61
  5
CD2C
331
CA62
  5
CD2D
331
CA63
  5
CD2E
331
CA69
  5
CD2F
331
CA6A
  5
CD30
331
CC7A
  5
7F7A
331
CC7B
  5
7F7B
331
CC7C
  5
823B
331
0
  5
83F9
331
CC7E
  5
9404
331
CC7F
  5
97E8
331
CC80
  5
97E9
331
CC81
  5
97F0
331
CC82
  5
CCF7
331
CC83
  5
CCF8
331
CC84
  5
CCF9
331
CC85
  5
CCFA
331
CC8E
  5
CD1A
331
CC8F
  5
CD1B
331
CC90
  5
CD1C
331
0
  5
CC83
331
CC92
  5
CD27
331
CC93
  5
CD28
331
CC94
  5
CD29
331
CC95
  5
CD2A
331
CC96
  5
85B1
331
CC97
  5
9298
331
CC98
  5
92AF
331
CC99
  5
93F6
331
CC9A
  5
93F7
331
CC9B
  5
93F8
331
CC9C
  5
93F9
331
CC9D
  5
93FC
331
CC9E
  5
93FD
331
CC9F
  5
9403
331
CCA0
  5
CD1D
331
CCA1
  5
CD1E
331
CCA2
  5
CD1F
331
CCA3
  5
CD20
331
CCA4
  5
CD21
331
CCA5
  5
CD22
331
CCA6
  5
CD23
331
CCA7
  5
CD24
331
CCA8
  5
CD25
331
CCA9
  5
CD26
331
CCAA
  5
983C
331
CCAB
  5
9D6F
331
CCAC
  5
9D70
331
0
  5
9D71
331
0
  5
9D72
331
0
  5
9D73
331
0
  5
9D74
331
CCB1
  5
9D84
331
CCB2
  5
9D8F
331
CCB3
  5
9D96
331
CCB4
  5
9D98
331
CCB5
  5
9D9C
331
CCB6
  5
9D9D
331
0
  5
9D7C
331
0
  5
9D7D
331
0
  5
9D7E
331
CCBA
  5
9DA5
331
CCBB
  5
9DA6
331
CCBC
  5
9DA7
331
CCBD
  5
9DA8
331
CCBE
  5
9DA9
331
0
  5
9D90
331
0
  5
9D91
331
0
  5
9D95
331
CCC2
  5
9DB1
331
CCC3
  5
9DB2
331
CCC4
  5
9DB6
331
0
  5
9D99
331
0
  5
9D9A
331
0
  5
9D9B
331
CCC8
  5
9DD4
331
CCC9
  5
9DD5
331
CCCA
  5
9DD6
331
CCCB
  5
9DD7
331
0
  5
9DB3
331
0
  5
9DB4
331
0
  5
9DB5
331
CCCF
  5
9DDF
331
CCD0
  5
9DE0
331
CCD1
  5
9DE1
331
0
  5
9DB9
331
0
  5
9DBA
331
0
  5
9DBB
331
CCD5
  5
AB8A
331
CCD6
  5
AB8B
331
CCD7
  5
AB8C
331
0
  5
AA64
331
0
  5
AA65
331
0
  5
AA66
331
0
  5
AB83
331
CCDC
  5
AC61
331
CCDD
  5
AC62
331
CCDE
  5
AC63
331
0
  5
AB89
331
CCE0
  5
AC67
331
CCE1
  5
AC68
331
CCE2
  5
AC69
331
CCE3
  5
AC6B
331
0
  5
AB8F
331
CCE5
  5
AC70
331
CCE6
  5
AC71
331
CCE7
  5
AC73
331
CCE8
  5
AC74
331
CCE9
  5
CCA4
331
CCEA
  5
CCA5
331
CCEB
  5
CCA6
331
0
  5
CC93
331
CCED
  5
CCD4
331
CCEE
  5
CCD5
331
CCEF
  5
CCD6
331
CCF0
  5
CCD7
331
CCF1
  5
9D75
331
CCF2
  5
9D76
331
CCF3
  5
9D77
331
CCF4
  5
9D78
331
CCF5
  5
9D79
331
CCF6
  5
9D7A
331
CCF7
  5
9D7B
331
CCF8
  5
9D7F
331
CCF9
  5
9D80
331
CCFA
  5
9D81
331
CCFB
  5
9D9E
331
CCFC
  5
9D9F
331
CCFD
  5
9DA0
331
CCFE
  5
9DA1
331
CCFF
  5
9DA2
331
CD00
  5
9DA3
331
CD01
  5
9DA4
331
CD02
  5
9DAA
331
CD03
  5
9DAB
331
CD04
  5
9DAC
331
CD05
  5
9DAD
331
CD06
  5
9DAE
331
CD07
  5
9DAF
331
CD08
  5
9DB0
331
CD09
  5
9DB7
331
CD0A
  5
9DB8
331
CD0B
  5
9DBC
331
CD0C
  5
9DBD
331
CD0D
  5
9DBE
331
CD0E
  5
9DBF
331
CD0F
  5
9DC0
331
CD10
  5
9DD8
331
CD11
  5
9DD9
331
CD12
  5
9DDA
331
CD13
  5
9DDB
331
CD14
  5
9DDC
331
CD15
  5
9DDD
331
CD16
  5
9DDE
331
CD17
  5
9DE2
331
CD18
  5
9DE3
331
CD19
  5
9DE4
331
CD1A
  5
9DE5
331
CD1B
  5
9DE6
331
CD1C
  5
9DE7
331
CD1D
  5
9DE8
331
CD1E
  5
AB8E
331
CD1F
  5
AB92
331
CD20
  5
AB93
331
CD21
  5
AB94
331
CD22
  5
AB95
331
CD23
  5
AB96
331
CD24
  5
AB97
331
CD25
  5
AC5E
331
CD26
  5
AC5F
331
CD27
  5
AC60
331
CD28
  5
AC64
331
CD29
  5
AC65
331
CD2A
  5
AC66
331
CD2B
  5
AC6C
331
CD2C
  5
AC6D
331
CD2D
  5
AC6E
331
CD2E
  5
CCD1
331
CD2F
  5
CCD2
331
CD30
  5
CCD3
  0
GROUP
  5
BE76
102
{ACAD_REACTORS
330
D
102
}
330
D
100
AcDbGroup
300

 70
     1
 71
     1
  0
GROUP
  5
BE86
102
{ACAD_REACTORS
330
D
102
}
330
D
100
AcDbGroup
300

 70
     1
 71
     1
  0
GROUP
  5
C133
102
{ACAD_REACTORS
330
D
102
}
330
D
100
AcDbGroup
300

 70
     1
 71
     1
  0
GROUP
  5
C134
102
{ACAD_REACTORS
330
D
102
}
330
D
100
AcDbGroup
300

 70
     1
 71
     1
  0
MATERIAL
  5
9B18
102
{ACAD_REACTORS
330
658F
102
}
102
{ACAD_XDICTIONARY
360
CECE
102
}
330
658F
100
AcDbMaterial
  1
BYBLOCK
 72
     0
 73
     2
 43
0.0208333333333333
 43
0.0
 43
0.0
 43
0.0
 43
0.0
 43
0.0208333333333333
 43
0.0
 43
0.0
 43
0.0
 43
0.0
 43
1.0
 43
0.0
 43
0.0
 43
0.0
 43
0.0
 43
1.0
 77
     0
 78
     2
 47
0.0208333333333333
 47
0.0
 47
0.0
 47
0.0
 47
0.0
 47
0.0208333333333333
 47
0.0
 47
0.0
 47
0.0
 47
0.0
 47
1.0
 47
0.0
 47
0.0
 47
0.0
 47
0.0
 47
1.0
171
     0
172
     2
 49
0.0208333333333333
 49
0.0
 49
0.0
 49
0.0
 49
0.0
 49
0.0208333333333333
 49
0.0
 49
0.0
 49
0.0
 49
0.0
 49
1.0
 49
0.0
 49
0.0
 49
0.0
 49
0.0
 49
1.0
175
     0
176
     2
142
0.0208333333333333
142
0.0
142
0.0
142
0.0
142
0.0
142
0.0208333333333333
142
0.0
142
0.0
142
0.0
142
0.0
142
1.0
142
0.0
142
0.0
142
0.0
142
0.0
142
1.0
179
     0
270
     2
144
0.0208333333333333
144
0.0
144
0.0
144
0.0
144
0.0
144
0.0208333333333333
144
0.0
144
0.0
144
0.0
144
0.0
144
1.0
144
0.0
144
0.0
144
0.0
144
0.0
144
1.0
274
     2
147
0.0208333333333333
147
0.0
147
0.0
147
0.0
147
0.0
147
0.0208333333333333
147
0.0
147
0.0
147
0.0
147
0.0
147
1.0
147
0.0
147
0.0
147
0.0
147
0.0
147
1.0
  0
MATERIAL
  5
9B10
102
{ACAD_REACTORS
330
658F
102
}
102
{ACAD_XDICTIONARY
360
CED0
102
}
330
658F
100
AcDbMaterial
  1
BYLAYER
 72
     0
 73
     2
 43
0.0208333333333333
 43
0.0
 43
0.0
 43
0.0
 43
0.0
 43
0.0208333333333333
 43
0.0
 43
0.0
 43
0.0
 43
0.0
 43
1.0
 43
0.0
 43
0.0
 43
0.0
 43
0.0
 43
1.0
 77
     0
 78
     2
 47
0.0208333333333333
 47
0.0
 47
0.0
 47
0.0
 47
0.0
 47
0.0208333333333333
 47
0.0
 47
0.0
 47
0.0
 47
0.0
 47
1.0
 47
0.0
 47
0.0
 47
0.0
 47
0.0
 47
1.0
171
     0
172
     2
 49
0.0208333333333333
 49
0.0
 49
0.0
 49
0.0
 49
0.0
 49
0.0208333333333333
 49
0.0
 49
0.0
 49
0.0
 49
0.0
 49
1.0
 49
0.0
 49
0.0
 49
0.0
 49
0.0
 49
1.0
175
     0
176
     2
142
0.0208333333333333
142
0.0
142
0.0
142
0.0
142
0.0
142
0.0208333333333333
142
0.0
142
0.0
142
0.0
142
0.0
142
1.0
142
0.0
142
0.0
142
0.0
142
0.0
142
1.0
179
     0
270
     2
144
0.0208333333333333
144
0.0
144
0.0
144
0.0
144
0.0
144
0.0208333333333333
144
0.0
144
0.0
144
0.0
144
0.0
144
1.0
144
0.0
144
0.0
144
0.0
144
0.0
144
1.0
274
     2
147
0.0208333333333333
147
0.0
147
0.0
147
0.0
147
0.0
147
0.0208333333333333
147
0.0
147
0.0
147
0.0
147
0.0
147
1.0
147
0.0
147
0.0
147
0.0
147
0.0
147
1.0
  0
MATERIAL
  5
93AD
102
{ACAD_REACTORS
330
658F
102
}
102
{ACAD_XDICTIONARY
360
CED2
102
}
330
658F
100
AcDbMaterial
  1
GLOBAL
 72
     0
 73
     2
 43
0.0208333333333333
 43
0.0
 43
0.0
 43
0.0
 43
0.0
 43
0.0208333333333333
 43
0.0
 43
0.0
 43
0.0
 43
0.0
 43
1.0
 43
0.0
 43
0.0
 43
0.0
 43
0.0
 43
1.0
 77
     0
 78
     2
 47
0.0208333333333333
 47
0.0
 47
0.0
 47
0.0
 47
0.0
 47
0.0208333333333333
 47
0.0
 47
0.0
 47
0.0
 47
0.0
 47
1.0
 47
0.0
 47
0.0
 47
0.0
 47
0.0
 47
1.0
171
     0
172
     2
 49
0.0208333333333333
 49
0.0
 49
0.0
 49
0.0
 49
0.0
 49
0.0208333333333333
 49
0.0
 49
0.0
 49
0.0
 49
0.0
 49
1.0
 49
0.0
 49
0.0
 49
0.0
 49
0.0
 49
1.0
175
     0
176
     2
142
0.0208333333333333
142
0.0
142
0.0
142
0.0
142
0.0
142
0.0208333333333333
142
0.0
142
0.0
142
0.0
142
0.0
142
1.0
142
0.0
142
0.0
142
0.0
142
0.0
142
1.0
179
     0
270
     2
144
0.0208333333333333
144
0.0
144
0.0
144
0.0
144
0.0
144
0.0208333333333333
144
0.0
144
0.0
144
0.0
144
0.0
144
1.0
144
0.0
144
0.0
144
0.0
144
0.0
144
1.0
274
     2
147
0.0208333333333333
147
0.0
147
0.0
147
0.0
147
0.0
147
0.0208333333333333
147
0.0
147
0.0
147
0.0
147
0.0
147
1.0
147
0.0
147
0.0
147
0.0
147
0.0
147
1.0
  0
ACAD_PROXY_OBJECT
  5
9B54
102
{ACAD_REACTORS
330
9B53
102
}
330
9B53
100
AcDbZombieObject
 90
      499
 91
      513
 93
      610
310
40901902A4063FBFFFFFE000000000000002040AD7A3703D0AD73F4214DD185B99185C990000000000000104090141901A00000000000004100000000000000041025764000000000000300FC0
340
12
340
0
340
F
340
0
 94
        0
1001
ACAD_MLEADERVER
1070
     2
  0
MLINESTYLE
  5
1C
102
{ACAD_REACTORS
330
1B
102
}
330
1B
100
AcDbMlineStyle
  2
STANDARD
 70
     0
  3

 62
   256
 51
90.0
 52
90.0
 71
     2
 49
0.5
 62
   256
  6
BYLAYER
 49
-0.5
 62
   256
  6
BYLAYER
  0
ACAD_PROXY_OBJECT
  5
9B32
102
{ACAD_REACTORS
330
9B31
102
}
330
9B31
100
AcDbZombieObject
 90
      499
 91
      512
 93
       41
310
903313A31580
  0
ACAD_PROXY_OBJECT
  5
9B33
102
{ACAD_REACTORS
330
9B31
102
}
330
9B31
100
AcDbZombieObject
 90
      499
 91
      512
 93
      105
310
903313A324000000000000004000
  0
ACAD_PROXY_OBJECT
  5
9B34
102
{ACAD_REACTORS
330
9B31
102
}
330
9B31
100
AcDbZombieObject
 90
      499
 91
      512
 93
      105
310
903313A344000000000000104000
  0
ACAD_PROXY_OBJECT
  5
9B35
102
{ACAD_REACTORS
330
9B31
102
}
330
9B31
100
AcDbZombieObject
 90
      499
 91
      512
 93
      105
310
903313A354000000000000144000
  0
ACAD_PROXY_OBJECT
  5
9B36
102
{ACAD_REACTORS
330
9B31
102
}
330
9B31
100
AcDbZombieObject
 90
      499
 91
      512
 93
      105
310
903313A384000000000000204000
  0
ACAD_PROXY_OBJECT
  5
9B37
102
{ACAD_REACTORS
330
9B31
102
}
330
9B31
100
AcDbZombieObject
 90
      499
 91
      512
 93
      113
310
904313A31304000000000000244000
  0
ACAD_PROXY_OBJECT
  5
9B38
102
{ACAD_REACTORS
330
9B31
102
}
330
9B31
100
AcDbZombieObject
 90
      499
 91
      512
 93
      113
310
904313A31364000000000000304000
  0
ACAD_PROXY_OBJECT
  5
9B39
102
{ACAD_REACTORS
330
9B31
102
}
330
9B31
100
AcDbZombieObject
 90
      499
 91
      512
 93
      113
310
904313A32304000000000000344000
  0
ACAD_PROXY_OBJECT
  5
9B3A
102
{ACAD_REACTORS
330
9B31
102
}
330
9B31
100
AcDbZombieObject
 90
      499
 91
      512
 93
      113
310
904313A333040000000000003E4000
  0
ACAD_PROXY_OBJECT
  5
9B3B
102
{ACAD_REACTORS
330
9B31
102
}
330
9B31
100
AcDbZombieObject
 90
      499
 91
      512
 93
      113
310
904313A34304000000000000444000
  0
ACAD_PROXY_OBJECT
  5
9B3C
102
{ACAD_REACTORS
330
9B31
102
}
330
9B31
100
AcDbZombieObject
 90
      499
 91
      512
 93
      113
310
904313A35304000000000000494000
  0
ACAD_PROXY_OBJECT
  5
9B3D
102
{ACAD_REACTORS
330
9B31
102
}
330
9B31
100
AcDbZombieObject
 90
      499
 91
      512
 93
      121
310
905313A3130304000000000000594000
  0
ACAD_PROXY_OBJECT
  5
9B3E
102
{ACAD_REACTORS
330
9B31
102
}
330
9B31
100
AcDbZombieObject
 90
      499
 91
      512
 93
      105
310
903323A310000000000000010100
  0
ACAD_PROXY_OBJECT
  5
9B3F
102
{ACAD_REACTORS
330
9B31
102
}
330
9B31
100
AcDbZombieObject
 90
      499
 91
      512
 93
      105
310
903343A310000000000000410100
  0
ACAD_PROXY_OBJECT
  5
9B40
102
{ACAD_REACTORS
330
9B31
102
}
330
9B31
100
AcDbZombieObject
 90
      499
 91
      512
 93
      105
310
903383A310000000000000810100
  0
ACAD_PROXY_OBJECT
  5
9B41
102
{ACAD_REACTORS
330
9B31
102
}
330
9B31
100
AcDbZombieObject
 90
      499
 91
      512
 93
      113
310
90431303A310000000000000910100
  0
ACAD_PROXY_OBJECT
  5
9B42
102
{ACAD_REACTORS
330
9B31
102
}
330
9B31
100
AcDbZombieObject
 90
      499
 91
      512
 93
      121
310
9053130303A310000000000001650100
  0
ACAD_PROXY_OBJECT
  5
9B43
102
{ACAD_REACTORS
330
9B31
102
}
330
9B31
100
AcDbZombieObject
 90
      499
 91
      512
 93
      257
310
90E312F31323822203D2031272D3022000000000000200FC000000000000284000
  0
ACAD_PROXY_OBJECT
  5
9B44
102
{ACAD_REACTORS
330
9B31
102
}
330
9B31
100
AcDbZombieObject
 90
      499
 91
      512
 93
      249
310
90D312F363422203D2031272D3022000000000000240FC000000000000284000
  0
ACAD_PROXY_OBJECT
  5
9B45
102
{ACAD_REACTORS
330
9B31
102
}
330
9B31
100
AcDbZombieObject
 90
      499
 91
      512
 93
      249
310
90D312F333222203D2031272D3022000000000000280FC000000000000284000
  0
ACAD_PROXY_OBJECT
  5
9B46
102
{ACAD_REACTORS
330
9B31
102
}
330
9B31
100
AcDbZombieObject
 90
      499
 91
      512
 93
      249
310
90D312F313622203D2031272D30220000000000002C0FC000000000000284000
  0
ACAD_PROXY_OBJECT
  5
9B47
102
{ACAD_REACTORS
330
9B31
102
}
330
9B31
100
AcDbZombieObject
 90
      499
 91
      512
 93
      249
310
90D332F333222203D2031272D30220000000000002E0FC000000000000284000
  0
ACAD_PROXY_OBJECT
  5
9B48
102
{ACAD_REACTORS
330
9B31
102
}
330
9B31
100
AcDbZombieObject
 90
      499
 91
      512
 93
      241
310
90C312F3822203D2031272D3022000000000000300FC000000000000284000
  0
ACAD_PROXY_OBJECT
  5
9B49
102
{ACAD_REACTORS
330
9B31
102
}
330
9B31
100
AcDbZombieObject
 90
      499
 91
      512
 93
      249
310
90D332F313622203D2031272D3022000000000000320FC000000000000284000
  0
ACAD_PROXY_OBJECT
  5
9B4A
102
{ACAD_REACTORS
330
9B31
102
}
330
9B31
100
AcDbZombieObject
 90
      499
 91
      512
 93
      241
310
90C312F3422203D2031272D3022000000000000340FC000000000000284000
  0
ACAD_PROXY_OBJECT
  5
9B4B
102
{ACAD_REACTORS
330
9B31
102
}
330
9B31
100
AcDbZombieObject
 90
      499
 91
      512
 93
      241
310
90C332F3822203D2031272D3022000000000000360FC000000000000284000
  0
ACAD_PROXY_OBJECT
  5
9B4C
102
{ACAD_REACTORS
330
9B31
102
}
330
9B31
100
AcDbZombieObject
 90
      499
 91
      512
 93
      241
310
90C312F3222203D2031272D3022000000000000380FC000000000000284000
  0
ACAD_PROXY_OBJECT
  5
9B4D
102
{ACAD_REACTORS
330
9B31
102
}
330
9B31
100
AcDbZombieObject
 90
      499
 91
      512
 93
      241
310
90C332F3422203D2031272D30220000000000003A0FC000000000000284000
  0
ACAD_PROXY_OBJECT
  5
9B4E
102
{ACAD_REACTORS
330
9B31
102
}
330
9B31
100
AcDbZombieObject
 90
      499
 91
      512
 93
      161
310
90A3122203D2031272D30224000000000000284000
  0
ACAD_PROXY_OBJECT
  5
9B4F
102
{ACAD_REACTORS
330
9B31
102
}
330
9B31
100
AcDbZombieObject
 90
      499
 91
      512
 93
      257
310
90E312D312F3222203D2031272D30220000000000003E0FC000000000000284000
  0
ACAD_PROXY_OBJECT
  5
9B50
102
{ACAD_REACTORS
330
9B31
102
}
330
9B31
100
AcDbZombieObject
 90
      499
 91
      512
 93
      225
310
90A3322203D2031272D302200000000000002100000000000000284000
  0
ACAD_PROXY_OBJECT
  5
9B51
102
{ACAD_REACTORS
330
9B31
102
}
330
9B31
100
AcDbZombieObject
 90
      499
 91
      512
 93
      225
310
90A3622203D2031272D302200000000000006100000000000000284000
  0
ACAD_PROXY_OBJECT
  5
9B52
102
{ACAD_REACTORS
330
9B31
102
}
330
9B31
100
AcDbZombieObject
 90
      499
 91
      512
 93
      249
310
90D31272D3022203D2031272D30220000000000000A100000000000000284000
  0
ACAD_PROXY_OBJECT
  5
9B26
102
{ACAD_REACTORS
330
9B20
102
}
330
9B20
100
AcDbZombieObject
 90
      499
 91
      511
 93
      436
310
42CC9915DA5C99599C985B595049028333333333333E3BF0000000000000FB0107901411070040501600405405064090741402480A0340
1001
ACAD
1000
AcDbSavedByObjectVersion
1070
     0
  0
ACAD_PROXY_OBJECT
  5
9B28
102
{ACAD_REACTORS
330
9B20
102
}
330
9B20
100
AcDbZombieObject
 90
      499
 91
      511
 93
      500
310
424CD108121A5919195B90640502408333333333333E3BF0000000000000FB01079024090700405020000000000001110200405405064090740C02480A0340
1001
ACAD
1000
AcDbSavedByObjectVersion
1070
     0
  0
ACAD_PROXY_OBJECT
  5
9B27
102
{ACAD_REACTORS
330
9B20
102
}
330
9B20
100
AcDbZombieObject
 90
      499
 91
      511
 93
      436
310
42CCD915DA5C99599C985B595059028333333333333E3BF0000000000000FB0107901411070040501600405405064090741402480A0340
1001
ACAD
1000
AcDbSavedByObjectVersion
1070
     0
  0
ACAD_PROXY_OBJECT
  5
9B25
102
{ACAD_REACTORS
330
9B20
102
}
330
9B20
100
AcDbZombieObject
 90
      499
 91
      511
 93
      388
310
4150985CDA58D07406404333333333333E3BF0000000000000FB0107A41107004050150841D405064090741402480A0350
1001
ACAD
1000
AcDbSavedByObjectVersion
1070
     0
  0
ACAD_PROXY_OBJECT
  5
9B2C
102
{ACAD_REACTORS
330
9B20
102
}
330
9B20
100
AcDbZombieObject
 90
      499
 91
      511
 93
      428
310
42109C9A59DA1D195B90C409028333333333333E3BF0000000000000FB010790141107004050150841D405064090741402480A029950
1001
ACAD
1000
AcDbSavedByObjectVersion
1070
     0
  0
ACAD_PROXY_OBJECT
  5
9B30
102
{ACAD_REACTORS
330
9B20
102
}
330
9B20
100
AcDbZombieObject
 90
      499
 91
      511
 93
      452
310
42D0DBDB1BDC90DA185B99D95104090240C333333333333E3BF0000000000000FB0108901411070040501508421405064090741402480A0350
1001
ACAD
1000
AcDbSavedByObjectVersion
1070
     0
  0
ACAD_PROXY_OBJECT
  5
9B29
102
{ACAD_REACTORS
330
9B20
102
}
330
9B20
100
AcDbZombieObject
 90
      499
 91
      511
 93
      500
310
4290DBDB98D95C1D1D585B10940D028333333333333E3BF0000000000000FB0107902409070040501000000000000111010841D405064090740C02480A0340
1001
ACAD
1000
AcDbSavedByObjectVersion
1070
     0
  0
ACAD_PROXY_OBJECT
  5
9B2B
102
{ACAD_REACTORS
330
9B20
102
}
330
9B20
100
AcDbZombieObject
 90
      499
 91
      511
 93
      412
310
40D11A5B50B409028333333333333E3BF0000000000000FB010790141107004050150841D405064090741402480A02677FFFFFD0
1001
ACAD
1000
AcDbSavedByObjectVersion
1070
     0
  0
ACAD_PROXY_OBJECT
  5
AD1A
102
{ACAD_REACTORS
330
9B20
102
}
330
9B20
100
AcDbZombieObject
 90
      499
 91
      511
 93
      452
310
43115919D950DBDB1BDC93D999916409028333333333333E3BF0000000000000FB010790141107004050150841D405064090741402480A0350
1001
ACAD
1000
AcDbSavedByObjectVersion
1070
     0
  0
ACAD_PROXY_OBJECT
  5
9B2F
102
{ACAD_REACTORS
330
9B20
102
}
330
9B20
100
AcDbZombieObject
 90
      499
 91
      511
 93
      444
310
42D19858D95C185D1D195C9B90F409028333333333333E3BF0000000000000FB010790141107004050150841D405064090741402480A0350
1001
ACAD
1000
AcDbSavedByObjectVersion
1070
     0
  0
ACAD_PROXY_OBJECT
  5
9B21
102
{ACAD_REACTORS
330
9B20
102
}
330
9B20
100
AcDbZombieObject
 90
      499
 91
      511
 93
      388
310
41119B185D240901404333333333333E3BF0000000000000F9010740A41107004050150841D405064090741402480A1B50
1001
ACAD
1000
AcDbSavedByObjectVersion
1070
     0
  0
ACAD_PROXY_OBJECT
  5
9B22
102
{ACAD_REACTORS
330
9B20
102
}
330
9B20
100
AcDbZombieObject
 90
      499
 91
      511
 93
      476
310
43519B185D15DA5D1A115919D95CD0140901404333333333333E3BF0000000000000F9010740901411070040501600405405064090741402480A1B50
1001
ACAD
1000
AcDbSavedByObjectVersion
1070
     0
  0
ACAD_PROXY_OBJECT
  5
9B23
102
{ACAD_REACTORS
330
9B20
102
}
330
9B20
100
AcDbZombieObject
 90
      499
 91
      511
 93
      412
310
41D1DBDD5C985D5910240902404333333333333E3BF0000000000000F9010740A411070040501641D405064090741402480A1B50
1001
ACAD
1000
AcDbSavedByObjectVersion
1070
     0
  0
ACAD_PROXY_OBJECT
  5
9B24
102
{ACAD_REACTORS
330
9B20
102
}
330
9B20
100
AcDbZombieObject
 90
      499
 91
      511
 93
      500
310
4411DBDD5C985D5915DA5D1A115919D95CD0340902404333333333333E3BF0000000000000F9010740901411070040501600405405064090741402480A1B50
1001
ACAD
1000
AcDbSavedByObjectVersion
1070
     0
  0
ACAD_PROXY_OBJECT
  5
AD12
102
{ACAD_REACTORS
330
9B20
102
}
330
9B20
100
AcDbZombieObject
 90
      499
 91
      511
 93
      476
310
41921A5919195B90640502408333333333333E3BF0000000000000FB01079024090700405020000000000001110200405405064090740C02480A0340
1001
ACAD
1000
AcDbSavedByObjectVersion
1070
     0
  0
ACAD_PROXY_OBJECT
  5
AD18
102
{ACAD_REACTORS
330
9B20
102
}
330
9B20
100
AcDbZombieObject
 90
      499
 91
      511
 93
      428
310
42529A5D1D195C93D999914409028333333333333E3BF0000000000000FB010790141107004050150A41D405064090741402480A0350
1001
ACAD
1000
AcDbSavedByObjectVersion
1070
     0
  0
ACAD_PROXY_OBJECT
  5
9B2E
102
{ACAD_REACTORS
330
9B20
102
}
330
9B20
100
AcDbZombieObject
 90
      499
 91
      511
 93
      444
310
42D31A5B995C185D1D195C9B90E409028333333333333E3BF0000000000000FB010790141107004050750841D405064090741402483A0350
1001
ACAD
1000
AcDbSavedByObjectVersion
1070
     0
  0
ACAD_PROXY_OBJECT
  5
CB4D
102
{ACAD_REACTORS
330
9B20
102
}
330
9B20
100
AcDbZombieObject
 90
      499
 91
      511
 93
      484
310
42135BD9195B1A5B99D0A409038333333333333E33F0000000000000F901074090290700405010000000000201990108421405064090741402480A1B40
1001
ACAD
1000
AcDbSavedByObjectVersion
1070
     0
  0
ACAD_PROXY_OBJECT
  5
AD19
102
{ACAD_REACTORS
330
9B20
102
}
330
9B20
100
AcDbZombieObject
 90
      499
 91
      511
 93
      444
310
42D3DD995C9A185B99D3D999915409028333333333333E3BF0000000000000FB010790141107004050150941D405064090741402480A0350
1001
ACAD
1000
AcDbSavedByObjectVersion
1070
     0
  0
ACAD_PROXY_OBJECT
  5
9B2A
102
{ACAD_REACTORS
330
9B20
102
}
330
9B20
100
AcDbZombieObject
 90
      499
 91
      511
 93
      420
310
425499585B1A5CDD1A58D08409028333333333333E3BF0000000000000FB01079019070040501508421405064090741402480A1B40
1001
ACAD
1000
AcDbSavedByObjectVersion
1070
     0
  0
ACAD_PROXY_OBJECT
  5
AD17
102
{ACAD_REACTORS
330
9B20
102
}
330
9B20
100
AcDbZombieObject
 90
      499
 91
      511
 93
      420
310
4194DA1859195911B40902404333333333333E3BF0000000000000F9010740A41107004050150800405405064090840C02480A0B40
1001
ACAD
1000
AcDbSavedByObjectVersion
1070
     0
  0
ACAD_PROXY_OBJECT
  5
AD16
102
{ACAD_REACTORS
330
9B20
102
}
330
9B20
100
AcDbZombieObject
 90
      499
 91
      511
 93
      516
310
4454DA18591959081DDA5D1A08195919D95CD1A40902404333333333333E3BF0000000000000F901074090142907004050250800405405064090740C02480A0B40
1001
ACAD
1000
AcDbSavedByObjectVersion
1070
     0
  0
ACAD_PROXY_OBJECT
  5
AD13
102
{ACAD_REACTORS
330
9B20
102
}
330
9B20
100
AcDbZombieObject
 90
      499
 91
      511
 93
      532
310
4394DA1859195CC81BD98811DC985E5174090240C333333333333E3BF0000000000000FB01079024090741D01000000000000111010841D405064090740C02480A0340
1001
ACAD
1000
AcDbSavedByObjectVersion
1070
     0
  0
ACAD_PROXY_OBJECT
  5
AD14
102
{ACAD_REACTORS
330
9B20
102
}
330
9B20
100
AcDbZombieObject
 90
      499
 91
      511
 93
      476
310
41D4DAD95D18DA1E51840502408333333333333E3BF0000000000000FB01079024090741D01000000000000111010B41D405064090741802480A0340
1001
ACAD
1000
AcDbSavedByObjectVersion
1070
     0
  0
ACAD_PROXY_OBJECT
  5
9B2D
102
{ACAD_REACTORS
330
9B20
102
}
330
9B20
100
AcDbZombieObject
 90
      499
 91
      511
 93
      412
310
41D51A1A58DAD95B90D409028333333333333E3BF0000000000000FB010790141107004050150C41D405064090741402480A0350
1001
ACAD
1000
AcDbSavedByObjectVersion
1070
     0
  0
ACAD_PROXY_OBJECT
  5
AD11
102
{ACAD_REACTORS
330
9B20
102
}
330
9B20
100
AcDbZombieObject
 90
      499
 91
      511
 93
      420
310
4255DA5C99599C985B595059028333333333333E3BF0000000000000FB0107901411070040501600405405064090740C02480A0340
1001
ACAD
1000
AcDbSavedByObjectVersion
1070
     0
  0
ACAD_PROXY_OBJECT
  5
AD15
102
{ACAD_REACTORS
330
9B20
102
}
330
9B20
100
AcDbZombieObject
 90
      499
 91
      511
 93
      404
310
41560B54985E51940902404000000000000E03F0000000000000FB010740501907004050150841D405064090740C02480A1B40
1001
ACAD
1000
AcDbSavedByObjectVersion
1070
     0
  0
XRECORD
  5
CD32
102
{ACAD_REACTORS
330
CD31
102
}
330
CD31
100
AcDbXrecord
340
6590
  0
XRECORD
  5
CD33
102
{ACAD_REACTORS
330
CD31
102
}
330
CD31
100
AcDbXrecord
340
658F
  0
DICTIONARYVAR
  5
9BA5
102
{ACAD_REACTORS
330
2739
102
}
330
2739
100
DictionaryVariables
280
     0
  1
1:1
  0
DICTIONARYVAR
  5
9BA4
102
{ACAD_REACTORS
330
2739
102
}
330
2739
100
DictionaryVariables
280
     0
  1
Standard
  0
DICTIONARYVAR
  5
8076
102
{ACAD_REACTORS
330
2739
102
}
330
2739
100
DictionaryVariables
280
     0
  1
Standard
  0
DICTIONARYVAR
  5
3FDC
102
{ACAD_REACTORS
330
2739
102
}
330
2739
100
DictionaryVariables
280
     0
  1
-1
  0
DICTIONARYVAR
  5
7B85
102
{ACAD_REACTORS
330
2739
102
}
330
2739
100
DictionaryVariables
280
     0
  1
2
  0
DICTIONARYVAR
  5
9155
102
{ACAD_REACTORS
330
2739
102
}
330
2739
100
DictionaryVariables
280
     0
  1
1
  0
DICTIONARYVAR
  5
9BA6
102
{ACAD_REACTORS
330
2739
102
}
330
2739
100
DictionaryVariables
280
     0
  1
0
  0
DICTIONARYVAR
  5
9159
102
{ACAD_REACTORS
330
2739
102
}
330
2739
100
DictionaryVariables
280
     0
  1
8
  0
DICTIONARYVAR
  5
9158
102
{ACAD_REACTORS
330
2739
102
}
330
2739
100
DictionaryVariables
280
     0
  1
1
  0
DICTIONARYVAR
  5
CBCC
102
{ACAD_REACTORS
330
2739
102
}
330
2739
100
DictionaryVariables
280
     0
  1
0
  0
DICTIONARYVAR
  5
9156
102
{ACAD_REACTORS
330
2739
102
}
330
2739
100
DictionaryVariables
280
     0
  1
8
  0
DICTIONARYVAR
  5
9157
102
{ACAD_REACTORS
330
2739
102
}
330
2739
100
DictionaryVariables
280
     0
  1
2
  0
DICTIONARYVAR
  5
7B86
102
{ACAD_REACTORS
330
2739
102
}
330
2739
100
DictionaryVariables
280
     0
  1

  0
DICTIONARYVAR
  5
273A
102
{ACAD_REACTORS
330
2739
102
}
330
2739
100
DictionaryVariables
280
     0
  1
96
  0
DICTIONARYVAR
  5
CB4C
102
{ACAD_REACTORS
330
2739
102
}
330
2739
100
DictionaryVariables
280
     0
  1
2
  0
DICTIONARY
  5
CECE
330
9B18
100
AcDbDictionary
  3
ACAD_XREC_ROUNDTRIP
360
CECF
1001
ACAD
1000
TREAT_AS_HARD
1070
     1
  0
DICTIONARY
  5
CED0
330
9B10
100
AcDbDictionary
  3
ACAD_XREC_ROUNDTRIP
360
CED1
1001
ACAD
1000
TREAT_AS_HARD
1070
     1
  0
DICTIONARY
  5
CED2
330
93AD
100
AcDbDictionary
  3
ACAD_XREC_ROUNDTRIP
360
CED3
1001
ACAD
1000
TREAT_AS_HARD
1070
     1
  0
XRECORD
  5
CECF
102
{ACAD_REACTORS
330
CECE
102
}
330
CECE
100
AcDbXrecord
102
MATERIAL
148
0.0
149
0.0
149
0.0
 93
        0
 94
      127
282
     0
 72
     0
 77
     0
171
     0
175
     0
179
     0
273
     0
  0
XRECORD
  5
CED1
102
{ACAD_REACTORS
330
CED0
102
}
330
CED0
100
AcDbXrecord
102
MATERIAL
148
0.0
149
0.0
149
0.0
 93
        0
 94
      127
282
     0
 72
     0
 77
     0
171
     0
175
     0
179
     0
273
     0
  0
XRECORD
  5
CED3
102
{ACAD_REACTORS
330
CED2
102
}
330
CED2
100
AcDbXrecord
102
MATERIAL
148
0.0
149
0.0
149
0.0
 93
        0
 94
      127
282
     0
 72
     0
 77
     0
171
     0
175
     0
179
     0
273
     0
  0
ENDSEC
  0
EOF
