  0
SECTION
  2
HEADER
  9
$ACADVER
  1
AC1012
  9
$DWGCODEPAGE
  3
ansi_932
  9
$INSBASE
 10
0.0
 20
0.0
 30
0.0
  9
$EXTMIN
 10
460.4425278925563
 20
-763.4216086932412
 30
-0.0000000000001137
  9
$EXTMAX
 10
792.6498449806672
 20
-588.0722177338346
 30
0.0000000000563676
  9
$LIMMIN
 10
0.0
 20
0.0
  9
$LIMMAX
 10
12.0
 20
9.0
  9
$ORTHOMODE
 70
     0
  9
$REGENMODE
 70
     1
  9
$FILLMODE
 70
     1
  9
$QTEXTMODE
 70
     0
  9
$MIRRTEXT
 70
     0
  9
$DRAGMODE
 70
     2
  9
$LTSCALE
 40
0.5
  9
$OSMODE
 70
 16383
  9
$ATTMODE
 70
     1
  9
$TEXTSIZE
 40
4.0
  9
$TRACEWID
 40
0.05
  9
$TEXTSTYLE
  7
STANDARD
  9
$CLAYER
  8
1TEXT
  9
$CELTYPE
  6
BYLAYER
  9
$CECOLOR
 62
   256
  9
$CELTSCALE
 40
1.0
  9
$DELOBJ
 70
     1
  9
$DISPSILH
 70
     0
  9
$DIMSCALE
 40
1.0
  9
$DIMASZ
 40
2.0
  9
$DIMEXO
 40
0.0
  9
$DIMDLI
 40
7.0
  9
$DIMRND
 40
0.0
  9
$DIMDLE
 40
0.0
  9
$DIMEXE
 40
1.0
  9
$DIMTP
 40
0.0
  9
$DIMTM
 40
0.0
  9
$DIMTXT
 40
3.5
  9
$DIMCEN
 40
0.0
  9
$DIMTSZ
 40
0.0
  9
$DIMTOL
 70
     0
  9
$DIMLIM
 70
     0
  9
$DIMTIH
 70
     0
  9
$DIMTOH
 70
     0
  9
$DIMSE1
 70
     0
  9
$DIMSE2
 70
     0
  9
$DIMTAD
 70
     1
  9
$DIMZIN
 70
     8
  9
$DIMBLK
  1

  9
$DIMASO
 70
     1
  9
$DIMSHO
 70
     1
  9
$DIMPOST
  1
 
  9
$DIMAPOST
  1

  9
$DIMALT
 70
     0
  9
$DIMALTD
 70
     2
  9
$DIMALTF
 40
25.4
  9
$DIMLFAC
 40
1.0
  9
$DIMTOFL
 70
     1
  9
$DIMTVP
 40
0.0
  9
$DIMTIX
 70
     0
  9
$DIMSOXD
 70
     0
  9
$DIMSAH
 70
     1
  9
$DIMBLK1
  1
OPEN30
  9
$DIMBLK2
  1
OPEN30
  9
$DIMSTYLE
  2
NEWX10
  9
$DIMCLRD
 70
   256
  9
$DIMCLRE
 70
   256
  9
$DIMCLRT
 70
   201
  9
$DIMTFAC
 40
0.7
  9
$DIMGAP
 40
0.7
  9
$DIMJUST
 70
     0
  9
$DIMSD1
 70
     0
  9
$DIMSD2
 70
     0
  9
$DIMTOLJ
 70
     1
  9
$DIMTZIN
 70
     8
  9
$DIMALTZ
 70
     0
  9
$DIMALTTZ
 70
     0
  9
$DIMFIT
 70
     2
  9
$DIMUPT
 70
     0
  9
$DIMUNIT
 70
     2
  9
$DIMDEC
 70
     2
  9
$DIMTDEC
 70
     4
  9
$DIMALTU
 70
     2
  9
$DIMALTTD
 70
     2
  9
$DIMTXSTY
  7
STANDARD
  9
$DIMAUNIT
 70
     0
  9
$LUNITS
 70
     2
  9
$LUPREC
 70
     4
  9
$SKETCHINC
 40
0.1
  9
$FILLETRAD
 40
0.0
  9
$AUNITS
 70
     0
  9
$AUPREC
 70
     2
  9
$MENU
  1
acad
  9
$ELEVATION
 40
0.0
  9
$PELEVATION
 40
0.0
  9
$THICKNESS
 40
0.0
  9
$LIMCHECK
 70
     0
  9
$CHAMFERA
 40
0.0
  9
$CHAMFERB
 40
0.0
  9
$CHAMFERC
 40
0.0
  9
$CHAMFERD
 40
0.0
  9
$SKPOLY
 70
     0
  9
$TDCREATE
 40
2451024.579593021
  9
$TDUPDATE
 40
2458549.516028658
  9
$TDINDWG
 40
1.3557200231
  9
$TDUSRTIMER
 40
1.3557200231
  9
$USRTIMER
 70
     1
  9
$ANGBASE
 50
0.0
  9
$ANGDIR
 70
     0
  9
$PDMODE
 70
     0
  9
$PDSIZE
 40
0.0
  9
$PLINEWID
 40
0.0
  9
$COORDS
 70
     2
  9
$SPLFRAME
 70
     0
  9
$SPLINETYPE
 70
     6
  9
$SPLINESEGS
 70
     8
  9
$ATTDIA
 70
     0
  9
$ATTREQ
 70
     1
  9
$HANDLING
 70
     1
  9
$HANDSEED
  5
BED7
  9
$SURFTAB1
 70
     6
  9
$SURFTAB2
 70
     6
  9
$SURFTYPE
 70
     6
  9
$SURFU
 70
     6
  9
$SURFV
 70
     6
  9
$UCSNAME
  2

  9
$UCSORG
 10
0.0
 20
0.0
 30
0.0
  9
$UCSXDIR
 10
1.0
 20
0.0
 30
0.0
  9
$UCSYDIR
 10
0.0
 20
1.0
 30
0.0
  9
$PUCSNAME
  2

  9
$PUCSORG
 10
0.0
 20
0.0
 30
0.0
  9
$PUCSXDIR
 10
1.0
 20
0.0
 30
0.0
  9
$PUCSYDIR
 10
0.0
 20
1.0
 30
0.0
  9
$USERI1
 70
     0
  9
$USERI2
 70
     0
  9
$USERI3
 70
     0
  9
$USERI4
 70
     0
  9
$USERI5
 70
     0
  9
$USERR1
 40
0.0
  9
$USERR2
 40
0.0
  9
$USERR3
 40
0.0
  9
$USERR4
 40
0.0
  9
$USERR5
 40
21.0
  9
$WORLDVIEW
 70
     1
  9
$SHADEDGE
 70
     3
  9
$SHADEDIF
 70
    70
  9
$TILEMODE
 70
     1
  9
$MAXACTVP
 70
    48
  9
$PINSBASE
 10
0.0
 20
0.0
 30
0.0
  9
$PLIMCHECK
 70
     0
  9
$PEXTMIN
 10
1.000000000000000E+20
 20
1.000000000000000E+20
 30
1.000000000000000E+20
  9
$PEXTMAX
 10
-1.000000000000000E+20
 20
-1.000000000000000E+20
 30
-1.000000000000000E+20
  9
$PLIMMIN
 10
0.0
 20
0.0
  9
$PLIMMAX
 10
12.0
 20
9.0
  9
$UNITMODE
 70
     0
  9
$VISRETAIN
 70
     1
  9
$PLINEGEN
 70
     0
  9
$PSLTSCALE
 70
     1
  9
$TREEDEPTH
 70
  3020
  9
$PICKSTYLE
 70
     1
  9
$CMLSTYLE
  2
STANDARD
  9
$CMLJUST
 70
     0
  9
$CMLSCALE
 40
1.0
  9
$SAVEIMAGES
 70
     1
  0
ENDSEC
  0
SECTION
  2
CLASSES
  0
CLASS
  1
IDBUFFER
  2
AcDbIdBuffer
  3
ObjectDBX Classes
 90
    32768
280
     0
281
     0
  0
CLASS
  1
LWPOLYLINE
  2
AcDbPolyline
  3
ObjectDBX Classes
 90
    32768
280
     0
281
     1
  0
CLASS
  1
DICTIONARYVAR
  2
AcDbDictionaryVar
  3
ObjectDBX Classes
 90
        0
280
     0
281
     0
  0
CLASS
  1
HATCH
  2
AcDbHatch
  3
ObjectDBX Classes
 90
    32768
280
     0
281
     1
  0
CLASS
  1
ACDBDICTIONARYWDFLT
  2
AcDbDictionaryWithDefault
  3
ObjectDBX Classes
 90
    32768
280
     0
281
     0
  0
CLASS
  1
ACDBPLACEHOLDER
  2
AcDbPlaceHolder
  3
ObjectDBX Classes
 90
        0
280
     0
281
     0
  0
CLASS
  1
LAYOUT
  2
AcDbLayout
  3
ObjectDBX Classes
 90
        0
280
     0
281
     0
  0
CLASS
  1
TABLESTYLE
  2
AcDbTableStyle
  3
ObjectDBX Classes
 90
     4095
280
     0
281
     0
  0
CLASS
  1
SORTENTSTABLE
  2
AcDbSortentsTable
  3
ObjectDBX Classes
 90
    32768
280
     0
281
     0
  0
CLASS
  1
DIMASSOC
  2
AcDbDimAssoc
  3
"AcDbDimAssoc|Product Desc:     AcDim ARX App For Dimension|Company:          Autodesk, Inc.|WEB Address:      www.autodesk.com"
 90
        0
280
     0
281
     0
  0
CLASS
  1
MATERIAL
  2
AcDbMaterial
  3
ObjectDBX Classes
 90
     1153
280
     0
281
     0
  0
CLASS
  1
VISUALSTYLE
  2
AcDbVisualStyle
  3
ObjectDBX Classes
 90
     4095
280
     0
281
     0
  0
CLASS
  1
SCALE
  2
AcDbScale
  3
ObjectDBX Classes
 90
     1153
280
     0
281
     0
  0
CLASS
  1
MLEADERSTYLE
  2
AcDbMLeaderStyle
  3
ACDB_MLEADERSTYLE_CLASS
 90
     4095
280
     0
281
     0
  0
CLASS
  1
CELLSTYLEMAP
  2
AcDbCellStyleMap
  3
ObjectDBX Classes
 90
     1152
280
     0
281
     0
  0
CLASS
  1
SUN
  2
AcDbSun
  3
SCENEOE
 90
     1153
280
     0
281
     0
  0
CLASS
  1
XRECORD
  2
AcDbXrecord
  3
ObjectDBX Classes
 90
    32768
280
     0
281
     0
  0
ENDSEC
  0
SECTION
  2
TABLES
  0
TABLE
  2
VPORT
  5
8
330
0
100
AcDbSymbolTable
 70
     1
  0
VPORT
  5
9D09
330
8
100
AcDbSymbolTableRecord
100
AcDbViewportTableRecord
  2
*ACTIVE
 70
     0
 10
0.0
 20
0.0
 11
1.0
 21
1.0
 12
626.5461864366118
 22
-675.7469132135379
 13
0.0
 23
0.0
 14
1.0
 24
1.0
 15
0.0
 25
0.0
 16
0.0
 26
0.0
 36
1.0
 17
0.0
 27
0.0
 37
0.0
 40
197.8217899477006
 41
1.803066037735849
 42
50.0
 43
0.0
 44
0.0
 50
0.0
 51
0.0
 71
    16
 72
  1000
 73
     1
 74
     1
 75
     0
 76
     0
 77
     0
 78
     0
1001
ACAD_NAV_VCDISPLAY
1070
     3
  0
ENDTAB
  0
TABLE
  2
LTYPE
  5
5
330
0
100
AcDbSymbolTable
 70
     2
  0
LTYPE
  5
12
330
5
100
AcDbSymbolTableRecord
100
AcDbLinetypeTableRecord
  2
BYBLOCK
 70
     0
  3

 72
    65
 73
     0
 40
0.0
  0
LTYPE
  5
13
330
5
100
AcDbSymbolTableRecord
100
AcDbLinetypeTableRecord
  2
BYLAYER
 70
     0
  3

 72
    65
 73
     0
 40
0.0
  0
LTYPE
  5
14
330
5
100
AcDbSymbolTableRecord
100
AcDbLinetypeTableRecord
  2
CONTINUOUS
 70
     0
  3
Solid line
 72
    65
 73
     0
 40
0.0
  0
LTYPE
  5
1C04
330
5
100
AcDbSymbolTableRecord
100
AcDbLinetypeTableRecord
  2
CENTER2
 70
     0
  3
Center (.5x) ___ _ ___ _ ___ _ ___ _ ___ _ ___
 72
    65
 73
     4
 40
28.575
 49
19.05
 74
     0
 49
-3.175
 74
     0
 49
3.175
 74
     0
 49
-3.175
 74
     0
  0
ENDTAB
  0
TABLE
  2
LAYER
  5
2
102
{ACAD_XDICTIONARY
360
83EE
102
}
330
0
100
AcDbSymbolTable
 70
     6
  0
LAYER
  5
E
102
{ACAD_XDICTIONARY
360
9D7D
102
}
330
2
100
AcDbSymbolTableRecord
100
AcDbLayerTableRecord
  2
0
 70
     0
 62
     7
  6
CONTINUOUS
  0
LAYER
  5
1C0B
102
{ACAD_XDICTIONARY
360
9D7F
102
}
330
2
100
AcDbSymbolTableRecord
100
AcDbLayerTableRecord
  2
1CENTER
 70
     0
 62
     7
  6
CENTER2
  0
LAYER
  5
1C0C
102
{ACAD_XDICTIONARY
360
9D81
102
}
330
2
100
AcDbSymbolTableRecord
100
AcDbLayerTableRecord
  2
1DIM
 70
     0
 62
     7
  6
CONTINUOUS
  0
LAYER
  5
1C0E
102
{ACAD_XDICTIONARY
360
9D83
102
}
330
2
100
AcDbSymbolTableRecord
100
AcDbLayerTableRecord
  2
1TEXT
 70
     0
 62
     7
  6
CONTINUOUS
  0
LAYER
  5
37AE
102
{ACAD_XDICTIONARY
360
9D89
102
}
330
2
100
AcDbSymbolTableRecord
100
AcDbLayerTableRecord
  2
1HATCH
 70
     0
 62
     7
  6
CONTINUOUS
  0
LAYER
  5
9639
102
{ACAD_XDICTIONARY
360
963A
102
}
330
2
100
AcDbSymbolTableRecord
100
AcDbLayerTableRecord
  2
01
 70
     0
 62
     1
  6
CONTINUOUS
  0
ENDTAB
  0
TABLE
  2
STYLE
  5
3
330
0
100
AcDbSymbolTable
 70
     1
  0
STYLE
  5
F
330
3
100
AcDbSymbolTableRecord
100
AcDbTextStyleTableRecord
  2
STANDARD
 70
     0
 40
0.0
 41
1.0
 50
0.0
 71
     0
 42
4.0
  3
txt.shx
  4
extfont.shx
  0
ENDTAB
  0
TABLE
  2
VIEW
  5
6
330
0
100
AcDbSymbolTable
 70
     1
  0
VIEW
  5
2071
330
6
100
AcDbSymbolTableRecord
100
AcDbViewTableRecord
  2
A
 70
     0
 40
163.8886542118344
 10
23.75874513620715
 20
-310.5239119589886
 41
232.0683926202114
 11
0.0
 21
0.0
 31
1.0
 12
0.0
 22
0.0
 32
0.0
 42
50.0
 43
0.0
 44
0.0
 50
0.0
 71
     0
  0
ENDTAB
  0
TABLE
  2
UCS
  5
7
330
0
100
AcDbSymbolTable
 70
     0
  0
ENDTAB
  0
TABLE
  2
APPID
  5
9
330
0
100
AcDbSymbolTable
 70
    19
  0
APPID
  5
10
330
9
100
AcDbSymbolTableRecord
100
AcDbRegAppTableRecord
  2
ACAD
 70
     0
  0
APPID
  5
1BDB
330
9
100
AcDbSymbolTableRecord
100
AcDbRegAppTableRecord
  2
CONTENTBLOCKICON
 70
     0
  0
APPID
  5
1BDC
330
9
100
AcDbSymbolTableRecord
100
AcDbRegAppTableRecord
  2
CONTENTBLOCKDESCRIPTION
 70
     0
  0
APPID
  5
1BED
330
9
100
AcDbSymbolTableRecord
100
AcDbRegAppTableRecord
  2
CONTENTTABDATA
 70
     0
  0
APPID
  5
1BEE
330
9
100
AcDbSymbolTableRecord
100
AcDbRegAppTableRecord
  2
CONTENTCURRENTTAB
 70
     0
  0
APPID
  5
37BE
330
9
100
AcDbSymbolTableRecord
100
AcDbRegAppTableRecord
  2
DRAWINGVARIABLESXDATA
 70
     0
  0
APPID
  5
37BF
330
9
100
AcDbSymbolTableRecord
100
AcDbRegAppTableRecord
  2
CONTENTLONGBLOCKNAME
 70
     0
  0
APPID
  5
8492
330
9
100
AcDbSymbolTableRecord
100
AcDbRegAppTableRecord
  2
ACAD_DSTYLE_DIMTEXT_FILL
 70
     0
  0
APPID
  5
91C7
330
9
100
AcDbSymbolTableRecord
100
AcDbRegAppTableRecord
  2
ACAD_PSEXT
 70
     0
  0
APPID
  5
9D77
330
9
100
AcDbSymbolTableRecord
100
AcDbRegAppTableRecord
  2
ACAD_MLEADERVER
 70
     0
  0
APPID
  5
A8DF
330
9
100
AcDbSymbolTableRecord
100
AcDbRegAppTableRecord
  2
ACAD_NAV_VCDISPLAY
 70
     0
  0
APPID
  5
A966
330
9
100
AcDbSymbolTableRecord
100
AcDbRegAppTableRecord
  2
ACAD_EXEMPT_FROM_CAD_STAND
 70
     0
  0
APPID
  5
ABB5
330
9
100
AcDbSymbolTableRecord
100
AcDbRegAppTableRecord
  2
ACADANNOTATIVE
 70
     0
  0
APPID
  5
ABB6
330
9
100
AcDbSymbolTableRecord
100
AcDbRegAppTableRecord
  2
ACLAYERTOOLS
 70
     0
  0
APPID
  5
ABB7
330
9
100
AcDbSymbolTableRecord
100
AcDbRegAppTableRecord
  2
ACAD_DSTYLE_DIMJOGGED_JOGA
 70
     0
  0
APPID
  5
ABB8
330
9
100
AcDbSymbolTableRecord
100
AcDbRegAppTableRecord
  2
GRADIENTCOLOR1ACI
 70
     0
  0
APPID
  5
ABB9
330
9
100
AcDbSymbolTableRecord
100
AcDbRegAppTableRecord
  2
GRADIENTCOLOR2ACI
 70
     0
  0
APPID
  5
BA7C
330
9
100
AcDbSymbolTableRecord
100
AcDbRegAppTableRecord
  2
ACDBBLOCKREPETAG
 70
     0
  0
APPID
  5
BAF7
330
9
100
AcDbSymbolTableRecord
100
AcDbRegAppTableRecord
  2
ACAD_OBJECT_CHANGE_GUID
 70
     0
  0
ENDTAB
  0
TABLE
  2
DIMSTYLE
  5
A
330
0
100
AcDbSymbolTable
 70
     1
  0
DIMSTYLE
105
37CD
330
A
100
AcDbSymbolTableRecord
100
AcDbDimStyleTableRecord
  2
NEWX10
 70
     0
  3
 
  4

  5

  6
OPEN30
  7
OPEN30
 40
1.0
 41
2.0
 42
0.0
 43
7.0
 44
1.0
 45
0.0
 46
0.0
 47
0.0
 48
0.0
140
3.5
141
0.0
142
0.0
143
25.4
144
1.0
145
0.0
146
0.7
147
0.7
 71
     0
 72
     0
 73
     0
 74
     0
 75
     0
 76
     0
 77
     1
 78
     8
170
     0
171
     2
172
     1
173
     1
174
     0
175
     0
176
   256
177
   256
178
   201
179
     2
270
     2
271
     2
272
     4
273
     2
274
     2
340
F
275
     0
280
     0
281
     0
282
     0
283
     1
284
     8
285
     0
286
     0
287
     2
288
     0
  0
ENDTAB
  0
TABLE
  2
BLOCK_RECORD
  5
1
330
0
100
AcDbSymbolTable
 70
     8
  0
BLOCK_RECORD
  5
18
102
{ACAD_XDICTIONARY
360
B172
102
}
330
1
100
AcDbSymbolTableRecord
100
AcDbBlockTableRecord
  2
*MODEL_SPACE
  0
BLOCK_RECORD
  5
15
330
1
100
AcDbSymbolTableRecord
100
AcDbBlockTableRecord
  2
*PAPER_SPACE
  0
BLOCK_RECORD
  5
3853
330
1
100
AcDbSymbolTableRecord
100
AcDbBlockTableRecord
  2
_OPEN30
  0
BLOCK_RECORD
  5
B624
330
1
100
AcDbSymbolTableRecord
100
AcDbBlockTableRecord
  2
A3WAKUKAWAJUN2017_HYOUDAI_
  0
BLOCK_RECORD
  5
BD37
330
1
100
AcDbSymbolTableRecord
100
AcDbBlockTableRecord
  2
*X24
  0
BLOCK_RECORD
  5
BD85
330
1
100
AcDbSymbolTableRecord
100
AcDbBlockTableRecord
  2
*X25
  0
BLOCK_RECORD
  5
BDD7
330
1
100
AcDbSymbolTableRecord
100
AcDbBlockTableRecord
  2
*X26
  0
BLOCK_RECORD
  5
BE28
330
1
100
AcDbSymbolTableRecord
100
AcDbBlockTableRecord
  2
*X27
  0
BLOCK_RECORD
  5
BE65
330
1
100
AcDbSymbolTableRecord
100
AcDbBlockTableRecord
  2
*X28
  0
BLOCK_RECORD
  5
BEA5
330
1
100
AcDbSymbolTableRecord
100
AcDbBlockTableRecord
  2
*X29
  0
ENDTAB
  0
ENDSEC
  0
SECTION
  2
BLOCKS
  0
BLOCK
  5
19
330
18
100
AcDbEntity
  8
0
100
AcDbBlockBegin
  2
*MODEL_SPACE
 70
     0
 10
0.0
 20
0.0
 30
0.0
  3
*MODEL_SPACE
  1

  0
ENDBLK
  5
1A
330
18
100
AcDbEntity
  8
0
100
AcDbBlockEnd
  0
BLOCK
  5
16
330
15
100
AcDbEntity
 67
     1
  8
0
100
AcDbBlockBegin
  2
*PAPER_SPACE
 70
     0
 10
0.0
 20
0.0
 30
0.0
  3
*PAPER_SPACE
  1

  0
ENDBLK
  5
17
330
15
100
AcDbEntity
 67
     1
  8
0
100
AcDbBlockEnd
  0
BLOCK
  5
3857
330
3853
100
AcDbEntity
  8
0
100
AcDbBlockBegin
  2
_OPEN30
 70
     0
 10
0.0
 20
0.0
 30
0.0
  3
_OPEN30
  1

  0
LINE
  5
3854
330
3853
100
AcDbEntity
  8
0
  6
BYBLOCK
 62
     0
100
AcDbLine
 10
-1.0
 20
0.26794919
 30
0.0
 11
0.0
 21
0.0
 31
0.0
  0
LINE
  5
3855
330
3853
100
AcDbEntity
  8
0
  6
BYBLOCK
 62
     0
100
AcDbLine
 10
0.0
 20
0.0
 30
0.0
 11
-1.0
 21
-0.26794919
 31
0.0
  0
LINE
  5
3856
330
3853
100
AcDbEntity
  8
0
  6
BYBLOCK
 62
     0
100
AcDbLine
 10
0.0
 20
0.0
 30
0.0
 11
-1.0
 21
0.0
 31
0.0
  0
ENDBLK
  5
3858
330
3853
100
AcDbEntity
  8
0
100
AcDbBlockEnd
  0
BLOCK
  5
B625
330
B624
100
AcDbEntity
  8
0
100
AcDbBlockBegin
  2
A3WAKUKAWAJUN2017_HYOUDAI_
 70
     0
 10
0.0
 20
0.0
 30
0.0
  3
A3WAKUKAWAJUN2017_HYOUDAI_
  1

  0
LINE
  5
B626
330
B624
100
AcDbEntity
  8
0
100
AcDbLine
 10
13.26299999998673
 20
-0.0001000000000317
 30
0.0
 11
9.236999999990758
 21
8.999899999990987
 31
0.0
1001
ACAD
1000
ASC_BOUNDS
1002
{
1070
    19
1005
B667
1002
}
  0
LINE
  5
B627
330
B624
100
AcDbEntity
  8
0
100
AcDbLine
 10
5.657999999994331
 20
0.9999999999989768
 30
0.0
 11
9.236999999990758
 21
8.999999999991019
 31
0.0
1001
ACAD
1000
ASC_BOUNDS
1002
{
1070
    19
1005
B667
1002
}
  0
LINE
  5
B628
330
B624
100
AcDbEntity
  8
0
100
AcDbLine
 10
18.59199999998134
 20
-0.2368999999997641
 30
0.0
 11
16.46099999998353
 21
5.432899999994561
 31
0.0
1001
ACAD
1000
ASC_BOUNDS
1002
{
1070
    19
1005
B668
1002
}
  0
LINE
  5
B629
330
B624
100
AcDbEntity
  8
0
100
AcDbLine
 10
18.59199999998134
 20
-0.2368999999997641
 30
0.0
 11
22.38199999997767
 21
8.763099999991255
 31
0.0
1001
ACAD
1000
ASC_BOUNDS
1002
{
1070
    19
1005
B668
1002
}
  0
LINE
  5
B62A
330
B624
100
AcDbEntity
  8
0
100
AcDbLine
 10
14.32899999998563
 20
-0.2368999999997641
 30
0.0
 11
16.46099999998353
 21
5.432899999994561
 31
0.0
1001
ACAD
1000
ASC_BOUNDS
1002
{
1070
    19
1005
B668
1002
}
  0
LINE
  5
B62B
330
B624
100
AcDbEntity
  8
0
100
AcDbLine
 10
14.32899999998563
 20
-0.2368999999997641
 30
0.0
 11
10.53899999998941
 21
8.763099999991255
 31
0.0
1001
ACAD
1000
ASC_BOUNDS
1002
{
1070
    19
1005
B668
1002
}
  0
LINE
  5
B62C
330
B624
100
AcDbEntity
  8
0
100
AcDbLine
 10
19.53899999998043
 20
-0.0001000000000317
 30
0.0
 11
23.56599999997638
 21
8.999899999990987
 31
0.0
1001
ACAD
1000
ASC_BOUNDS
1002
{
1070
    19
1005
B669
1002
}
  0
LINE
  5
B62D
330
B624
100
AcDbEntity
  8
0
100
AcDbLine
 10
26.97358892824991
 20
1.383099999991202
 30
0.0
 11
23.56599999997638
 21
8.999899999990987
 31
0.0
1001
ACAD
1000
ASC_BOUNDS
1002
{
1070
    19
1005
B669
1002
}
  0
LINE
  5
B62E
330
B624
100
AcDbEntity
  8
0
100
AcDbLine
 10
5.657999999994331
 20
0.9999999999989768
 30
0.0
 11
3.181999999996833
 21
4.668599999995308
 31
0.0
1001
ACAD
1000
ASC_BOUNDS
1002
{
1070
    19
1005
B667
1002
}
  0
LINE
  5
B62F
330
B624
100
AcDbEntity
  8
0
100
AcDbLine
 10
4.617999999995391
 20
-0.0001000000000317
 30
0.0
 11
1.420999999998571
 21
4.736799999995242
 31
0.0
1001
ACAD
1000
ASC_BOUNDS
1002
{
1070
    19
1005
B667
1002
}
  0
LINE
  5
B630
330
B624
100
AcDbEntity
  8
0
100
AcDbLine
 10
1.420999999998571
 20
8.763099999991255
 30
0.0
 11
1.420999999998571
 21
0.0
 31
0.0
1001
ACAD
1000
ASC_BOUNDS
1002
{
1070
    19
1005
B66C
1002
}
  0
LINE
  5
B631
330
B624
100
AcDbEntity
  8
0
100
AcDbLine
 10
0.0
 20
8.763099999991255
 30
0.0
 11
0.0
 21
0.0
 31
0.0
1001
ACAD
1000
ASC_BOUNDS
1002
{
1070
    19
1005
B66C
1002
}
  0
LINE
  5
B632
330
B624
100
AcDbEntity
  8
0
100
AcDbLine
 10
6.766999999993232
 20
-0.0001000000000317
 30
0.0
 11
7.826999999992154
 21
2.368399999997621
 31
0.0
1001
ACAD
1000
ASC_BOUNDS
1002
{
1070
    19
1005
B667
1002
}
  0
LINE
  5
B633
330
B624
100
AcDbEntity
  8
0
100
AcDbLine
 10
0.0
 20
0.0
 30
0.0
 11
1.420999999998571
 21
0.0
 31
0.0
1001
ACAD
1000
ASC_BOUNDS
1002
{
1070
    19
1005
B66C
1002
}
  0
LINE
  5
B634
330
B624
100
AcDbEntity
  8
0
100
AcDbLine
 10
4.617999999995391
 20
0.0
 30
0.0
 11
6.766999999993232
 21
0.0
 31
0.0
1001
ACAD
1000
ASC_BOUNDS
1002
{
1070
    19
1005
B667
1002
}
  0
LINE
  5
B635
330
B624
100
AcDbEntity
  8
0
100
AcDbLine
 10
11.70599999998831
 20
-0.0001000000000317
 30
0.0
 11
10.64699999998936
 21
2.368399999997621
 31
0.0
1001
ACAD
1000
ASC_BOUNDS
1002
{
1070
    19
1005
B667
1002
}
  0
LINE
  5
B636
330
B624
100
AcDbEntity
  8
0
100
AcDbLine
 10
7.826999999992154
 20
2.368399999997621
 30
0.0
 11
10.64699999998936
 21
2.368399999997621
 31
0.0
1001
ACAD
1000
ASC_BOUNDS
1002
{
1070
    19
1005
B667
1002
}
  0
LINE
  5
B637
330
B624
100
AcDbEntity
  8
0
100
AcDbLine
 10
11.70599999998831
 20
0.0
 30
0.0
 11
13.26299999998673
 21
0.0
 31
0.0
1001
ACAD
1000
ASC_BOUNDS
1002
{
1070
    19
1005
B667
1002
}
  0
LINE
  5
B638
330
B624
100
AcDbEntity
  8
0
100
AcDbLine
 10
22.15599999997789
 20
2.368399999997621
 30
0.0
 11
24.97599999997499
 21
2.368399999997621
 31
0.0
1001
ACAD
1000
ASC_BOUNDS
1002
{
1070
    19
1005
B669
1002
}
  0
LINE
  5
B639
330
B624
100
AcDbEntity
  8
0
100
AcDbLine
 10
19.53899999998043
 20
0.0
 30
0.0
 11
21.09599999997886
 21
0.0
 31
0.0
1001
ACAD
1000
ASC_BOUNDS
1002
{
1070
    19
1005
B669
1002
}
  0
LINE
  5
B63A
330
B624
100
AcDbEntity
  8
0
100
AcDbLine
 10
21.09599999997886
 20
-0.0001000000000317
 30
0.0
 11
22.15599999997789
 21
2.368399999997621
 31
0.0
1001
ACAD
1000
ASC_BOUNDS
1002
{
1070
    19
1005
B669
1002
}
  0
LINE
  5
B63B
330
B624
100
AcDbEntity
  8
0
100
AcDbLine
 10
26.02015566812236
 20
0.0330999999912365
 30
0.0
 11
24.97599999997499
 21
2.368399999997621
 31
0.0
1001
ACAD
1000
ASC_BOUNDS
1002
{
1070
    19
1005
B669
1002
}
  0
LINE
  5
B63C
330
B624
100
AcDbEntity
  8
0
100
AcDbLine
 10
14.32399999998563
 20
3.315799999996671
 30
0.0
 11
16.46099999998353
 21
8.999899999990987
 31
0.0
1001
ACAD
1000
ASC_BOUNDS
1002
{
1070
    19
1005
B668
1002
}
  0
LINE
  5
B63D
330
B624
100
AcDbEntity
  8
0
100
AcDbLine
 10
6.432999999993513
 20
8.763099999991255
 30
0.0
 11
3.181999999996833
 21
4.668599999995308
 31
0.0
1001
ACAD
1000
ASC_BOUNDS
1002
{
1070
    19
1005
B667
1002
}
  0
LINE
  5
B63E
330
B624
100
AcDbEntity
  8
0
100
AcDbLine
 10
4.617999999995391
 20
8.763099999991255
 30
0.0
 11
1.420999999998571
 21
4.736799999995242
 31
0.0
1001
ACAD
1000
ASC_BOUNDS
1002
{
1070
    19
1005
B667
1002
}
  0
LINE
  5
B63F
330
B624
100
AcDbEntity
  8
0
100
AcDbLine
 10
0.0
 20
8.763099999991255
 30
0.0
 11
1.420999999998571
 21
8.763099999991255
 31
0.0
1001
ACAD
1000
ASC_BOUNDS
1002
{
1070
    19
1005
B66C
1002
}
  0
LINE
  5
B640
330
B624
100
AcDbEntity
  8
0
100
AcDbLine
 10
4.617999999995391
 20
8.763099999991255
 30
0.0
 11
6.432999999993513
 21
8.763099999991255
 31
0.0
1001
ACAD
1000
ASC_BOUNDS
1002
{
1070
    19
1005
B667
1002
}
  0
LINE
  5
B641
330
B624
100
AcDbEntity
  8
0
100
AcDbLine
 10
14.32399999998563
 20
3.315799999996671
 30
0.0
 11
12.02999999998792
 21
8.763099999991255
 31
0.0
1001
ACAD
1000
ASC_BOUNDS
1002
{
1070
    19
1005
B668
1002
}
  0
LINE
  5
B642
330
B624
100
AcDbEntity
  8
0
100
AcDbLine
 10
10.06399999998996
 20
3.670999999996297
 30
0.0
 11
9.236999999990758
 21
5.5200999999945
 31
0.0
1001
ACAD
1000
ASC_BOUNDS
1002
{
1070
    19
1005
B667
1002
}
  0
LINE
  5
B643
330
B624
100
AcDbEntity
  8
0
100
AcDbLine
 10
8.409999999991555
 20
3.670999999996297
 30
0.0
 11
9.236999999990758
 21
5.5200999999945
 31
0.0
1001
ACAD
1000
ASC_BOUNDS
1002
{
1070
    19
1005
B667
1002
}
  0
LINE
  5
B644
330
B624
100
AcDbEntity
  8
0
100
AcDbLine
 10
8.409999999991555
 20
3.670999999996297
 30
0.0
 11
10.06399999998996
 21
3.670999999996297
 31
0.0
1001
ACAD
1000
ASC_BOUNDS
1002
{
1070
    19
1005
B667
1002
}
  0
LINE
  5
B645
330
B624
100
AcDbEntity
  8
0
100
AcDbLine
 10
10.53899999998941
 20
8.763099999991255
 30
0.0
 11
12.02999999998792
 21
8.763099999991255
 31
0.0
1001
ACAD
1000
ASC_BOUNDS
1002
{
1070
    19
1005
B668
1002
}
  0
LINE
  5
B646
330
B624
100
AcDbEntity
  8
0
100
AcDbLine
 10
22.7389999999773
 20
3.670999999996297
 30
0.0
 11
23.56599999997638
 21
5.5200999999945
 31
0.0
1001
ACAD
1000
ASC_BOUNDS
1002
{
1070
    19
1005
B669
1002
}
  0
LINE
  5
B647
330
B624
100
AcDbEntity
  8
0
100
AcDbLine
 10
22.7389999999773
 20
3.670999999996297
 30
0.0
 11
24.39299999997559
 21
3.670999999996297
 31
0.0
1001
ACAD
1000
ASC_BOUNDS
1002
{
1070
    19
1005
B669
1002
}
  0
LINE
  5
B648
330
B624
100
AcDbEntity
  8
0
100
AcDbLine
 10
18.59799999998143
 20
3.315799999996671
 30
0.0
 11
20.89099999997916
 21
8.763099999991255
 31
0.0
1001
ACAD
1000
ASC_BOUNDS
1002
{
1070
    19
1005
B668
1002
}
  0
LINE
  5
B649
330
B624
100
AcDbEntity
  8
0
100
AcDbLine
 10
18.59799999998143
 20
3.315799999996671
 30
0.0
 11
16.46099999998353
 21
8.999899999990987
 31
0.0
1001
ACAD
1000
ASC_BOUNDS
1002
{
1070
    19
1005
B668
1002
}
  0
LINE
  5
B64A
330
B624
100
AcDbEntity
  8
0
100
AcDbLine
 10
20.89099999997916
 20
8.763099999991255
 30
0.0
 11
22.38199999997767
 21
8.763099999991255
 31
0.0
1001
ACAD
1000
ASC_BOUNDS
1002
{
1070
    19
1005
B668
1002
}
  0
LINE
  5
B64B
330
B624
100
AcDbEntity
  8
0
100
AcDbLine
 10
24.39299999997559
 20
3.670999999996297
 30
0.0
 11
23.56599999997638
 21
5.5200999999945
 31
0.0
1001
ACAD
1000
ASC_BOUNDS
1002
{
1070
    19
1005
B669
1002
}
  0
LINE
  5
B64C
330
B624
100
AcDbEntity
  8
0
100
AcDbLine
 10
44.99999999995498
 20
-0.2368999999997641
 30
0.0
 11
40.02599999995994
 21
5.341799999994635
 31
0.0
1001
ACAD
1000
ASC_BOUNDS
1002
{
1070
    19
1005
B66B
1002
}
  0
LINE
  5
B64D
330
B624
100
AcDbEntity
  8
0
100
AcDbLine
 10
40.02599999995994
 20
5.341799999994635
 30
0.0
 11
40.02599999995994
 21
0.0
 31
0.0
1001
ACAD
1000
ASC_BOUNDS
1002
{
1070
    19
1005
B66B
1002
}
  0
LINE
  5
B64E
330
B624
100
AcDbEntity
  8
0
100
AcDbLine
 10
38.60499999996136
 20
8.999999999991019
 30
0.0
 11
38.60499999996136
 21
0.0
 31
0.0
1001
ACAD
1000
ASC_BOUNDS
1002
{
1070
    19
1005
B66B
1002
}
  0
LINE
  5
B64F
330
B624
100
AcDbEntity
  8
0
100
AcDbLine
 10
44.99999999995498
 20
8.763099999991255
 30
0.0
 11
44.99999999995498
 21
-0.2368999999997641
 31
0.0
1001
ACAD
1000
ASC_BOUNDS
1002
{
1070
    19
1005
B66B
1002
}
  0
LINE
  5
B650
330
B624
100
AcDbEntity
  8
0
100
AcDbLine
 10
38.60499999996136
 20
0.0
 30
0.0
 11
40.02599999995994
 21
0.0
 31
0.0
1001
ACAD
1000
ASC_BOUNDS
1002
{
1070
    19
1005
B66B
1002
}
  0
LINE
  5
B651
330
B624
100
AcDbEntity
  8
0
100
AcDbLine
 10
43.57899999995641
 20
3.421199999996588
 30
0.0
 11
38.60499999996136
 21
8.999899999990987
 31
0.0
1001
ACAD
1000
ASC_BOUNDS
1002
{
1070
    19
1005
B66B
1002
}
  0
LINE
  5
B652
330
B624
100
AcDbEntity
  8
0
100
AcDbLine
 10
43.57899999995641
 20
8.763099999991255
 30
0.0
 11
43.57899999995641
 21
3.421199999996588
 31
0.0
1001
ACAD
1000
ASC_BOUNDS
1002
{
1070
    19
1005
B66B
1002
}
  0
LINE
  5
B653
330
B624
100
AcDbEntity
  8
0
100
AcDbLine
 10
43.57899999995641
 20
8.763099999991255
 30
0.0
 11
44.99999999995498
 21
8.763099999991255
 31
0.0
1001
ACAD
1000
ASC_BOUNDS
1002
{
1070
    19
1005
B66B
1002
}
  0
LINE
  5
B654
330
B624
100
AcDbEntity
  8
0
100
AcDbLine
 10
37.67199999996831
 20
8.763099999991255
 30
0.0
 11
36.23199999996837
 21
8.763099999991255
 31
0.0
  0
LINE
  5
B655
330
B624
100
AcDbEntity
  8
0
100
AcDbLine
 10
31.64199999996833
 20
8.763099999991255
 30
0.0
 11
31.64199999996833
 21
2.481619422925121
 31
0.0
  0
LINE
  5
B656
330
B624
100
AcDbEntity
  8
0
100
AcDbLine
 10
37.67199999996831
 20
8.763099999991255
 30
0.0
 11
37.67199999996831
 21
2.481619422925121
 31
0.0
  0
LINE
  5
B657
330
B624
100
AcDbEntity
  8
0
100
AcDbLine
 10
36.23199999996837
 20
8.763099999991255
 30
0.0
 11
36.23199999996837
 21
2.481619422925064
 31
0.0
  0
LINE
  5
B658
330
B624
100
AcDbEntity
  8
0
100
AcDbLine
 10
33.08199999996839
 20
8.763099999991255
 30
0.0
 11
33.08199999996839
 21
2.481619422925121
 31
0.0
  0
ARC
  5
B659
330
B624
100
AcDbEntity
  8
0
100
AcDbCircle
 10
34.65699999996832
 20
3.183099999991214
 30
0.0
 40
3.420000000000007
100
AcDbArc
 50
240.0000000000255
 51
299.9999999999766
  0
ARC
  5
B65A
330
B624
100
AcDbEntity
  8
0
100
AcDbCircle
 10
34.65699999996832
 20
3.183099999991214
 30
0.0
 40
1.97999999999999
100
AcDbArc
 50
240.000000000026
 51
299.9999999999703
  0
LINE
  5
B65B
330
B624
100
AcDbEntity
  8
0
100
AcDbLine
 10
33.08199999996828
 20
8.763099999991255
 30
0.0
 11
31.64199999996833
 21
8.763099999991255
 31
0.0
  0
ARC
  5
B65C
330
B624
100
AcDbEntity
  8
0
100
AcDbCircle
 10
35.06199999996829
 20
2.481619422925064
 30
0.0
 40
1.17
100
AcDbArc
 50
299.9999999999699
 51
0.0
  0
ARC
  5
B65D
330
B624
100
AcDbEntity
  8
0
100
AcDbCircle
 10
34.25199999996835
 20
2.481619422925121
 30
0.0
 40
1.17
100
AcDbArc
 50
180.0
 51
240.0000000000238
  0
ARC
  5
B65E
330
B624
100
AcDbEntity
  8
0
100
AcDbCircle
 10
35.06199999996841
 20
2.481619422925121
 30
0.0
 40
2.61
100
AcDbArc
 50
299.9999999999756
 51
0.0
  0
ARC
  5
B65F
330
B624
100
AcDbEntity
  8
0
100
AcDbCircle
 10
34.25199999996835
 20
2.481619422925121
 30
0.0
 40
2.61
100
AcDbArc
 50
180.0
 51
240.0000000000244
  0
LINE
  5
B660
330
B624
100
AcDbEntity
  8
0
100
AcDbLine
 10
29.30199999996933
 20
8.763099999991255
 30
0.0
 11
30.74199999996927
 21
8.763099999991255
 31
0.0
1001
ACAD
1000
ASC_BOUNDS
1002
{
1070
    19
1005
B669
1002
}
  0
LINE
  5
B661
330
B624
100
AcDbEntity
  8
0
100
AcDbLine
 10
30.74199999996927
 20
8.763099999991255
 30
0.0
 11
30.74199999996927
 21
2.373099999991211
 31
0.0
1001
ACAD
1000
ASC_BOUNDS
1002
{
1070
    19
1005
B669
1002
}
  0
LINE
  5
B662
330
B624
100
AcDbEntity
  8
0
100
AcDbLine
 10
26.02015566812236
 20
0.0330999999912365
 30
0.0
 11
28.40199999996923
 21
0.0330999999912365
 31
0.0
1001
ACAD
1000
ASC_BOUNDS
1002
{
1070
    19
1005
B669
1002
}
  0
LINE
  5
B663
330
B624
100
AcDbEntity
  8
0
100
AcDbLine
 10
29.30199999996933
 20
8.763099999991255
 30
0.0
 11
29.30199999996933
 21
2.283099999991236
 31
0.0
1001
ACAD
1000
ASC_BOUNDS
1002
{
1070
    19
1005
B669
1002
}
  0
LINE
  5
B664
330
B624
100
AcDbEntity
  8
0
100
AcDbLine
 10
26.97358892824991
 20
1.383099999991202
 30
0.0
 11
28.40199999996923
 21
1.383099999991202
 31
0.0
1001
ACAD
1000
ASC_BOUNDS
1002
{
1070
    19
1005
B669
1002
}
  0
ARC
  5
B665
330
B624
100
AcDbEntity
  8
0
100
AcDbCircle
 10
28.40199999996923
 20
2.283099999991236
 30
0.0
 40
0.9
100
AcDbArc
 50
270.0
 51
0.0
1001
ACAD
1000
ASC_BOUNDS
1002
{
1070
    19
1005
B669
1002
}
  0
ARC
  5
B666
330
B624
100
AcDbEntity
  8
0
100
AcDbCircle
 10
28.40199999996923
 20
2.373099999991211
 30
0.0
 40
2.34
100
AcDbArc
 50
270.0
 51
0.0
1001
ACAD
1000
ASC_BOUNDS
1002
{
1070
    19
1005
B669
1002
}
  0
INSERT
  5
B667
330
B624
100
AcDbEntity
  8
0
100
AcDbBlockReference
  2
*X24
 10
0.0
 20
0.0
 30
0.0
1001
ACAD
1000
HATCH
1002
{
1070
    19
1000
ANSI37
1040
0.15
1040
0.0
1000
ASC_BOUNDS
1070
     2
1070
     2
1070
    12
1005
B626
1005
B627
1005
B62E
1005
B63D
1005
B640
1005
B63E
1005
B62F
1005
B634
1005
B632
1005
B636
1005
B635
1005
B637
1070
     2
1070
     3
1005
B642
1005
B644
1005
B643
1000
ASC_SEEDPOINT
1011
3.614004224891801
1021
2.996669441146025
1031
0.0
1000
R14_HATCH_DATA
1000
B667
1011
1.0
1021
0.0
1031
0.0
1011
0.0
1021
1.0
1031
0.0
1011
0.0
1021
0.0
1031
1.0
1040
0.0
1010
0.0
1020
0.0
1030
1.0
1000
ANSI37
1070
     0
1070
     1
1071
        2
1071
        7
1070
     0
1070
     1
1071
       17
1040
13.26299999998673
1040
-0.0001000000000317
1040
9.236999999990758
1040
8.999899999990987
1040
9.236999999990758
1040
8.999999999991019
1040
5.657999999994331
1040
0.9999999999989768
1040
3.181999999996833
1040
4.668599999995308
1040
6.432999999993513
1040
8.763099999991255
1040
4.617999999995391
1040
8.763099999991255
1040
1.420999999998571
1040
4.736799999995242
1040
4.617999999995391
1040
-0.0001000000000317
1040
4.617999999995391
1040
0.0
1040
6.766999999993232
1040
0.0
1040
6.766999999993232
1040
-0.0001000000000317
1040
7.826999999992154
1040
2.368399999997621
1040
10.64699999998936
1040
2.368399999997621
1040
11.70599999998831
1040
-0.0001000000000317
1040
11.70599999998831
1040
0.0
1040
13.26299999998673
1040
0.0
1071
       12
1005
B626
1005
B627
1005
B62E
1005
B63D
1005
B640
1005
B63E
1005
B62F
1005
B634
1005
B632
1005
B636
1005
B635
1005
B637
1071
       22
1070
     0
1070
     1
1071
        3
1040
9.236999999990758
1040
5.5200999999945
1040
10.06399999998996
1040
3.670999999996297
1040
8.409999999991555
1040
3.670999999996297
1071
        3
1005
B642
1005
B644
1005
B643
1070
     0
1070
     1
1040
0.0
1040
0.15
1070
     0
1070
     2
1040
0.7853981633974483
1040
49.29960901727088
1040
-10.17736998311392
1040
-0.3367596045400932
1040
0.3367596045400932
1070
     0
1040
2.356194490192345
1040
49.29960901727088
1040
-10.17736998311392
1040
-0.3367596045400932
1040
-0.3367596045400932
1070
     0
1040
0.0110235143455945
1071
        2
1040
3.614004224891801
1040
2.996669441146025
1040
0.0
1040
3.614004224891801
1040
2.996669441146025
1040
0.0
1002
}
  0
INSERT
  5
B668
330
B624
100
AcDbEntity
  8
0
100
AcDbBlockReference
  2
*X25
 10
0.0
 20
0.0
 30
0.0
1001
ACAD
1000
HATCH
1002
{
1070
    19
1000
ANSI37
1040
0.15
1040
0.0
1000
ASC_BOUNDS
1070
     1
1070
     2
1070
    10
1005
B628
1005
B629
1005
B64A
1005
B648
1005
B649
1005
B63C
1005
B641
1005
B645
1005
B62B
1005
B62A
1000
ASC_SEEDPOINT
1011
14.73245321214324
1021
2.798246178283421
1031
0.0
1000
R14_HATCH_DATA
1000
B668
1011
1.0
1021
0.0
1031
0.0
1011
0.0
1021
1.0
1031
0.0
1011
0.0
1021
0.0
1031
1.0
1040
0.0
1010
0.0
1020
0.0
1030
1.0
1000
ANSI37
1070
     0
1070
     1
1071
        1
1071
        7
1070
     0
1070
     1
1071
       10
1040
16.46099999998353
1040
5.432899999994561
1040
18.59199999998134
1040
-0.2368999999997641
1040
22.38199999997767
1040
8.763099999991255
1040
20.89099999997916
1040
8.763099999991255
1040
18.59799999998143
1040
3.315799999996671
1040
16.46099999998353
1040
8.999899999990987
1040
14.32399999998563
1040
3.315799999996671
1040
12.02999999998792
1040
8.763099999991255
1040
10.53899999998941
1040
8.763099999991255
1040
14.32899999998563
1040
-0.2368999999997641
1071
       10
1005
B628
1005
B629
1005
B64A
1005
B648
1005
B649
1005
B63C
1005
B641
1005
B645
1005
B62B
1005
B62A
1070
     0
1070
     1
1040
0.0
1040
0.15
1070
     0
1070
     2
1040
0.7853981633974483
1040
49.29960901727088
1040
-10.17736998311392
1040
-0.3367596045400932
1040
0.3367596045400932
1070
     0
1040
2.356194490192345
1040
49.29960901727088
1040
-10.17736998311392
1040
-0.3367596045400932
1040
-0.3367596045400932
1070
     0
1040
0.0110235143455945
1071
        1
1040
14.73245321214324
1040
2.798246178283421
1040
0.0
1002
}
  0
INSERT
  5
B669
330
B624
100
AcDbEntity
  8
0
100
AcDbBlockReference
  2
*X26
 10
0.0
 20
0.0
 30
0.0
1001
ACAD
1000
HATCH
1002
{
1070
    19
1000
ANSI37
1040
0.15
1040
0.0
1000
ASC_BOUNDS
1070
     2
1070
     2
1070
    13
1005
B62C
1005
B639
1005
B63A
1005
B638
1005
B63B
1005
B662
1005
B666
1005
B661
1005
B660
1005
B663
1005
B665
1005
B664
1005
B62D
1070
     2
1070
     3
1005
B646
1005
B64B
1005
B647
1000
ASC_SEEDPOINT
1011
21.97929957367762
1021
3.294304244259308
1031
0.0
1000
R14_HATCH_DATA
1000
B669
1011
1.0
1021
0.0
1031
0.0
1011
0.0
1021
1.0
1031
0.0
1011
0.0
1021
0.0
1031
1.0
1040
0.0
1010
0.0
1020
0.0
1030
1.0
1000
ANSI37
1070
     0
1070
     1
1071
        2
1071
        7
1070
     1
1070
     1
1071
       15
1040
23.56599999997638
1040
8.999899999990987
1040
0.0
1040
19.53899999998043
1040
-0.0001000000000317
1040
0.0
1040
19.53899999998043
1040
0.0
1040
0.0
1040
21.09599999997886
1040
0.0
1040
0.0
1040
21.09599999997886
1040
-0.0001000000000317
1040
0.0
1040
22.15599999997789
1040
2.368399999997621
1040
0.0
1040
24.97599999997499
1040
2.368399999997621
1040
0.0
1040
26.02015566812236
1040
0.0330999999912365
1040
0.0
1040
28.40199999996923
1040
0.0330999999912365
1040
0.414213562373095
1040
30.74199999996923
1040
2.373099999991211
1040
0.0
1040
30.74199999996927
1040
8.763099999991255
1040
0.0
1040
29.30199999996933
1040
8.763099999991255
1040
0.0
1040
29.30199999996933
1040
2.283099999991236
1040
-0.414213562373095
1040
28.40199999996923
1040
1.383099999991237
1040
0.0
1040
26.97358892824991
1040
1.383099999991202
1040
0.0
1071
       13
1005
B62C
1005
B639
1005
B63A
1005
B638
1005
B63B
1005
B662
1005
B666
1005
B661
1005
B660
1005
B663
1005
B665
1005
B664
1005
B62D
1071
       22
1070
     0
1070
     1
1071
        3
1040
22.7389999999773
1040
3.670999999996297
1040
23.56599999997638
1040
5.5200999999945
1040
24.39299999997559
1040
3.670999999996297
1071
        3
1005
B646
1005
B64B
1005
B647
1070
     0
1070
     1
1040
0.0
1040
0.15
1070
     0
1070
     2
1040
0.7853981633974483
1040
49.29960901727088
1040
-10.17736998311392
1040
-0.3367596045400932
1040
0.3367596045400932
1070
     0
1040
2.356194490192345
1040
49.29960901727088
1040
-10.17736998311392
1040
-0.3367596045400932
1040
-0.3367596045400932
1070
     0
1040
0.0110235143455945
1071
        2
1040
21.97929957367762
1040
3.294304244259308
1040
0.0
1040
21.97929957367762
1040
3.294304244259308
1040
0.0
1002
}
  0
INSERT
  5
B66A
330
B624
100
AcDbEntity
  8
0
100
AcDbBlockReference
  2
*X27
 10
0.0
 20
0.0
 30
0.0
1001
ACAD
1000
HATCH
1002
{
1070
    19
1000
ANSI37
1040
0.15
1040
0.0
1000
R14_HATCH_DATA
1000
B66A
1011
1.0
1021
0.0
1031
0.0
1011
0.0
1021
1.0
1031
0.0
1011
0.0
1021
0.0
1031
1.0
1040
0.0
1010
0.0
1020
0.0
1030
1.0
1000
ANSI37
1070
     0
1070
     1
1071
        1
1071
        7
1070
     1
1070
     1
1071
       12
1040
31.64199999996833
1040
2.481619422925121
1040
0.2679491924310942
1040
32.94699999997067
1040
0.2212931190493919
1040
0.2679491924301353
1040
36.36699999995983
1040
0.2212931190459813
1040
0.2679491924321411
1040
37.67199999996831
1040
2.481619422928361
1040
0.0
1040
37.67199999996831
1040
8.763099999991255
1040
0.0
1040
36.23199999996837
1040
8.763099999991255
1040
0.0
1040
36.23199999996837
1040
2.481619422925064
1040
-0.2679491924310291
1040
35.64699999996708
1040
1.468369700498386
1040
-0.267949192430519
1040
33.66699999997093
1040
1.468369700497703
1040
-0.267949192431809
1040
33.08199999996839
1040
2.481619422926997
1040
0.0
1040
33.08199999996839
1040
8.763099999991255
1040
0.0
1040
31.64199999996833
1040
8.763099999991255
1040
0.0
1071
        0
1070
     0
1070
     1
1040
0.0
1040
0.15
1070
     0
1070
     2
1040
0.7853981633974483
1040
49.29960901727088
1040
-10.17736998311392
1040
-0.3367596045400932
1040
0.3367596045400932
1070
     0
1040
2.356194490192345
1040
49.29960901727088
1040
-10.17736998311392
1040
-0.3367596045400932
1040
-0.3367596045400932
1070
     0
1040
0.0110235143455945
1071
        1
1040
32.30357378967278
1040
3.988785755459219
1040
0.0
1002
}
  0
INSERT
  5
B66B
330
B624
100
AcDbEntity
  8
0
100
AcDbBlockReference
  2
*X28
 10
0.0
 20
0.0
 30
0.0
1001
ACAD
1000
HATCH
1002
{
1070
    19
1000
ANSI37
1040
0.15
1040
0.0
1000
ASC_BOUNDS
1070
     1
1070
     2
1070
     8
1005
B64C
1005
B64F
1005
B653
1005
B652
1005
B651
1005
B64E
1005
B650
1005
B64D
1000
ASC_SEEDPOINT
1011
39.74896370716704
1021
4.484843821435049
1031
0.0
1000
R14_HATCH_DATA
1000
B66B
1011
1.0
1021
0.0
1031
0.0
1011
0.0
1021
1.0
1031
0.0
1011
0.0
1021
0.0
1031
1.0
1040
0.0
1010
0.0
1020
0.0
1030
1.0
1000
ANSI37
1070
     0
1070
     1
1071
        1
1071
        7
1070
     0
1070
     1
1071
        9
1040
40.02599999995994
1040
5.341799999994635
1040
44.99999999995498
1040
-0.2368999999997641
1040
44.99999999995498
1040
8.763099999991255
1040
43.57899999995641
1040
8.763099999991255
1040
43.57899999995641
1040
3.421199999996588
1040
38.60499999996136
1040
8.999899999990987
1040
38.60499999996136
1040
8.999999999991019
1040
38.60499999996136
1040
0.0
1040
40.02599999995994
1040
0.0
1071
        8
1005
B64C
1005
B64F
1005
B653
1005
B652
1005
B651
1005
B64E
1005
B650
1005
B64D
1070
     0
1070
     1
1040
0.0
1040
0.15
1070
     0
1070
     2
1040
0.7853981633974483
1040
49.29960901727088
1040
-10.17736998311392
1040
-0.3367596045400932
1040
0.3367596045400932
1070
     0
1040
2.356194490192345
1040
49.29960901727088
1040
-10.17736998311392
1040
-0.3367596045400932
1040
-0.3367596045400932
1070
     0
1040
0.0110235143455945
1071
        1
1040
39.74896370716704
1040
4.484843821435049
1040
0.0
1002
}
  0
INSERT
  5
B66C
330
B624
100
AcDbEntity
  8
0
100
AcDbBlockReference
  2
*X29
 10
0.0
 20
0.0
 30
0.0
1001
ACAD
1000
HATCH
1002
{
1070
    19
1000
ANSI37
1040
0.15
1040
0.0
1000
ASC_BOUNDS
1070
     1
1070
     2
1070
     4
1005
B630
1005
B63F
1005
B631
1005
B633
1000
ASC_SEEDPOINT
1011
1.079051535452663
1021
4.148538732891836
1031
0.0
1000
R14_HATCH_DATA
1000
B66C
1011
1.0
1021
0.0
1031
0.0
1011
0.0
1021
1.0
1031
0.0
1011
0.0
1021
0.0
1031
1.0
1040
0.0
1010
0.0
1020
0.0
1030
1.0
1000
ANSI37
1070
     0
1070
     1
1071
        1
1071
        7
1070
     0
1070
     1
1071
        4
1040
1.420999999998571
1040
0.0
1040
1.420999999998571
1040
8.763099999991255
1040
0.0
1040
8.763099999991255
1040
0.0
1040
0.0
1071
        4
1005
B630
1005
B63F
1005
B631
1005
B633
1070
     0
1070
     1
1040
0.0
1040
0.15
1070
     0
1070
     2
1040
0.7853981633974483
1040
49.29960901727088
1040
-10.17736998311392
1040
-0.3367596045400932
1040
0.3367596045400932
1070
     0
1040
2.356194490192345
1040
49.29960901727088
1040
-10.17736998311392
1040
-0.3367596045400932
1040
-0.3367596045400932
1070
     0
1040
0.0053004257112761
1071
        1
1040
1.079051535452663
1040
4.148538732891836
1040
0.0
1002
}
  0
ENDBLK
  5
B66D
330
B624
100
AcDbEntity
  8
0
100
AcDbBlockEnd
  0
BLOCK
  5
BEC5
330
BD37
100
AcDbEntity
  8
0
100
AcDbBlockBegin
  2
*X24
 70
     1
 10
0.0
 20
0.0
 30
0.0
  3
*X24
  1

  0
LINE
  5
BD38
330
BD37
100
AcDbEntity
  8
0
  6
CONTINUOUS
100
AcDbLine
 10
3.418023043697893
 20
7.251849696850613
 30
0.0
 11
4.929273346838536
 21
8.763099999991255
 31
0.0
  0
LINE
  5
BD39
330
BD37
100
AcDbEntity
  8
0
  6
CONTINUOUS
100
AcDbLine
 10
1.483656411257782
 20
4.643963855330318
 30
0.0
 11
5.60279255591872
 21
8.763099999991255
 31
0.0
  0
LINE
  5
BD3A
330
BD37
100
AcDbEntity
  8
0
  6
CONTINUOUS
100
AcDbLine
 10
1.755053947328235
 20
4.241842182320584
 30
0.0
 11
6.276311764998907
 21
8.763099999991255
 31
0.0
  0
LINE
  5
BD3B
330
BD37
100
AcDbEntity
  8
0
  6
CONTINUOUS
100
AcDbLine
 10
2.026451483398688
 20
3.839720509310849
 30
0.0
 11
4.441040904851878
 21
6.254309930764039
 31
0.0
  0
LINE
  5
BD3C
330
BD37
100
AcDbEntity
  8
0
  6
CONTINUOUS
100
AcDbLine
 10
2.297849019469139
 20
3.437598836301114
 30
0.0
 11
3.321765168359338
 21
4.461514985191313
 31
0.0
  0
LINE
  5
BD3D
330
BD37
100
AcDbEntity
  8
0
  6
CONTINUOUS
100
AcDbLine
 10
2.569246555539591
 20
3.03547716329138
 30
0.0
 11
3.593163397972743
 21
4.059394005724531
 31
0.0
  0
LINE
  5
BD3E
330
BD37
100
AcDbEntity
  8
0
  6
CONTINUOUS
100
AcDbLine
 10
2.840644091610043
 20
2.633355490281646
 30
0.0
 11
3.864561627586149
 21
3.657273026257751
 31
0.0
  0
LINE
  5
BD3F
330
BD37
100
AcDbEntity
  8
0
  6
CONTINUOUS
100
AcDbLine
 10
3.112041627680496
 20
2.231233817271911
 30
0.0
 11
4.135959857199554
 21
3.25515204679097
 31
0.0
  0
LINE
  5
BD40
330
BD37
100
AcDbEntity
  8
0
  6
CONTINUOUS
100
AcDbLine
 10
3.383439163750948
 20
1.829112144262177
 30
0.0
 11
4.40735808681296
 21
2.853031067324189
 31
0.0
  0
LINE
  5
BD41
330
BD37
100
AcDbEntity
  8
0
  6
CONTINUOUS
100
AcDbLine
 10
3.654836699821399
 20
1.426990471252442
 30
0.0
 11
4.678756316426365
 21
2.450910087857407
 31
0.0
  0
LINE
  5
BD42
330
BD37
100
AcDbEntity
  8
0
  6
CONTINUOUS
100
AcDbLine
 10
3.926234235891853
 20
1.024868798242709
 30
0.0
 11
4.95015454603977
 21
2.048789108390626
 31
0.0
  0
LINE
  5
BD43
330
BD37
100
AcDbEntity
  8
0
  6
CONTINUOUS
100
AcDbLine
 10
4.197631771962304
 20
0.6227471252329737
 30
0.0
 11
5.221552775653176
 21
1.646668128923846
 31
0.0
  0
LINE
  5
BD44
330
BD37
100
AcDbEntity
  8
0
  6
CONTINUOUS
100
AcDbLine
 10
8.715877546767851
 20
7.835069736359266
 30
0.0
 11
9.435953450375058
 21
8.555145639966472
 31
0.0
  0
LINE
  5
BD45
330
BD37
100
AcDbEntity
  8
0
  6
CONTINUOUS
100
AcDbLine
 10
8.170620868422267
 20
6.616293848933497
 30
0.0
 11
9.644120833743461
 21
8.08979381425469
 31
0.0
  0
LINE
  5
BD46
330
BD37
100
AcDbEntity
  8
0
  6
CONTINUOUS
100
AcDbLine
 10
7.625364190076684
 20
5.397517961507727
 30
0.0
 11
9.852288217111864
 21
7.624441988542907
 31
0.0
  0
LINE
  5
BD47
330
BD37
100
AcDbEntity
  8
0
  6
CONTINUOUS
100
AcDbLine
 10
7.080107511731101
 20
4.178742074081957
 30
0.0
 11
10.06045560048027
 21
7.159090162831124
 31
0.0
  0
LINE
  5
BD48
330
BD37
100
AcDbEntity
  8
0
  6
CONTINUOUS
100
AcDbLine
 10
6.534850833385518
 20
2.959966186656187
 30
0.0
 11
10.26862298384867
 21
6.693738337119342
 31
0.0
  0
LINE
  5
BD49
330
BD37
100
AcDbEntity
  8
0
  6
CONTINUOUS
100
AcDbLine
 10
4.469029308032756
 20
0.2206254522232385
 30
0.0
 11
5.492951005266582
 21
1.244547149457064
 31
0.0
  0
LINE
  5
BD4A
330
BD37
100
AcDbEntity
  8
0
  6
CONTINUOUS
100
AcDbLine
 10
5.989594155039935
 20
1.741190299230417
 30
0.0
 11
8.806950407233131
 21
4.558546551423613
 31
0.0
  0
LINE
  5
BD4B
330
BD37
100
AcDbEntity
  8
0
  6
CONTINUOUS
100
AcDbLine
 10
9.401251593263643
 20
5.152847737454126
 30
0.0
 11
10.47679036721708
 21
6.228386511407559
 31
0.0
  0
LINE
  5
BD4C
330
BD37
100
AcDbEntity
  8
0
  6
CONTINUOUS
100
AcDbLine
 10
4.921837203428691
 20
-0.0000858614610131
 30
0.0
 11
8.592923064886001
 21
3.670999999996297
 31
0.0
  0
LINE
  5
BD4D
330
BD37
100
AcDbEntity
  8
0
  6
CONTINUOUS
100
AcDbLine
 10
9.609390446785305
 20
4.6874673818956
 30
0.0
 11
10.68495775058548
 21
5.763034685695775
 31
0.0
  0
LINE
  5
BD4E
330
BD37
100
AcDbEntity
  8
0
  6
CONTINUOUS
100
AcDbLine
 10
5.595387755019432
 20
-0.0000545189504582
 30
0.0
 11
7.716137258923768
 21
2.120694984953879
 31
0.0
  0
LINE
  5
BD4F
330
BD37
100
AcDbEntity
  8
0
  6
CONTINUOUS
100
AcDbLine
 10
6.268938306610172
 20
-0.000023176439905
 30
0.0
 11
7.170485805526503
 21
0.9015243224764267
 31
0.0
  0
LINE
  5
BD50
330
BD37
100
AcDbEntity
  8
0
  6
CONTINUOUS
100
AcDbLine
 10
7.963842273967511
 20
2.368399999997621
 30
0.0
 11
9.266442273966188
 21
3.670999999996297
 31
0.0
  0
LINE
  5
BD51
330
BD37
100
AcDbEntity
  8
0
  6
CONTINUOUS
100
AcDbLine
 10
8.637361483047696
 20
2.368399999997621
 30
0.0
 11
9.939961483046375
 21
3.670999999996297
 31
0.0
  0
LINE
  5
BD52
330
BD37
100
AcDbEntity
  8
0
  6
CONTINUOUS
100
AcDbLine
 10
9.817529300306965
 20
4.222087026337075
 30
0.0
 11
10.89312513395388
 21
5.297682859983993
 31
0.0
  0
LINE
  5
BD53
330
BD37
100
AcDbEntity
  8
0
  6
CONTINUOUS
100
AcDbLine
 10
10.02566815382863
 20
3.756706670778549
 30
0.0
 11
11.10129251732229
 21
4.832331034272211
 31
0.0
  0
LINE
  5
BD54
330
BD37
100
AcDbEntity
  8
0
  6
CONTINUOUS
100
AcDbLine
 10
9.310880692127883
 20
2.368399999997621
 30
0.0
 11
11.30945990069069
 21
4.366979208560428
 31
0.0
  0
LINE
  5
BD55
330
BD37
100
AcDbEntity
  8
0
  6
CONTINUOUS
100
AcDbLine
 10
9.98439990120807
 20
2.36839999999762
 30
0.0
 11
11.5176272840591
 21
3.901627382848645
 31
0.0
  0
LINE
  5
BD56
330
BD37
100
AcDbEntity
  8
0
  6
CONTINUOUS
100
AcDbLine
 10
10.65037369446246
 20
2.36085458417182
 30
0.0
 11
11.7257946674275
 21
3.436275557136862
 31
0.0
  0
LINE
  5
BD57
330
BD37
100
AcDbEntity
  8
0
  6
CONTINUOUS
100
AcDbLine
 10
10.85847197087848
 20
1.895433651507656
 30
0.0
 11
11.9339620507959
 21
2.97092373142508
 31
0.0
  0
LINE
  5
BD58
330
BD37
100
AcDbEntity
  8
0
  6
CONTINUOUS
100
AcDbLine
 10
11.0665702472945
 20
1.430012718843491
 30
0.0
 11
12.14212943416431
 21
2.505571905713296
 31
0.0
  0
LINE
  5
BD59
330
BD37
100
AcDbEntity
  8
0
  6
CONTINUOUS
100
AcDbLine
 10
11.27466852371052
 20
0.9645917861793256
 30
0.0
 11
12.35029681753271
 21
2.040220080001513
 31
0.0
  0
LINE
  5
BD5A
330
BD37
100
AcDbEntity
  8
0
  6
CONTINUOUS
100
AcDbLine
 10
11.48276680012654
 20
0.4991708535151611
 30
0.0
 11
12.55846420090111
 21
1.57486825428973
 31
0.0
  0
LINE
  5
BD5B
330
BD37
100
AcDbEntity
  8
0
  6
CONTINUOUS
100
AcDbLine
 10
11.69086507654257
 20
0.0337499208509957
 30
0.0
 11
12.76663158426952
 21
1.109516428577947
 31
0.0
  0
LINE
  5
BD5C
330
BD37
100
AcDbEntity
  8
0
  6
CONTINUOUS
100
AcDbLine
 10
12.33057447873954
 20
-0.0000598860322123
 30
0.0
 11
12.97479896763792
 21
0.6441646028661663
 31
0.0
  0
LINE
  5
BD5D
330
BD37
100
AcDbEntity
  8
0
  6
CONTINUOUS
100
AcDbLine
 10
13.00413694809395
 20
-0.0000166257579952
 30
0.0
 11
13.18296635100632
 21
0.1788127771543824
 31
0.0
  0
LINE
  5
BD5E
330
BD37
100
AcDbEntity
  8
0
  6
CONTINUOUS
100
AcDbLine
 10
4.772852165289667
 20
-0.000092794222212
 30
0.0
 11
4.296495091028902
 21
0.4762642800385528
 31
0.0
  0
LINE
  5
BD5F
330
BD37
100
AcDbEntity
  8
0
  6
CONTINUOUS
100
AcDbLine
 10
5.446340034776103
 20
-0.0000614546284616
 30
0.0
 11
2.898195908335625
 21
2.548082671812017
 31
0.0
  0
LINE
  5
BD60
330
BD37
100
AcDbEntity
  8
0
  6
CONTINUOUS
100
AcDbLine
 10
6.119827904262539
 20
-0.0000301150347113
 30
0.0
 11
1.499896725642348
 21
4.61990106358548
 31
0.0
  0
LINE
  5
BD61
330
BD37
100
AcDbEntity
  8
0
  6
CONTINUOUS
100
AcDbLine
 10
6.775136745476159
 20
0.0181802528318542
 30
0.0
 11
5.699826040202669
 21
1.093490958105344
 31
0.0
  0
LINE
  5
BD62
330
BD37
100
AcDbEntity
  8
0
  6
CONTINUOUS
100
AcDbLine
 10
6.983376846288489
 20
0.4834593610997118
 30
0.0
 11
5.908008617934405
 21
1.558827589453796
 31
0.0
  0
LINE
  5
BD63
330
BD37
100
AcDbEntity
  8
0
  6
CONTINUOUS
100
AcDbLine
 10
5.377063484962296
 20
1.416253513345719
 30
0.0
 11
1.702276957014131
 21
5.091040041293883
 31
0.0
  0
LINE
  5
BD64
330
BD37
100
AcDbEntity
  8
0
  6
CONTINUOUS
100
AcDbLine
 10
3.978745891735324
 20
3.488090315652877
 30
0.0
 11
2.000373521109399
 21
5.466462686278803
 31
0.0
  0
LINE
  5
BD65
330
BD37
100
AcDbEntity
  8
0
  6
CONTINUOUS
100
AcDbLine
 10
7.191616947100819
 20
0.948738469367568
 30
0.0
 11
6.11619119566614
 21
2.024164220802247
 31
0.0
  0
LINE
  5
BD66
330
BD37
100
AcDbEntity
  8
0
  6
CONTINUOUS
100
AcDbLine
 10
7.399857047913149
 20
1.414017577635424
 30
0.0
 11
6.324373773397875
 21
2.489500852150698
 31
0.0
  0
LINE
  5
BD67
330
BD37
100
AcDbEntity
  8
0
  6
CONTINUOUS
100
AcDbLine
 10
7.608097148725479
 20
1.879296685903281
 30
0.0
 11
6.53255635112961
 21
2.95483748349915
 31
0.0
  0
LINE
  5
BD68
330
BD37
100
AcDbEntity
  8
0
  6
CONTINUOUS
100
AcDbLine
 10
7.816337249537808
 20
2.344575794171138
 30
0.0
 11
6.740738928861345
 21
3.420174114847601
 31
0.0
  0
LINE
  5
BD69
330
BD37
100
AcDbEntity
  8
0
  6
CONTINUOUS
100
AcDbLine
 10
3.310241080789734
 20
4.830114335678653
 30
0.0
 11
2.298470085204666
 21
5.84188533126372
 31
0.0
  0
LINE
  5
BD6A
330
BD37
100
AcDbEntity
  8
0
  6
CONTINUOUS
100
AcDbLine
 10
3.60832983563551
 20
5.205544789913063
 30
0.0
 11
2.596566649299935
 21
6.217307976248638
 31
0.0
  0
LINE
  5
BD6B
330
BD37
100
AcDbEntity
  8
0
  6
CONTINUOUS
100
AcDbLine
 10
3.906418590481286
 20
5.580975244147473
 30
0.0
 11
2.894663213395203
 21
6.592730621233557
 31
0.0
  0
LINE
  5
BD6C
330
BD37
100
AcDbEntity
  8
0
  6
CONTINUOUS
100
AcDbLine
 10
4.204507345327062
 20
5.956405698381884
 30
0.0
 11
3.192759777490472
 21
6.968153266218474
 31
0.0
  0
LINE
  5
BD6D
330
BD37
100
AcDbEntity
  8
0
  6
CONTINUOUS
100
AcDbLine
 10
8.466032252791512
 20
2.368399999997621
 30
0.0
 11
6.948921506593081
 21
3.885510746196053
 31
0.0
  0
LINE
  5
BD6E
330
BD37
100
AcDbEntity
  8
0
  6
CONTINUOUS
100
AcDbLine
 10
9.139551461871699
 20
2.36839999999762
 30
0.0
 11
7.157104084324816
 21
4.350847377544504
 31
0.0
  0
LINE
  5
BD6F
330
BD37
100
AcDbEntity
  8
0
  6
CONTINUOUS
100
AcDbLine
 10
4.502596100172839
 20
6.331836152616295
 30
0.0
 11
3.49085634158574
 21
7.343575911203393
 31
0.0
  0
LINE
  5
BD70
330
BD37
100
AcDbEntity
  8
0
  6
CONTINUOUS
100
AcDbLine
 10
4.800684855018615
 20
6.707266606850705
 30
0.0
 11
3.788952905681008
 21
7.718998556188312
 31
0.0
  0
LINE
  5
BD71
330
BD37
100
AcDbEntity
  8
0
  6
CONTINUOUS
100
AcDbLine
 10
12.18154012887317
 20
-0.0000694579236642
 30
0.0
 11
11.32140332908496
 21
0.8600673418645499
 31
0.0
  0
LINE
  5
BD72
330
BD37
100
AcDbEntity
  8
0
  6
CONTINUOUS
100
AcDbLine
 10
12.85501608323566
 20
-0.0000262032059659
 30
0.0
 11
10.77672456435345
 21
2.078265315676246
 31
0.0
  0
LINE
  5
BD73
330
BD37
100
AcDbEntity
  8
0
  6
CONTINUOUS
100
AcDbLine
 10
9.813070670951886
 20
2.36839999999762
 30
0.0
 11
8.51047067095321
 21
3.670999999996297
 31
0.0
  0
LINE
  5
BD74
330
BD37
100
AcDbEntity
  8
0
  6
CONTINUOUS
100
AcDbLine
 10
10.48658988003207
 20
2.36839999999762
 30
0.0
 11
9.183989880033396
 21
3.670999999996297
 31
0.0
  0
LINE
  5
BD75
330
BD37
100
AcDbEntity
  8
0
  6
CONTINUOUS
100
AcDbLine
 10
8.441048632286794
 20
3.740422038662712
 30
0.0
 11
7.365286662056551
 21
4.816184008892956
 31
0.0
  0
LINE
  5
BD76
330
BD37
100
AcDbEntity
  8
0
  6
CONTINUOUS
100
AcDbLine
 10
8.649187485808454
 20
4.205802394221237
 30
0.0
 11
7.573469239788285
 21
5.281520640241407
 31
0.0
  0
LINE
  5
BD77
330
BD37
100
AcDbEntity
  8
0
  6
CONTINUOUS
100
AcDbLine
 10
5.098773609864391
 20
7.082697061085115
 30
0.0
 11
4.087049469776277
 21
8.09442120117323
 31
0.0
  0
LINE
  5
BD78
330
BD37
100
AcDbEntity
  8
0
  6
CONTINUOUS
100
AcDbLine
 10
5.396862364710167
 20
7.458127515319526
 30
0.0
 11
4.385146033871544
 21
8.469843846158149
 31
0.0
  0
LINE
  5
BD79
330
BD37
100
AcDbEntity
  8
0
  6
CONTINUOUS
100
AcDbLine
 10
13.04801363231285
 20
0.4804954567970334
 30
0.0
 11
9.85750908911358
 21
3.670999999996297
 31
0.0
  0
LINE
  5
BD7A
330
BD37
100
AcDbEntity
  8
0
  6
CONTINUOUS
100
AcDbLine
 10
8.857326339330116
 20
4.671182749779763
 30
0.0
 11
7.781651817520021
 21
5.746857271589858
 31
0.0
  0
LINE
  5
BD7B
330
BD37
100
AcDbEntity
  8
0
  6
CONTINUOUS
100
AcDbLine
 10
5.694951119555943
 20
7.833557969553937
 30
0.0
 11
4.765409089118624
 21
8.763099999991255
 31
0.0
  0
LINE
  5
BD7C
330
BD37
100
AcDbEntity
  8
0
  6
CONTINUOUS
100
AcDbLine
 10
12.50286117236978
 20
1.699167125820288
 30
0.0
 11
9.68611877250287
 21
4.515909525687196
 31
0.0
  0
LINE
  5
BD7D
330
BD37
100
AcDbEntity
  8
0
  6
CONTINUOUS
100
AcDbLine
 10
9.065465192851777
 20
5.136563105338288
 30
0.0
 11
7.989834395251757
 21
6.21219390293831
 31
0.0
  0
LINE
  5
BD7E
330
BD37
100
AcDbEntity
  8
0
  6
CONTINUOUS
100
AcDbLine
 10
5.993039874401719
 20
8.208988423788346
 30
0.0
 11
5.43892829819881
 21
8.763099999991255
 31
0.0
  0
LINE
  5
BD7F
330
BD37
100
AcDbEntity
  8
0
  6
CONTINUOUS
100
AcDbLine
 10
11.95770871242671
 20
2.917838794843543
 30
0.0
 11
8.19801697298349
 21
6.677530534286761
 31
0.0
  0
LINE
  5
BD80
330
BD37
100
AcDbEntity
  8
0
  6
CONTINUOUS
100
AcDbLine
 10
6.291128629247495
 20
8.584418878022756
 30
0.0
 11
6.112447507278997
 21
8.763099999991255
 31
0.0
  0
LINE
  5
BD81
330
BD37
100
AcDbEntity
  8
0
  6
CONTINUOUS
100
AcDbLine
 10
11.41255625248364
 20
4.136510463866797
 30
0.0
 11
8.406199550715227
 21
7.142867165635211
 31
0.0
  0
LINE
  5
BD82
330
BD37
100
AcDbEntity
  8
0
  6
CONTINUOUS
100
AcDbLine
 10
10.86740379254057
 20
5.355182132890051
 30
0.0
 11
8.614382128446962
 21
7.608203796983664
 31
0.0
  0
LINE
  5
BD83
330
BD37
100
AcDbEntity
  8
0
  6
CONTINUOUS
100
AcDbLine
 10
10.3222513325975
 20
6.573853801913305
 30
0.0
 11
8.822564706178696
 21
8.073540428332114
 31
0.0
  0
LINE
  5
BD84
330
BD37
100
AcDbEntity
  8
0
  6
CONTINUOUS
100
AcDbLine
 10
9.777098872654436
 20
7.792525470936562
 30
0.0
 11
9.030747283910433
 21
8.538877059680566
 31
0.0
  0
ENDBLK
  5
BEC6
330
BD37
100
AcDbEntity
  8
0
100
AcDbBlockEnd
  0
BLOCK
  5
BEC7
330
BD85
100
AcDbEntity
  8
0
100
AcDbBlockBegin
  2
*X25
 70
     1
 10
0.0
 20
0.0
 30
0.0
  3
*X25
  1

  0
LINE
  5
BD86
330
BD85
100
AcDbEntity
  8
0
  6
CONTINUOUS
100
AcDbLine
 10
10.67292308101235
 20
8.445076852443387
 30
0.0
 11
10.99094622856022
 21
8.763099999991255
 31
0.0
  0
LINE
  5
BD87
330
BD85
100
AcDbEntity
  8
0
  6
CONTINUOUS
100
AcDbLine
 10
10.87250383178748
 20
7.971138394138331
 30
0.0
 11
11.6644654376404
 21
8.763099999991255
 31
0.0
  0
LINE
  5
BD88
330
BD85
100
AcDbEntity
  8
0
  6
CONTINUOUS
100
AcDbLine
 10
11.07208458256261
 20
7.497199935833273
 30
0.0
 11
12.12126590876355
 21
8.546381262034211
 31
0.0
  0
LINE
  5
BD89
330
BD85
100
AcDbEntity
  8
0
  6
CONTINUOUS
100
AcDbLine
 10
11.27166533333774
 20
7.023261477528216
 30
0.0
 11
12.32085164573666
 21
8.072447789927136
 31
0.0
  0
LINE
  5
BD8A
330
BD85
100
AcDbEntity
  8
0
  6
CONTINUOUS
100
AcDbLine
 10
11.47124608411287
 20
6.549323019223158
 30
0.0
 11
12.52043738270977
 21
7.59851431782006
 31
0.0
  0
LINE
  5
BD8B
330
BD85
100
AcDbEntity
  8
0
  6
CONTINUOUS
100
AcDbLine
 10
11.670826834888
 20
6.075384560918101
 30
0.0
 11
12.72002311968288
 21
7.124580845712984
 31
0.0
  0
LINE
  5
BD8C
330
BD85
100
AcDbEntity
  8
0
  6
CONTINUOUS
100
AcDbLine
 10
11.87040758566313
 20
5.601446102613043
 30
0.0
 11
12.91960885665599
 21
6.650647373605907
 31
0.0
  0
LINE
  5
BD8D
330
BD85
100
AcDbEntity
  8
0
  6
CONTINUOUS
100
AcDbLine
 10
12.06998833643825
 20
5.127507644307986
 30
0.0
 11
13.1191945936291
 21
6.176713901498832
 31
0.0
  0
LINE
  5
BD8E
330
BD85
100
AcDbEntity
  8
0
  6
CONTINUOUS
100
AcDbLine
 10
12.26956908721338
 20
4.65356918600293
 30
0.0
 11
13.31878033060221
 21
5.702780429391757
 31
0.0
  0
LINE
  5
BD8F
330
BD85
100
AcDbEntity
  8
0
  6
CONTINUOUS
100
AcDbLine
 10
12.46914983798851
 20
4.179630727697873
 30
0.0
 11
13.51836606757532
 21
5.228846957284683
 31
0.0
  0
LINE
  5
BD90
330
BD85
100
AcDbEntity
  8
0
  6
CONTINUOUS
100
AcDbLine
 10
12.66873058876364
 20
3.705692269392816
 30
0.0
 11
13.71795180454843
 21
4.754913485177607
 31
0.0
  0
LINE
  5
BD91
330
BD85
100
AcDbEntity
  8
0
  6
CONTINUOUS
100
AcDbLine
 10
12.86831133953877
 20
3.231753811087759
 30
0.0
 11
13.91753754152154
 21
4.280980013070531
 31
0.0
  0
LINE
  5
BD92
330
BD85
100
AcDbEntity
  8
0
  6
CONTINUOUS
100
AcDbLine
 10
13.0678920903139
 20
2.757815352782702
 30
0.0
 11
14.11712327849465
 21
3.807046540963456
 31
0.0
  0
LINE
  5
BD93
330
BD85
100
AcDbEntity
  8
0
  6
CONTINUOUS
100
AcDbLine
 10
13.26747284108903
 20
2.283876894477644
 30
0.0
 11
14.31670901546777
 21
3.333113068856379
 31
0.0
  0
LINE
  5
BD94
330
BD85
100
AcDbEntity
  8
0
  6
CONTINUOUS
100
AcDbLine
 10
16.36767838827179
 20
8.751678487061342
 30
0.0
 11
16.50332410898388
 21
8.887324207773432
 31
0.0
  0
LINE
  5
BD95
330
BD85
100
AcDbEntity
  8
0
  6
CONTINUOUS
100
AcDbLine
 10
15.96190732182191
 20
7.67238821153127
 30
0.0
 11
16.68735328004734
 21
8.397834169756699
 31
0.0
  0
LINE
  5
BD96
330
BD85
100
AcDbEntity
  8
0
  6
CONTINUOUS
100
AcDbLine
 10
15.55613625537202
 20
6.593097936001196
 30
0.0
 11
16.87138245111079
 21
7.908344131739965
 31
0.0
  0
LINE
  5
BD97
330
BD85
100
AcDbEntity
  8
0
  6
CONTINUOUS
100
AcDbLine
 10
15.15036518892213
 20
5.513807660471122
 30
0.0
 11
17.05541162217424
 21
7.418854093723231
 31
0.0
  0
LINE
  5
BD98
330
BD85
100
AcDbEntity
  8
0
  6
CONTINUOUS
100
AcDbLine
 10
14.74459412247225
 20
4.434517384941048
 30
0.0
 11
17.2394407932377
 21
6.929364055706499
 31
0.0
  0
LINE
  5
BD99
330
BD85
100
AcDbEntity
  8
0
  6
CONTINUOUS
100
AcDbLine
 10
14.33882305602236
 20
3.355227109410975
 30
0.0
 11
17.42346996430115
 21
6.439874017689766
 31
0.0
  0
LINE
  5
BD9A
330
BD85
100
AcDbEntity
  8
0
  6
CONTINUOUS
100
AcDbLine
 10
13.46705359186416
 20
1.809938436172586
 30
0.0
 11
16.0819338255367
 21
4.424818669845129
 31
0.0
  0
LINE
  5
BD9B
330
BD85
100
AcDbEntity
  8
0
  6
CONTINUOUS
100
AcDbLine
 10
16.63283254238972
 20
4.975717386698149
 30
0.0
 11
17.60749913536461
 21
5.950383979673033
 31
0.0
  0
LINE
  5
BD9C
330
BD85
100
AcDbEntity
  8
0
  6
CONTINUOUS
100
AcDbLine
 10
13.66663434263929
 20
1.335999977867529
 30
0.0
 11
15.67604797733754
 21
3.345413612565779
 31
0.0
  0
LINE
  5
BD9D
330
BD85
100
AcDbEntity
  8
0
  6
CONTINUOUS
100
AcDbLine
 10
13.86621509341442
 20
0.8620615195624723
 30
0.0
 11
15.27016212913838
 21
2.26600855528643
 31
0.0
  0
LINE
  5
BD9E
330
BD85
100
AcDbEntity
  8
0
  6
CONTINUOUS
100
AcDbLine
 10
16.81682257348267
 20
4.486188208710908
 30
0.0
 11
17.79152830642806
 21
5.460893941656299
 31
0.0
  0
LINE
  5
BD9F
330
BD85
100
AcDbEntity
  8
0
  6
CONTINUOUS
100
AcDbLine
 10
17.00081260457561
 20
3.996659030723667
 30
0.0
 11
17.97555747749151
 21
4.971403903639565
 31
0.0
  0
LINE
  5
BDA0
330
BD85
100
AcDbEntity
  8
0
  6
CONTINUOUS
100
AcDbLine
 10
20.74362343514722
 20
8.412989070375462
 30
0.0
 11
21.09373436476302
 21
8.763099999991256
 31
0.0
  0
LINE
  5
BDA1
330
BD85
100
AcDbEntity
  8
0
  6
CONTINUOUS
100
AcDbLine
 10
20.25401257174777
 20
7.249858997895826
 30
0.0
 11
21.7672535738432
 21
8.763099999991255
 31
0.0
  0
LINE
  5
BDA2
330
BD85
100
AcDbEntity
  8
0
  6
CONTINUOUS
100
AcDbLine
 10
14.06579584418955
 20
0.3881230612574149
 30
0.0
 11
14.86427628093921
 21
1.186603498007082
 31
0.0
  0
LINE
  5
BDA3
330
BD85
100
AcDbEntity
  8
0
  6
CONTINUOUS
100
AcDbLine
 10
14.26537659496467
 20
-0.0858153970476412
 30
0.0
 11
14.45839043274005
 21
0.1071984407277329
 31
0.0
  0
LINE
  5
BDA4
330
BD85
100
AcDbEntity
  8
0
  6
CONTINUOUS
100
AcDbLine
 10
17.18480263566856
 20
3.507129852736426
 30
0.0
 11
18.15958664855496
 21
4.481913865622833
 31
0.0
  0
LINE
  5
BDA5
330
BD85
100
AcDbEntity
  8
0
  6
CONTINUOUS
100
AcDbLine
 10
17.3687926667615
 20
3.017600674749186
 30
0.0
 11
18.34361581961842
 21
3.9924238276061
 31
0.0
  0
LINE
  5
BDA6
330
BD85
100
AcDbEntity
  8
0
  6
CONTINUOUS
100
AcDbLine
 10
19.76440170834832
 20
6.086728925416191
 30
0.0
 11
22.33924590259489
 21
8.661573119662755
 31
0.0
  0
LINE
  5
BDA7
330
BD85
100
AcDbEntity
  8
0
  6
CONTINUOUS
100
AcDbLine
 10
19.27479084494887
 20
4.923598852936555
 30
0.0
 11
21.84929622842713
 21
7.498104236414807
 31
0.0
  0
LINE
  5
BDA8
330
BD85
100
AcDbEntity
  8
0
  6
CONTINUOUS
100
AcDbLine
 10
17.55278269785445
 20
2.528071496761945
 30
0.0
 11
18.52764499068187
 21
3.502933789589366
 31
0.0
  0
LINE
  5
BDA9
330
BD85
100
AcDbEntity
  8
0
  6
CONTINUOUS
100
AcDbLine
 10
18.78517998154942
 20
3.760468780456919
 30
0.0
 11
21.35934655425936
 21
6.33463535316686
 31
0.0
  0
LINE
  5
BDAA
330
BD85
100
AcDbEntity
  8
0
  6
CONTINUOUS
100
AcDbLine
 10
17.73677272894739
 20
2.038542318774704
 30
0.0
 11
20.8693968800916
 21
5.171166469918914
 31
0.0
  0
LINE
  5
BDAB
330
BD85
100
AcDbEntity
  8
0
  6
CONTINUOUS
100
AcDbLine
 10
17.92076276004034
 20
1.549013140787464
 30
0.0
 11
20.37944720592384
 21
4.007697586670968
 31
0.0
  0
LINE
  5
BDAC
330
BD85
100
AcDbEntity
  8
0
  6
CONTINUOUS
100
AcDbLine
 10
18.10475279113329
 20
1.059483962800223
 30
0.0
 11
19.88949753175608
 21
2.84422870342302
 31
0.0
  0
LINE
  5
BDAD
330
BD85
100
AcDbEntity
  8
0
  6
CONTINUOUS
100
AcDbLine
 10
18.28874282222623
 20
0.5699547848129822
 30
0.0
 11
19.39954785758832
 21
1.680759820175074
 31
0.0
  0
LINE
  5
BDAE
330
BD85
100
AcDbEntity
  8
0
  6
CONTINUOUS
100
AcDbLine
 10
18.47273285331918
 20
0.0804256068257416
 30
0.0
 11
18.90959818342056
 21
0.517290936927127
 31
0.0
  0
LINE
  5
BDAF
330
BD85
100
AcDbEntity
  8
0
  6
CONTINUOUS
100
AcDbLine
 10
14.3590401358224
 20
-0.1570118376323384
 30
0.0
 11
14.24903296539946
 21
-0.0470046672093929
 31
0.0
  0
LINE
  5
BDB0
330
BD85
100
AcDbEntity
  8
0
  6
CONTINUOUS
100
AcDbLine
 10
14.54309291258661
 20
0.332454594683643
 30
0.0
 11
13.75908329123172
 21
1.116464216038529
 31
0.0
  0
LINE
  5
BDB1
330
BD85
100
AcDbEntity
  8
0
  6
CONTINUOUS
100
AcDbLine
 10
14.72714568935081
 20
0.8219210269996244
 30
0.0
 11
13.26913361706399
 21
2.27993309928645
 31
0.0
  0
LINE
  5
BDB2
330
BD85
100
AcDbEntity
  8
0
  6
CONTINUOUS
100
AcDbLine
 10
14.91119846611502
 20
1.311387459315606
 30
0.0
 11
12.77918394289625
 21
3.443401982534371
 31
0.0
  0
LINE
  5
BDB3
330
BD85
100
AcDbEntity
  8
0
  6
CONTINUOUS
100
AcDbLine
 10
15.09525124287922
 20
1.800853891631587
 30
0.0
 11
12.28923426872852
 21
4.606870865782293
 31
0.0
  0
LINE
  5
BDB4
330
BD85
100
AcDbEntity
  8
0
  6
CONTINUOUS
100
AcDbLine
 10
15.27930401964343
 20
2.290320323947569
 30
0.0
 11
11.79928459456078
 21
5.770339749030213
 31
0.0
  0
LINE
  5
BDB5
330
BD85
100
AcDbEntity
  8
0
  6
CONTINUOUS
100
AcDbLine
 10
15.46335679640763
 20
2.77978675626355
 30
0.0
 11
14.48885470994921
 21
3.754288842721972
 31
0.0
  0
LINE
  5
BDB6
330
BD85
100
AcDbEntity
  8
0
  6
CONTINUOUS
100
AcDbLine
 10
13.88507249233704
 20
4.358071060334137
 30
0.0
 11
11.30933492039305
 21
6.933808632278135
 31
0.0
  0
LINE
  5
BDB7
330
BD85
100
AcDbEntity
  8
0
  6
CONTINUOUS
100
AcDbLine
 10
18.75840522805855
 20
0.1582575336928151
 30
0.0
 11
18.25383727664818
 21
0.6628254851031863
 31
0.0
  0
LINE
  5
BDB8
330
BD85
100
AcDbEntity
  8
0
  6
CONTINUOUS
100
AcDbLine
 10
15.64740957317184
 20
3.269253188579531
 30
0.0
 11
14.67288388101266
 21
4.243778880738705
 31
0.0
  0
LINE
  5
BDB9
330
BD85
100
AcDbEntity
  8
0
  6
CONTINUOUS
100
AcDbLine
 10
13.39509276772158
 20
5.521569994029786
 30
0.0
 11
10.81938524622531
 21
8.097277515526056
 31
0.0
  0
LINE
  5
BDBA
330
BD85
100
AcDbEntity
  8
0
  6
CONTINUOUS
100
AcDbLine
 10
18.95798597883369
 20
0.6321959919978686
 30
0.0
 11
17.84825644852853
 21
1.741925522303024
 31
0.0
  0
LINE
  5
BDBB
330
BD85
100
AcDbEntity
  8
0
  6
CONTINUOUS
100
AcDbLine
 10
19.15756672960882
 20
1.106134450302922
 30
0.0
 11
17.44267562040888
 21
2.821025559502861
 31
0.0
  0
LINE
  5
BDBC
330
BD85
100
AcDbEntity
  8
0
  6
CONTINUOUS
100
AcDbLine
 10
15.83146234993604
 20
3.758719620895513
 30
0.0
 11
14.85691305207612
 21
4.733268918755439
 31
0.0
  0
LINE
  5
BDBD
330
BD85
100
AcDbEntity
  8
0
  6
CONTINUOUS
100
AcDbLine
 10
16.01551512670025
 20
4.248186053211494
 30
0.0
 11
15.04094222313957
 21
5.222758956772172
 31
0.0
  0
LINE
  5
BDBE
330
BD85
100
AcDbEntity
  8
0
  6
CONTINUOUS
100
AcDbLine
 10
12.90511304310612
 20
6.685068927725435
 30
0.0
 11
10.8270819708403
 21
8.763099999991255
 31
0.0
  0
LINE
  5
BDBF
330
BD85
100
AcDbEntity
  8
0
  6
CONTINUOUS
100
AcDbLine
 10
12.41513331849066
 20
7.848567861421083
 30
0.0
 11
11.50060117992049
 21
8.763099999991255
 31
0.0
  0
LINE
  5
BDC0
330
BD85
100
AcDbEntity
  8
0
  6
CONTINUOUS
100
AcDbLine
 10
19.35714748038395
 20
1.580072908607975
 30
0.0
 11
17.03709479228923
 21
3.900125596702697
 31
0.0
  0
LINE
  5
BDC1
330
BD85
100
AcDbEntity
  8
0
  6
CONTINUOUS
100
AcDbLine
 10
19.55672823115909
 20
2.054011366913028
 30
0.0
 11
16.63151396416958
 21
4.979225633902534
 31
0.0
  0
LINE
  5
BDC2
330
BD85
100
AcDbEntity
  8
0
  6
CONTINUOUS
100
AcDbLine
 10
16.19956790346445
 20
4.737652485527476
 30
0.0
 11
15.22497139420302
 21
5.712248994788904
 31
0.0
  0
LINE
  5
BDC3
330
BD85
100
AcDbEntity
  8
0
  6
CONTINUOUS
100
AcDbLine
 10
16.38362068022866
 20
5.227118917843457
 30
0.0
 11
15.40900056526648
 21
6.201739032805637
 31
0.0
  0
LINE
  5
BDC4
330
BD85
100
AcDbEntity
  8
0
  6
CONTINUOUS
100
AcDbLine
 10
19.75630898193422
 20
2.527949825218081
 30
0.0
 11
18.70774536448286
 21
3.576513442669441
 31
0.0
  0
LINE
  5
BDC5
330
BD85
100
AcDbEntity
  8
0
  6
CONTINUOUS
100
AcDbLine
 10
19.95588973270936
 20
3.001888283523134
 30
0.0
 11
18.90726987211446
 21
4.050508144118028
 31
0.0
  0
LINE
  5
BDC6
330
BD85
100
AcDbEntity
  8
0
  6
CONTINUOUS
100
AcDbLine
 10
20.15547048348449
 20
3.475826741828186
 30
0.0
 11
19.10679437974606
 21
4.524502845566614
 31
0.0
  0
LINE
  5
BDC7
330
BD85
100
AcDbEntity
  8
0
  6
CONTINUOUS
100
AcDbLine
 10
20.35505123425962
 20
3.94976520013324
 30
0.0
 11
19.30631888737766
 21
4.998497547015201
 31
0.0
  0
LINE
  5
BDC8
330
BD85
100
AcDbEntity
  8
0
  6
CONTINUOUS
100
AcDbLine
 10
20.55463198503475
 20
4.423703658438292
 30
0.0
 11
19.50584339500926
 21
5.472492248463787
 31
0.0
  0
LINE
  5
BDC9
330
BD85
100
AcDbEntity
  8
0
  6
CONTINUOUS
100
AcDbLine
 10
18.37481191085755
 20
3.909446896294752
 30
0.0
 11
15.59302973632993
 21
6.691229070822371
 31
0.0
  0
LINE
  5
BDCA
330
BD85
100
AcDbEntity
  8
0
  6
CONTINUOUS
100
AcDbLine
 10
17.96904084440766
 20
4.988737171824825
 30
0.0
 11
15.77705890739338
 21
7.180719108839104
 31
0.0
  0
LINE
  5
BDCB
330
BD85
100
AcDbEntity
  8
0
  6
CONTINUOUS
100
AcDbLine
 10
17.56326977795777
 20
6.068027447354899
 30
0.0
 11
15.96108807845684
 21
7.670209146855838
 31
0.0
  0
LINE
  5
BDCC
330
BD85
100
AcDbEntity
  8
0
  6
CONTINUOUS
100
AcDbLine
 10
17.15749871150789
 20
7.147317722884972
 30
0.0
 11
16.14511724952029
 21
8.15969918487257
 31
0.0
  0
LINE
  5
BDCD
330
BD85
100
AcDbEntity
  8
0
  6
CONTINUOUS
100
AcDbLine
 10
16.751727645058
 20
8.226607998415046
 30
0.0
 11
16.32914642058374
 21
8.649189222889303
 31
0.0
  0
LINE
  5
BDCE
330
BD85
100
AcDbEntity
  8
0
  6
CONTINUOUS
100
AcDbLine
 10
20.75421273580989
 20
4.897642116743345
 30
0.0
 11
19.70536790264086
 21
5.946486949912374
 31
0.0
  0
LINE
  5
BDCF
330
BD85
100
AcDbEntity
  8
0
  6
CONTINUOUS
100
AcDbLine
 10
20.95379348658502
 20
5.371580575048398
 30
0.0
 11
19.90489241027246
 21
6.42048165136096
 31
0.0
  0
LINE
  5
BDD0
330
BD85
100
AcDbEntity
  8
0
  6
CONTINUOUS
100
AcDbLine
 10
21.15337423736015
 20
5.845519033353452
 30
0.0
 11
20.10441691790406
 21
6.894476352809547
 31
0.0
  0
LINE
  5
BDD1
330
BD85
100
AcDbEntity
  8
0
  6
CONTINUOUS
100
AcDbLine
 10
21.35295498813529
 20
6.319457491658505
 30
0.0
 11
20.30394142553566
 21
7.368471054258134
 31
0.0
  0
LINE
  5
BDD2
330
BD85
100
AcDbEntity
  8
0
  6
CONTINUOUS
100
AcDbLine
 10
21.55253573891042
 20
6.793395949963558
 30
0.0
 11
20.50346593316726
 21
7.842465755706721
 31
0.0
  0
LINE
  5
BDD3
330
BD85
100
AcDbEntity
  8
0
  6
CONTINUOUS
100
AcDbLine
 10
21.75211648968556
 20
7.267334408268612
 30
0.0
 11
20.70299044079886
 21
8.316460457155308
 31
0.0
  0
LINE
  5
BDD4
330
BD85
100
AcDbEntity
  8
0
  6
CONTINUOUS
100
AcDbLine
 10
21.95169724046069
 20
7.741272866573663
 30
0.0
 11
20.9298701070431
 21
8.763099999991256
 31
0.0
  0
LINE
  5
BDD5
330
BD85
100
AcDbEntity
  8
0
  6
CONTINUOUS
100
AcDbLine
 10
22.15127799123582
 20
8.215211324878716
 30
0.0
 11
21.60338931612328
 21
8.763099999991256
 31
0.0
  0
LINE
  5
BDD6
330
BD85
100
AcDbEntity
  8
0
  6
CONTINUOUS
100
AcDbLine
 10
22.35085874201096
 20
8.689149783183769
 30
0.0
 11
22.27690852520347
 21
8.763099999991255
 31
0.0
  0
ENDBLK
  5
BEC8
330
BD85
100
AcDbEntity
  8
0
100
AcDbBlockEnd
  0
BLOCK
  5
BEC9
330
BDD7
100
AcDbEntity
  8
0
100
AcDbBlockBegin
  2
*X26
 70
     1
 10
0.0
 20
0.0
 30
0.0
  3
*X26
  1

  0
LINE
  5
BDD8
330
BDD7
100
AcDbEntity
  8
0
  6
CONTINUOUS
100
AcDbLine
 10
23.19462913593892
 20
8.169917934846424
 30
0.0
 11
23.70775465517246
 21
8.683043454079957
 31
0.0
  0
LINE
  5
BDD9
330
BDD7
100
AcDbEntity
  8
0
  6
CONTINUOUS
100
AcDbLine
 10
22.64923161835078
 20
6.951001208178088
 30
0.0
 11
23.9159364069932
 21
8.217705996820516
 31
0.0
  0
LINE
  5
BDDA
330
BDD7
100
AcDbEntity
  8
0
  6
CONTINUOUS
100
AcDbLine
 10
22.10383410076263
 20
5.732084481509751
 30
0.0
 11
24.12411815881395
 21
7.752368539561078
 31
0.0
  0
LINE
  5
BDDB
330
BDD7
100
AcDbEntity
  8
0
  6
CONTINUOUS
100
AcDbLine
 10
21.55843658317447
 20
4.513167754841414
 30
0.0
 11
24.3322999106347
 21
7.287031082301639
 31
0.0
  0
LINE
  5
BDDC
330
BDD7
100
AcDbEntity
  8
0
  6
CONTINUOUS
100
AcDbLine
 10
21.01303906558632
 20
3.294251028173077
 30
0.0
 11
24.54048166245544
 21
6.821693625042199
 31
0.0
  0
LINE
  5
BDDD
330
BDD7
100
AcDbEntity
  8
0
  6
CONTINUOUS
100
AcDbLine
 10
20.46764154799817
 20
2.075334301504738
 30
0.0
 11
23.28571549467848
 21
4.89340824818505
 31
0.0
  0
LINE
  5
BDDE
330
BDD7
100
AcDbEntity
  8
0
  6
CONTINUOUS
100
AcDbLine
 10
19.92224403041002
 20
0.8564175748364002
 30
0.0
 11
22.74075865492779
 21
3.674932199354171
 31
0.0
  0
LINE
  5
BDDF
330
BDD7
100
AcDbEntity
  8
0
  6
CONTINUOUS
100
AcDbLine
 10
23.67305085490148
 20
5.280743608408048
 30
0.0
 11
24.74866341427619
 21
6.356356167782759
 31
0.0
  0
LINE
  5
BDE0
330
BDD7
100
AcDbEntity
  8
0
  6
CONTINUOUS
100
AcDbLine
 10
23.88118970842314
 20
4.815363252849522
 30
0.0
 11
24.95684516609694
 21
5.89101871052332
 31
0.0
  0
LINE
  5
BDE1
330
BDD7
100
AcDbEntity
  8
0
  6
CONTINUOUS
100
AcDbLine
 10
19.73925852647308
 20
-0.0000871381807288
 30
0.0
 11
23.4103456646501
 21
3.670999999996297
 31
0.0
  0
LINE
  5
BDE2
330
BDD7
100
AcDbEntity
  8
0
  6
CONTINUOUS
100
AcDbLine
 10
24.0893285619448
 20
4.349982897290997
 30
0.0
 11
25.16502691791769
 21
5.42568125326388
 31
0.0
  0
LINE
  5
BDE3
330
BDD7
100
AcDbEntity
  8
0
  6
CONTINUOUS
100
AcDbLine
 10
20.41282099582748
 20
-0.0000438779065108
 30
0.0
 11
21.64944178675636
 21
1.236576913022366
 31
0.0
  0
LINE
  5
BDE4
330
BDD7
100
AcDbEntity
  8
0
  6
CONTINUOUS
100
AcDbLine
 10
22.78126487373161
 20
2.36839999999762
 30
0.0
 11
24.08386487373029
 21
3.670999999996297
 31
0.0
  0
LINE
  5
BDE5
330
BDD7
100
AcDbEntity
  8
0
  6
CONTINUOUS
100
AcDbLine
 10
24.29746741546646
 20
3.884602541732471
 30
0.0
 11
25.37320866973843
 21
4.960343796004441
 31
0.0
  0
LINE
  5
BDE6
330
BDD7
100
AcDbEntity
  8
0
  6
CONTINUOUS
100
AcDbLine
 10
21.08638346518189
 20
-0.0000006176322938
 30
0.0
 11
21.10379033335899
 21
0.0174062505448083
 31
0.0
  0
LINE
  5
BDE7
330
BDD7
100
AcDbEntity
  8
0
  6
CONTINUOUS
100
AcDbLine
 10
23.4547840828118
 20
2.36839999999762
 30
0.0
 11
25.58139042155918
 21
4.495006338745002
 31
0.0
  0
LINE
  5
BDE8
330
BDD7
100
AcDbEntity
  8
0
  6
CONTINUOUS
100
AcDbLine
 10
29.30199999996933
 20
8.215615917155148
 30
0.0
 11
29.84948408280543
 21
8.763099999991255
 31
0.0
  0
LINE
  5
BDE9
330
BDD7
100
AcDbEntity
  8
0
  6
CONTINUOUS
100
AcDbLine
 10
24.12830329189199
 20
2.36839999999762
 30
0.0
 11
25.78957217337993
 21
4.029668881485562
 31
0.0
  0
LINE
  5
BDEA
330
BDD7
100
AcDbEntity
  8
0
  6
CONTINUOUS
100
AcDbLine
 10
29.30199999996933
 20
7.54209670807496
 30
0.0
 11
30.52300329188562
 21
8.763099999991255
 31
0.0
  0
LINE
  5
BDEB
330
BDD7
100
AcDbEntity
  8
0
  6
CONTINUOUS
100
AcDbLine
 10
24.80182250097217
 20
2.36839999999762
 30
0.0
 11
25.99775392520067
 21
3.564331424226122
 31
0.0
  0
LINE
  5
BDEC
330
BDD7
100
AcDbEntity
  8
0
  6
CONTINUOUS
100
AcDbLine
 10
29.30199999996933
 20
6.868577498994774
 30
0.0
 11
30.74199999996926
 21
8.308577498994712
 31
0.0
  0
LINE
  5
BDED
330
BDD7
100
AcDbEntity
  8
0
  6
CONTINUOUS
100
AcDbLine
 10
25.13028238392013
 20
2.023340673865392
 30
0.0
 11
26.20593567702142
 21
3.098993966966683
 31
0.0
  0
LINE
  5
BDEE
330
BDD7
100
AcDbEntity
  8
0
  6
CONTINUOUS
100
AcDbLine
 10
25.33838066033617
 20
1.557919741201244
 30
0.0
 11
26.41411742884217
 21
2.633656509707244
 31
0.0
  0
LINE
  5
BDEF
330
BDD7
100
AcDbEntity
  8
0
  6
CONTINUOUS
100
AcDbLine
 10
25.54647893675221
 20
1.092498808537098
 30
0.0
 11
26.62229918066291
 21
2.168319052447804
 31
0.0
  0
LINE
  5
BDF0
330
BDD7
100
AcDbEntity
  8
0
  6
CONTINUOUS
100
AcDbLine
 10
25.75457721316825
 20
0.62707787587295
 30
0.0
 11
26.83048093248366
 21
1.702981595188365
 31
0.0
  0
LINE
  5
BDF1
330
BDD7
100
AcDbEntity
  8
0
  6
CONTINUOUS
100
AcDbLine
 10
29.30199999996933
 20
6.195058289914587
 30
0.0
 11
30.74199999996926
 21
7.635058289914522
 31
0.0
  0
LINE
  5
BDF2
330
BDD7
100
AcDbEntity
  8
0
  6
CONTINUOUS
100
AcDbLine
 10
29.30199999996933
 20
5.521539080834401
 30
0.0
 11
30.74199999996926
 21
6.961539080834331
 31
0.0
  0
LINE
  5
BDF3
330
BDD7
100
AcDbEntity
  8
0
  6
CONTINUOUS
100
AcDbLine
 10
29.30199999996933
 20
4.848019871754214
 30
0.0
 11
30.74199999996925
 21
6.288019871754143
 31
0.0
  0
LINE
  5
BDF4
330
BDD7
100
AcDbEntity
  8
0
  6
CONTINUOUS
100
AcDbLine
 10
29.30199999996933
 20
4.174500662674028
 30
0.0
 11
30.74199999996925
 21
5.614500662673953
 31
0.0
  0
LINE
  5
BDF5
330
BDD7
100
AcDbEntity
  8
0
  6
CONTINUOUS
100
AcDbLine
 10
25.96267548958429
 20
0.1616569432088024
 30
0.0
 11
27.18411854636669
 21
1.383099999991207
 31
0.0
  0
LINE
  5
BDF6
330
BDD7
100
AcDbEntity
  8
0
  6
CONTINUOUS
100
AcDbLine
 10
29.30199999996933
 20
3.500981453593841
 30
0.0
 11
30.74199999996925
 21
4.940981453593762
 31
0.0
  0
LINE
  5
BDF7
330
BDD7
100
AcDbEntity
  8
0
  6
CONTINUOUS
100
AcDbLine
 10
26.50763775544691
 20
0.0330999999912356
 30
0.0
 11
27.85763775544689
 21
1.383099999991223
 31
0.0
  0
LINE
  5
BDF8
330
BDD7
100
AcDbEntity
  8
0
  6
CONTINUOUS
100
AcDbLine
 10
29.30199999996933
 20
2.827462244513656
 30
0.0
 11
30.74199999996925
 21
4.267462244513574
 31
0.0
  0
LINE
  5
BDF9
330
BDD7
100
AcDbEntity
  8
0
  6
CONTINUOUS
100
AcDbLine
 10
27.18115696452709
 20
0.0330999999912356
 30
0.0
 11
28.55073879889363
 21
1.402681834357775
 31
0.0
  0
LINE
  5
BDFA
330
BDD7
100
AcDbEntity
  8
0
  6
CONTINUOUS
100
AcDbLine
 10
29.28241816560272
 20
2.134361201066866
 30
0.0
 11
30.74199999996924
 21
3.593943035433383
 31
0.0
  0
LINE
  5
BDFB
330
BDD7
100
AcDbEntity
  8
0
  6
CONTINUOUS
100
AcDbLine
 10
27.85467617360728
 20
0.0330999999912356
 30
0.0
 11
30.74199999996924
 21
2.920423826353195
 31
0.0
  0
LINE
  5
BDFC
330
BDD7
100
AcDbEntity
  8
0
  6
CONTINUOUS
100
AcDbLine
 10
28.53897559587887
 20
0.0438802131826428
 30
0.0
 11
30.73121978677781
 21
2.236124404081585
 31
0.0
  0
LINE
  5
BDFD
330
BDD7
100
AcDbEntity
  8
0
  6
CONTINUOUS
100
AcDbLine
 10
29.45140055588722
 20
0.2827859641107988
 30
0.0
 11
30.49231403584965
 21
1.323699444073236
 31
0.0
  0
LINE
  5
BDFE
330
BDD7
100
AcDbEntity
  8
0
  6
CONTINUOUS
100
AcDbLine
 10
19.59027867740337
 20
-0.0000967065718083
 30
0.0
 11
19.55485265190471
 21
0.035329318926844
 31
0.0
  0
LINE
  5
BDFF
330
BDD7
100
AcDbEntity
  8
0
  6
CONTINUOUS
100
AcDbLine
 10
20.26375463176586
 20
-0.0000534518541091
 30
0.0
 11
19.76305575737534
 21
0.5006454225364014
 31
0.0
  0
LINE
  5
BE00
330
BDD7
100
AcDbEntity
  8
0
  6
CONTINUOUS
100
AcDbLine
 10
20.93723058612834
 20
-0.0000101971364099
 30
0.0
 11
19.97125886284597
 21
0.965961526145958
 31
0.0
  0
LINE
  5
BE01
330
BDD7
100
AcDbEntity
  8
0
  6
CONTINUOUS
100
AcDbLine
 10
21.25514828313686
 20
0.355591314935257
 30
0.0
 11
20.1794619683166
 21
1.431277629755512
 31
0.0
  0
LINE
  5
BE02
330
BDD7
100
AcDbEntity
  8
0
  6
CONTINUOUS
100
AcDbLine
 10
21.46338838394921
 20
0.8208704232030986
 30
0.0
 11
20.38766507378723
 21
1.896593733365069
 31
0.0
  0
LINE
  5
BE03
330
BDD7
100
AcDbEntity
  8
0
  6
CONTINUOUS
100
AcDbLine
 10
21.67162848476155
 20
1.28614953147094
 30
0.0
 11
20.59586817925786
 21
2.361909836974626
 31
0.0
  0
LINE
  5
BE04
330
BDD7
100
AcDbEntity
  8
0
  6
CONTINUOUS
100
AcDbLine
 10
21.8798685855739
 20
1.751428639738782
 30
0.0
 11
20.80407128472849
 21
2.827225940584183
 31
0.0
  0
LINE
  5
BE05
330
BDD7
100
AcDbEntity
  8
0
  6
CONTINUOUS
100
AcDbLine
 10
22.08810868638624
 20
2.216707748006623
 30
0.0
 11
21.01227439019912
 21
3.292542044193739
 31
0.0
  0
LINE
  5
BE06
330
BDD7
100
AcDbEntity
  8
0
  6
CONTINUOUS
100
AcDbLine
 10
22.60993564347543
 20
2.36839999999762
 30
0.0
 11
21.22047749566975
 21
3.757858147803296
 31
0.0
  0
LINE
  5
BE07
330
BDD7
100
AcDbEntity
  8
0
  6
CONTINUOUS
100
AcDbLine
 10
23.28345485255561
 20
2.36839999999762
 30
0.0
 11
21.42868060114038
 21
4.223174251412853
 31
0.0
  0
LINE
  5
BE08
330
BDD7
100
AcDbEntity
  8
0
  6
CONTINUOUS
100
AcDbLine
 10
26.29227406164219
 20
0.0330999999912356
 30
0.0
 11
25.80009199592872
 21
0.5252820657046957
 31
0.0
  0
LINE
  5
BE09
330
BDD7
100
AcDbEntity
  8
0
  6
CONTINUOUS
100
AcDbLine
 10
23.9569740616358
 20
2.36839999999762
 30
0.0
 11
21.63688370661101
 21
4.688490355022409
 31
0.0
  0
LINE
  5
BE0A
330
BDD7
100
AcDbEntity
  8
0
  6
CONTINUOUS
100
AcDbLine
 10
26.96579327072237
 20
0.0330999999912356
 30
0.0
 11
25.2554132311971
 21
1.743480039516508
 31
0.0
  0
LINE
  5
BE0B
330
BDD7
100
AcDbEntity
  8
0
  6
CONTINUOUS
100
AcDbLine
 10
24.63049327071599
 20
2.36839999999762
 30
0.0
 11
23.32789327071731
 21
3.670999999996297
 31
0.0
  0
LINE
  5
BE0C
330
BDD7
100
AcDbEntity
  8
0
  6
CONTINUOUS
100
AcDbLine
 10
22.92098674744635
 20
4.077906523267254
 30
0.0
 11
21.84508681208164
 21
5.153806458631966
 31
0.0
  0
LINE
  5
BE0D
330
BDD7
100
AcDbEntity
  8
0
  6
CONTINUOUS
100
AcDbLine
 10
27.63931247980256
 20
0.0330999999912356
 30
0.0
 11
24.0014124797975
 21
3.670999999996297
 31
0.0
  0
LINE
  5
BE0E
330
BDD7
100
AcDbEntity
  8
0
  6
CONTINUOUS
100
AcDbLine
 10
23.129125600968
 20
4.5432868788258
 30
0.0
 11
22.05328991755227
 21
5.619122562241522
 31
0.0
  0
LINE
  5
BE0F
330
BDD7
100
AcDbEntity
  8
0
  6
CONTINUOUS
100
AcDbLine
 10
28.31283168888275
 20
0.0330999999912356
 30
0.0
 11
24.16488385994816
 21
4.181047828925828
 31
0.0
  0
LINE
  5
BE10
330
BDD7
100
AcDbEntity
  8
0
  6
CONTINUOUS
100
AcDbLine
 10
23.33726445448964
 20
5.008667234384345
 30
0.0
 11
22.2614930230229
 21
6.084438665851079
 31
0.0
  0
LINE
  5
BE11
330
BDD7
100
AcDbEntity
  8
0
  6
CONTINUOUS
100
AcDbLine
 10
28.92085740005492
 20
0.0985934978992438
 30
0.0
 11
27.63635089796295
 21
1.383099999991217
 31
0.0
  0
LINE
  5
BE12
330
BDD7
100
AcDbEntity
  8
0
  6
CONTINUOUS
100
AcDbLine
 10
26.43704649509776
 20
2.582404402856405
 30
0.0
 11
23.61992702019732
 21
5.399523877756844
 31
0.0
  0
LINE
  5
BE13
330
BDD7
100
AcDbEntity
  8
0
  6
CONTINUOUS
100
AcDbLine
 10
23.54540330801128
 20
5.47404758994289
 30
0.0
 11
22.46969612849353
 21
6.549754769460635
 31
0.0
  0
LINE
  5
BE14
330
BDD7
100
AcDbEntity
  8
0
  6
CONTINUOUS
100
AcDbLine
 10
29.42225615078443
 20
0.2707139562499279
 30
0.0
 11
28.30987010704312
 21
1.383099999991234
 31
0.0
  0
LINE
  5
BE15
330
BDD7
100
AcDbEntity
  8
0
  6
CONTINUOUS
100
AcDbLine
 10
25.89179548232307
 20
3.801174624711282
 30
0.0
 11
22.67789923396416
 21
7.015070873070191
 31
0.0
  0
LINE
  5
BE16
330
BDD7
100
AcDbEntity
  8
0
  6
CONTINUOUS
100
AcDbLine
 10
29.83624534690007
 20
0.5302439692144705
 30
0.0
 11
28.85811781497101
 21
1.508371501143527
 31
0.0
  0
LINE
  5
BE17
330
BDD7
100
AcDbEntity
  8
0
  6
CONTINUOUS
100
AcDbLine
 10
25.34654446954838
 20
5.01994484656616
 30
0.0
 11
22.88610233943479
 21
7.480386976679748
 31
0.0
  0
LINE
  5
BE18
330
BDD7
100
AcDbEntity
  8
0
  6
CONTINUOUS
100
AcDbLine
 10
30.17865975401872
 20
0.8613487711760022
 30
0.0
 11
29.18888744090175
 21
1.851121084292977
 31
0.0
  0
LINE
  5
BE19
330
BDD7
100
AcDbEntity
  8
0
  6
CONTINUOUS
100
AcDbLine
 10
24.80129345677369
 20
6.238715068421037
 30
0.0
 11
23.09430544490542
 21
7.945703080289305
 31
0.0
  0
LINE
  5
BE1A
330
BDD7
100
AcDbEntity
  8
0
  6
CONTINUOUS
100
AcDbLine
 10
30.45496647202376
 20
1.258561262251155
 30
0.0
 11
29.30199999996933
 21
2.411527734305588
 31
0.0
  0
LINE
  5
BE1B
330
BDD7
100
AcDbEntity
  8
0
  6
CONTINUOUS
100
AcDbLine
 10
24.256042443999
 20
7.457485290275915
 30
0.0
 11
23.30250855037605
 21
8.411019183898862
 31
0.0
  0
LINE
  5
BE1C
330
BDD7
100
AcDbEntity
  8
0
  6
CONTINUOUS
100
AcDbLine
 10
30.64868582078271
 20
1.738361122572387
 30
0.0
 11
29.30199999996933
 21
3.085046943385775
 31
0.0
  0
LINE
  5
BE1D
330
BDD7
100
AcDbEntity
  8
0
  6
CONTINUOUS
100
AcDbLine
 10
23.71079143122431
 20
8.676255512130794
 30
0.0
 11
23.51071165584668
 21
8.876335287508416
 31
0.0
  0
LINE
  5
BE1E
330
BDD7
100
AcDbEntity
  8
0
  6
CONTINUOUS
100
AcDbLine
 10
30.73802122914428
 20
2.322544923291007
 30
0.0
 11
29.30199999996933
 21
3.758566152465961
 31
0.0
  0
LINE
  5
BE1F
330
BDD7
100
AcDbEntity
  8
0
  6
CONTINUOUS
100
AcDbLine
 10
30.74199999996924
 20
2.992085361546236
 30
0.0
 11
29.30199999996933
 21
4.432085361546148
 31
0.0
  0
LINE
  5
BE20
330
BDD7
100
AcDbEntity
  8
0
  6
CONTINUOUS
100
AcDbLine
 10
30.74199999996924
 20
3.665604570626419
 30
0.0
 11
29.30199999996933
 21
5.105604570626333
 31
0.0
  0
LINE
  5
BE21
330
BDD7
100
AcDbEntity
  8
0
  6
CONTINUOUS
100
AcDbLine
 10
30.74199999996925
 20
4.339123779706602
 30
0.0
 11
29.30199999996933
 21
5.77912377970652
 31
0.0
  0
LINE
  5
BE22
330
BDD7
100
AcDbEntity
  8
0
  6
CONTINUOUS
100
AcDbLine
 10
30.74199999996925
 20
5.012642988786785
 30
0.0
 11
29.30199999996933
 21
6.452642988786707
 31
0.0
  0
LINE
  5
BE23
330
BDD7
100
AcDbEntity
  8
0
  6
CONTINUOUS
100
AcDbLine
 10
30.74199999996925
 20
5.68616219786697
 30
0.0
 11
29.30199999996933
 21
7.126162197866894
 31
0.0
  0
LINE
  5
BE24
330
BDD7
100
AcDbEntity
  8
0
  6
CONTINUOUS
100
AcDbLine
 10
30.74199999996925
 20
6.359681406947153
 30
0.0
 11
29.30199999996933
 21
7.799681406947081
 31
0.0
  0
LINE
  5
BE25
330
BDD7
100
AcDbEntity
  8
0
  6
CONTINUOUS
100
AcDbLine
 10
30.74199999996926
 20
7.033200616027337
 30
0.0
 11
29.30199999996933
 21
8.473200616027269
 31
0.0
  0
LINE
  5
BE26
330
BDD7
100
AcDbEntity
  8
0
  6
CONTINUOUS
100
AcDbLine
 10
30.74199999996926
 20
7.706719825107518
 30
0.0
 11
29.68561982508552
 21
8.763099999991255
 31
0.0
  0
LINE
  5
BE27
330
BDD7
100
AcDbEntity
  8
0
  6
CONTINUOUS
100
AcDbLine
 10
30.74199999996926
 20
8.380239034187703
 30
0.0
 11
30.35913903416571
 21
8.763099999991255
 31
0.0
  0
ENDBLK
  5
BECA
330
BDD7
100
AcDbEntity
  8
0
100
AcDbBlockEnd
  0
BLOCK
  5
BECB
330
BE28
100
AcDbEntity
  8
0
100
AcDbBlockBegin
  2
*X27
 70
     1
 10
0.0
 20
0.0
 30
0.0
  3
*X27
  1

  0
LINE
  5
BE29
330
BE28
100
AcDbEntity
  8
0
  6
CONTINUOUS
100
AcDbLine
 10
31.64199999996833
 20
8.535058289913598
 30
0.0
 11
31.87004171004599
 21
8.763099999991255
 31
0.0
  0
LINE
  5
BE2A
330
BE28
100
AcDbEntity
  8
0
  6
CONTINUOUS
100
AcDbLine
 10
31.64199999996833
 20
7.861539080833412
 30
0.0
 11
32.54356091912618
 21
8.763099999991255
 31
0.0
  0
LINE
  5
BE2B
330
BE28
100
AcDbEntity
  8
0
  6
CONTINUOUS
100
AcDbLine
 10
31.64199999996833
 20
7.188019871753226
 30
0.0
 11
33.08199999996839
 21
8.628019871753281
 31
0.0
  0
LINE
  5
BE2C
330
BE28
100
AcDbEntity
  8
0
  6
CONTINUOUS
100
AcDbLine
 10
31.64199999996833
 20
6.51450066267304
 30
0.0
 11
33.08199999996839
 21
7.954500662673095
 31
0.0
  0
LINE
  5
BE2D
330
BE28
100
AcDbEntity
  8
0
  6
CONTINUOUS
100
AcDbLine
 10
31.64199999996833
 20
5.840981453592853
 30
0.0
 11
33.08199999996839
 21
7.280981453592908
 31
0.0
  0
LINE
  5
BE2E
330
BE28
100
AcDbEntity
  8
0
  6
CONTINUOUS
100
AcDbLine
 10
31.64199999996833
 20
5.167462244512667
 30
0.0
 11
33.08199999996839
 21
6.607462244512721
 31
0.0
  0
LINE
  5
BE2F
330
BE28
100
AcDbEntity
  8
0
  6
CONTINUOUS
100
AcDbLine
 10
31.64199999996833
 20
4.493943035432481
 30
0.0
 11
33.08199999996839
 21
5.933943035432535
 31
0.0
  0
LINE
  5
BE30
330
BE28
100
AcDbEntity
  8
0
  6
CONTINUOUS
100
AcDbLine
 10
31.64199999996833
 20
3.820423826352293
 30
0.0
 11
33.08199999996839
 21
5.260423826352348
 31
0.0
  0
LINE
  5
BE31
330
BE28
100
AcDbEntity
  8
0
  6
CONTINUOUS
100
AcDbLine
 10
31.64199999996833
 20
3.146904617272106
 30
0.0
 11
33.08199999996839
 21
4.586904617272161
 31
0.0
  0
LINE
  5
BE32
330
BE28
100
AcDbEntity
  8
0
  6
CONTINUOUS
100
AcDbLine
 10
36.23199999996837
 20
8.410423826352325
 30
0.0
 11
36.5846761736073
 21
8.763099999991255
 31
0.0
  0
LINE
  5
BE33
330
BE28
100
AcDbEntity
  8
0
  6
CONTINUOUS
100
AcDbLine
 10
36.23199999996837
 20
7.73690461727214
 30
0.0
 11
37.25819538268748
 21
8.763099999991255
 31
0.0
  0
LINE
  5
BE34
330
BE28
100
AcDbEntity
  8
0
  6
CONTINUOUS
100
AcDbLine
 10
31.64257403601376
 20
2.473959444237348
 30
0.0
 11
33.08199999996839
 21
3.913385408191974
 31
0.0
  0
LINE
  5
BE35
330
BE28
100
AcDbEntity
  8
0
  6
CONTINUOUS
100
AcDbLine
 10
36.23199999996837
 20
7.063385408191953
 30
0.0
 11
37.67199999996831
 21
8.503385408191894
 31
0.0
  0
LINE
  5
BE36
330
BE28
100
AcDbEntity
  8
0
  6
CONTINUOUS
100
AcDbLine
 10
31.72013636841932
 20
1.87800256756272
 30
0.0
 11
33.08199999996839
 21
3.239866199111788
 31
0.0
  0
LINE
  5
BE37
330
BE28
100
AcDbEntity
  8
0
  6
CONTINUOUS
100
AcDbLine
 10
36.23199999996837
 20
6.389866199111767
 30
0.0
 11
37.67199999996831
 21
7.829866199111708
 31
0.0
  0
LINE
  5
BE38
330
BE28
100
AcDbEntity
  8
0
  6
CONTINUOUS
100
AcDbLine
 10
31.89042734314753
 20
1.374774333210744
 30
0.0
 11
33.08199999996839
 21
2.566346990031601
 31
0.0
  0
LINE
  5
BE39
330
BE28
100
AcDbEntity
  8
0
  6
CONTINUOUS
100
AcDbLine
 10
36.23199999996837
 20
5.71634699003158
 30
0.0
 11
37.67199999996831
 21
7.156346990031521
 31
0.0
  0
LINE
  5
BE3A
330
BE28
100
AcDbEntity
  8
0
  6
CONTINUOUS
100
AcDbLine
 10
32.14210568064475
 20
0.952933461627778
 30
0.0
 11
33.18745552475986
 21
1.998283305742888
 31
0.0
  0
LINE
  5
BE3B
330
BE28
100
AcDbEntity
  8
0
  6
CONTINUOUS
100
AcDbLine
 10
36.23199999996837
 20
5.042827780951393
 30
0.0
 11
37.67199999996831
 21
6.482827780951334
 31
0.0
  0
LINE
  5
BE3C
330
BE28
100
AcDbEntity
  8
0
  6
CONTINUOUS
100
AcDbLine
 10
32.45820639400955
 20
0.5955149659123915
 30
0.0
 11
33.47242681921943
 21
1.60973539112227
 31
0.0
  0
LINE
  5
BE3D
330
BE28
100
AcDbEntity
  8
0
  6
CONTINUOUS
100
AcDbLine
 10
36.23199999996837
 20
4.369308571871207
 30
0.0
 11
37.67199999996831
 21
5.809308571871147
 31
0.0
  0
LINE
  5
BE3E
330
BE28
100
AcDbEntity
  8
0
  6
CONTINUOUS
100
AcDbLine
 10
32.83432456621412
 20
0.2981139290367771
 30
0.0
 11
33.89722476612215
 21
1.361014128944803
 31
0.0
  0
LINE
  5
BE3F
330
BE28
100
AcDbEntity
  8
0
  6
CONTINUOUS
100
AcDbLine
 10
36.23199999996837
 20
3.69578936279102
 30
0.0
 11
37.67199999996831
 21
5.135789362790962
 31
0.0
  0
LINE
  5
BE40
330
BE28
100
AcDbEntity
  8
0
  6
CONTINUOUS
100
AcDbLine
 10
33.2711633111245
 20
0.0614334648669672
 30
0.0
 11
34.43247338014423
 21
1.222743533886696
 31
0.0
  0
LINE
  5
BE41
330
BE28
100
AcDbEntity
  8
0
  6
CONTINUOUS
100
AcDbLine
 10
36.23199999996837
 20
3.022270153710834
 30
0.0
 11
37.67199999996831
 21
4.462270153710775
 31
0.0
  0
LINE
  5
BE42
330
BE28
100
AcDbEntity
  8
0
  6
CONTINUOUS
100
AcDbLine
 10
33.76515245874577
 20
-0.1180965965919523
 30
0.0
 11
35.1587445516215
 21
1.27549549628378
 31
0.0
  0
LINE
  5
BE43
330
BE28
100
AcDbEntity
  8
0
  6
CONTINUOUS
100
AcDbLine
 10
36.21639478609585
 20
2.333145730758136
 30
0.0
 11
37.67199999996831
 21
3.788750944630588
 31
0.0
  0
LINE
  5
BE44
330
BE28
100
AcDbEntity
  8
0
  6
CONTINUOUS
100
AcDbLine
 10
34.34060583368432
 20
-0.2161624307335863
 30
0.0
 11
37.67199999996831
 21
3.115231735550401
 31
0.0
  0
LINE
  5
BE45
330
BE28
100
AcDbEntity
  8
0
  6
CONTINUOUS
100
AcDbLine
 10
35.01698193613905
 20
-0.2133055373590427
 30
0.0
 11
37.66876712070525
 21
2.438479647207154
 31
0.0
  0
LINE
  5
BE46
330
BE28
100
AcDbEntity
  8
0
  6
CONTINUOUS
100
AcDbLine
 10
35.90743367693304
 20
0.0036269943547609
 30
0.0
 11
37.51723902192366
 21
1.613432339345381
 31
0.0
  0
LINE
  5
BE47
330
BE28
100
AcDbEntity
  8
0
  6
CONTINUOUS
100
AcDbLine
 10
32.55309425579761
 20
0.5074718966376706
 30
0.0
 11
32.27784730925847
 21
0.7827188431768102
 31
0.0
  0
LINE
  5
BE48
330
BE28
100
AcDbEntity
  8
0
  6
CONTINUOUS
100
AcDbLine
 10
33.87496468909684
 20
-0.1408793275813673
 30
0.0
 11
31.67993083278052
 21
2.054154528734943
 31
0.0
  0
LINE
  5
BE49
330
BE28
100
AcDbEntity
  8
0
  6
CONTINUOUS
100
AcDbLine
 10
34.64362813207632
 20
-0.2360235614806649
 30
0.0
 11
31.64199999996833
 21
2.765604570627322
 31
0.0
  0
LINE
  5
BE4A
330
BE28
100
AcDbEntity
  8
0
  6
CONTINUOUS
100
AcDbLine
 10
35.25801106796118
 20
-0.1768872882853429
 30
0.0
 11
31.64199999996833
 21
3.439123779707508
 31
0.0
  0
LINE
  5
BE4B
330
BE28
100
AcDbEntity
  8
0
  6
CONTINUOUS
100
AcDbLine
 10
35.79065650332146
 20
-0.0360135145654361
 30
0.0
 11
34.54143210838231
 21
1.213210880373721
 31
0.0
  0
LINE
  5
BE4C
330
BE28
100
AcDbEntity
  8
0
  6
CONTINUOUS
100
AcDbLine
 10
33.08199999996839
 20
2.67264298878764
 30
0.0
 11
31.64199999996833
 21
4.112642988787695
 31
0.0
  0
LINE
  5
BE4D
330
BE28
100
AcDbEntity
  8
0
  6
CONTINUOUS
100
AcDbLine
 10
36.25975597779143
 20
0.1684062200447833
 30
0.0
 11
35.15395110240023
 21
1.274211095435983
 31
0.0
  0
LINE
  5
BE4E
330
BE28
100
AcDbEntity
  8
0
  6
CONTINUOUS
100
AcDbLine
 10
33.08199999996839
 20
3.346162197867826
 30
0.0
 11
31.64199999996833
 21
4.786162197867881
 31
0.0
  0
LINE
  5
BE4F
330
BE28
100
AcDbEntity
  8
0
  6
CONTINUOUS
100
AcDbLine
 10
36.67226329638774
 20
0.4294181105286579
 30
0.0
 11
35.63766478748767
 21
1.464016619428737
 31
0.0
  0
LINE
  5
BE50
330
BE28
100
AcDbEntity
  8
0
  6
CONTINUOUS
100
AcDbLine
 10
33.08199999996839
 20
4.019681406948012
 30
0.0
 11
31.64199999996833
 21
5.459681406948068
 31
0.0
  0
LINE
  5
BE51
330
BE28
100
AcDbEntity
  8
0
  6
CONTINUOUS
100
AcDbLine
 10
37.01677749710036
 20
0.7584231188962329
 30
0.0
 11
35.99563422741351
 21
1.779566388583076
 31
0.0
  0
LINE
  5
BE52
330
BE28
100
AcDbEntity
  8
0
  6
CONTINUOUS
100
AcDbLine
 10
33.08199999996839
 20
4.693200616028199
 30
0.0
 11
31.64199999996833
 21
6.133200616028255
 31
0.0
  0
LINE
  5
BE53
330
BE28
100
AcDbEntity
  8
0
  6
CONTINUOUS
100
AcDbLine
 10
37.29859977568887
 20
1.1501200493879
 30
0.0
 11
36.20680593341555
 21
2.241913891661226
 31
0.0
  0
LINE
  5
BE54
330
BE28
100
AcDbEntity
  8
0
  6
CONTINUOUS
100
AcDbLine
 10
33.08199999996839
 20
5.366719825108386
 30
0.0
 11
31.64199999996833
 21
6.80671982510844
 31
0.0
  0
LINE
  5
BE55
330
BE28
100
AcDbEntity
  8
0
  6
CONTINUOUS
100
AcDbLine
 10
37.5148623517228
 20
1.607376682434161
 30
0.0
 11
36.23199999996837
 21
2.890239034188594
 31
0.0
  0
LINE
  5
BE56
330
BE28
100
AcDbEntity
  8
0
  6
CONTINUOUS
100
AcDbLine
 10
33.08199999996839
 20
6.040239034188573
 30
0.0
 11
31.64199999996833
 21
7.480239034188627
 31
0.0
  0
LINE
  5
BE57
330
BE28
100
AcDbEntity
  8
0
  6
CONTINUOUS
100
AcDbLine
 10
37.64705163358367
 20
2.148706609653477
 30
0.0
 11
36.23199999996837
 21
3.56375824326878
 31
0.0
  0
LINE
  5
BE58
330
BE28
100
AcDbEntity
  8
0
  6
CONTINUOUS
100
AcDbLine
 10
33.08199999996839
 20
6.713758243268758
 30
0.0
 11
31.64199999996833
 21
8.153758243268815
 31
0.0
  0
LINE
  5
BE59
330
BE28
100
AcDbEntity
  8
0
  6
CONTINUOUS
100
AcDbLine
 10
37.67199999996831
 20
2.797277452349026
 30
0.0
 11
36.23199999996837
 21
4.237277452348967
 31
0.0
  0
LINE
  5
BE5A
330
BE28
100
AcDbEntity
  8
0
  6
CONTINUOUS
100
AcDbLine
 10
37.67199999996831
 20
3.470796661429213
 30
0.0
 11
36.23199999996837
 21
4.910796661429154
 31
0.0
  0
LINE
  5
BE5B
330
BE28
100
AcDbEntity
  8
0
  6
CONTINUOUS
100
AcDbLine
 10
37.67199999996831
 20
4.144315870509399
 30
0.0
 11
36.23199999996837
 21
5.58431587050934
 31
0.0
  0
LINE
  5
BE5C
330
BE28
100
AcDbEntity
  8
0
  6
CONTINUOUS
100
AcDbLine
 10
33.08199999996839
 20
7.387277452348945
 30
0.0
 11
31.70617745232608
 21
8.763099999991255
 31
0.0
  0
LINE
  5
BE5D
330
BE28
100
AcDbEntity
  8
0
  6
CONTINUOUS
100
AcDbLine
 10
33.08199999996839
 20
8.060796661429132
 30
0.0
 11
32.37969666140626
 21
8.763099999991255
 31
0.0
  0
LINE
  5
BE5E
330
BE28
100
AcDbEntity
  8
0
  6
CONTINUOUS
100
AcDbLine
 10
33.08199999996839
 20
8.734315870509318
 30
0.0
 11
33.05321587048645
 21
8.763099999991255
 31
0.0
  0
LINE
  5
BE5F
330
BE28
100
AcDbEntity
  8
0
  6
CONTINUOUS
100
AcDbLine
 10
37.67199999996831
 20
4.817835079589585
 30
0.0
 11
36.23199999996837
 21
6.257835079589526
 31
0.0
  0
LINE
  5
BE60
330
BE28
100
AcDbEntity
  8
0
  6
CONTINUOUS
100
AcDbLine
 10
37.67199999996831
 20
5.491354288669771
 30
0.0
 11
36.23199999996837
 21
6.931354288669713
 31
0.0
  0
LINE
  5
BE61
330
BE28
100
AcDbEntity
  8
0
  6
CONTINUOUS
100
AcDbLine
 10
37.67199999996831
 20
6.164873497749958
 30
0.0
 11
36.23199999996837
 21
7.6048734977499
 31
0.0
  0
LINE
  5
BE62
330
BE28
100
AcDbEntity
  8
0
  6
CONTINUOUS
100
AcDbLine
 10
37.67199999996831
 20
6.838392706830144
 30
0.0
 11
36.23199999996837
 21
8.278392706830086
 31
0.0
  0
LINE
  5
BE63
330
BE28
100
AcDbEntity
  8
0
  6
CONTINUOUS
100
AcDbLine
 10
37.67199999996831
 20
7.511911915910332
 30
0.0
 11
36.42081191588738
 21
8.763099999991255
 31
0.0
  0
LINE
  5
BE64
330
BE28
100
AcDbEntity
  8
0
  6
CONTINUOUS
100
AcDbLine
 10
37.67199999996831
 20
8.185431124990519
 30
0.0
 11
37.09433112496757
 21
8.763099999991255
 31
0.0
  0
ENDBLK
  5
BECC
330
BE28
100
AcDbEntity
  8
0
100
AcDbBlockEnd
  0
BLOCK
  5
BECD
330
BE65
100
AcDbEntity
  8
0
100
AcDbBlockBegin
  2
*X28
 70
     1
 10
0.0
 20
0.0
 30
0.0
  3
*X28
  1

  0
LINE
  5
BE66
330
BE65
100
AcDbEntity
  8
0
  6
CONTINUOUS
100
AcDbLine
 10
38.60499999996136
 20
8.762866199104765
 30
0.0
 11
38.71672554182345
 21
8.874591740966855
 31
0.0
  0
LINE
  5
BE67
330
BE65
100
AcDbEntity
  8
0
  6
CONTINUOUS
100
AcDbLine
 10
38.60499999996136
 20
8.089346990024577
 30
0.0
 11
39.03418785440363
 21
8.518534844466847
 31
0.0
  0
LINE
  5
BE68
330
BE65
100
AcDbEntity
  8
0
  6
CONTINUOUS
100
AcDbLine
 10
38.60499999996136
 20
7.41582778094439
 30
0.0
 11
39.35165016698382
 21
8.16247794796684
 31
0.0
  0
LINE
  5
BE69
330
BE65
100
AcDbEntity
  8
0
  6
CONTINUOUS
100
AcDbLine
 10
38.60499999996136
 20
6.742308571864204
 30
0.0
 11
39.66911247956399
 21
7.806421051466834
 31
0.0
  0
LINE
  5
BE6A
330
BE65
100
AcDbEntity
  8
0
  6
CONTINUOUS
100
AcDbLine
 10
38.60499999996136
 20
6.068789362784018
 30
0.0
 11
39.98657479214418
 21
7.450364154966827
 31
0.0
  0
LINE
  5
BE6B
330
BE65
100
AcDbEntity
  8
0
  6
CONTINUOUS
100
AcDbLine
 10
38.60499999996136
 20
5.395270153703832
 30
0.0
 11
40.30403710472435
 21
7.09430725846682
 31
0.0
  0
LINE
  5
BE6C
330
BE65
100
AcDbEntity
  8
0
  6
CONTINUOUS
100
AcDbLine
 10
38.60499999996136
 20
4.721750944623645
 30
0.0
 11
40.62149941730453
 21
6.738250361966813
 31
0.0
  0
LINE
  5
BE6D
330
BE65
100
AcDbEntity
  8
0
  6
CONTINUOUS
100
AcDbLine
 10
38.60499999996136
 20
4.048231735543458
 30
0.0
 11
40.93896172988471
 21
6.382193465466806
 31
0.0
  0
LINE
  5
BE6E
330
BE65
100
AcDbEntity
  8
0
  6
CONTINUOUS
100
AcDbLine
 10
38.60499999996136
 20
3.374712526463272
 30
0.0
 11
40.02599999995994
 21
4.795712526461843
 31
0.0
  0
LINE
  5
BE6F
330
BE65
100
AcDbEntity
  8
0
  6
CONTINUOUS
100
AcDbLine
 10
38.60499999996136
 20
2.701193317383085
 30
0.0
 11
40.02599999995994
 21
4.122193317381657
 31
0.0
  0
LINE
  5
BE70
330
BE65
100
AcDbEntity
  8
0
  6
CONTINUOUS
100
AcDbLine
 10
40.28339754687704
 20
5.053110073378947
 30
0.0
 11
41.25642404246489
 21
6.026136568966799
 31
0.0
  0
LINE
  5
BE71
330
BE65
100
AcDbEntity
  8
0
  6
CONTINUOUS
100
AcDbLine
 10
40.60085985945722
 20
4.697053176878939
 30
0.0
 11
41.57388635504507
 21
5.670079672466793
 31
0.0
  0
LINE
  5
BE72
330
BE65
100
AcDbEntity
  8
0
  6
CONTINUOUS
100
AcDbLine
 10
43.57899999995641
 20
8.348712526458318
 30
0.0
 11
43.99338747348935
 21
8.763099999991255
 31
0.0
  0
LINE
  5
BE73
330
BE65
100
AcDbEntity
  8
0
  6
CONTINUOUS
100
AcDbLine
 10
43.57899999995641
 20
7.675193317378131
 30
0.0
 11
44.66690668256953
 21
8.763099999991255
 31
0.0
  0
LINE
  5
BE74
330
BE65
100
AcDbEntity
  8
0
  6
CONTINUOUS
100
AcDbLine
 10
38.60499999996136
 20
2.027674108302898
 30
0.0
 11
40.02599999995994
 21
3.44867410830147
 31
0.0
  0
LINE
  5
BE75
330
BE65
100
AcDbEntity
  8
0
  6
CONTINUOUS
100
AcDbLine
 10
38.60499999996136
 20
1.354154899222712
 30
0.0
 11
40.02599999995994
 21
2.775154899221284
 31
0.0
  0
LINE
  5
BE76
330
BE65
100
AcDbEntity
  8
0
  6
CONTINUOUS
100
AcDbLine
 10
38.60499999996136
 20
0.6806356901425255
 30
0.0
 11
40.02599999995994
 21
2.101635690141098
 31
0.0
  0
LINE
  5
BE77
330
BE65
100
AcDbEntity
  8
0
  6
CONTINUOUS
100
AcDbLine
 10
38.60499999996136
 20
0.0071164810623383
 30
0.0
 11
40.02599999995994
 21
1.428116481060911
 31
0.0
  0
LINE
  5
BE78
330
BE65
100
AcDbEntity
  8
0
  6
CONTINUOUS
100
AcDbLine
 10
40.9183221720374
 20
4.340996280378933
 30
0.0
 11
41.89134866762525
 21
5.314022775966786
 31
0.0
  0
LINE
  5
BE79
330
BE65
100
AcDbEntity
  8
0
  6
CONTINUOUS
100
AcDbLine
 10
41.23578448461758
 20
3.984939383878926
 30
0.0
 11
42.20881098020543
 21
4.957965879466778
 31
0.0
  0
LINE
  5
BE7A
330
BE65
100
AcDbEntity
  8
0
  6
CONTINUOUS
100
AcDbLine
 10
41.55324679719776
 20
3.628882487378919
 30
0.0
 11
42.52627329278561
 21
4.601908982966772
 31
0.0
  0
LINE
  5
BE7B
330
BE65
100
AcDbEntity
  8
0
  6
CONTINUOUS
100
AcDbLine
 10
41.87070910977793
 20
3.272825590878912
 30
0.0
 11
42.84373560536579
 21
4.245852086466765
 31
0.0
  0
LINE
  5
BE7C
330
BE65
100
AcDbEntity
  8
0
  6
CONTINUOUS
100
AcDbLine
 10
43.57899999995641
 20
7.001674108297943
 30
0.0
 11
44.99999999995498
 21
8.422674108296516
 31
0.0
  0
LINE
  5
BE7D
330
BE65
100
AcDbEntity
  8
0
  6
CONTINUOUS
100
AcDbLine
 10
43.57899999995641
 20
6.328154899217758
 30
0.0
 11
44.99999999995498
 21
7.749154899216329
 31
0.0
  0
LINE
  5
BE7E
330
BE65
100
AcDbEntity
  8
0
  6
CONTINUOUS
100
AcDbLine
 10
43.57899999995641
 20
5.654635690137571
 30
0.0
 11
44.99999999995498
 21
7.075635690136142
 31
0.0
  0
LINE
  5
BE7F
330
BE65
100
AcDbEntity
  8
0
  6
CONTINUOUS
100
AcDbLine
 10
43.57899999995641
 20
4.981116481057384
 30
0.0
 11
44.99999999995498
 21
6.402116481055955
 31
0.0
  0
LINE
  5
BE80
330
BE65
100
AcDbEntity
  8
0
  6
CONTINUOUS
100
AcDbLine
 10
39.27140272797921
 20
-0.0000000000000009
 30
0.0
 11
40.02599999995994
 21
0.7545972719807246
 31
0.0
  0
LINE
  5
BE81
330
BE65
100
AcDbEntity
  8
0
  6
CONTINUOUS
100
AcDbLine
 10
39.9449219370594
 20
-0.0000000000000009
 30
0.0
 11
40.02599999995994
 21
0.0810780629005379
 31
0.0
  0
LINE
  5
BE82
330
BE65
100
AcDbEntity
  8
0
  6
CONTINUOUS
100
AcDbLine
 10
42.18817142235812
 20
2.916768694378905
 30
0.0
 11
43.16119791794597
 21
3.889795189966758
 31
0.0
  0
LINE
  5
BE83
330
BE65
100
AcDbEntity
  8
0
  6
CONTINUOUS
100
AcDbLine
 10
42.50563373493829
 20
2.560711797878898
 30
0.0
 11
43.47866023052615
 21
3.533738293466751
 31
0.0
  0
LINE
  5
BE84
330
BE65
100
AcDbEntity
  8
0
  6
CONTINUOUS
100
AcDbLine
 10
43.57899999995641
 20
4.307597271977198
 30
0.0
 11
44.99999999995498
 21
5.728597271975769
 31
0.0
  0
LINE
  5
BE85
330
BE65
100
AcDbEntity
  8
0
  6
CONTINUOUS
100
AcDbLine
 10
43.57899999995641
 20
3.634078062897011
 30
0.0
 11
44.99999999995498
 21
5.055078062895582
 31
0.0
  0
LINE
  5
BE86
330
BE65
100
AcDbEntity
  8
0
  6
CONTINUOUS
100
AcDbLine
 10
42.82309604751848
 20
2.204654901378891
 30
0.0
 11
44.99999999995498
 21
4.381558853815395
 31
0.0
  0
LINE
  5
BE87
330
BE65
100
AcDbEntity
  8
0
  6
CONTINUOUS
100
AcDbLine
 10
43.14055836009865
 20
1.848598004878885
 30
0.0
 11
44.99999999995498
 21
3.70803964473521
 31
0.0
  0
LINE
  5
BE88
330
BE65
100
AcDbEntity
  8
0
  6
CONTINUOUS
100
AcDbLine
 10
43.45802067267883
 20
1.492541108378878
 30
0.0
 11
44.99999999995498
 21
3.034520435655023
 31
0.0
  0
LINE
  5
BE89
330
BE65
100
AcDbEntity
  8
0
  6
CONTINUOUS
100
AcDbLine
 10
43.77548298525902
 20
1.136484211878871
 30
0.0
 11
44.99999999995498
 21
2.361001226574837
 31
0.0
  0
LINE
  5
BE8A
330
BE65
100
AcDbEntity
  8
0
  6
CONTINUOUS
100
AcDbLine
 10
44.09294529783919
 20
0.7804273153788639
 30
0.0
 11
44.99999999995498
 21
1.687482017494649
 31
0.0
  0
LINE
  5
BE8B
330
BE65
100
AcDbEntity
  8
0
  6
CONTINUOUS
100
AcDbLine
 10
44.41040761041938
 20
0.4243704188788566
 30
0.0
 11
44.99999999995498
 21
1.013962808414463
 31
0.0
  0
LINE
  5
BE8C
330
BE65
100
AcDbEntity
  8
0
  6
CONTINUOUS
100
AcDbLine
 10
44.72786992299955
 20
0.0683135223788494
 30
0.0
 11
44.99999999995498
 21
0.340443599334276
 31
0.0
  0
LINE
  5
BE8D
330
BE65
100
AcDbEntity
  8
0
  6
CONTINUOUS
100
AcDbLine
 10
39.12223903415696
 20
-0.0000000000000009
 30
0.0
 11
38.60499999996136
 21
0.5172390341955961
 31
0.0
  0
LINE
  5
BE8E
330
BE65
100
AcDbEntity
  8
0
  6
CONTINUOUS
100
AcDbLine
 10
39.79575824323715
 20
-0.0000000000000009
 30
0.0
 11
38.60499999996136
 21
1.190758243275783
 31
0.0
  0
LINE
  5
BE8F
330
BE65
100
AcDbEntity
  8
0
  6
CONTINUOUS
100
AcDbLine
 10
40.02599999995994
 20
0.443277452357397
 30
0.0
 11
38.60499999996136
 21
1.864277452355969
 31
0.0
  0
LINE
  5
BE90
330
BE65
100
AcDbEntity
  8
0
  6
CONTINUOUS
100
AcDbLine
 10
40.02599999995994
 20
1.116796661437583
 30
0.0
 11
38.60499999996136
 21
2.537796661436155
 31
0.0
  0
LINE
  5
BE91
330
BE65
100
AcDbEntity
  8
0
  6
CONTINUOUS
100
AcDbLine
 10
40.02599999995994
 20
1.79031587051777
 30
0.0
 11
38.60499999996136
 21
3.211315870516341
 31
0.0
  0
LINE
  5
BE92
330
BE65
100
AcDbEntity
  8
0
  6
CONTINUOUS
100
AcDbLine
 10
40.02599999995994
 20
2.463835079597956
 30
0.0
 11
38.60499999996136
 21
3.884835079596527
 31
0.0
  0
LINE
  5
BE93
330
BE65
100
AcDbEntity
  8
0
  6
CONTINUOUS
100
AcDbLine
 10
40.02599999995994
 20
3.137354288678143
 30
0.0
 11
38.60499999996136
 21
4.558354288676714
 31
0.0
  0
LINE
  5
BE94
330
BE65
100
AcDbEntity
  8
0
  6
CONTINUOUS
100
AcDbLine
 10
40.02599999995994
 20
3.810873497758329
 30
0.0
 11
38.60499999996136
 21
5.2318734977569
 31
0.0
  0
LINE
  5
BE95
330
BE65
100
AcDbEntity
  8
0
  6
CONTINUOUS
100
AcDbLine
 10
40.02599999995994
 20
4.484392706838515
 30
0.0
 11
38.60499999996136
 21
5.905392706837086
 31
0.0
  0
LINE
  5
BE96
330
BE65
100
AcDbEntity
  8
0
  6
CONTINUOUS
100
AcDbLine
 10
44.99999999995498
 20
0.183911915923658
 30
0.0
 11
41.53858364506288
 21
3.64532827081576
 31
0.0
  0
LINE
  5
BE97
330
BE65
100
AcDbEntity
  8
0
  6
CONTINUOUS
100
AcDbLine
 10
40.02599999995994
 20
5.157911915918703
 30
0.0
 11
38.60499999996136
 21
6.578911915917274
 31
0.0
  0
LINE
  5
BE98
330
BE65
100
AcDbEntity
  8
0
  6
CONTINUOUS
100
AcDbLine
 10
44.99999999995498
 20
0.8574311250038447
 30
0.0
 11
38.60499999996136
 21
7.25243112499746
 31
0.0
  0
LINE
  5
BE99
330
BE65
100
AcDbEntity
  8
0
  6
CONTINUOUS
100
AcDbLine
 10
44.99999999995498
 20
1.530950334084031
 30
0.0
 11
38.60499999996136
 21
7.925950334077647
 31
0.0
  0
LINE
  5
BE9A
330
BE65
100
AcDbEntity
  8
0
  6
CONTINUOUS
100
AcDbLine
 10
44.99999999995498
 20
2.204469543164218
 30
0.0
 11
43.57899999995641
 21
3.625469543162789
 31
0.0
  0
LINE
  5
BE9B
330
BE65
100
AcDbEntity
  8
0
  6
CONTINUOUS
100
AcDbLine
 10
41.89876730984767
 20
5.305702233271528
 30
0.0
 11
38.60499999996136
 21
8.599469543157834
 31
0.0
  0
LINE
  5
BE9C
330
BE65
100
AcDbEntity
  8
0
  6
CONTINUOUS
100
AcDbLine
 10
44.99999999995498
 20
2.877988752244405
 30
0.0
 11
43.57899999995641
 21
4.298988752242975
 31
0.0
  0
LINE
  5
BE9D
330
BE65
100
AcDbEntity
  8
0
  6
CONTINUOUS
100
AcDbLine
 10
44.99999999995498
 20
3.551507961324591
 30
0.0
 11
43.57899999995641
 21
4.972507961323163
 31
0.0
  0
LINE
  5
BE9E
330
BE65
100
AcDbEntity
  8
0
  6
CONTINUOUS
100
AcDbLine
 10
44.99999999995498
 20
4.225027170404777
 30
0.0
 11
43.57899999995641
 21
5.646027170403348
 31
0.0
  0
LINE
  5
BE9F
330
BE65
100
AcDbEntity
  8
0
  6
CONTINUOUS
100
AcDbLine
 10
44.99999999995498
 20
4.898546379484964
 30
0.0
 11
43.57899999995641
 21
6.319546379483535
 31
0.0
  0
LINE
  5
BEA0
330
BE65
100
AcDbEntity
  8
0
  6
CONTINUOUS
100
AcDbLine
 10
44.99999999995498
 20
5.572065588565151
 30
0.0
 11
43.57899999995641
 21
6.993065588563722
 31
0.0
  0
LINE
  5
BEA1
330
BE65
100
AcDbEntity
  8
0
  6
CONTINUOUS
100
AcDbLine
 10
44.99999999995498
 20
6.245584797645336
 30
0.0
 11
43.57899999995641
 21
7.666584797643908
 31
0.0
  0
LINE
  5
BEA2
330
BE65
100
AcDbEntity
  8
0
  6
CONTINUOUS
100
AcDbLine
 10
44.99999999995498
 20
6.919104006725522
 30
0.0
 11
43.57899999995641
 21
8.340104006724093
 31
0.0
  0
LINE
  5
BEA3
330
BE65
100
AcDbEntity
  8
0
  6
CONTINUOUS
100
AcDbLine
 10
44.99999999995498
 20
7.592623215805709
 30
0.0
 11
43.82952321576943
 21
8.763099999991255
 31
0.0
  0
LINE
  5
BEA4
330
BE65
100
AcDbEntity
  8
0
  6
CONTINUOUS
100
AcDbLine
 10
44.99999999995498
 20
8.266142424885896
 30
0.0
 11
44.50304242484962
 21
8.763099999991255
 31
0.0
  0
ENDBLK
  5
BECE
330
BE65
100
AcDbEntity
  8
0
100
AcDbBlockEnd
  0
BLOCK
  5
BECF
330
BEA5
100
AcDbEntity
  8
0
100
AcDbBlockBegin
  2
*X29
 70
     1
 10
0.0
 20
0.0
 30
0.0
  3
*X29
  1

  0
LINE
  5
BEA6
330
BEA5
100
AcDbEntity
  8
0
  6
CONTINUOUS
100
AcDbLine
 10
0.0
 20
8.548461116714023
 30
0.0
 11
0.2146388832772324
 21
8.763099999991255
 31
0.0
  0
LINE
  5
BEA7
330
BEA5
100
AcDbEntity
  8
0
  6
CONTINUOUS
100
AcDbLine
 10
-0.0000000000000002
 20
7.874941907633837
 30
0.0
 11
0.8881580923574184
 21
8.763099999991255
 31
0.0
  0
LINE
  5
BEA8
330
BEA5
100
AcDbEntity
  8
0
  6
CONTINUOUS
100
AcDbLine
 10
0.0
 20
7.20142269855365
 30
0.0
 11
1.420999999998572
 21
8.622422698552223
 31
0.0
  0
LINE
  5
BEA9
330
BEA5
100
AcDbEntity
  8
0
  6
CONTINUOUS
100
AcDbLine
 10
-0.0000000000000001
 20
6.527903489473465
 30
0.0
 11
1.420999999998571
 21
7.948903489472036
 31
0.0
  0
LINE
  5
BEAA
330
BEA5
100
AcDbEntity
  8
0
  6
CONTINUOUS
100
AcDbLine
 10
-0.0000000000000002
 20
5.854384280393278
 30
0.0
 11
1.420999999998571
 21
7.275384280391849
 31
0.0
  0
LINE
  5
BEAB
330
BEA5
100
AcDbEntity
  8
0
  6
CONTINUOUS
100
AcDbLine
 10
-0.0000000000000002
 20
5.180865071313091
 30
0.0
 11
1.420999999998571
 21
6.601865071311663
 31
0.0
  0
LINE
  5
BEAC
330
BEA5
100
AcDbEntity
  8
0
  6
CONTINUOUS
100
AcDbLine
 10
0.0
 20
4.507345862232905
 30
0.0
 11
1.420999999998571
 21
5.928345862231477
 31
0.0
  0
LINE
  5
BEAD
330
BEA5
100
AcDbEntity
  8
0
  6
CONTINUOUS
100
AcDbLine
 10
-0.0000000000000003
 20
3.833826653152718
 30
0.0
 11
1.420999999998571
 21
5.25482665315129
 31
0.0
  0
LINE
  5
BEAE
330
BEA5
100
AcDbEntity
  8
0
  6
CONTINUOUS
100
AcDbLine
 10
-0.0000000000000002
 20
3.160307444072532
 30
0.0
 11
1.420999999998571
 21
4.581307444071103
 31
0.0
  0
LINE
  5
BEAF
330
BEA5
100
AcDbEntity
  8
0
  6
CONTINUOUS
100
AcDbLine
 10
-0.0000000000000001
 20
2.486788234992345
 30
0.0
 11
1.420999999998571
 21
3.907788234990917
 31
0.0
  0
LINE
  5
BEB0
330
BEA5
100
AcDbEntity
  8
0
  6
CONTINUOUS
100
AcDbLine
 10
-0.0000000000000006
 20
1.813269025912159
 30
0.0
 11
1.420999999998571
 21
3.234269025910731
 31
0.0
  0
LINE
  5
BEB1
330
BEA5
100
AcDbEntity
  8
0
  6
CONTINUOUS
100
AcDbLine
 10
0.0
 20
1.139749816831973
 30
0.0
 11
1.420999999998571
 21
2.560749816830544
 31
0.0
  0
LINE
  5
BEB2
330
BEA5
100
AcDbEntity
  8
0
  6
CONTINUOUS
100
AcDbLine
 10
0.0000000000000002
 20
0.466230607751787
 30
0.0
 11
1.420999999998571
 21
1.887230607750358
 31
0.0
  0
LINE
  5
BEB3
330
BEA5
100
AcDbEntity
  8
0
  6
CONTINUOUS
100
AcDbLine
 10
0.2072886013284003
 20
-0.0000000000000009
 30
0.0
 11
1.420999999998571
 21
1.213711398670171
 31
0.0
  0
LINE
  5
BEB4
330
BEA5
100
AcDbEntity
  8
0
  6
CONTINUOUS
100
AcDbLine
 10
0.8808078104085864
 20
-0.0000000000000009
 30
0.0
 11
1.420999999998571
 21
0.5401921895899839
 31
0.0
  0
LINE
  5
BEB5
330
BEA5
100
AcDbEntity
  8
0
  6
CONTINUOUS
100
AcDbLine
 10
0.0581249075061505
 20
-0.0000000000000009
 30
0.0
 11
-0.0000000000000002
 21
0.0581249075061496
 31
0.0
  0
LINE
  5
BEB6
330
BEA5
100
AcDbEntity
  8
0
  6
CONTINUOUS
100
AcDbLine
 10
0.7316441165863372
 20
-0.0000000000000009
 30
0.0
 11
-0.0000000000000002
 21
0.7316441165863363
 31
0.0
  0
LINE
  5
BEB7
330
BEA5
100
AcDbEntity
  8
0
  6
CONTINUOUS
100
AcDbLine
 10
1.405163325666523
 20
-0.0000000000000009
 30
0.0
 11
-0.0000000000000002
 21
1.405163325666523
 31
0.0
  0
LINE
  5
BEB8
330
BEA5
100
AcDbEntity
  8
0
  6
CONTINUOUS
100
AcDbLine
 10
1.420999999998572
 20
0.6576825347481381
 30
0.0
 11
-0.0000000000000001
 21
2.07868253474671
 31
0.0
  0
LINE
  5
BEB9
330
BEA5
100
AcDbEntity
  8
0
  6
CONTINUOUS
100
AcDbLine
 10
1.420999999998571
 20
1.331201743828324
 30
0.0
 11
-0.0000000000000001
 21
2.752201743826896
 31
0.0
  0
LINE
  5
BEBA
330
BEA5
100
AcDbEntity
  8
0
  6
CONTINUOUS
100
AcDbLine
 10
1.420999999998571
 20
2.004720952908511
 30
0.0
 11
-0.0000000000000002
 21
3.425720952907082
 31
0.0
  0
LINE
  5
BEBB
330
BEA5
100
AcDbEntity
  8
0
  6
CONTINUOUS
100
AcDbLine
 10
1.420999999998571
 20
2.678240161988697
 30
0.0
 11
-0.0000000000000001
 21
4.099240161987269
 31
0.0
  0
LINE
  5
BEBC
330
BEA5
100
AcDbEntity
  8
0
  6
CONTINUOUS
100
AcDbLine
 10
1.420999999998572
 20
3.351759371068884
 30
0.0
 11
0.0
 21
4.772759371067455
 31
0.0
  0
LINE
  5
BEBD
330
BEA5
100
AcDbEntity
  8
0
  6
CONTINUOUS
100
AcDbLine
 10
1.420999999998571
 20
4.02527858014907
 30
0.0
 11
-0.0000000000000003
 21
5.446278580147642
 31
0.0
  0
LINE
  5
BEBE
330
BEA5
100
AcDbEntity
  8
0
  6
CONTINUOUS
100
AcDbLine
 10
1.420999999998571
 20
4.698797789229257
 30
0.0
 11
0.0
 21
6.119797789227828
 31
0.0
  0
LINE
  5
BEBF
330
BEA5
100
AcDbEntity
  8
0
  6
CONTINUOUS
100
AcDbLine
 10
1.420999999998571
 20
5.372316998309444
 30
0.0
 11
-0.0000000000000001
 21
6.793316998308015
 31
0.0
  0
LINE
  5
BEC0
330
BEA5
100
AcDbEntity
  8
0
  6
CONTINUOUS
100
AcDbLine
 10
1.420999999998572
 20
6.045836207389629
 30
0.0
 11
-0.0000000000000004
 21
7.466836207388202
 31
0.0
  0
LINE
  5
BEC1
330
BEA5
100
AcDbEntity
  8
0
  6
CONTINUOUS
100
AcDbLine
 10
1.420999999998571
 20
6.719355416469816
 30
0.0
 11
0.0
 21
8.140355416468388
 31
0.0
  0
LINE
  5
BEC2
330
BEA5
100
AcDbEntity
  8
0
  6
CONTINUOUS
100
AcDbLine
 10
1.420999999998571
 20
7.392874625550003
 30
0.0
 11
0.0507746255573185
 21
8.763099999991255
 31
0.0
  0
LINE
  5
BEC3
330
BEA5
100
AcDbEntity
  8
0
  6
CONTINUOUS
100
AcDbLine
 10
1.420999999998571
 20
8.06639383463019
 30
0.0
 11
0.7242938346375052
 21
8.763099999991255
 31
0.0
  0
LINE
  5
BEC4
330
BEA5
100
AcDbEntity
  8
0
  6
CONTINUOUS
100
AcDbLine
 10
1.420999999998571
 20
8.739913043710375
 30
0.0
 11
1.397813043717691
 21
8.763099999991255
 31
0.0
  0
ENDBLK
  5
BED0
330
BEA5
100
AcDbEntity
  8
0
100
AcDbBlockEnd
  0
ENDSEC
  0
SECTION
  2
ENTITIES
  0
TEXT
  5
8FBC
330
18
100
AcDbEntity
  8
1TEXT
100
AcDbText
 10
461.4180680140553
 20
-596.0722177338346
 30
0.0
 40
8.0
  1
KLJ-2D-X
100
AcDbText
  0
LINE
  5
9123
330
18
100
AcDbEntity
  8
1CENTER
100
AcDbLine
 10
627.1713484552324
 20
-749.235898293242
 30
0.0
 11
627.1713484552326
 21
-763.4216086932412
 31
0.0
  0
LINE
  5
9124
330
18
100
AcDbEntity
  8
1CENTER
100
AcDbLine
 10
620.078493255233
 20
-756.3287534932417
 30
0.0
 11
634.2642036552321
 21
-756.3287534932415
 31
0.0
  0
LINE
  5
9211
330
18
100
AcDbEntity
  8
1CENTER
100
AcDbLine
 10
480.4425278925584
 20
-712.3287536973701
 30
0.0
 11
480.4425278925584
 21
-700.3287536973701
 31
0.0
  0
LINE
  5
9212
330
18
100
AcDbEntity
  8
1CENTER
100
AcDbLine
 10
474.4425278925584
 20
-706.3287536973701
 30
0.0
 11
486.4425278925584
 21
-706.3287536973701
 31
0.0
  0
LINE
  5
9273
330
18
100
AcDbEntity
  8
1CENTER
100
AcDbLine
 10
480.4425278925584
 20
-650.6807722461218
 30
0.0
 11
480.4425278925584
 21
-606.3940285320006
 31
0.0
  0
LINE
  5
9282
330
18
100
AcDbEntity
  8
1CENTER
100
AcDbLine
 10
627.1713481327726
 20
-634.1687579715415
 30
0.0
 11
627.1713481327726
 21
-622.1687579715415
 31
0.0
  0
LINE
  5
929D
330
18
100
AcDbEntity
  8
1CENTER
100
AcDbLine
 10
627.1713481327726
 20
-712.3287536973694
 30
0.0
 11
627.1713481327726
 21
-700.3287536973694
 31
0.0
  0
LINE
  5
929E
330
18
100
AcDbEntity
  8
1CENTER
100
AcDbLine
 10
621.1713481327726
 20
-706.3287536973694
 30
0.0
 11
633.1713481327726
 21
-706.3287536973694
 31
0.0
  0
LINE
  5
92AA
330
18
100
AcDbEntity
  8
1CENTER
100
AcDbLine
 10
527.5867952151859
 20
-706.3287536973701
 30
0.0
 11
555.5429795057353
 21
-706.3287536973701
 31
0.0
  0
LINE
  5
92AB
330
18
100
AcDbEntity
  8
1CENTER
100
AcDbLine
 10
561.8296757039286
 20
-706.3287536973701
 30
0.0
 11
590.5550285768646
 21
-706.3287536973701
 31
0.0
  0
LINE
  5
9873
330
18
100
AcDbEntity
  8
01
100
AcDbLine
 10
499.9425401137655
 20
-631.6441415834882
 30
0.0
 11
460.9425401137656
 21
-631.6441415834885
 31
0.0
  0
LINE
  5
9875
330
18
100
AcDbEntity
  8
01
100
AcDbLine
 10
460.4425401137653
 20
-625.3441415834883
 30
0.0
 11
500.4425401137655
 21
-625.3441415834877
 31
0.0
  0
LINE
  5
9876
330
18
100
AcDbEntity
  8
01
100
AcDbLine
 10
460.4425401137653
 20
-625.3441415834883
 30
0.0
 11
460.4425401137656
 21
-631.1441415834885
 31
0.0
  0
ARC
  5
9877
330
18
100
AcDbEntity
  8
01
100
AcDbCircle
 10
460.9425401137655
 20
-631.1441415834882
 30
0.0
 40
0.5
100
AcDbArc
 50
180.0
 51
270.0
  0
LINE
  5
987D
330
18
100
AcDbEntity
  8
01
100
AcDbLine
 10
500.4425401137655
 20
-625.3441415834877
 30
0.0
 11
500.4425401137655
 21
-631.1441415834882
 31
0.0
  0
ARC
  5
987E
330
18
100
AcDbEntity
  8
01
100
AcDbCircle
 10
499.9425401137655
 20
-631.1441415834882
 30
0.0
 40
0.5
100
AcDbArc
 50
270.0
 51
0.0
  0
LINE
  5
987F
330
18
100
AcDbEntity
  8
01
100
AcDbLine
 10
607.6713481327745
 20
-680.8287534932416
 30
0.0
 11
646.6713481327741
 21
-680.8287534932418
 31
0.0
  0
ARC
  5
9880
330
18
100
AcDbEntity
  8
01
100
AcDbCircle
 10
646.6713481327741
 20
-681.3287534932418
 30
0.0
 40
0.5
100
AcDbArc
 50
0.0
 51
90.0
  0
LINE
  5
9881
330
18
100
AcDbEntity
  8
01
100
AcDbLine
 10
607.6713481327743
 20
-720.8287534932416
 30
0.0
 11
646.6713481327743
 21
-720.8287534932421
 31
0.0
  0
ARC
  5
9882
330
18
100
AcDbEntity
  8
01
100
AcDbCircle
 10
607.6713481327743
 20
-720.3287534932416
 30
0.0
 40
0.5
100
AcDbArc
 50
180.0
 51
270.0
  0
LINE
  5
9886
330
18
100
AcDbEntity
  8
01
100
AcDbLine
 10
583.646049547228
 20
-720.328748833173
 30
0.0
 11
583.6460495472282
 21
-681.3287488331734
 31
0.0
  0
LINE
  5
9889
330
18
100
AcDbEntity
  8
01
100
AcDbLine
 10
577.3460495472283
 20
-680.828748833173
 30
0.0
 11
577.346049547224
 21
-720.8287488331732
 31
0.0
  0
LINE
  5
988B
330
18
100
AcDbEntity
  8
01
100
AcDbLine
 10
607.1713481327743
 20
-720.3287534932416
 30
0.0
 11
607.1713481327745
 21
-681.3287534932416
 31
0.0
  0
ARC
  5
988C
330
18
100
AcDbEntity
  8
01
100
AcDbCircle
 10
607.6713481327745
 20
-681.3287534932416
 30
0.0
 40
0.5
100
AcDbArc
 50
90.0
 51
180.0
  0
LINE
  5
988D
330
18
100
AcDbEntity
  8
01
100
AcDbLine
 10
577.346049547224
 20
-720.8287488331732
 30
0.0
 11
583.1460495472282
 21
-720.828748833173
 31
0.0
  0
ARC
  5
988E
330
18
100
AcDbEntity
  8
01
100
AcDbCircle
 10
583.1460495472282
 20
-720.328748833173
 30
0.0
 40
0.5
100
AcDbArc
 50
270.0
 51
0.0
  0
LINE
  5
9892
330
18
100
AcDbEntity
  8
01
100
AcDbLine
 10
577.3460495472283
 20
-680.828748833173
 30
0.0
 11
583.1460495472282
 21
-680.8287488331734
 31
0.0
  0
ARC
  5
9893
330
18
100
AcDbEntity
  8
01
100
AcDbCircle
 10
583.1460495472282
 20
-681.3287488331734
 30
0.0
 40
0.5
100
AcDbArc
 50
0.0
 51
90.0
  0
LINE
  5
9896
330
18
100
AcDbEntity
  8
01
100
AcDbLine
 10
647.1713481327743
 20
-720.3287534932421
 30
0.0
 11
647.1713481327741
 21
-681.3287534932418
 31
0.0
  0
ARC
  5
9897
330
18
100
AcDbEntity
  8
01
100
AcDbCircle
 10
646.6713481327743
 20
-720.3287534932421
 30
0.0
 40
0.5
100
AcDbArc
 50
270.0
 51
0.0
  0
CIRCLE
  5
9898
330
18
100
AcDbEntity
  8
01
100
AcDbCircle
 10
627.1713484552325
 20
-698.9287632891138
 30
0.0
 40
2.5
  0
CIRCLE
  5
9899
330
18
100
AcDbEntity
  8
01
100
AcDbCircle
 10
627.1713484552325
 20
-706.3287532891137
 30
0.0
 40
3.75
  0
LINE
  5
98E3
330
18
100
AcDbEntity
  8
01
100
AcDbLine
 10
499.9425278925561
 20
-680.8287536973701
 30
0.0
 11
460.9425278925564
 21
-680.8287536973703
 31
0.0
  0
ARC
  5
98E4
330
18
100
AcDbEntity
  8
01
100
AcDbCircle
 10
460.9425278925564
 20
-681.3287536973703
 30
0.0
 40
0.5
100
AcDbArc
 50
90.0
 51
180.0
  0
LINE
  5
98E5
330
18
100
AcDbEntity
  8
01
100
AcDbLine
 10
499.9425278925563
 20
-720.8287536973701
 30
0.0
 11
460.9425278925563
 21
-720.8287536973705
 31
0.0
  0
ARC
  5
98E6
330
18
100
AcDbEntity
  8
01
100
AcDbCircle
 10
499.9425278925563
 20
-720.3287536973701
 30
0.0
 40
0.5
100
AcDbArc
 50
270.0
 51
0.0
  0
LINE
  5
98E9
330
18
100
AcDbEntity
  8
01
100
AcDbLine
 10
531.0460495472181
 20
-720.3287536973628
 30
0.0
 11
531.0460495472182
 21
-681.3287536973633
 31
0.0
  0
LINE
  5
98EC
330
18
100
AcDbEntity
  8
01
100
AcDbLine
 10
537.3460495472182
 20
-680.8287536973628
 30
0.0
 11
537.3460495472139
 21
-720.8287536973631
 31
0.0
  0
LINE
  5
98EE
330
18
100
AcDbEntity
  8
01
100
AcDbLine
 10
500.4425278925563
 20
-720.3287536973701
 30
0.0
 11
500.4425278925561
 21
-681.3287536973701
 31
0.0
  0
ARC
  5
98EF
330
18
100
AcDbEntity
  8
01
100
AcDbCircle
 10
499.9425278925561
 20
-681.3287536973701
 30
0.0
 40
0.5
100
AcDbArc
 50
0.0
 51
90.0
  0
LINE
  5
98F1
330
18
100
AcDbEntity
  8
01
100
AcDbLine
 10
537.3460495472139
 20
-720.8287536973631
 30
0.0
 11
531.5460495472182
 21
-720.8287536973628
 31
0.0
  0
ARC
  5
98F2
330
18
100
AcDbEntity
  8
01
100
AcDbCircle
 10
531.5460495472182
 20
-720.3287536973628
 30
0.0
 40
0.5
100
AcDbArc
 50
180.0
 51
270.0
  0
LINE
  5
98F6
330
18
100
AcDbEntity
  8
01
100
AcDbLine
 10
537.3460495472182
 20
-680.8287536973628
 30
0.0
 11
531.5460495472182
 21
-680.8287536973633
 31
0.0
  0
ARC
  5
98F7
330
18
100
AcDbEntity
  8
01
100
AcDbCircle
 10
531.5460495472182
 20
-681.3287536973633
 30
0.0
 40
0.5
100
AcDbArc
 50
90.0
 51
180.0
  0
LINE
  5
98FA
330
18
100
AcDbEntity
  8
01
100
AcDbLine
 10
460.4425278925563
 20
-720.3287536973705
 30
0.0
 11
460.4425278925564
 21
-681.3287536973703
 31
0.0
  0
ARC
  5
98FB
330
18
100
AcDbEntity
  8
01
100
AcDbCircle
 10
460.9425278925563
 20
-720.3287536973705
 30
0.0
 40
0.5
100
AcDbArc
 50
180.0
 51
270.0
  0
CIRCLE
  5
9955
330
18
100
AcDbEntity
  8
01
100
AcDbCircle
 10
627.1713484552325
 20
-706.3287534932416
 30
0.0
 40
3.5000005
  0
LINE
  5
9956
330
18
100
AcDbEntity
  8
01
100
AcDbLine
 10
628.1713484552325
 20
-709.6828562932416
 30
0.0
 11
628.1713484552325
 21
-702.9746494932416
 31
0.0
  0
LINE
  5
9957
330
18
100
AcDbEntity
  8
01
100
AcDbLine
 10
626.1713484552325
 20
-709.6828562932416
 30
0.0
 11
626.1713484552325
 21
-702.9746494932416
 31
0.0
  0
LINE
  5
9958
330
18
100
AcDbEntity
  8
01
100
AcDbLine
 10
646.6713603539789
 20
-631.6441415834905
 30
0.0
 11
607.671360353979
 21
-631.6441415834852
 31
0.0
  0
LINE
  5
9959
330
18
100
AcDbEntity
  8
01
100
AcDbLine
 10
607.1713603539797
 20
-625.3441415834848
 30
0.0
 11
647.1713603539797
 21
-625.3441415834901
 31
0.0
  0
LINE
  5
995A
330
18
100
AcDbEntity
  8
01
100
AcDbLine
 10
607.1713603539797
 20
-625.3441415834848
 30
0.0
 11
607.1713603539791
 21
-631.1441415834851
 31
0.0
  0
ARC
  5
995B
330
18
100
AcDbEntity
  8
01
100
AcDbCircle
 10
607.671360353979
 20
-631.1441415834847
 30
0.0
 40
0.5
100
AcDbArc
 50
179.9999999999914
 51
269.9999999999915
  0
LINE
  5
9961
330
18
100
AcDbEntity
  8
01
100
AcDbLine
 10
647.1713603539797
 20
-625.3441415834901
 30
0.0
 11
647.171360353979
 21
-631.1441415834905
 31
0.0
  0
ARC
  5
9962
330
18
100
AcDbEntity
  8
01
100
AcDbCircle
 10
646.671360353979
 20
-631.1441415834905
 30
0.0
 40
0.5
100
AcDbArc
 50
269.9999999999915
 51
359.9999999999915
  0
TEXT
  5
9F39
330
18
100
AcDbEntity
  8
1TEXT
100
AcDbText
 10
743.9626492234339
 20
-750.4371776557671
 30
0.0
 40
4.0
  1
付属ねじ
100
AcDbText
  0
ARC
  5
A6FB
330
18
100
AcDbEntity
  8
01
100
AcDbCircle
 10
482.4425278925584
 20
-697.2975577632759
 30
0.0
 40
0.5000000000000013
100
AcDbArc
 50
0.0
 51
77.51311018584555
  0
ARC
  5
A6FC
330
18
100
AcDbEntity
  8
01
100
AcDbCircle
 10
478.4425278925584
 20
-715.3599496314644
 30
0.0
 40
0.5000000000000029
100
AcDbArc
 50
180.0
 51
257.513110185839
  0
ARC
  5
A6FD
330
18
100
AcDbEntity
  8
01
100
AcDbCircle
 10
482.4425278925584
 20
-715.3599496314644
 30
0.0
 40
0.5000000000000013
100
AcDbArc
 50
282.4868898141544
 51
0.0
  0
ARC
  5
A6FE
330
18
100
AcDbEntity
  8
01
100
AcDbCircle
 10
480.4425278925584
 20
-706.3287536973701
 30
0.0
 40
9.749999999999995
100
AcDbArc
 50
77.51311018584555
 51
102.4868898141545
  0
ARC
  5
A6FF
330
18
100
AcDbEntity
  8
01
100
AcDbCircle
 10
478.4425278925584
 20
-697.2975577632759
 30
0.0
 40
0.5000000000000029
100
AcDbArc
 50
102.4868898141545
 51
180.0
  0
ARC
  5
A700
330
18
100
AcDbEntity
  8
01
100
AcDbCircle
 10
480.4425278925584
 20
-706.3287536973701
 30
0.0
 40
9.75
100
AcDbArc
 50
257.5131101858456
 51
282.4868898141544
  0
LINE
  5
A701
330
18
100
AcDbEntity
  8
01
100
AcDbLine
 10
482.9425278925584
 20
-697.2975577632759
 30
0.0
 11
482.9425278925584
 21
-715.3599496314644
 31
0.0
  0
LINE
  5
A702
330
18
100
AcDbEntity
  8
01
100
AcDbLine
 10
477.9425278925584
 20
-715.3599496314644
 30
0.0
 11
477.9425278925584
 21
-697.2975577632759
 31
0.0
  0
SPLINE
  5
A703
330
18
100
AcDbEntity
  8
01
100
AcDbSpline
210
0.0
220
0.0
230
1.0
 70
     8
 71
     3
 72
    18
 73
    14
 74
     0
 42
0.0000000001
 43
0.0000000001
 40
0.0
 40
0.0
 40
0.0
 40
0.0
 40
0.2500000000000002
 40
0.2500000000000002
 40
0.375
 40
0.375
 40
0.4999999999999998
 40
0.4999999999999998
 40
0.6249999999999996
 40
0.6249999999999996
 40
0.7499999999999993
 40
0.7499999999999993
 40
1.0
 40
1.0
 40
1.0
 40
1.0
 10
484.1317170817475
 20
-715.3538510999675
 30
0.0
 10
483.9384560244713
 20
-715.4328504250041
 30
0.0
 10
483.7461344127439
 20
-715.5041179595737
 30
0.0
 10
483.4668089542841
 20
-715.5983750707472
 30
0.0
 10
483.3773158117758
 20
-715.627008295935
 30
0.0
 10
483.2060386039842
 20
-715.6793433717356
 30
0.0
 10
483.1233891908142
 20
-715.7032755366563
 30
0.0
 10
482.9719160513736
 20
-715.745274953003
 30
0.0
 10
482.9032444804174
 20
-715.7633368205624
 30
0.0
 10
482.780876506157
 20
-715.794407958723
 30
0.0
 10
482.7270362695405
 20
-715.8074394913299
 30
0.0
 10
482.59768198231
 20
-715.8379945960904
 30
0.0
 10
482.5506360006665
 20
-715.8481223846586
 30
0.0
 10
482.5506360006665
 20
-715.8481223846586
 30
0.0
  0
SPLINE
  5
A704
330
18
100
AcDbEntity
  8
01
100
AcDbSpline
210
0.0
220
0.0
230
1.0
 70
     8
 71
     3
 72
    18
 73
    14
 74
     0
 42
0.0000000001
 43
0.0000000001
 40
0.0
 40
0.0
 40
0.0
 40
0.0
 40
0.2500000000000002
 40
0.2500000000000002
 40
0.3750000000000002
 40
0.3750000000000002
 40
0.5000000000000002
 40
0.5000000000000002
 40
0.6250000000000002
 40
0.6250000000000002
 40
0.7500000000000001
 40
0.7500000000000001
 40
1.0
 40
1.0
 40
1.0
 40
1.0
 10
476.7533387033692
 20
-697.3036562947727
 30
0.0
 10
476.9465997606454
 20
-697.2246569697361
 30
0.0
 10
477.1389213723728
 20
-697.1533894351667
 30
0.0
 10
477.4182468308325
 20
-697.059132323993
 30
0.0
 10
477.5077399733408
 20
-697.0304990988053
 30
0.0
 10
477.6790171811324
 20
-696.9781640230046
 30
0.0
 10
477.7616665943025
 20
-696.954231858084
 30
0.0
 10
477.9131397337432
 20
-696.9122324417374
 30
0.0
 10
477.9818113046994
 20
-696.8941705741779
 30
0.0
 10
478.1041792789596
 20
-696.8630994360171
 30
0.0
 10
478.1580195155763
 20
-696.8500679034103
 30
0.0
 10
478.2873738028068
 20
-696.8195127986498
 30
0.0
 10
478.3344197844502
 20
-696.8093850100817
 30
0.0
 10
478.3344197844502
 20
-696.8093850100817
 30
0.0
  0
SPLINE
  5
A705
330
18
100
AcDbEntity
  8
01
100
AcDbSpline
210
0.0
220
0.0
230
1.0
 70
     8
 71
     3
 72
    16
 73
    12
 74
     0
 42
0.0000000001
 43
0.0000000001
 40
0.0
 40
0.0
 40
0.0
 40
0.0
 40
0.1249999999999998
 40
0.1249999999999998
 40
0.2499999999999997
 40
0.2499999999999997
 40
0.4999999999999998
 40
0.4999999999999998
 40
0.7499999999999999
 40
0.7499999999999999
 40
1.0
 40
1.0
 40
1.0
 40
1.0
 10
478.3344197844502
 20
-715.8481223846586
 30
0.0
 10
478.3344197844502
 20
-715.8481223846586
 30
0.0
 10
478.3230042623236
 20
-715.8456144286677
 30
0.0
 10
478.2785712059826
 20
-715.8356096475075
 30
0.0
 10
478.2448756054291
 20
-715.8279529824579
 30
0.0
 10
478.1155282839677
 20
-715.7974084779253
 30
0.0
 10
477.9890724036608
 20
-715.7663083241483
 30
0.0
 10
477.6881262026651
 20
-715.6829053157767
 30
0.0
 10
477.5113327678977
 20
-715.6297563862541
 30
0.0
 10
477.1416364958948
 20
-715.5050640596505
 30
0.0
 10
476.94656533766
 20
-715.4328363539199
 30
0.0
 10
476.7533387033692
 20
-715.3538510999675
 30
0.0
  0
SPLINE
  5
A706
330
18
100
AcDbEntity
  8
01
100
AcDbSpline
210
0.0
220
0.0
230
1.0
 70
     8
 71
     3
 72
    16
 73
    12
 74
     0
 42
0.0000000001
 43
0.0000000001
 40
0.0
 40
0.0
 40
0.0
 40
0.0
 40
0.1249999999999997
 40
0.1249999999999997
 40
0.2499999999999993
 40
0.2499999999999993
 40
0.4999999999999996
 40
0.4999999999999996
 40
0.7499999999999998
 40
0.7499999999999998
 40
1.0
 40
1.0
 40
1.0
 40
1.0
 10
482.5506360006665
 20
-696.8093850100817
 30
0.0
 10
482.5506360006665
 20
-696.8093850100817
 30
0.0
 10
482.562051522793
 20
-696.8118929660727
 30
0.0
 10
482.606484579134
 20
-696.8218977472329
 30
0.0
 10
482.6401801796875
 20
-696.8295544122825
 30
0.0
 10
482.769527501149
 20
-696.8600989168151
 30
0.0
 10
482.8959833814559
 20
-696.8911990705919
 30
0.0
 10
483.1969295824516
 20
-696.9746020789636
 30
0.0
 10
483.373723017219
 20
-697.0277510084861
 30
0.0
 10
483.7434192892218
 20
-697.1524433350897
 30
0.0
 10
483.9384904474566
 20
-697.2246710408203
 30
0.0
 10
484.1317170817475
 20
-697.3036562947727
 30
0.0
  0
ARC
  5
A707
330
18
100
AcDbEntity
  8
01
100
AcDbCircle
 10
480.4425278925584
 20
-706.3287536973701
 30
0.0
 40
9.750000000000005
100
AcDbArc
 50
112.2332717982965
 51
247.7667282017036
  0
ARC
  5
A708
330
18
100
AcDbEntity
  8
01
100
AcDbCircle
 10
480.4425278925584
 20
-706.3287536973701
 30
0.0
 40
9.750000000000009
100
AcDbArc
 50
292.2332717982964
 51
67.76672820170356
  0
CIRCLE
  5
A709
330
18
100
AcDbEntity
  8
01
100
AcDbCircle
 10
480.4425278925584
 20
-706.3287536973701
 30
0.0
 40
10.3
  0
LINE
  5
A70A
330
18
100
AcDbEntity
  8
01
100
AcDbLine
 10
483.9425278925523
 20
-632.8441382502879
 30
0.0000000000000173
 11
489.6925278925578
 21
-632.844138250289
 31
0.0000000000000173
  0
LINE
  5
A70B
330
18
100
AcDbEntity
  8
01
100
AcDbLine
 10
482.9425278925505
 20
-646.3441611944945
 30
0.0000000000000173
 11
482.9425278925523
 21
-633.8441382502879
 31
0.0000000000000173
  0
LINE
  5
A70C
330
18
100
AcDbEntity
  8
01
100
AcDbLine
 10
477.9425278925505
 20
-646.3441611944927
 30
0.0000000000000173
 11
477.9425278925505
 21
-633.8441382502897
 31
0.0000000000000173
  0
ARC
  5
A70D
330
18
100
AcDbEntity
  8
01
100
AcDbCircle
 10
478.9425278925497
 20
-646.3441611944945
 30
0.0000000000000173
 40
1.0
100
AcDbArc
 50
180.0000000000521
 51
270.0
  0
ARC
  5
A70E
330
18
100
AcDbEntity
  8
01
100
AcDbCircle
 10
481.9425278925497
 20
-646.3441611944945
 30
0.0000000000000173
 40
1.0
100
AcDbArc
 50
270.0
 51
0.0
  0
LINE
  5
A70F
330
18
100
AcDbEntity
  8
01
100
AcDbLine
 10
478.9425278925505
 20
-647.3441611944963
 30
0.0000000000000173
 11
481.9425278925495
 21
-647.3441611944963
 31
0.0000000000000173
  0
LINE
  5
A710
330
18
100
AcDbEntity
  8
01
100
AcDbLine
 10
471.1925278925588
 20
-632.8441382502899
 30
0.0000000000000173
 11
476.9425278925505
 21
-632.8441382502897
 31
0.0000000000000173
  0
ARC
  5
A711
330
18
100
AcDbEntity
  8
01
100
AcDbCircle
 10
476.9425278925497
 20
-633.8441382502897
 30
0.0000000000000173
 40
1.0
100
AcDbArc
 50
0.0
 51
90.0
  0
ARC
  5
A712
330
18
100
AcDbEntity
  8
01
100
AcDbCircle
 10
483.9425278925515
 20
-633.8441382502879
 30
0.0000000000000173
 40
1.0
100
AcDbArc
 50
89.99999999998697
 51
180.0
  0
LINE
  5
A713
330
18
100
AcDbEntity
  8
01
100
AcDbLine
 10
490.1925278925581
 20
-632.3441382502895
 30
0.0000000000562748
 11
490.1925278925581
 21
-631.6441415834884
 31
0.0000000000562526
  0
ARC
  5
A714
330
18
100
AcDbEntity
  8
01
100
AcDbCircle
 10
489.692527892558
 20
-632.3441382502895
 30
0.0000000000562748
 40
0.5
100
AcDbArc
 50
269.999999999987
 51
0.0
  0
SPLINE
  5
A717
330
18
100
AcDbEntity
  8
01
100
AcDbSpline
210
0.0
220
0.0
230
1.0
 70
    24
 71
     1
 72
     5
 73
     3
 74
     0
 42
0.0000000001
 43
0.0000000001
 40
-0.0000000000001421
 40
-0.0000000000001421
 40
0.3003855657215301
 40
1.0
 40
1.0
 10
475.4425278925582
 20
-622.6445271492096
 30
0.0
 10
475.7429134582799
 20
-622.344141583488
 30
0.0
 10
476.4425278925584
 20
-621.6445271492096
 30
0.0
  0
SPLINE
  5
A718
330
18
100
AcDbEntity
  8
01
100
AcDbSpline
210
0.0
220
0.0
230
1.0
 70
    24
 71
     1
 72
     5
 73
     3
 74
     0
 42
0.0000000001
 43
0.0000000001
 40
0.0
 40
0.0
 40
0.6996144342784699
 40
1.000000000000142
 40
1.000000000000142
 10
484.4425278925584
 20
-621.6445271492096
 30
0.0
 10
485.1421423268368
 20
-622.344141583488
 30
0.0
 10
485.4425278925585
 20
-622.6445271492096
 30
0.0
  0
SPLINE
  5
A71B
330
18
100
AcDbEntity
  8
01
100
AcDbSpline
210
0.0
220
0.0
230
1.0
 70
    24
 71
     1
 72
     4
 73
     2
 74
     0
 42
0.0000000001
 43
0.0000000001
 40
0.0
 40
0.0
 40
1.0
 40
1.0
 10
477.1141007678121
 20
-610.1445271492096
 30
0.0
 10
477.6141007678121
 20
-609.6445271492096
 30
0.0
  0
SPLINE
  5
A71C
330
18
100
AcDbEntity
  8
01
100
AcDbSpline
210
0.0
220
0.0
230
1.0
 70
    24
 71
     1
 72
     4
 73
     2
 74
     0
 42
0.0000000001
 43
0.0000000001
 40
0.0
 40
0.0
 40
1.0
 40
1.0
 10
477.1141007678121
 20
-615.7909737586162
 30
0.0
 10
477.1141007678121
 20
-610.1445271492096
 30
0.0
  0
SPLINE
  5
A71D
330
18
100
AcDbEntity
  8
01
100
AcDbSpline
210
0.0
220
0.0
230
1.0
 70
    24
 71
     1
 72
     4
 73
     2
 74
     0
 42
0.0000000001
 43
0.0000000001
 40
0.0
 40
0.0
 40
1.0
 40
1.0
 10
483.2709550173046
 20
-609.6445271492096
 30
0.0
 10
483.7709550173046
 20
-610.1445271492096
 30
0.0
  0
SPLINE
  5
A71E
330
18
100
AcDbEntity
  8
01
100
AcDbSpline
210
0.0
220
0.0
230
1.0
 70
    24
 71
     1
 72
     4
 73
     2
 74
     0
 42
0.0000000001
 43
0.0000000001
 40
0.0
 40
0.0
 40
1.0
 40
1.0
 10
483.7709550173046
 20
-610.1445271492096
 30
0.0
 10
483.7709550173046
 20
-615.7909737586162
 30
0.0
  0
SPLINE
  5
A71F
330
18
100
AcDbEntity
  8
01
100
AcDbSpline
210
0.0
220
0.0
230
1.0
 70
    24
 71
     1
 72
     4
 73
     2
 74
     0
 42
0.0000000001
 43
0.0000000001
 40
0.0
 40
0.0
 40
1.0
 40
1.0
 10
477.1141007678121
 20
-621.6445271492096
 30
0.0
 10
477.1141007678121
 20
-616.4980805398027
 30
0.0
  0
SPLINE
  5
A720
330
18
100
AcDbEntity
  8
01
100
AcDbSpline
210
0.0
220
0.0
230
1.0
 70
    24
 71
     1
 72
     4
 73
     2
 74
     0
 42
0.0000000001
 43
0.0000000001
 40
0.0
 40
0.0
 40
1.0
 40
1.0
 10
483.7709550173046
 20
-616.4980805398029
 30
0.0
 10
483.7709550173046
 20
-621.6445271492096
 30
0.0
  0
LINE
  5
A722
330
18
100
AcDbEntity
  8
01
100
AcDbLine
 10
475.4425278925582
 20
-622.6445271492096
 30
0.0
 11
485.4425278925585
 21
-622.6445271492096
 31
0.0
  0
LINE
  5
A723
330
18
100
AcDbEntity
  8
01
100
AcDbLine
 10
480.4425278925584
 20
-621.6445271492096
 30
0.0
 11
476.4425278925584
 21
-621.6445271492096
 31
0.0
  0
LINE
  5
A724
330
18
100
AcDbEntity
  8
01
100
AcDbLine
 10
484.4425278925584
 20
-621.6445271492096
 30
0.0
 11
480.4425278925584
 21
-621.6445271492096
 31
0.0
  0
LINE
  5
A727
330
18
100
AcDbEntity
  8
01
100
AcDbLine
 10
480.4425278919651
 20
-610.4336508513741
 30
0.0
 11
480.4425278919651
 21
-615.6445271492096
 31
0.0
  0
ELLIPSE
  5
A728
330
18
100
AcDbEntity
  8
01
100
AcDbEllipse
 10
480.4425278925584
 20
-616.1445271492096
 30
0.0
 11
0.4619397662556395
 21
-0.4619397662556537
 31
0.0
210
0.0
220
0.0
230
-1.0
 40
0.414213562373094
 41
3.53429173528851
 42
4.319689898685994
  0
ELLIPSE
  5
A729
330
18
100
AcDbEntity
  8
01
100
AcDbEllipse
 10
480.4425278925584
 20
-616.1445271492096
 30
0.0
 11
-0.4619397662556467
 21
-0.4619397662556537
 31
0.0
210
0.0
220
0.0
230
-1.0
 40
0.4142135623730754
 41
1.963495408493638
 42
2.748893571891077
  0
LINE
  5
A72A
330
18
100
AcDbEntity
  8
01
100
AcDbLine
 10
483.6245084078979
 20
-615.6445271492096
 30
0.0
 11
480.7960812831517
 21
-615.6445271492096
 31
0.0
  0
LINE
  5
A72B
330
18
100
AcDbEntity
  8
01
100
AcDbLine
 10
483.7709550173046
 20
-615.7909737586162
 30
0.0
 11
483.5709550173045
 21
-615.9323951148535
 31
0.0
  0
LINE
  5
A72C
330
18
100
AcDbEntity
  8
01
100
AcDbLine
 10
480.0889745019651
 20
-615.6445271492096
 30
0.0
 11
477.2605473772189
 21
-615.6445271492096
 31
0.0
  0
LINE
  5
A72D
330
18
100
AcDbEntity
  8
01
100
AcDbLine
 10
477.1141007678121
 20
-615.7909737586162
 30
0.0
 11
477.3141007678122
 21
-615.9323951148535
 31
0.0
  0
LINE
  5
A72E
330
18
100
AcDbEntity
  8
01
100
AcDbLine
 10
480.0889745019651
 20
-616.6445271492096
 30
0.0
 11
477.2605473772189
 21
-616.6445271492096
 31
0.0
  0
ELLIPSE
  5
A72F
330
18
100
AcDbEntity
  8
01
100
AcDbEllipse
 10
480.4425278925584
 20
-616.1445271492096
 30
0.0
 11
-0.4619397662556395
 21
-0.4619397662556395
 31
0.0
210
0.0
220
0.0
230
-1.0
 40
0.414213562373085
 41
5.105088062083387
 42
5.890486225480888
  0
LINE
  5
A730
330
18
100
AcDbEntity
  8
01
100
AcDbLine
 10
477.3141007678122
 20
-616.3566591835654
 30
0.0
 11
477.1141007678121
 21
-616.4980805398029
 31
0.0
  0
ELLIPSE
  5
A731
330
18
100
AcDbEntity
  8
01
100
AcDbEllipse
 10
480.4425278925584
 20
-616.1445271492096
 30
0.0
 11
-0.4619397662556466
 21
0.4619397662556395
 31
0.0
210
0.0
220
0.0
230
-1.0
 40
0.4142135623730818
 41
3.534291735288567
 42
4.319689898685963
  0
LINE
  5
A732
330
18
100
AcDbEntity
  8
01
100
AcDbLine
 10
483.6245084078979
 20
-616.6445271492096
 30
0.0
 11
480.7960812831517
 21
-616.6445271492096
 31
0.0
  0
LINE
  5
A733
330
18
100
AcDbEntity
  8
01
100
AcDbLine
 10
483.5709550173045
 20
-616.3566591835654
 30
0.0
 11
483.7709550173046
 21
-616.4980805398029
 31
0.0
  0
LINE
  5
A734
330
18
100
AcDbEntity
  8
01
100
AcDbLine
 10
480.4425278919651
 20
-616.6445271492096
 30
0.0
 11
480.4425278919651
 21
-621.6445271492096
 31
0.0
  0
LINE
  5
A735
330
18
100
AcDbEntity
  8
01
100
AcDbLine
 10
477.2605473772189
 20
-610.1445271492096
 30
0.0
 11
480.4425278919651
 21
-610.1445271492096
 31
0.0
  0
LINE
  5
A736
330
18
100
AcDbEntity
  8
01
100
AcDbLine
 10
480.4425278925584
 20
-609.6445271492096
 30
0.0
 11
477.6141007678121
 21
-609.6445271492096
 31
0.0
  0
LINE
  5
A737
330
18
100
AcDbEntity
  8
01
100
AcDbLine
 10
483.2709550173046
 20
-609.6445271492096
 30
0.0
 11
480.4425278925584
 21
-609.6445271492096
 31
0.0
  0
LINE
  5
A738
330
18
100
AcDbEntity
  8
01
100
AcDbLine
 10
480.4425278919651
 20
-610.1445271492096
 30
0.0
 11
483.6245084078979
 21
-610.1445271492096
 31
0.0
  0
ELLIPSE
  5
A739
330
18
100
AcDbEntity
  8
01
100
AcDbEllipse
 10
477.0141007678122
 20
-616.1445271492096
 30
0.0
 11
-0.4242640687119347
 21
2.597868168706518E-17
 31
2.198241588757811E-15
210
-5.181305113656384E-15
220
3.172634361422552E-31
230
-1.0
 40
0.7071067811865304
 41
2.356194490192316
 42
3.926990816987264
  0
ELLIPSE
  5
A73A
330
18
100
AcDbEntity
  8
01
100
AcDbEllipse
 10
483.8709550173046
 20
-616.1445271492096
 30
0.0
 11
0.4242640687119347
 21
-2.597868168706518E-17
 31
-7.160938508832247E-16
210
-1.687849393085030E-15
220
1.033509678342193E-31
230
-1.0
 40
0.7071067811865304
 41
2.356194490192326
 42
3.926990816987297
  0
LINE
  5
A73B
330
18
100
AcDbEntity
  8
01
100
AcDbLine
 10
477.7459195557091
 20
-616.1445271492096
 30
-0.0000000000000022
 11
483.1914632620872
 21
-616.1445271492096
 31
-0.0000000000000022
  0
ELLIPSE
  5
A73C
330
18
100
AcDbEntity
  8
01
100
AcDbEllipse
 10
480.4425278925584
 20
-610.6445271492096
 30
0.0
 11
0.4619397662556395
 21
-0.4619397662556537
 31
0.0
210
0.0
220
0.0
230
-1.0
 40
0.414213562373094
 41
3.53429173528851
 42
4.319689898685994
  0
ELLIPSE
  5
A73D
330
18
100
AcDbEntity
  8
01
100
AcDbEllipse
 10
480.4425278925584
 20
-610.6445271492096
 30
0.0
 11
-0.4619397662556467
 21
-0.4619397662556537
 31
0.0
210
0.0
220
0.0
230
-1.0
 40
0.4142135623730754
 41
1.963495408493638
 42
2.748893571891077
  0
LINE
  5
A74D
330
18
100
AcDbEntity
  8
01
100
AcDbLine
 10
470.6925278925586
 20
-632.3441382502895
 30
0.0000000000562748
 11
470.6925278925586
 21
-631.6441415834884
 31
0.0000000000562526
  0
ARC
  5
A74E
330
18
100
AcDbEntity
  8
01
100
AcDbCircle
 10
471.1925278925588
 20
-632.3441382502895
 30
0.0000000000562748
 40
0.5
100
AcDbArc
 50
180.0
 51
270.000000000013
  0
SPLINE
  5
A74F
330
18
100
AcDbEntity
  8
01
100
AcDbSpline
210
0.0
220
0.0
230
1.0
 70
    24
 71
     1
 72
     4
 73
     2
 74
     0
 42
0.0000000001
 43
0.0000000001
 40
0.1160848018737504
 40
0.1160848018737504
 40
1.0
 40
1.0
 10
531.0460495472182
 20
-716.0787536973701
 30
0.0
 10
516.346024736206
 20
-716.0787536973701
 30
0.0
  0
SPLINE
  5
A750
330
18
100
AcDbEntity
  8
01
100
AcDbSpline
210
0.0
220
0.0
230
1.0
 70
    24
 71
     1
 72
     4
 73
     2
 74
     0
 42
0.0000000001
 43
0.0000000001
 40
0.0
 40
0.0
 40
0.8839151981262495
 40
0.8839151981262495
 10
516.346024736206
 20
-696.5787536973701
 30
0.0
 10
531.0460495472181
 20
-696.5787536973701
 30
0.0
  0
ARC
  5
A751
330
18
100
AcDbEntity
  8
01
100
AcDbCircle
 10
516.346024736206
 20
-715.0787536973701
 30
0.0
 40
1.0
100
AcDbArc
 50
180.0
 51
270.0
  0
ARC
  5
A752
330
18
100
AcDbEntity
  8
01
100
AcDbCircle
 10
516.346024736206
 20
-697.5787536973701
 30
0.0
 40
1.0
100
AcDbArc
 50
90.0
 51
180.0
  0
LINE
  5
A753
330
18
100
AcDbEntity
  8
01
100
AcDbLine
 10
529.846024736206
 20
-697.7664818025983
 30
0.0
 11
529.846024736206
 21
-714.8910255921419
 31
0.0
  0
SPLINE
  5
A754
330
18
100
AcDbEntity
  8
01
100
AcDbSpline
210
0.0
220
0.0
230
1.0
 70
     8
 71
     3
 72
    14
 73
    10
 74
     0
 42
0.0000000001
 43
0.0000000001
 40
0.0
 40
0.0
 40
0.0
 40
0.0
 40
0.25
 40
0.25
 40
0.5
 40
0.5
 40
0.75
 40
0.75
 40
1.0
 40
1.0
 40
1.0
 40
1.0
 10
528.846024736206
 20
-697.2975577632759
 30
0.0
 10
528.985992413959
 20
-697.2975577632759
 30
0.0
 10
529.1244136881047
 20
-697.3071937185827
 30
0.0
 10
529.3744640280592
 20
-697.3462746275243
 30
0.0
 10
529.4867815908882
 20
-697.376080762398
 30
0.0
 10
529.6678289619751
 20
-697.4570004991821
 30
0.0
 10
529.735629598279
 20
-697.5073900353735
 30
0.0
 10
529.8252485148222
 20
-697.6267596243885
 30
0.0
 10
529.846024736206
 20
-697.6935590750998
 30
0.0
 10
529.846024736206
 20
-697.7664818025983
 30
0.0
  0
SPLINE
  5
A755
330
18
100
AcDbEntity
  8
01
100
AcDbSpline
210
0.0
220
0.0
230
1.0
 70
     8
 71
     3
 72
    14
 73
    10
 74
     0
 42
0.0000000001
 43
0.0000000001
 40
0.0
 40
0.0
 40
0.0
 40
0.0
 40
0.25
 40
0.25
 40
0.5
 40
0.5
 40
0.75
 40
0.75
 40
1.0
 40
1.0
 40
1.0
 40
1.0
 10
529.846024736206
 20
-714.8910255921419
 30
0.0
 10
529.846024736206
 20
-714.9639422792764
 30
0.0
 10
529.8246643289455
 20
-715.0317269751373
 30
0.0
 10
529.7355251372695
 20
-715.1500538491009
 30
0.0
 10
529.6665925071153
 20
-715.201166703869
 30
0.0
 10
529.4865450667484
 20
-715.2814242960228
 30
0.0
 10
529.373839393253
 20
-715.3113871157294
 30
0.0
 10
529.1232687796343
 20
-715.3504354912634
 30
0.0
 10
528.9858826303157
 20
-715.3599496314644
 30
0.0
 10
528.846024736206
 20
-715.3599496314644
 30
0.0
  0
LINE
  5
A756
330
18
100
AcDbEntity
  8
01
100
AcDbLine
 10
528.846024736206
 20
-715.3599496314644
 30
0.0
 11
516.346024736206
 21
-715.3599496314644
 31
0.0
  0
LINE
  5
A757
330
18
100
AcDbEntity
  8
01
100
AcDbLine
 10
516.346024736206
 20
-697.2975577632759
 30
0.0
 11
528.846024736206
 21
-697.2975577632759
 31
0.0
  0
SPLINE
  5
A758
330
18
100
AcDbEntity
  8
01
100
AcDbSpline
210
0.0
220
0.0
230
1.0
 70
     8
 71
     3
 72
    14
 73
    10
 74
     0
 42
0.0000000001
 43
0.0000000001
 40
0.0
 40
0.0
 40
0.0
 40
0.0
 40
0.2500000000000001
 40
0.2500000000000001
 40
0.5000000000000002
 40
0.5000000000000002
 40
0.7500000000000003
 40
0.7500000000000003
 40
1.0
 40
1.0
 40
1.0
 40
1.0
 10
516.346024736206
 20
-697.2975577632759
 30
0.0
 10
516.2088158212786
 20
-697.2975577632759
 30
0.0
 10
516.0738122757664
 20
-697.3089325733711
 30
0.0
 10
515.8264758171133
 20
-697.3518874406914
 30
0.0
 10
515.7159743877488
 20
-697.3831317677959
 30
0.0
 10
515.5337807142204
 20
-697.460317285187
 30
0.0
 10
515.4647876118357
 20
-697.5046579004465
 30
0.0
 10
515.3700200733493
 20
-697.6026395518248
 30
0.0
 10
515.346024736206
 20
-697.6551329748415
 30
0.0
 10
515.346024736206
 20
-697.7082838725868
 30
0.0
  0
SPLINE
  5
A759
330
18
100
AcDbEntity
  8
01
100
AcDbSpline
210
0.0
220
0.0
230
1.0
 70
     8
 71
     3
 72
    14
 73
    10
 74
     0
 42
0.0000000001
 43
0.0000000001
 40
0.0
 40
0.0
 40
0.0
 40
0.0
 40
0.2500000000000001
 40
0.2500000000000001
 40
0.5000000000000002
 40
0.5000000000000002
 40
0.7500000000000003
 40
0.7500000000000003
 40
1.0
 40
1.0
 40
1.0
 40
1.0
 10
516.346024736206
 20
-715.3599496314644
 30
0.0
 10
516.2088158212786
 20
-715.3599496314644
 30
0.0
 10
516.0738122757664
 20
-715.3485748213691
 30
0.0
 10
515.8264758171133
 20
-715.3056199540488
 30
0.0
 10
515.7159743877488
 20
-715.2743756269442
 30
0.0
 10
515.5337807142204
 20
-715.1971901095532
 30
0.0
 10
515.4647876118357
 20
-715.1528494942936
 30
0.0
 10
515.3700200733493
 20
-715.0548678429153
 30
0.0
 10
515.346024736206
 20
-715.0023744198987
 30
0.0
 10
515.346024736206
 20
-714.9492235221535
 30
0.0
  0
LINE
  5
A75A
330
18
100
AcDbEntity
  8
01
100
AcDbLine
 10
515.346024736206
 20
-697.7082838725868
 30
0.0
 11
515.346024736206
 21
-714.9492235221535
 31
0.0
  0
LINE
  5
A75B
330
18
100
AcDbEntity
  8
01
100
AcDbLine
 10
515.346024736206
 20
-714.9492235221535
 30
0.0
 11
515.346024736206
 21
-715.0787536973701
 31
0.0
  0
SPLINE
  5
A75E
330
18
100
AcDbEntity
  8
01
100
AcDbSpline
210
0.0
220
0.0
230
1.0
 70
    24
 71
     1
 72
     5
 73
     3
 74
     0
 42
0.0000000001
 43
0.0000000001
 40
0.0000000000000249
 40
0.0000000000000249
 40
0.3003855657215301
 40
1.0
 40
1.0
 10
540.0456639814939
 20
-701.3287536973701
 30
0.0
 10
540.3460495472154
 20
-701.6291392630916
 30
0.0
 10
541.0456639814939
 20
-702.3287536973701
 30
0.0
  0
SPLINE
  5
A75F
330
18
100
AcDbEntity
  8
01
100
AcDbSpline
210
0.0
220
0.0
230
1.0
 70
    24
 71
     1
 72
     5
 73
     3
 74
     0
 42
0.0000000001
 43
0.0000000001
 40
0.0
 40
0.0
 40
0.6996144342784699
 40
0.9999999999999751
 40
0.9999999999999751
 10
541.0456639814939
 20
-710.3287536973701
 30
0.0
 10
540.3460495472154
 20
-711.0283681316486
 30
0.0
 10
540.0456639814939
 20
-711.3287536973701
 30
0.0
  0
SPLINE
  5
A762
330
18
100
AcDbEntity
  8
01
100
AcDbSpline
210
0.0
220
0.0
230
1.0
 70
    24
 71
     1
 72
     4
 73
     2
 74
     0
 42
0.0000000001
 43
0.0000000001
 40
0.0
 40
0.0
 40
1.0
 40
1.0
 10
552.5456639814939
 20
-703.0003265726239
 30
0.0
 10
553.0456639814939
 20
-703.5003265726239
 30
0.0
  0
SPLINE
  5
A763
330
18
100
AcDbEntity
  8
01
100
AcDbSpline
210
0.0
220
0.0
230
1.0
 70
    24
 71
     1
 72
     4
 73
     2
 74
     0
 42
0.0000000001
 43
0.0000000001
 40
0.0
 40
0.0
 40
1.0
 40
1.0
 10
546.8992173720873
 20
-703.0003265726239
 30
0.0
 10
552.5456639814939
 20
-703.0003265726239
 30
0.0
  0
SPLINE
  5
A764
330
18
100
AcDbEntity
  8
01
100
AcDbSpline
210
0.0
220
0.0
230
1.0
 70
    24
 71
     1
 72
     4
 73
     2
 74
     0
 42
0.0000000001
 43
0.0000000001
 40
0.0
 40
0.0
 40
1.0
 40
1.0
 10
553.0456639814939
 20
-709.1571808221163
 30
0.0
 10
552.5456639814939
 20
-709.6571808221163
 30
0.0
  0
SPLINE
  5
A765
330
18
100
AcDbEntity
  8
01
100
AcDbSpline
210
0.0
220
0.0
230
1.0
 70
    24
 71
     1
 72
     4
 73
     2
 74
     0
 42
0.0000000001
 43
0.0000000001
 40
0.0
 40
0.0
 40
1.0
 40
1.0
 10
552.5456639814939
 20
-709.6571808221163
 30
0.0
 10
546.8992173720873
 20
-709.6571808221163
 30
0.0
  0
SPLINE
  5
A766
330
18
100
AcDbEntity
  8
01
100
AcDbSpline
210
0.0
220
0.0
230
1.0
 70
    24
 71
     1
 72
     4
 73
     2
 74
     0
 42
0.0000000001
 43
0.0000000001
 40
0.0
 40
0.0
 40
1.0
 40
1.0
 10
541.0456639814939
 20
-703.0003265726239
 30
0.0
 10
546.1921105909007
 20
-703.0003265726239
 30
0.0
  0
SPLINE
  5
A767
330
18
100
AcDbEntity
  8
01
100
AcDbSpline
210
0.0
220
0.0
230
1.0
 70
    24
 71
     1
 72
     4
 73
     2
 74
     0
 42
0.0000000001
 43
0.0000000001
 40
0.0
 40
0.0
 40
1.0
 40
1.0
 10
546.1921105909006
 20
-709.6571808221163
 30
0.0
 10
541.0456639814939
 20
-709.6571808221163
 30
0.0
  0
LINE
  5
A769
330
18
100
AcDbEntity
  8
01
100
AcDbLine
 10
540.0456639814939
 20
-701.3287536973701
 30
0.0
 11
540.0456639814939
 21
-711.3287536973701
 31
0.0
  0
LINE
  5
A76A
330
18
100
AcDbEntity
  8
01
100
AcDbLine
 10
541.0456639814939
 20
-706.3287536973701
 30
0.0
 11
541.0456639814939
 21
-702.3287536973701
 31
0.0
  0
LINE
  5
A76B
330
18
100
AcDbEntity
  8
01
100
AcDbLine
 10
541.0456639814939
 20
-710.3287536973701
 30
0.0
 11
541.0456639814939
 21
-706.3287536973701
 31
0.0
  0
LINE
  5
A76E
330
18
100
AcDbEntity
  8
01
100
AcDbLine
 10
552.2565402793293
 20
-706.3287536967769
 30
0.0
 11
547.0456639814939
 21
-706.3287536967769
 31
0.0
  0
ELLIPSE
  5
A76F
330
18
100
AcDbEntity
  8
01
100
AcDbEllipse
 10
546.5456639814939
 20
-706.3287536973701
 30
0.0
 11
-0.4619397662556537
 21
-0.4619397662556395
 31
0.0
210
0.0
220
0.0
230
-1.0
 40
0.414213562373094
 41
3.53429173528851
 42
4.319689898685994
  0
ELLIPSE
  5
A770
330
18
100
AcDbEntity
  8
01
100
AcDbEllipse
 10
546.5456639814939
 20
-706.3287536973701
 30
0.0
 11
-0.4619397662556537
 21
0.4619397662556467
 31
0.0
210
0.0
220
0.0
230
-1.0
 40
0.4142135623730754
 41
1.963495408493638
 42
2.748893571891077
  0
LINE
  5
A771
330
18
100
AcDbEntity
  8
01
100
AcDbLine
 10
547.0456639814939
 20
-709.5107342127096
 30
0.0
 11
547.0456639814939
 21
-706.6823070879634
 31
0.0
  0
LINE
  5
A772
330
18
100
AcDbEntity
  8
01
100
AcDbLine
 10
546.8992173720873
 20
-709.6571808221163
 30
0.0
 11
546.75779601585
 21
-709.4571808221162
 31
0.0
  0
LINE
  5
A773
330
18
100
AcDbEntity
  8
01
100
AcDbLine
 10
547.0456639814939
 20
-705.9752003067769
 30
0.0
 11
547.0456639814939
 21
-703.1467731820306
 31
0.0
  0
LINE
  5
A774
330
18
100
AcDbEntity
  8
01
100
AcDbLine
 10
546.8992173720873
 20
-703.0003265726239
 30
0.0
 11
546.75779601585
 21
-703.2003265726239
 31
0.0
  0
LINE
  5
A775
330
18
100
AcDbEntity
  8
01
100
AcDbLine
 10
546.0456639814939
 20
-705.9752003067769
 30
0.0
 11
546.0456639814939
 21
-703.1467731820306
 31
0.0
  0
ELLIPSE
  5
A776
330
18
100
AcDbEntity
  8
01
100
AcDbEllipse
 10
546.5456639814939
 20
-706.3287536973701
 30
0.0
 11
-0.4619397662556395
 21
0.4619397662556395
 31
0.0
210
0.0
220
0.0
230
-1.0
 40
0.414213562373085
 41
5.105088062083387
 42
5.890486225480888
  0
LINE
  5
A777
330
18
100
AcDbEntity
  8
01
100
AcDbLine
 10
546.333531947138
 20
-703.2003265726239
 30
0.0
 11
546.1921105909006
 21
-703.0003265726239
 31
0.0
  0
ELLIPSE
  5
A778
330
18
100
AcDbEntity
  8
01
100
AcDbEllipse
 10
546.5456639814939
 20
-706.3287536973701
 30
0.0
 11
0.4619397662556395
 21
0.4619397662556466
 31
0.0
210
0.0
220
0.0
230
-1.0
 40
0.4142135623730818
 41
3.534291735288567
 42
4.319689898685963
  0
LINE
  5
A779
330
18
100
AcDbEntity
  8
01
100
AcDbLine
 10
546.0456639814939
 20
-709.5107342127096
 30
0.0
 11
546.0456639814939
 21
-706.6823070879634
 31
0.0
  0
LINE
  5
A77A
330
18
100
AcDbEntity
  8
01
100
AcDbLine
 10
546.333531947138
 20
-709.4571808221162
 30
0.0
 11
546.1921105909006
 21
-709.6571808221163
 31
0.0
  0
LINE
  5
A77B
330
18
100
AcDbEntity
  8
01
100
AcDbLine
 10
546.0456639814939
 20
-706.3287536967769
 30
0.0
 11
541.0456639814939
 21
-706.3287536967769
 31
0.0
  0
LINE
  5
A77C
330
18
100
AcDbEntity
  8
01
100
AcDbLine
 10
552.5456639814939
 20
-703.1467731820306
 30
0.0
 11
552.5456639814939
 21
-706.3287536967769
 31
0.0
  0
LINE
  5
A77D
330
18
100
AcDbEntity
  8
01
100
AcDbLine
 10
553.0456639814939
 20
-706.3287536973701
 30
0.0
 11
553.0456639814939
 21
-703.5003265726239
 31
0.0
  0
LINE
  5
A77E
330
18
100
AcDbEntity
  8
01
100
AcDbLine
 10
553.0456639814939
 20
-709.1571808221163
 30
0.0
 11
553.0456639814939
 21
-706.3287536973701
 31
0.0
  0
LINE
  5
A77F
330
18
100
AcDbEntity
  8
01
100
AcDbLine
 10
552.5456639814939
 20
-706.3287536967769
 30
0.0
 11
552.5456639814939
 21
-709.5107342127096
 31
0.0
  0
ELLIPSE
  5
A780
330
18
100
AcDbEntity
  8
01
100
AcDbEllipse
 10
546.5456639814939
 20
-702.900326572624
 30
0.0
 11
0.0
 21
0.4242640687119347
 31
2.198241588757811E-15
210
0.0
220
5.181305113656384E-15
230
-1.0
 40
0.7071067811865304
 41
2.356194490192316
 42
3.926990816987264
  0
ELLIPSE
  5
A781
330
18
100
AcDbEntity
  8
01
100
AcDbEllipse
 10
546.5456639814939
 20
-709.7571808221163
 30
0.0
 11
0.0
 21
-0.4242640687119347
 31
-7.160938508832247E-16
210
0.0
220
1.687849393085030E-15
230
-1.0
 40
0.7071067811865304
 41
2.356194490192326
 42
3.926990816987297
  0
LINE
  5
A782
330
18
100
AcDbEntity
  8
01
100
AcDbLine
 10
546.5456639814939
 20
-703.6321453605208
 30
-0.0000000000000022
 11
546.5456639814939
 21
-709.0776890668989
 31
-0.0000000000000022
  0
ELLIPSE
  5
A783
330
18
100
AcDbEntity
  8
01
100
AcDbEllipse
 10
552.0456639814939
 20
-706.3287536973701
 30
0.0
 11
-0.4619397662556537
 21
-0.4619397662556395
 31
0.0
210
0.0
220
0.0
230
-1.0
 40
0.414213562373094
 41
3.53429173528851
 42
4.319689898685994
  0
ELLIPSE
  5
A784
330
18
100
AcDbEntity
  8
01
100
AcDbEllipse
 10
552.0456639814939
 20
-706.3287536973701
 30
0.0
 11
-0.4619397662556537
 21
0.4619397662556467
 31
0.0
210
0.0
220
0.0
230
-1.0
 40
0.4142135623730754
 41
1.963495408493638
 42
2.748893571891077
  0
LINE
  5
A7B8
330
18
100
AcDbEntity
  8
01
100
AcDbLine
 10
568.414627858312
 20
-709.6571653161586
 30
0.0000000000563676
 11
568.414627858312
 21
-703.000300078566
 31
0.0000000000563676
  0
LINE
  5
A7B9
330
18
100
AcDbEntity
  8
01
100
AcDbLine
 10
567.414627858312
 20
-709.6571613161587
 30
0.0000000000563676
 11
567.414627858312
 21
-703.0003000785658
 31
0.0000000000563676
  0
LINE
  5
A7BA
330
18
100
AcDbEntity
  8
01
100
AcDbLine
 10
561.914627858312
 20
-709.6571653161589
 30
0.0000000000563676
 11
561.914627858312
 21
-703.0003000785658
 31
0.0000000000563676
  0
LINE
  5
A7BB
330
18
100
AcDbEntity
  8
01
100
AcDbLine
 10
561.414627858312
 20
-709.1571756973626
 30
0.0000000000563676
 11
561.414627858312
 21
-703.5003226973627
 31
0.0000000000563676
  0
LINE
  5
A7BC
330
18
100
AcDbEntity
  8
01
100
AcDbLine
 10
561.414627858312
 20
-709.1571756973626
 30
0.0000000000563676
 11
561.414627858312
 21
-703.5003226973627
 31
0.0000000000563676
  0
LINE
  5
A7BD
330
18
100
AcDbEntity
  8
01
100
AcDbLine
 10
567.414627858312
 20
-706.3287496973627
 30
0.0000000000563676
 11
561.414627858312
 21
-706.3287496973627
 31
0.0000000000563676
  0
ARC
  5
A7BE
330
18
100
AcDbEntity
  8
01
100
AcDbCircle
 10
567.914630686654
 20
-703.1878000785658
 30
0.0000000000554575
 40
0.30000001
100
AcDbArc
 50
215.2643799999966
 51
324.7356100000017
  0
LINE
  5
A7BF
330
18
100
AcDbEntity
  8
01
100
AcDbLine
 10
567.669680686654
 20
-703.3610020785658
 30
0.0000000000554575
 11
567.414630686654
 21
-703.0003000785658
 31
0.0000000000554575
  0
LINE
  5
A7C0
330
18
100
AcDbEntity
  8
01
100
AcDbLine
 10
568.1595806866541
 20
-703.3610020785658
 30
0.0000000000554575
 11
568.414630686654
 21
-703.0002960785658
 31
0.0000000000554575
  0
ARC
  5
A7C1
330
18
100
AcDbEntity
  8
01
100
AcDbCircle
 10
567.914627858312
 20
-709.4696723161588
 30
0.0000000000554575
 40
0.30000001
100
AcDbArc
 50
35.26438999999831
 51
144.7356200000033
  0
LINE
  5
A7C2
330
18
100
AcDbEntity
  8
01
100
AcDbLine
 10
567.669677858312
 20
-709.2964703161589
 30
0.0000000000554575
 11
567.414627858312
 21
-709.6571613161589
 31
0.0000000000554575
  0
LINE
  5
A7C3
330
18
100
AcDbEntity
  8
01
100
AcDbLine
 10
568.1595778583119
 20
-709.2964733161589
 30
0.0000000000554575
 11
568.4146078583118
 21
-709.6571653161589
 31
0.0000000000554575
  0
LINE
  5
A7C4
330
18
100
AcDbEntity
  8
01
100
AcDbLine
 10
561.414627858312
 20
-709.1571756973628
 30
0.0000000000563676
 11
561.414627858312
 21
-703.5003226973629
 31
0.0000000000563676
  0
LINE
  5
A7C5
330
18
100
AcDbEntity
  8
01
100
AcDbLine
 10
561.414627858312
 20
-709.1571756973628
 30
0.0000000000563676
 11
561.414627858312
 21
-703.5003226973629
 31
0.0000000000563676
  0
LINE
  5
A7C6
330
18
100
AcDbEntity
  8
01
100
AcDbLine
 10
573.414627858312
 20
-703.0003000785658
 30
0.0000000000554575
 11
568.414627858312
 21
-703.0003000785658
 31
0.0000000000554575
  0
LINE
  5
A7C7
330
18
100
AcDbEntity
  8
01
100
AcDbLine
 10
567.414630686654
 20
-703.0003000785658
 30
0.0000000000554575
 11
561.914627858312
 21
-703.0003000785658
 31
0.0000000000554575
  0
LINE
  5
A7C8
330
18
100
AcDbEntity
  8
01
100
AcDbLine
 10
573.414627858312
 20
-709.6571653161589
 30
0.0000000000554575
 11
568.4146078583118
 21
-709.6571653161589
 31
0.0000000000554575
  0
LINE
  5
A7C9
330
18
100
AcDbEntity
  8
01
100
AcDbLine
 10
567.414627858312
 20
-709.6571653161589
 30
0.0000000000554575
 11
561.914627858312
 21
-709.6571653161589
 31
0.0000000000554575
  0
LINE
  5
A7CA
330
18
100
AcDbEntity
  8
01
100
AcDbLine
 10
561.414627858312
 20
-709.1571796973628
 30
0.0000000000563676
 11
561.914627858312
 21
-709.6571653161589
 31
0.0000000000554575
  0
LINE
  5
A7CB
330
18
100
AcDbEntity
  8
01
100
AcDbLine
 10
561.414627858312
 20
-703.5003226973629
 30
0.0000000000563676
 11
561.914627858312
 21
-703.0003000785658
 31
0.0000000000554575
  0
LINE
  5
A7CC
330
18
100
AcDbEntity
  8
01
100
AcDbLine
 10
574.3460495472274
 20
-701.4287476973627
 30
0.0000000000563676
 11
574.3146218583119
 21
-701.4287476973627
 31
0.0000000000563676
  0
LINE
  5
A7CD
330
18
100
AcDbEntity
  8
01
100
AcDbLine
 10
574.3460495472275
 20
-711.2287530554865
 30
0.0000000000563676
 11
574.3146418583119
 21
-711.2287530554865
 31
0.0000000000563676
  0
LINE
  5
A7CE
330
18
100
AcDbEntity
  8
01
100
AcDbLine
 10
573.414627858312
 20
-702.3287416973626
 30
0.0000000000562575
 11
574.3146218583119
 21
-701.4287476973627
 31
0.0000000000562575
  0
LINE
  5
A7CF
330
18
100
AcDbEntity
  8
01
100
AcDbLine
 10
573.414627858312
 20
-710.3287390554865
 30
0.0000000000562575
 11
574.3146418583119
 21
-711.2287530554865
 31
0.0000000000562575
  0
LINE
  5
A7D0
330
18
100
AcDbEntity
  8
01
100
AcDbLine
 10
574.3146218583119
 20
-701.4287476973627
 30
0.0000000000562575
 11
574.3146218583119
 21
-711.2287530554865
 31
0.0000000000562575
  0
LINE
  5
A7D1
330
18
100
AcDbEntity
  8
01
100
AcDbLine
 10
573.414627858312
 20
-702.3287416973626
 30
0.0000000000562575
 11
573.414627858312
 21
-710.3287390554865
 31
0.0000000000562575
  0
LINE
  5
A7DA
330
18
100
AcDbEntity
  8
01
100
AcDbLine
 10
584.3880332361886
 20
-702.8287523764246
 30
0.0000000000562539
 11
583.6460495472274
 21
-702.8287523764247
 31
0.0000000000562539
  0
LINE
  5
A7DB
330
18
100
AcDbEntity
  8
01
100
AcDbLine
 10
584.3880332361886
 20
-709.8287523764246
 30
0.0000000000562539
 11
583.6460495472274
 21
-709.8287523764246
 31
0.0000000000562539
  0
ARC
  5
A7DC
330
18
100
AcDbEntity
  8
01
100
AcDbCircle
 10
579.5146332361884
 20
-706.3287523764246
 30
0.0000000000562539
 40
6.0
100
AcDbArc
 50
324.3146700000018
 51
35.68533471265462
  0
LINE
  5
A7E0
330
18
100
AcDbEntity
  8
01
100
AcDbLine
 10
573.414627858312
 20
-706.3287536973702
 30
0.0
 11
568.414627858312
 21
-706.3287536973701
 31
0.0
  0
ARC
  5
A7F3
330
18
100
AcDbEntity
  8
01
100
AcDbCircle
 10
627.1713508118341
 20
-627.4941469613627
 30
-0.0000000000001137
 40
6.0
100
AcDbArc
 50
234.3146660000043
 51
256.8165180000018
  0
LINE
  5
A7F4
330
18
100
AcDbEntity
  8
01
100
AcDbLine
 10
623.671350811834
 20
-632.3675469613629
 30
-0.0000000000001137
 11
623.6713508118336
 21
-631.6441415834875
 31
-0.0000000000001137
  0
LINE
  5
A7F5
330
18
100
AcDbEntity
  8
01
100
AcDbLine
 10
630.671350811834
 20
-632.3675469613629
 30
-0.0000000000001137
 11
630.6713508118339
 21
-631.6441415834884
 31
-0.0000000000001137
  0
LINE
  5
A7F6
330
18
100
AcDbEntity
  8
01
100
AcDbLine
 10
628.171350811834
 20
-633.0446954207653
 30
-0.0000000000001137
 11
628.1713508118338
 21
-631.6441415834879
 31
-0.0000000000001137
  0
ARC
  5
A7F7
330
18
100
AcDbEntity
  8
01
100
AcDbCircle
 10
625.8713478118343
 20
-633.0439169613628
 30
-0.0000000000001137
 40
0.30000001
100
AcDbArc
 50
256.8165180000018
 51
0.0
  0
ARC
  5
A7F8
330
18
100
AcDbEntity
  8
01
100
AcDbCircle
 10
628.4713498118342
 20
-633.0439169613628
 30
-0.0000000000001137
 40
0.30000001
100
AcDbArc
 50
179.9999970000023
 51
283.1834799999945
  0
LINE
  5
A7F9
330
18
100
AcDbEntity
  8
01
100
AcDbLine
 10
626.171350811834
 20
-633.0439169613628
 30
-0.0000000000001137
 11
626.1713508118339
 21
-631.6441415834878
 31
-0.0000000000001137
  0
ARC
  5
A7FA
330
18
100
AcDbEntity
  8
01
100
AcDbCircle
 10
627.1713508118341
 20
-627.4941469613627
 30
-0.0000000000001137
 40
6.0
100
AcDbArc
 50
283.1834825033616
 51
305.6853299999984
  0
TEXT
  5
A922
330
18
100
AcDbEntity
  8
1TEXT
100
AcDbText
 10
673.3278284770934
 20
-594.3352135392025
 30
0.0
 40
4.0
  1
材質：亜鉛ダイキャスト・真鍮・ポリアセタール
 11
673.3278284770934
 21
-592.3352135392025
 31
0.0
100
AcDbText
 73
     2
  0
TEXT
  5
A923
330
18
100
AcDbEntity
  8
1TEXT
100
AcDbText
 10
730.7831783140007
 20
-601.6012411255248
 30
0.0
 40
4.0
  1
表面処理
 72
     1
 11
740.0498449806673
 21
-601.6012411255248
 31
0.0
100
AcDbText
  0
TEXT
  5
A924
330
18
100
AcDbEntity
  8
1TEXT
100
AcDbText
 10
730.5831783140006
 20
-615.4365297850492
 30
0.0
 40
4.0
  1
クローム
 72
     1
 11
740.0498449806673
 21
-615.4365297850492
 31
0.0
100
AcDbText
  0
TEXT
  5
A925
330
18
100
AcDbEntity
  8
1TEXT
100
AcDbText
 10
728.516511647334
 20
-608.5791361455091
 30
0.0
 40
4.0
  1
本金メッキ
 72
     1
 11
740.0498449806673
 21
-608.5791361455091
 31
0.0
100
AcDbText
  0
LINE
  5
A926
330
18
100
AcDbEntity
  8
1DIM
100
AcDbLine
 10
672.6498449806675
 20
-596.1012411255248
 30
0.0000000000562575
 11
792.6498449806672
 21
-596.1012411255248
 31
0.0000000000562575
  0
LINE
  5
A927
330
18
100
AcDbEntity
  8
1DIM
100
AcDbLine
 10
722.6498449806672
 20
-610.1012411255248
 30
0.0000000000562575
 11
792.6498449806672
 21
-610.1012411255248
 31
0.0000000000562575
  0
LINE
  5
A928
330
18
100
AcDbEntity
  8
1DIM
100
AcDbLine
 10
672.6498449806675
 20
-603.1012411255248
 30
0.0000000000562575
 11
792.6498449806672
 21
-603.1012411255248
 31
0.0000000000562575
  0
LINE
  5
A929
330
18
100
AcDbEntity
  8
1DIM
100
AcDbLine
 10
722.6498449806672
 20
-617.1012411255248
 30
0.0000000000562575
 11
792.6498449806672
 21
-617.1012411255248
 31
0.0000000000562575
  0
LINE
  5
A92A
330
18
100
AcDbEntity
  8
1DIM
100
AcDbLine
 10
722.6498449806672
 20
-617.1012411255248
 30
0.0000000000562575
 11
792.6498449806672
 21
-617.1012411255248
 31
0.0000000000562575
  0
LINE
  5
A92B
330
18
100
AcDbEntity
  8
1DIM
100
AcDbLine
 10
757.6498449806672
 20
-596.1012411255248
 30
0.0000000000562575
 11
757.6498449806674
 21
-659.1012411255247
 31
0.0000000000562575
  0
TEXT
  5
A92C
330
18
100
AcDbEntity
  8
1TEXT
100
AcDbText
 10
759.7165116473344
 20
-608.8155981091742
 30
0.0
 40
4.0
  1
KLJ-2D-G
 72
     1
 11
775.0498449806678
 21
-608.8155981091742
 31
0.0
100
AcDbText
  0
TEXT
  5
A92D
330
18
100
AcDbEntity
  8
1TEXT
100
AcDbText
 10
768.1831783140007
 20
-601.6012411255248
 30
0.0
 40
4.0
  1
コード
 72
     1
 11
775.0498449806673
 21
-601.6012411255248
 31
0.0
100
AcDbText
  0
LINE
  5
A92E
330
18
100
AcDbEntity
  8
1DIM
100
AcDbLine
 10
722.6498449806674
 20
-659.1012411255247
 30
0.0000000000562575
 11
722.6498449806672
 21
-596.1012411255248
 31
0.0000000000562575
  0
LINE
  5
A92F
330
18
100
AcDbEntity
  8
1DIM
100
AcDbLine
 10
697.6498449806672
 20
-659.1012411255247
 30
0.0000000000562575
 11
697.6498449806674
 21
-596.1012411255248
 31
0.0000000000562575
  0
LINE
  5
A930
330
18
100
AcDbEntity
  8
1DIM
100
AcDbLine
 10
792.6498449806672
 20
-659.1012411255249
 30
0.0000000000562575
 11
792.6498449806672
 21
-596.1012411255248
 31
0.0000000000562575
  0
LINE
  5
A931
330
18
100
AcDbEntity
  8
1DIM
100
AcDbLine
 10
722.6498449806672
 20
-624.1012411255248
 30
0.0000000000562575
 11
792.6498449806672
 21
-624.1012411255248
 31
0.0000000000562575
  0
LINE
  5
A932
330
18
100
AcDbEntity
  8
1DIM
100
AcDbLine
 10
722.6498449806672
 20
-624.1012411255248
 30
0.0000000000562575
 11
792.6498449806672
 21
-624.1012411255248
 31
0.0000000000562575
  0
LINE
  5
A933
330
18
100
AcDbEntity
  8
1DIM
100
AcDbLine
 10
722.6498449806672
 20
-631.1012411255248
 30
0.0000000000562575
 11
792.6498449806672
 21
-631.1012411255248
 31
0.0000000000562575
  0
LINE
  5
A934
330
18
100
AcDbEntity
  8
1DIM
100
AcDbLine
 10
722.6498449806672
 20
-631.1012411255248
 30
0.0000000000562575
 11
792.6498449806672
 21
-631.1012411255248
 31
0.0000000000562575
  0
TEXT
  5
A935
330
18
100
AcDbEntity
  8
1TEXT
100
AcDbText
 10
723.516511647334
 20
-629.4365297850492
 30
0.0
 40
4.0
  1
サテンニッケル
 72
     1
 11
740.0498449806673
 21
-629.4365297850492
 31
0.0
100
AcDbText
  0
LINE
  5
A936
330
18
100
AcDbEntity
  8
1DIM
100
AcDbLine
 10
722.6498449806672
 20
-638.1012411255248
 30
0.0000000000562575
 11
792.6498449806672
 21
-638.1012411255248
 31
0.0000000000562575
  0
LINE
  5
A937
330
18
100
AcDbEntity
  8
1DIM
100
AcDbLine
 10
722.6498449806672
 20
-638.1012411255248
 30
0.0000000000562575
 11
792.6498449806672
 21
-638.1012411255248
 31
0.0000000000562575
  0
TEXT
  5
A938
330
18
100
AcDbEntity
  8
1TEXT
100
AcDbText
 10
723.6498449806674
 20
-622.4365297850492
 30
0.0
 40
4.0
  1
パールクローム
 72
     1
 11
740.0498449806673
 21
-622.4365297850492
 31
0.0
100
AcDbText
  0
TEXT
  5
A939
330
18
100
AcDbEntity
  8
1TEXT
100
AcDbText
 10
759.7165116473344
 20
-615.8155981091742
 30
0.0
 40
4.0
  1
KLJ-2D-C
 72
     1
 11
775.0498449806678
 21
-615.8155981091742
 31
0.0
100
AcDbText
  0
TEXT
  5
A93A
330
18
100
AcDbEntity
  8
1TEXT
100
AcDbText
 10
759.7165116473344
 20
-629.8155981091742
 30
0.0
 40
4.0
  1
KLJ-2D-N
 72
     1
 11
775.0498449806678
 21
-629.8155981091742
 31
0.0
100
AcDbText
  0
TEXT
  5
A93B
330
18
100
AcDbEntity
  8
1TEXT
100
AcDbText
 10
759.7165116473344
 20
-622.8155981091742
 30
0.0
 40
4.0
  1
KLJ-2D-B
 72
     1
 11
775.0498449806678
 21
-622.8155981091742
 31
0.0
100
AcDbText
  0
TEXT
  5
A93C
330
18
100
AcDbEntity
  8
1TEXT
100
AcDbText
 10
759.4448449806671
 20
-643.6012411255248
 30
0.0
 40
4.0
  1
KLJ-2D-4Q
 41
0.9
 72
     1
 11
775.0498449806671
 21
-643.6012411255248
 31
0.0
100
AcDbText
  0
TEXT
  5
A93D
330
18
100
AcDbEntity
  8
1TEXT
100
AcDbText
 10
723.8498449806671
 20
-643.6012411255248
 30
0.0
 40
4.0
  1
ダークアンバー
 72
     1
 11
740.0498449806671
 21
-643.6012411255248
 31
0.0
100
AcDbText
  0
LINE
  5
A93E
330
18
100
AcDbEntity
  8
1DIM
100
AcDbLine
 10
722.6498449806672
 20
-645.1012411255248
 30
0.0000000000562575
 11
792.6498449806672
 21
-645.1012411255248
 31
0.0000000000562575
  0
LINE
  5
A93F
330
18
100
AcDbEntity
  8
1DIM
100
AcDbLine
 10
722.6498449806672
 20
-652.1012411255249
 30
0.0000000000562575
 11
792.6498449806672
 21
-652.1012411255249
 31
0.0000000000562575
  0
TEXT
  5
A940
330
18
100
AcDbEntity
  8
1TEXT
100
AcDbText
 10
759.7165116473337
 20
-636.6012411255248
 30
0.0
 40
4.0
  1
KLJ-2D-D
 72
     1
 11
775.0498449806671
 21
-636.6012411255248
 31
0.0
100
AcDbText
  0
TEXT
  5
A941
330
18
100
AcDbEntity
  8
1TEXT
100
AcDbText
 10
723.0498449806671
 20
-636.6012411255248
 30
0.0
 40
4.0
  1
ミラーニッケル
 72
     1
 11
740.0498449806671
 21
-636.6012411255248
 31
0.0
100
AcDbText
  0
TEXT
  5
A942
330
18
100
AcDbEntity
  8
1TEXT
100
AcDbText
 10
759.4323449806672
 20
-650.6012411255249
 30
0.0
 40
4.0
  1
KLJ-2D-GQ
 41
0.9
 72
     1
 11
775.0498449806671
 21
-650.6012411255249
 31
0.0
100
AcDbText
  0
TEXT
  5
A943
330
18
100
AcDbEntity
  8
1TEXT
100
AcDbText
 10
723.9165116473338
 20
-650.6012411255249
 30
0.0
 40
4.0
  1
パールブラック
 72
     1
 11
740.0498449806671
 21
-650.6012411255249
 31
0.0
100
AcDbText
  0
TEXT
  5
A944
330
18
100
AcDbEntity
  8
1TEXT
100
AcDbText
 10
698.8298449806673
 20
-601.6012411255248
 30
0.0
 40
4.0
  1
材質：サムターン
 41
0.6
 72
     4
 11
710.1498449806674
 21
-599.6012411255248
 31
0.0
100
AcDbText
  0
TEXT
  5
A945
330
18
100
AcDbEntity
  8
1TEXT
100
AcDbText
 10
705.6165116473339
 20
-631.6759422048943
 30
0.0
 40
4.0
  1
亜鉛
 72
     4
 11
710.1498449806672
 21
-629.542608871561
 31
0.0
100
AcDbText
  0
TEXT
  5
A946
330
18
100
AcDbEntity
  8
1TEXT
100
AcDbText
 10
699.216511647334
 20
-636.7470847316962
 30
0.0
 40
4.0
  1
ダイキャスト
 41
0.8
 72
     4
 11
710.1498449806672
 21
-634.6137513983629
 31
0.0
100
AcDbText
  0
LINE
  5
A947
330
18
100
AcDbEntity
  8
1DIM
100
AcDbLine
 10
672.6498449806674
 20
-659.1012411255247
 30
0.0000000000562575
 11
672.6498449806675
 21
-596.1012411255248
 31
0.0000000000562575
  0
TEXT
  5
A948
330
18
100
AcDbEntity
  8
1TEXT
100
AcDbText
 10
675.44243757326
 20
-601.6012411255248
 30
0.0
 40
4.0
  1
材質:カバー
 41
0.8
 72
     4
 11
685.1498449806675
 21
-599.6012411255248
 31
0.0
100
AcDbText
  0
TEXT
  5
A949
330
18
100
AcDbEntity
  8
1TEXT
100
AcDbText
 10
680.6831783140007
 20
-632.0523665262914
 30
0.0
 40
4.0
  1
真鍮
 72
     4
 11
685.1498449806674
 21
-629.9856998596247
 31
0.0
100
AcDbText
  0
TEXT
  5
A94A
330
18
100
AcDbEntity
  8
1TEXT
100
AcDbText
 10
759.4448449806671
 20
-657.6012411255249
 30
0.0
 40
4.0
  1
KLJ-2D-8Q
 41
0.9
 72
     1
 11
775.0498449806671
 21
-657.6012411255249
 31
0.0
100
AcDbText
  0
TEXT
  5
A94B
330
18
100
AcDbEntity
  8
1TEXT
100
AcDbText
 10
723.3831783140005
 20
-657.6012411255249
 30
0.0
 40
4.0
  1
ミラーブラック
 72
     1
 11
740.0498449806671
 21
-657.6012411255249
 31
0.0
100
AcDbText
  0
LINE
  5
A94C
330
18
100
AcDbEntity
  8
1DIM
100
AcDbLine
 10
672.6498449806674
 20
-659.1012411255247
 30
0.0000000000562575
 11
792.6498449806671
 21
-659.1012411255249
 31
0.0000000000562575
  0
LINE
  5
B16C
330
18
100
AcDbEntity
  8
01
100
AcDbLine
 10
539.7903300610534
 20
-715.8287536973701
 30
0.0
 11
537.3460495472143
 21
-715.8287536973701
 31
0.0
  0
LINE
  5
B16D
330
18
100
AcDbEntity
  8
01
100
AcDbLine
 10
539.7903300610534
 20
-715.8287536973701
 30
0.0
 11
539.7903300610534
 21
-691.128753627617
 31
0.0
  0
LINE
  5
B16E
330
18
100
AcDbEntity
  8
01
100
AcDbLine
 10
539.7903300610534
 20
-691.128753627617
 30
0.0
 11
537.3460495472169
 21
-691.128753627617
 31
0.0
  0
LINE
  5
B16F
330
18
100
AcDbEntity
  8
01
100
AcDbLine
 10
540.0456639814939
 20
-701.3287536973701
 30
0.0
 11
539.7903300610534
 21
-701.3287536973701
 31
0.0
  0
LINE
  5
B170
330
18
100
AcDbEntity
  8
01
100
AcDbLine
 10
540.0456639814939
 20
-711.3287536973701
 30
0.0
 11
539.7903300610534
 21
-711.3287536973701
 31
0.0
  0
LINE
  5
B177
330
18
100
AcDbEntity
  8
01
100
AcDbLine
 10
490.9425523349725
 20
-622.8998610696517
 30
0.0
 11
469.9425278925584
 21
-622.8998610696517
 31
0.0
  0
LINE
  5
B178
330
18
100
AcDbEntity
  8
01
100
AcDbLine
 10
469.9425278925584
 20
-622.8998610696517
 30
0.0
 11
469.9425278925584
 21
-625.3441415834882
 31
0.0
  0
LINE
  5
B179
330
18
100
AcDbEntity
  8
01
100
AcDbLine
 10
490.9425523349724
 20
-622.8998610696513
 30
0.0
 11
490.9425523349725
 21
-625.3441415834877
 31
0.0
  0
LINE
  5
B17A
330
18
100
AcDbEntity
  8
01
100
AcDbLine
 10
475.4425278925582
 20
-622.6445271492096
 30
0.0
 11
475.4425278925582
 21
-622.8998610696517
 31
0.0
  0
LINE
  5
B17B
330
18
100
AcDbEntity
  8
01
100
AcDbLine
 10
485.4425278925585
 20
-622.6445271492096
 30
0.0
 11
485.4425278925585
 21
-622.8998610696517
 31
0.0
  0
LINE
  5
B17C
330
18
100
AcDbEntity
  8
01
100
AcDbLine
 10
574.3460495472276
 20
-715.8287536973728
 30
0.0
 11
574.3460495472276
 21
-698.12875369737
 31
0.0
  0
LINE
  5
B17E
330
18
100
AcDbEntity
  8
01
100
AcDbLine
 10
574.3460495472276
 20
-715.8287536973728
 30
0.0
 11
577.3460495472276
 21
-715.8287536973728
 31
0.0
  0
LINE
  5
B25C
330
18
100
AcDbEntity
  8
01
100
AcDbLine
 10
552.3460505977595
 20
-697.6287538806571
 30
0.0
 11
550.6460125074112
 21
-697.6287538806571
 31
0.0
  0
LINE
  5
B25D
330
18
100
AcDbEntity
  8
01
100
AcDbLine
 10
570.1460501626456
 20
-691.628753828503
 30
0.0
 11
577.3460500389659
 21
-691.628753828503
 31
0.0
  0
SPLINE
  5
B25E
330
18
100
AcDbEntity
  8
01
100
AcDbSpline
210
0.0
220
0.0
230
1.0
 70
     8
 71
     3
 72
    11
 73
     7
 74
     0
 42
0.0000000001
 43
0.0000000001
 40
0.0
 40
0.0
 40
0.0
 40
0.0
 40
0.0003607178768828
 40
0.0003607178768828
 40
0.0003607178768828
 40
0.0007214404088506
 40
0.0007214404088506
 40
0.0007214404088506
 40
0.0007214404088506
 10
550.6461861218082
 20
-691.7240164529564
 30
0.0
 10
550.5625409664141
 20
-691.8103933907958
 30
0.0
 10
550.4790138276903
 20
-691.8968848799144
 30
0.0
 10
550.3956430630917
 20
-691.983526688654
 30
0.0
 10
550.3122712758566
 20
-692.0701695601532
 30
0.0
 10
550.2290548610564
 20
-692.1569624195095
 30
0.0
 10
550.1460499272292
 20
-692.2439568046659
 30
0.0
  0
SPLINE
  5
B25F
330
18
100
AcDbEntity
  8
01
100
AcDbSpline
210
0.0
220
0.0
230
1.0
 70
    24
 71
     3
 72
    25
 73
    21
 74
     0
 42
0.0000000001
 43
0.0000000001
 40
0.0
 40
0.0
 40
0.0
 40
0.0
 40
0.026469325335944
 40
0.0850326858628371
 40
0.1452902768436033
 40
0.2038145089554584
 40
0.2640214112431393
 40
0.3226823291584373
 40
0.3830490285198371
 40
0.4416351001497315
 40
0.5019299080856691
 40
0.5604572882382637
 40
0.6206928924106403
 40
0.6791402113195154
 40
0.7392826161300312
 40
0.7978082476749138
 40
0.8580319796267157
 40
0.9165072525819112
 40
0.9766662381715039
 40
1.0
 40
1.0
 40
1.0
 40
1.0
 10
550.1460487470353
 20
-697.1197860936297
 30
0.0
 10
550.1460487470353
 20
-697.1220880178417
 30
0.0
 10
550.1460487470353
 20
-697.129482947479
 30
0.0
 10
550.1460487470353
 20
-697.0661478860046
 30
0.0
 10
550.1460487470353
 20
-696.9356108146048
 30
0.0
 10
550.1460487470353
 20
-696.7334910985695
 30
0.0
 10
550.1460487470353
 20
-696.4753594339512
 30
0.0
 10
550.1460487470353
 20
-696.1609542722973
 30
0.0
 10
550.1460487470353
 20
-695.8062875658912
 30
0.0
 10
550.1460487470353
 20
-695.4146066175892
 30
0.0
 10
550.1460487470353
 20
-695.0045941947595
 30
0.0
 10
550.1460487470353
 20
-694.5802663391156
 30
0.0
 10
550.1460487470353
 20
-694.1615064725311
 30
0.0
 10
550.1460487470353
 20
-693.7523315494188
 30
0.0
 10
550.1460487470353
 20
-693.3717965815035
 30
0.0
 10
550.1460487470353
 20
-693.0231150189558
 30
0.0
 10
550.1460487470353
 20
-692.7228837230275
 30
0.0
 10
550.1460487470353
 20
-692.4751173314453
 30
0.0
 10
550.1460487470353
 20
-692.3244443514266
 30
0.0
 10
550.1460487470353
 20
-692.2615373131988
 30
0.0
 10
550.1460487470353
 20
-692.2439566502942
 30
0.0
  0
SPLINE
  5
B260
330
18
100
AcDbEntity
  8
01
100
AcDbSpline
210
0.0
220
0.0
230
1.0
 70
     8
 71
     3
 72
    25
 73
    21
 74
     0
 42
0.0000000001
 43
0.0000000001
 40
0.0
 40
0.0
 40
0.0
 40
0.0
 40
0.0413060626807285
 40
0.0987904905995122
 40
0.1579420221764511
 40
0.2154265066295233
 40
0.2745780782817772
 40
0.3320624423934556
 40
0.3912138003583795
 40
0.4486983360358546
 40
0.507849969073579
 40
0.5442743240119366
 40
0.6017587055963227
 40
0.6609101460783265
 40
0.7183947526962642
 40
0.7775464104325895
 40
0.8350308678536114
 40
0.8941823047345365
 40
0.9464694035004845
 40
1.0
 40
1.0
 40
1.0
 40
1.0
 10
550.6460087821209
 20
-697.6194925761444
 30
0.0
 10
550.6460143423686
 20
-697.6194583530353
 30
0.0
 10
550.6460276406489
 20
-697.6193765026354
 30
0.0
 10
550.6459985591383
 20
-697.5203634830442
 30
0.0
 10
550.6460732312315
 20
-697.3410714740706
 30
0.0
 10
550.646225189761
 20
-697.0796216274834
 30
0.0
 10
550.6457871983963
 20
-696.7521076801856
 30
0.0
 10
550.6462969341907
 20
-696.3608395408949
 30
0.0
 10
550.6457932483014
 20
-695.9241985895196
 30
0.0
 10
550.6462485546832
 20
-695.4466884192789
 30
0.0
 10
550.6461779880287
 20
-695.0101994349536
 30
0.0
 10
550.6458020171659
 20
-694.5679620923145
 30
0.0
 10
550.6461774024909
 20
-694.1251029996766
 30
0.0
 10
550.6458679916342
 20
-693.6355718908969
 30
0.0
 10
550.646267014697
 20
-693.1698047393888
 30
0.0
 10
550.6459684659595
 20
-692.7495936087273
 30
0.0
 10
550.6459200573361
 20
-692.3787370356598
 30
0.0
 10
550.6461776972691
 20
-692.08533538165
 30
0.0
 10
550.6458195312478
 20
-691.8591908188816
 30
0.0
 10
550.6460639503701
 20
-691.7694259055343
 30
0.0
 10
550.6461875960553
 20
-691.7240160206927
 30
0.0
  0
LINE
  5
B261
330
18
100
AcDbEntity
  8
01
100
AcDbLine
 10
577.3460500389659
 20
-694.62875385458
 30
0.0
 11
552.3460505977595
 21
-694.62875385458
 31
0.0
  0
LINE
  5
B262
330
18
100
AcDbEntity
  8
01
100
AcDbLine
 10
569.3960495740497
 20
-691.7240160206927
 30
0.0
 11
569.3960300162756
 21
-691.7240160206927
 31
0.0
  0
SPLINE
  5
B263
330
18
100
AcDbEntity
  8
01
100
AcDbSpline
210
0.0
220
0.0
230
1.0
 70
     8
 71
     3
 72
    12
 73
     8
 74
     0
 42
0.0000000001
 43
0.0000000001
 40
0.0
 40
0.0
 40
0.0
 40
0.0
 40
0.2499999999999992
 40
0.2499999999999992
 40
0.4999999999999984
 40
0.4999999999999984
 40
1.0
 40
1.0
 40
1.0
 40
1.0
 10
569.3960499272126
 20
-691.724016452958
 30
0.0
 10
569.4955185802314
 20
-691.724016452958
 30
0.0
 10
569.5930842496296
 20
-691.7187403397587
 30
0.0
 10
569.7744472271165
 20
-691.7008637191848
 30
0.0
 10
569.8573536498404
 20
-691.6883948548538
 30
0.0
 10
570.0639473815389
 20
-691.6513004798876
 30
0.0
 10
570.1460499272126
 20
-691.6287539626135
 30
0.0
 10
570.1460499272126
 20
-691.6287539626135
 30
0.0
  0
LINE
  5
B264
330
18
100
AcDbEntity
  8
01
100
AcDbLine
 10
550.6461875960553
 20
-691.7240160206927
 30
0.0
 11
569.3960495740497
 21
-691.7240160206927
 31
0.0
  0
LINE
  5
B266
330
18
100
AcDbEntity
  8
01
100
AcDbLine
 10
552.3460505977595
 20
-697.1287540315313
 30
0.0
 11
552.3460505977595
 21
-694.62875385458
 31
0.0
  0
LINE
  5
B267
330
18
100
AcDbEntity
  8
01
100
AcDbLine
 10
552.3460505977595
 20
-698.1287539626135
 30
0.0
 11
577.3460500389659
 21
-698.1287539626135
 31
0.0
  0
LINE
  5
B268
330
18
100
AcDbEntity
  8
01
100
AcDbLine
 10
552.3460505977595
 20
-697.1287540315313
 30
0.0
 11
552.3460505977595
 21
-698.1287539626135
 31
0.0
  0
SPLINE
  5
B269
330
18
100
AcDbEntity
  8
01
100
AcDbSpline
210
0.0
220
0.0
230
1.0
 70
     8
 71
     3
 72
    11
 73
     7
 74
     0
 42
0.0000000001
 43
0.0000000001
 40
0.0000000000000061
 40
0.0000000000000061
 40
0.0000000000000061
 40
0.0000000000000061
 40
0.00036063810356
 40
0.00036063810356
 40
0.00036063810356
 40
0.0007212803997743
 40
0.0007212803997743
 40
0.0007212803997743
 40
0.0007212803997743
 10
550.1460499272317
 20
-692.2438684435415
 30
0.0
 10
550.2290291349768
 20
-692.1568883043798
 30
0.0
 10
550.312220807659
 20
-692.0701105981475
 30
0.0
 10
550.3955684865709
 20
-691.9834834779912
 30
0.0
 10
550.4789174142987
 20
-691.8968550598825
 30
0.0
 10
550.5624232368666
 20
-691.8103774443264
 30
0.0
 10
550.6460477727744
 20
-691.7240150475811
 30
0.0
  0
LINE
  5
B26A
330
18
100
AcDbEntity
  8
01
100
AcDbLine
 10
631.1713481327726
 20
-598.6441415834876
 30
0.0
 11
633.421348132773
 21
-598.6441415834876
 31
0.0
  0
LINE
  5
B26B
330
18
100
AcDbEntity
  8
01
100
AcDbLine
 10
634.9213481327732
 20
-598.6441415834876
 30
0.0
 11
637.1713481327726
 21
-598.6441415834876
 31
0.0
  0
LINE
  5
B26C
330
18
100
AcDbEntity
  8
01
100
AcDbLine
 10
617.171348132447
 20
-598.6441415834876
 30
0.0
 11
619.4213481327721
 21
-598.6441415834876
 31
0.0
  0
LINE
  5
B26D
330
18
100
AcDbEntity
  8
01
100
AcDbLine
 10
620.9213481327721
 20
-598.6441415834876
 30
0.0
 11
623.171348132447
 21
-598.6441415834876
 31
0.0
  0
LINE
  5
B26E
330
18
100
AcDbEntity
  8
01
100
AcDbLine
 10
636.6713481327726
 20
-598.1441415834876
 30
0.0
 11
631.6713481327726
 21
-598.1441415834876
 31
0.0
  0
LINE
  5
B26F
330
18
100
AcDbEntity
  8
01
100
AcDbLine
 10
622.671348132447
 20
-598.1441415834876
 30
0.0
 11
617.671348132447
 21
-598.1441415834876
 31
0.0
  0
LINE
  5
B270
330
18
100
AcDbEntity
  8
01
100
AcDbLine
 10
623.171348132447
 20
-600.3441415834874
 30
0.0
 11
631.1713481327726
 21
-600.3441415834874
 31
0.0
  0
LINE
  5
B271
330
18
100
AcDbEntity
  8
01
100
AcDbLine
 10
617.171348132447
 20
-598.6441415834876
 30
0.0
 11
617.171348132447
 21
-625.3441415834874
 31
0.0
  0
LINE
  5
B272
330
18
100
AcDbEntity
  8
01
100
AcDbLine
 10
617.671348132447
 20
-598.1441415834876
 30
0.0
 11
617.171348132447
 21
-598.6441415834876
 31
0.0
  0
LINE
  5
B273
330
18
100
AcDbEntity
  8
01
100
AcDbLine
 10
637.1713481327726
 20
-598.6441415834876
 30
0.0
 11
637.1713481327726
 21
-625.3441415834874
 31
0.0
  0
LINE
  5
B274
330
18
100
AcDbEntity
  8
01
100
AcDbLine
 10
636.6713481327726
 20
-598.1441415834876
 30
0.0
 11
637.1713481327726
 21
-598.6441415834876
 31
0.0
  0
LINE
  5
B275
330
18
100
AcDbEntity
  8
01
100
AcDbLine
 10
631.1713481327726
 20
-598.6441415834876
 30
0.0
 11
631.1713481327726
 21
-625.3441415834874
 31
0.0
  0
LINE
  5
B276
330
18
100
AcDbEntity
  8
01
100
AcDbLine
 10
623.171348132447
 20
-598.6441415834876
 30
0.0
 11
623.171348132447
 21
-625.3441415834874
 31
0.0
  0
LINE
  5
B277
330
18
100
AcDbEntity
  8
01
100
AcDbLine
 10
631.1713481327726
 20
-598.6441415834876
 30
0.0
 11
631.6713481327726
 21
-598.1441415834876
 31
0.0
  0
LINE
  5
B278
330
18
100
AcDbEntity
  8
01
100
AcDbLine
 10
623.171348132447
 20
-598.6441415834876
 30
0.0
 11
622.671348132447
 21
-598.1441415834876
 31
0.0
  0
LINE
  5
B279
330
18
100
AcDbEntity
  8
01
100
AcDbLine
 10
633.421348132773
 20
-617.3941415834876
 30
0.0
 11
633.421348132773
 21
-598.6441415834876
 31
0.0
  0
LINE
  5
B27A
330
18
100
AcDbEntity
  8
01
100
AcDbLine
 10
634.921348132773
 20
-598.6441415834876
 30
0.0
 11
634.921348132773
 21
-617.3941415834876
 31
0.0
  0
SPLINE
  5
B27B
330
18
100
AcDbEntity
  8
01
100
AcDbSpline
210
0.0
220
0.0
230
1.0
 70
    24
 71
     3
 72
     8
 73
     4
 74
     0
 42
0.0000000001
 43
0.0000000001
 40
0.0
 40
0.0
 40
0.0
 40
0.0
 40
0.0007188876611255
 40
0.0007188876611255
 40
0.0007188876611255
 40
0.0007188876611255
 10
634.921348132773
 20
-598.1441415834876
 30
0.0
 10
634.921348132773
 20
-598.3102802902723
 30
0.0
 10
634.921348132773
 20
-598.4770318228481
 30
0.0
 10
634.921348132773
 20
-598.6441415834876
 30
0.0
  0
SPLINE
  5
B27C
330
18
100
AcDbEntity
  8
01
100
AcDbSpline
210
0.0
220
0.0
230
1.0
 70
    24
 71
     3
 72
     8
 73
     4
 74
     0
 42
0.0000000001
 43
0.0000000001
 40
0.0
 40
0.0
 40
0.0
 40
0.0
 40
0.0007188876611255
 40
0.0007188876611255
 40
0.0007188876611255
 40
0.0007188876611255
 10
633.421348132773
 20
-598.6441415834876
 30
0.0
 10
633.421348132773
 20
-598.4770318228481
 30
0.0
 10
633.421348132773
 20
-598.3102802902723
 30
0.0
 10
633.421348132773
 20
-598.1441415834876
 30
0.0
  0
LINE
  5
B27D
330
18
100
AcDbEntity
  8
01
100
AcDbLine
 10
633.421348132773
 20
-608.1441415834876
 30
0.0
 11
634.921348132773
 21
-608.1441415834876
 31
0.0
  0
LINE
  5
B27E
330
18
100
AcDbEntity
  8
01
100
AcDbLine
 10
633.421348132773
 20
-598.1441415834876
 30
0.0
 11
634.171348132773
 21
-598.1441415834876
 31
0.0
  0
ARC
  5
B27F
330
18
100
AcDbEntity
  8
01
100
AcDbCircle
 10
634.171348132773
 20
-617.3941415834876
 30
0.0
 40
0.75
100
AcDbArc
 50
180.0
 51
0.0
  0
LINE
  5
B280
330
18
100
AcDbEntity
  8
01
100
AcDbLine
 10
620.9213481327721
 20
-617.3941415834876
 30
0.0
 11
620.9213481327721
 21
-598.6441415834876
 31
0.0
  0
LINE
  5
B281
330
18
100
AcDbEntity
  8
01
100
AcDbLine
 10
619.4213481327721
 20
-598.6441415834876
 30
0.0
 11
619.4213481327721
 21
-617.3941415834876
 31
0.0
  0
SPLINE
  5
B282
330
18
100
AcDbEntity
  8
01
100
AcDbSpline
210
0.0
220
0.0
230
1.0
 70
    24
 71
     3
 72
     8
 73
     4
 74
     0
 42
0.0000000001
 43
0.0000000001
 40
0.0
 40
0.0
 40
0.0
 40
0.0
 40
0.0007188876611255
 40
0.0007188876611255
 40
0.0007188876611255
 40
0.0007188876611255
 10
619.4213481327721
 20
-598.1441415834876
 30
0.0
 10
619.4213481327721
 20
-598.3102802902723
 30
0.0
 10
619.4213481327721
 20
-598.4770318228481
 30
0.0
 10
619.4213481327721
 20
-598.6441415834876
 30
0.0
  0
SPLINE
  5
B283
330
18
100
AcDbEntity
  8
01
100
AcDbSpline
210
0.0
220
0.0
230
1.0
 70
    24
 71
     3
 72
     8
 73
     4
 74
     0
 42
0.0000000001
 43
0.0000000001
 40
0.0
 40
0.0
 40
0.0
 40
0.0
 40
0.0007188876611255
 40
0.0007188876611255
 40
0.0007188876611255
 40
0.0007188876611255
 10
620.9213481327721
 20
-598.6441415834876
 30
0.0
 10
620.9213481327721
 20
-598.4770318228481
 30
0.0
 10
620.9213481327721
 20
-598.3102802902723
 30
0.0
 10
620.9213481327721
 20
-598.1441415834876
 30
0.0
  0
LINE
  5
B284
330
18
100
AcDbEntity
  8
01
100
AcDbLine
 10
620.9213481327721
 20
-608.1441415834876
 30
0.0
 11
619.4213481327721
 21
-608.1441415834876
 31
0.0
  0
LINE
  5
B285
330
18
100
AcDbEntity
  8
01
100
AcDbLine
 10
620.9213481327721
 20
-598.1441415834876
 30
0.0
 11
620.1713481327721
 21
-598.1441415834876
 31
0.0
  0
ARC
  5
B286
330
18
100
AcDbEntity
  8
01
100
AcDbCircle
 10
620.1713481327721
 20
-617.3941415834876
 30
0.0
 40
0.75
100
AcDbArc
 50
180.0
 51
0.0
  0
LINE
  5
BC77
330
18
100
AcDbEntity
  8
1CENTER
100
AcDbLine
 10
767.9999080039838
 20
-724.7255845536906
 30
0.0000000000562575
 11
734.8394641039838
 21
-724.7255845536906
 31
0.0000000000562575
  0
LINE
  5
BC78
330
18
100
AcDbEntity
  8
1HATCH
100
AcDbLine
 10
766.3982330039838
 20
-723.0755845536906
 30
0.0000000000562575
 11
738.0482330039838
 21
-723.0755845536906
 31
0.0000000000562575
  0
LINE
  5
BC79
330
18
100
AcDbEntity
  8
1HATCH
100
AcDbLine
 10
766.3982330039838
 20
-726.3755845536906
 30
0.0000000000562575
 11
738.0482330039838
 21
-726.3755845536906
 31
0.0000000000562575
  0
LINE
  5
BC7B
330
18
100
AcDbEntity
  8
1HATCH
100
AcDbLine
 10
766.0482330039838
 20
-722.7255845536906
 30
0.0000000000562575
 11
766.0482330039838
 21
-726.7255845536906
 31
0.0000000000562575
  0
LINE
  5
BC7C
330
18
100
AcDbEntity
  8
1HATCH
100
AcDbLine
 10
736.6982330139838
 20
-721.7255845536906
 30
0.0000000000562575
 11
736.6982330139838
 21
-727.7255845536906
 31
0.0000000000562575
  0
LINE
  5
BC7D
330
18
100
AcDbEntity
  8
1HATCH
100
AcDbLine
 10
737.6982331780579
 20
-726.7255845536906
 30
0.0000000000562575
 11
738.0482330039838
 21
-726.3755845536906
 31
0.0000000000562575
  0
LINE
  5
BC7E
330
18
100
AcDbEntity
  8
1HATCH
100
AcDbLine
 10
738.0482330039838
 20
-723.0755845536906
 30
0.0000000000562575
 11
737.6982331780579
 21
-722.7255845536906
 31
0.0000000000562575
  0
LINE
  5
BC7F
330
18
100
AcDbEntity
  8
01
100
AcDbLine
 10
550.6493131146157
 20
-697.6321110657079
 30
0.0
 11
550.3976809308255
 21
-697.3804714313371
 31
0.0
  0
LINE
  5
BC80
330
18
100
AcDbEntity
  8
01
100
AcDbLine
 10
550.3976809308255
 20
-697.3804714313371
 30
0.0
 11
550.1460487470353
 21
-697.128832029797
 31
0.0
  0
LINE
  5
BC89
330
18
100
AcDbEntity
  8
1CENTER
100
AcDbLine
 10
767.9999080039838
 20
-736.5240010468517
 30
0.0000000000562575
 11
734.8394641039838
 21
-736.5240010468517
 31
0.0000000000562575
  0
LINE
  5
BC8A
330
18
100
AcDbEntity
  8
1HATCH
100
AcDbLine
 10
766.3982330039838
 20
-734.8740010468517
 30
0.0000000000562575
 11
738.0482330039838
 21
-734.8740010468517
 31
0.0000000000562575
  0
LINE
  5
BC8B
330
18
100
AcDbEntity
  8
1HATCH
100
AcDbLine
 10
766.3982330039838
 20
-738.1740010468517
 30
0.0000000000562575
 11
738.0482330039838
 21
-738.1740010468517
 31
0.0000000000562575
  0
LINE
  5
BC8D
330
18
100
AcDbEntity
  8
1HATCH
100
AcDbLine
 10
766.0482330039838
 20
-734.5240010468517
 30
0.0000000000562575
 11
766.0482330039838
 21
-738.5240010468517
 31
0.0000000000562575
  0
LINE
  5
BC8E
330
18
100
AcDbEntity
  8
1HATCH
100
AcDbLine
 10
736.6982330139838
 20
-733.5240010468517
 30
0.0000000000562575
 11
736.6982330139838
 21
-739.5240010468517
 31
0.0000000000562575
  0
LINE
  5
BC8F
330
18
100
AcDbEntity
  8
1HATCH
100
AcDbLine
 10
737.6982331780579
 20
-738.5240010468517
 30
0.0000000000562575
 11
738.0482330039838
 21
-738.1740010468517
 31
0.0000000000562575
  0
LINE
  5
BC90
330
18
100
AcDbEntity
  8
1HATCH
100
AcDbLine
 10
738.0482330039838
 20
-734.8740010468517
 30
0.0000000000562575
 11
737.6982331780579
 21
-734.5240010468517
 31
0.0000000000562575
  0
LINE
  5
BC91
330
18
100
AcDbEntity
  8
01
100
AcDbLine
 10
737.6982331780578
 20
-726.7255845536906
 30
0.0000000000562575
 11
766.0482330039838
 21
-726.7255845536906
 31
0.0000000000562575
  0
LINE
  5
BC92
330
18
100
AcDbEntity
  8
01
100
AcDbLine
 10
766.0482330039838
 20
-726.7255845536906
 30
0.0000000000562575
 11
766.3982330039838
 21
-726.3755845536905
 31
0.0000000000562575
  0
LINE
  5
BC93
330
18
100
AcDbEntity
  8
01
100
AcDbLine
 10
766.3982330039838
 20
-726.3755845536905
 30
0.0000000000562575
 11
766.3982330039838
 21
-723.0755845536906
 31
0.0000000000562575
  0
LINE
  5
BC94
330
18
100
AcDbEntity
  8
01
100
AcDbLine
 10
766.3982330039838
 20
-723.0755845536906
 30
0.0000000000562575
 11
766.0482330039838
 21
-722.7255845536906
 31
0.0000000000562575
  0
LINE
  5
BC95
330
18
100
AcDbEntity
  8
01
100
AcDbLine
 10
766.0482330039838
 20
-722.7255845536906
 30
0.0000000000562575
 11
737.6982331780578
 21
-722.7255845536906
 31
0.0000000000562575
  0
LINE
  5
BC96
330
18
100
AcDbEntity
  8
01
100
AcDbLine
 10
737.6982331780578
 20
-722.7255845536906
 30
0.0000000000562575
 11
736.6982330139838
 21
-721.7255845536906
 31
0.0000000000562575
  0
LINE
  5
BC97
330
18
100
AcDbEntity
  8
01
100
AcDbLine
 10
736.6982330139838
 20
-721.7255845536906
 30
0.0000000000562575
 11
736.3982330039838
 21
-721.7255845536906
 31
0.0000000000562575
  0
LINE
  5
BC98
330
18
100
AcDbEntity
  8
01
100
AcDbLine
 10
736.3982330039838
 20
-721.7255845536906
 30
0.0000000000562575
 11
736.3982330039838
 21
-727.7255845536906
 31
0.0000000000562575
  0
LINE
  5
BC99
330
18
100
AcDbEntity
  8
01
100
AcDbLine
 10
736.3982330039838
 20
-727.7255845536906
 30
0.0000000000562575
 11
736.6982331039839
 21
-727.7255845536906
 31
0.0000000000562575
  0
LINE
  5
BC9A
330
18
100
AcDbEntity
  8
01
100
AcDbLine
 10
736.6982331039839
 20
-727.7255845536906
 30
0.0000000000562575
 11
737.6982331780578
 21
-726.7255845536906
 31
0.0000000000562575
  0
LINE
  5
BC9B
330
18
100
AcDbEntity
  8
01
100
AcDbLine
 10
737.6982331780578
 20
-738.5240010468517
 30
0.0000000000562575
 11
766.0482330039838
 21
-738.5240010468517
 31
0.0000000000562575
  0
LINE
  5
BC9C
330
18
100
AcDbEntity
  8
01
100
AcDbLine
 10
766.0482330039838
 20
-738.5240010468517
 30
0.0000000000562575
 11
766.3982330039838
 21
-738.1740010468516
 31
0.0000000000562575
  0
LINE
  5
BC9D
330
18
100
AcDbEntity
  8
01
100
AcDbLine
 10
766.3982330039838
 20
-738.1740010468516
 30
0.0000000000562575
 11
766.3982330039838
 21
-734.8740010468517
 31
0.0000000000562575
  0
LINE
  5
BC9E
330
18
100
AcDbEntity
  8
01
100
AcDbLine
 10
766.3982330039838
 20
-734.8740010468517
 30
0.0000000000562575
 11
766.0482330039838
 21
-734.5240010468517
 31
0.0000000000562575
  0
LINE
  5
BC9F
330
18
100
AcDbEntity
  8
01
100
AcDbLine
 10
766.0482330039838
 20
-734.5240010468517
 30
0.0000000000562575
 11
737.6982331780578
 21
-734.5240010468517
 31
0.0000000000562575
  0
LINE
  5
BCA0
330
18
100
AcDbEntity
  8
01
100
AcDbLine
 10
737.6982331780578
 20
-734.5240010468517
 30
0.0000000000562575
 11
736.6982330139838
 21
-733.5240010468517
 31
0.0000000000562575
  0
LINE
  5
BCA1
330
18
100
AcDbEntity
  8
01
100
AcDbLine
 10
736.6982330139838
 20
-733.5240010468517
 30
0.0000000000562575
 11
736.3982330039838
 21
-733.5240010468517
 31
0.0000000000562575
  0
LINE
  5
BCA2
330
18
100
AcDbEntity
  8
01
100
AcDbLine
 10
736.3982330039838
 20
-733.5240010468517
 30
0.0000000000562575
 11
736.3982330039838
 21
-739.5240010468517
 31
0.0000000000562575
  0
LINE
  5
BCA3
330
18
100
AcDbEntity
  8
01
100
AcDbLine
 10
736.3982330039838
 20
-739.5240010468517
 30
0.0000000000562575
 11
736.6982331039839
 21
-739.5240010468517
 31
0.0000000000562575
  0
LINE
  5
BCA4
330
18
100
AcDbEntity
  8
01
100
AcDbLine
 10
736.6982331039839
 20
-739.5240010468517
 30
0.0000000000562575
 11
737.6982331780578
 21
-738.5240010468517
 31
0.0000000000562575
  0
LINE
  5
BCA5
330
18
100
AcDbEntity
  8
1DIM
100
AcDbLine
 10
537.3460495472157
 20
-720.8287536973703
 30
0.0
 11
537.3460495472157
 21
-746.0222277566231
 31
0.0
1001
ACAD
1000
DSTYLE
1002
{
1070
    40
1040
1.0
1002
}
  0
LINE
  5
BCA6
330
18
100
AcDbEntity
  8
1DIM
100
AcDbLine
 10
515.3460247362059
 20
-716.3287586973672
 30
0.0
 11
515.3460247362059
 21
-746.0222277566231
 31
0.0
1001
ACAD
1000
DSTYLE
1002
{
1070
    40
1040
1.0
1002
}
  0
LINE
  5
BCA7
330
18
100
AcDbEntity
  8
1DIM
100
AcDbLine
 10
535.3460495472157
 20
-745.0222277566231
 30
0.0
 11
517.3460247362059
 21
-745.0222277566231
 31
0.0
1001
ACAD
1000
DSTYLE
1002
{
1070
    40
1040
1.0
1002
}
  0
LINE
  5
BCAB
330
18
100
AcDbEntity
  8
1DIM
100
AcDbLine
 10
537.3460495472157
 20
-720.8287536973703
 30
0.0
 11
537.3460495472157
 21
-736.9863975909179
 31
0.0
1001
ACAD
1000
DSTYLE
1002
{
1070
    40
1040
1.0
1070
   271
1070
     0
1002
}
  0
LINE
  5
BCAC
330
18
100
AcDbEntity
  8
1DIM
100
AcDbLine
 10
531.0460495472155
 20
-720.3287536973703
 30
0.0
 11
531.0460495472155
 21
-736.9863975909179
 31
0.0
1001
ACAD
1000
DSTYLE
1002
{
1070
    40
1040
1.0
1070
   271
1070
     0
1002
}
  0
LINE
  5
BCAD
330
18
100
AcDbEntity
  8
1DIM
100
AcDbLine
 10
535.3460495472157
 20
-735.9863975909179
 30
0.0
 11
533.0460495472155
 21
-735.9863975909179
 31
0.0
1001
ACAD
1000
DSTYLE
1002
{
1070
    40
1040
1.0
1070
   271
1070
     0
1002
}
  0
LINE
  5
BCB1
330
18
100
AcDbEntity
  8
1DIM
100
AcDbLine
 10
577.3460495472267
 20
-720.8287536973702
 30
0.0
 11
577.3460495472267
 21
-746.0222277566231
 31
0.0
1001
ACAD
1000
DSTYLE
1002
{
1070
    40
1040
1.0
1070
   271
1070
     0
1002
}
  0
LINE
  5
BCB2
330
18
100
AcDbEntity
  8
1DIM
100
AcDbLine
 10
585.5879177020968
 20
-706.3287536973701
 30
0.0
 11
585.5879177020968
 21
-746.0222277566231
 31
0.0
1001
ACAD
1000
DSTYLE
1002
{
1070
    40
1040
1.0
1070
   271
1070
     0
1002
}
  0
LINE
  5
BCB3
330
18
100
AcDbEntity
  8
1DIM
100
AcDbLine
 10
579.3460495472267
 20
-745.0222277566231
 30
0.0
 11
583.5879177020968
 21
-745.0222277566231
 31
0.0
1001
ACAD
1000
DSTYLE
1002
{
1070
    40
1040
1.0
1070
   271
1070
     0
1002
}
  0
LINE
  5
BCB7
330
18
100
AcDbEntity
  8
1DIM
100
AcDbLine
 10
577.3460495472267
 20
-720.8287536973702
 30
0.0
 11
577.3460495472267
 21
-736.9863975909179
 31
0.0
1001
ACAD
1000
DSTYLE
1002
{
1070
    40
1040
1.0
1070
   271
1070
     0
1002
}
  0
LINE
  5
BCB8
330
18
100
AcDbEntity
  8
1DIM
100
AcDbLine
 10
583.6460495472269
 20
-720.3287536973702
 30
0.0
 11
583.6460495472269
 21
-736.9863975909179
 31
0.0
1001
ACAD
1000
DSTYLE
1002
{
1070
    40
1040
1.0
1070
   271
1070
     0
1002
}
  0
LINE
  5
BCB9
330
18
100
AcDbEntity
  8
1DIM
100
AcDbLine
 10
579.3460495472267
 20
-735.9863975909179
 30
0.0
 11
581.6460495472269
 21
-735.9863975909179
 31
0.0
1001
ACAD
1000
DSTYLE
1002
{
1070
    40
1040
1.0
1070
   271
1070
     0
1002
}
  0
LINE
  5
BCBD
330
18
100
AcDbEntity
  8
1DIM
100
AcDbLine
 10
647.1713481327744
 20
-720.3287536973697
 30
0.0
 11
647.1713481327744
 21
-746.0222277566226
 31
0.0
1001
ACAD
1000
DSTYLE
1002
{
1070
     3
1000
□<>
1070
    40
1040
1.0
1002
}
  0
LINE
  5
BCBE
330
18
100
AcDbEntity
  8
1DIM
100
AcDbLine
 10
607.1713481327741
 20
-720.3287536973695
 30
0.0
 11
607.1713481327741
 21
-746.0222277566226
 31
0.0
1001
ACAD
1000
DSTYLE
1002
{
1070
     3
1000
□<>
1070
    40
1040
1.0
1002
}
  0
LINE
  5
BCBF
330
18
100
AcDbEntity
  8
1DIM
100
AcDbLine
 10
645.1713481327744
 20
-745.0222277566226
 30
0.0
 11
609.1713481327741
 21
-745.0222277566226
 31
0.0
1001
ACAD
1000
DSTYLE
1002
{
1070
     3
1000
□<>
1070
    40
1040
1.0
1002
}
  0
LINE
  5
BCC3
330
18
100
AcDbEntity
  8
1DIM
100
AcDbLine
 10
500.4425278925602
 20
-720.3287536973703
 30
0.0
 11
500.4425278925602
 21
-746.0222277566231
 31
0.0
1001
ACAD
1000
DSTYLE
1002
{
1070
     3
1000
□<>
1070
    40
1040
1.0
1002
}
  0
LINE
  5
BCC4
330
18
100
AcDbEntity
  8
1DIM
100
AcDbLine
 10
460.44252789256
 20
-720.3287536973701
 30
0.0
 11
460.44252789256
 21
-746.0222277566231
 31
0.0
1001
ACAD
1000
DSTYLE
1002
{
1070
     3
1000
□<>
1070
    40
1040
1.0
1002
}
  0
LINE
  5
BCC5
330
18
100
AcDbEntity
  8
1DIM
100
AcDbLine
 10
498.4425278925602
 20
-745.0222277566231
 30
0.0
 11
462.44252789256
 21
-745.0222277566231
 31
0.0
1001
ACAD
1000
DSTYLE
1002
{
1070
     3
1000
□<>
1070
    40
1040
1.0
1002
}
  0
LINE
  5
BCC9
330
18
100
AcDbEntity
  8
1DIM
100
AcDbLine
 10
634.2642036552321
 20
-756.3287534932415
 30
0.0
 11
658.0104208446919
 21
-756.3287534932415
 31
0.0
1001
ACAD
1000
DSTYLE
1002
{
1070
    40
1040
1.0
1002
}
  0
LINE
  5
BCCA
330
18
100
AcDbEntity
  8
1DIM
100
AcDbLine
 10
633.1713481327726
 20
-706.3287536973694
 30
0.0
 11
658.0104208446919
 21
-706.3287536973694
 31
0.0
1001
ACAD
1000
DSTYLE
1002
{
1070
    40
1040
1.0
1002
}
  0
LINE
  5
BCCB
330
18
100
AcDbEntity
  8
1DIM
100
AcDbLine
 10
657.0104208446919
 20
-754.3287534932415
 30
0.0
 11
657.0104208446919
 21
-708.3287536973694
 31
0.0
1001
ACAD
1000
DSTYLE
1002
{
1070
    40
1040
1.0
1002
}
  0
LINE
  5
BCD0
330
18
100
AcDbEntity
  8
1DIM
100
AcDbLine
 10
568.8931832950014
 20
-711.9966970194048
 30
0.0
 11
563.7777732455475
 21
-760.8325562898095
 31
0.0
1001
ACAD
1000
DSTYLE
1002
{
1070
    40
1040
1.3
1070
   271
1070
     1
1002
}
  0
LINE
  5
BCD1
330
18
100
AcDbEntity
  8
1DIM
100
AcDbLine
 10
563.7777732455475
 20
-760.8325562898095
 30
0.0
 11
515.7011065788807
 21
-760.8325562898095
 31
0.0
1001
ACAD
1000
DSTYLE
1002
{
1070
    40
1040
1.3
1070
   271
1070
     1
1002
}
  0
TEXT
  5
BCD2
330
18
100
AcDbEntity
  8
1DIM
  6
CONTINUOUS
100
AcDbText
 10
515.4677732455474
 20
-754.1475562898095
 30
0.0
 40
3.5
  1
材質：亜鉛ダイキャスト
100
AcDbText
  0
TEXT
  5
BCD3
330
18
100
AcDbEntity
  8
1DIM
  6
CONTINUOUS
100
AcDbText
 10
527.3677732455475
 20
-759.9808896231428
 30
0.0
 40
3.5
  1
仕上げ：クローム
100
AcDbText
  0
LINE
  5
BCD5
330
18
100
AcDbEntity
  8
1DIM
100
AcDbLine
 10
539.3406837935966
 20
-698.1719391383707
 30
0.0
 11
549.5818221454582
 21
-662.0313555773703
 31
0.0
1001
ACAD
1000
DSTYLE
1002
{
1070
    40
1040
1.3
1002
}
  0
LINE
  5
BCD6
330
18
100
AcDbEntity
  8
1DIM
100
AcDbLine
 10
549.5818221454582
 20
-662.0313555773703
 30
0.0
 11
594.2751554787916
 21
-662.0313555773703
 31
0.0
1001
ACAD
1000
DSTYLE
1002
{
1070
    40
1040
1.3
1002
}
  0
TEXT
  5
BCD7
330
18
100
AcDbEntity
  8
1DIM
  6
CONTINUOUS
100
AcDbText
 10
552.8584888121248
 20
-661.1213555773703
 30
0.0
 40
3.5
  1
材質：ポリアセタール
100
AcDbText
  0
LINE
  5
BCD8
330
18
100
AcDbEntity
  8
1DIM
100
AcDbLine
 10
736.3982330039838
 20
-721.7255845536906
 30
0.0
 11
736.3982330039838
 21
-717.6043873616909
 31
0.0
  0
LINE
  5
BCD9
330
18
100
AcDbEntity
  8
1DIM
100
AcDbLine
 10
766.3982330039838
 20
-723.0755845536905
 30
0.0
 11
766.3982330039838
 21
-717.6043873616909
 31
0.0
  0
LINE
  5
BCDA
330
18
100
AcDbEntity
  8
1DIM
100
AcDbLine
 10
738.3982330039838
 20
-718.6043873616909
 30
0.0
 11
764.3982330039838
 21
-718.6043873616909
 31
0.0
  0
LINE
  5
BCDF
330
18
100
AcDbEntity
  8
1DIM
100
AcDbLine
 10
735.6108541478228
 20
-722.9034486021465
 30
0.0000000000562575
 11
732.0427429416529
 21
-713.9764852517001
 31
0.0000000000562575
  0
LINE
  5
BCE0
330
18
100
AcDbEntity
  8
1DIM
100
AcDbLine
 10
732.0427429416529
 20
-713.9764852517001
 30
0.0000000000562575
 11
729.3427429416529
 21
-713.9764852517001
 31
0.0000000000562575
  0
TEXT
  5
BCE1
330
18
100
AcDbEntity
  8
1DIM
  6
CONTINUOUS
100
AcDbText
 10
720.0094096083195
 20
-713.2764852517001
 30
0.0000000000562575
 40
3.5
  1
SUS
100
AcDbText
  0
TEXT
  5
BCE2
330
18
100
AcDbEntity
  8
1DIM
  6
CONTINUOUS
100
AcDbText
 10
521.7451415597134
 20
-645.2910264877804
 30
0.0
 40
3.5
  1
材質：亜鉛ダイキャスト
100
AcDbText
  0
TEXT
  5
BCE3
330
18
100
AcDbEntity
  8
1DIM
  6
CONTINUOUS
100
AcDbText
 10
521.86180822638
 20
-651.1243598211138
 30
0.0
 40
3.5
  1
仕上げ：各種メッキ
100
AcDbText
  0
LINE
  5
BCE5
330
18
100
AcDbEntity
  8
1DIM
100
AcDbLine
 10
527.2291965129028
 20
-695.3167517454182
 30
0.0
 11
519.2784748930467
 21
-651.8243598211138
 31
0.0
  0
LINE
  5
BCE6
330
18
100
AcDbEntity
  8
1DIM
100
AcDbLine
 10
519.2784748930467
 20
-651.8243598211138
 30
0.0
 11
566.5451415597133
 21
-651.8243598211138
 31
0.0
  0
TEXT
  5
BCE7
330
18
100
AcDbEntity
  8
1DIM
  6
CONTINUOUS
100
AcDbText
 10
461.4198378181895
 20
-665.342212843249
 30
0.0
 40
3.5
  1
材質：真鍮
100
AcDbText
  0
TEXT
  5
BCE8
330
18
100
AcDbEntity
  8
1DIM
  6
CONTINUOUS
100
AcDbText
 10
461.5365044848562
 20
-671.1755461765823
 30
0.0
 40
3.5
  1
仕上げ：各種メッキ
100
AcDbText
  0
LINE
  5
BCEA
330
18
100
AcDbEntity
  8
1DIM
100
AcDbLine
 10
489.3232531641133
 20
-688.8063703804323
 30
0.0
 11
501.2198378181895
 21
-671.8755461765824
 31
0.0
  0
LINE
  5
BCEB
330
18
100
AcDbEntity
  8
1DIM
100
AcDbLine
 10
501.2198378181895
 20
-671.8755461765824
 30
0.0
 11
461.7698378181895
 21
-671.8755461765824
 31
0.0
  0
LINE
  5
BCEC
330
18
100
AcDbEntity
  8
0
  6
BYBLOCK
100
AcDbLine
 10
535.3460495472157
 20
-744.4863293766231
 30
0.0
 11
537.3460495472157
 21
-745.0222277566231
 31
0.0
  0
LINE
  5
BCED
330
18
100
AcDbEntity
  8
0
  6
BYBLOCK
100
AcDbLine
 10
537.3460495472157
 20
-745.0222277566231
 30
0.0
 11
535.3460495472157
 21
-745.5581261366232
 31
0.0
  0
LINE
  5
BCEE
330
18
100
AcDbEntity
  8
0
  6
BYBLOCK
100
AcDbLine
 10
537.3460495472157
 20
-745.0222277566231
 30
0.0
 11
535.3460495472157
 21
-745.0222277566231
 31
0.0
  0
LINE
  5
BCEF
330
18
100
AcDbEntity
  8
0
  6
BYBLOCK
100
AcDbLine
 10
517.3460247362059
 20
-745.5581261366232
 30
0.0
 11
515.3460247362059
 21
-745.0222277566231
 31
0.0
  0
LINE
  5
BCF0
330
18
100
AcDbEntity
  8
0
  6
BYBLOCK
100
AcDbLine
 10
515.3460247362059
 20
-745.0222277566231
 30
0.0
 11
517.3460247362059
 21
-744.4863293766231
 31
0.0
  0
LINE
  5
BCF1
330
18
100
AcDbEntity
  8
0
  6
BYBLOCK
100
AcDbLine
 10
515.3460247362059
 20
-745.0222277566231
 30
0.0
 11
517.3460247362059
 21
-745.0222277566231
 31
0.0
  0
TEXT
  5
BCF2
330
18
100
AcDbEntity
  8
1DIM
  6
CONTINUOUS
100
AcDbText
 10
523.4293704750442
 20
-744.3222277566231
 30
0.0
 40
3.5
  1
22
100
AcDbText
1001
ACAD
1000
DSTYLE
1002
{
1070
    40
1040
1.0
1002
}
  0
LINE
  5
BCF3
330
18
100
AcDbEntity
  8
0
  6
BYBLOCK
100
AcDbLine
 10
535.3460495472157
 20
-735.4504992109179
 30
0.0
 11
537.3460495472157
 21
-735.9863975909179
 31
0.0
  0
LINE
  5
BCF4
330
18
100
AcDbEntity
  8
0
  6
BYBLOCK
100
AcDbLine
 10
537.3460495472157
 20
-735.9863975909179
 30
0.0
 11
535.3460495472157
 21
-736.522295970918
 31
0.0
  0
LINE
  5
BCF5
330
18
100
AcDbEntity
  8
0
  6
BYBLOCK
100
AcDbLine
 10
537.3460495472157
 20
-735.9863975909179
 30
0.0
 11
535.3460495472157
 21
-735.9863975909179
 31
0.0
  0
LINE
  5
BCF6
330
18
100
AcDbEntity
  8
0
  6
BYBLOCK
100
AcDbLine
 10
533.0460495472155
 20
-736.522295970918
 30
0.0
 11
531.0460495472155
 21
-735.9863975909179
 31
0.0
  0
LINE
  5
BCF7
330
18
100
AcDbEntity
  8
0
  6
BYBLOCK
100
AcDbLine
 10
531.0460495472155
 20
-735.9863975909179
 30
0.0
 11
533.0460495472155
 21
-735.4504992109179
 31
0.0
  0
LINE
  5
BCF8
330
18
100
AcDbEntity
  8
0
  6
BYBLOCK
100
AcDbLine
 10
531.0460495472155
 20
-735.9863975909179
 30
0.0
 11
533.0460495472155
 21
-735.9863975909179
 31
0.0
  0
TEXT
  5
BCF9
330
18
100
AcDbEntity
  8
1DIM
  6
CONTINUOUS
100
AcDbText
 10
533.029382880549
 20
-735.2863975909179
 30
0.0
 40
3.5
  1
6
100
AcDbText
1001
ACAD
1000
DSTYLE
1002
{
1070
    40
1040
1.0
1070
   271
1070
     0
1002
}
  0
LINE
  5
BCFA
330
18
100
AcDbEntity
  8
0
  6
BYBLOCK
100
AcDbLine
 10
579.3460495472267
 20
-745.5581261366232
 30
0.0
 11
577.3460495472267
 21
-745.0222277566231
 31
0.0
  0
LINE
  5
BCFB
330
18
100
AcDbEntity
  8
0
  6
BYBLOCK
100
AcDbLine
 10
577.3460495472267
 20
-745.0222277566231
 30
0.0
 11
579.3460495472267
 21
-744.4863293766231
 31
0.0
  0
LINE
  5
BCFC
330
18
100
AcDbEntity
  8
0
  6
BYBLOCK
100
AcDbLine
 10
577.3460495472267
 20
-745.0222277566231
 30
0.0
 11
579.3460495472267
 21
-745.0222277566231
 31
0.0
  0
LINE
  5
BCFD
330
18
100
AcDbEntity
  8
0
  6
BYBLOCK
100
AcDbLine
 10
583.5879177020968
 20
-744.4863293766231
 30
0.0
 11
585.5879177020968
 21
-745.0222277566231
 31
0.0
  0
LINE
  5
BCFE
330
18
100
AcDbEntity
  8
0
  6
BYBLOCK
100
AcDbLine
 10
585.5879177020968
 20
-745.0222277566231
 30
0.0
 11
583.5879177020968
 21
-745.5581261366232
 31
0.0
  0
LINE
  5
BCFF
330
18
100
AcDbEntity
  8
0
  6
BYBLOCK
100
AcDbLine
 10
585.5879177020968
 20
-745.0222277566231
 30
0.0
 11
583.5879177020968
 21
-745.0222277566231
 31
0.0
  0
TEXT
  5
BD00
330
18
100
AcDbEntity
  8
1DIM
  6
CONTINUOUS
100
AcDbText
 10
580.300316957995
 20
-744.3222277566231
 30
0.0
 40
3.5
  1
8
100
AcDbText
1001
ACAD
1000
DSTYLE
1002
{
1070
    40
1040
1.0
1070
   271
1070
     0
1002
}
  0
LINE
  5
BD01
330
18
100
AcDbEntity
  8
0
  6
BYBLOCK
100
AcDbLine
 10
579.3460495472267
 20
-736.522295970918
 30
0.0
 11
577.3460495472267
 21
-735.9863975909179
 31
0.0
  0
LINE
  5
BD02
330
18
100
AcDbEntity
  8
0
  6
BYBLOCK
100
AcDbLine
 10
577.3460495472267
 20
-735.9863975909179
 30
0.0
 11
579.3460495472267
 21
-735.4504992109179
 31
0.0
  0
LINE
  5
BD03
330
18
100
AcDbEntity
  8
0
  6
BYBLOCK
100
AcDbLine
 10
577.3460495472267
 20
-735.9863975909179
 30
0.0
 11
579.3460495472267
 21
-735.9863975909179
 31
0.0
  0
LINE
  5
BD04
330
18
100
AcDbEntity
  8
0
  6
BYBLOCK
100
AcDbLine
 10
581.6460495472269
 20
-735.4504992109179
 30
0.0
 11
583.6460495472269
 21
-735.9863975909179
 31
0.0
  0
LINE
  5
BD05
330
18
100
AcDbEntity
  8
0
  6
BYBLOCK
100
AcDbLine
 10
583.6460495472269
 20
-735.9863975909179
 30
0.0
 11
581.6460495472269
 21
-736.522295970918
 31
0.0
  0
LINE
  5
BD06
330
18
100
AcDbEntity
  8
0
  6
BYBLOCK
100
AcDbLine
 10
583.6460495472269
 20
-735.9863975909179
 30
0.0
 11
581.6460495472269
 21
-735.9863975909179
 31
0.0
  0
TEXT
  5
BD07
330
18
100
AcDbEntity
  8
1DIM
  6
CONTINUOUS
100
AcDbText
 10
579.3293828805602
 20
-735.2863975909179
 30
0.0
 40
3.5
  1
6
100
AcDbText
1001
ACAD
1000
DSTYLE
1002
{
1070
    40
1040
1.0
1070
   271
1070
     0
1002
}
  0
LINE
  5
BD08
330
18
100
AcDbEntity
  8
0
  6
BYBLOCK
100
AcDbLine
 10
645.1713481327744
 20
-744.4863293766225
 30
0.0
 11
647.1713481327744
 21
-745.0222277566226
 31
0.0
  0
LINE
  5
BD09
330
18
100
AcDbEntity
  8
0
  6
BYBLOCK
100
AcDbLine
 10
647.1713481327744
 20
-745.0222277566226
 30
0.0
 11
645.1713481327744
 21
-745.5581261366226
 31
0.0
  0
LINE
  5
BD0A
330
18
100
AcDbEntity
  8
0
  6
BYBLOCK
100
AcDbLine
 10
647.1713481327744
 20
-745.0222277566226
 30
0.0
 11
645.1713481327744
 21
-745.0222277566226
 31
0.0
  0
LINE
  5
BD0B
330
18
100
AcDbEntity
  8
0
  6
BYBLOCK
100
AcDbLine
 10
609.1713481327741
 20
-745.5581261366226
 30
0.0
 11
607.1713481327741
 21
-745.0222277566226
 31
0.0
  0
LINE
  5
BD0C
330
18
100
AcDbEntity
  8
0
  6
BYBLOCK
100
AcDbLine
 10
607.1713481327741
 20
-745.0222277566226
 30
0.0
 11
609.1713481327741
 21
-744.4863293766225
 31
0.0
  0
LINE
  5
BD0D
330
18
100
AcDbEntity
  8
0
  6
BYBLOCK
100
AcDbLine
 10
607.1713481327741
 20
-745.0222277566226
 30
0.0
 11
609.1713481327741
 21
-745.0222277566226
 31
0.0
  0
TEXT
  5
BD0E
330
18
100
AcDbEntity
  8
1DIM
  6
CONTINUOUS
100
AcDbText
 10
622.2567647994409
 20
-744.3222277566225
 30
0.0
 40
3.5
  1
□40
100
AcDbText
1001
ACAD
1000
DSTYLE
1002
{
1070
     3
1000
□<>
1070
    40
1040
1.0
1002
}
  0
LINE
  5
BD0F
330
18
100
AcDbEntity
  8
0
  6
BYBLOCK
100
AcDbLine
 10
498.4425278925602
 20
-744.4863293766231
 30
0.0
 11
500.4425278925602
 21
-745.0222277566231
 31
0.0
  0
LINE
  5
BD10
330
18
100
AcDbEntity
  8
0
  6
BYBLOCK
100
AcDbLine
 10
500.4425278925602
 20
-745.0222277566231
 30
0.0
 11
498.4425278925602
 21
-745.5581261366232
 31
0.0
  0
LINE
  5
BD11
330
18
100
AcDbEntity
  8
0
  6
BYBLOCK
100
AcDbLine
 10
500.4425278925602
 20
-745.0222277566231
 30
0.0
 11
498.4425278925602
 21
-745.0222277566231
 31
0.0
  0
LINE
  5
BD12
330
18
100
AcDbEntity
  8
0
  6
BYBLOCK
100
AcDbLine
 10
462.44252789256
 20
-745.5581261366232
 30
0.0
 11
460.44252789256
 21
-745.0222277566231
 31
0.0
  0
LINE
  5
BD13
330
18
100
AcDbEntity
  8
0
  6
BYBLOCK
100
AcDbLine
 10
460.44252789256
 20
-745.0222277566231
 30
0.0
 11
462.44252789256
 21
-744.4863293766231
 31
0.0
  0
LINE
  5
BD14
330
18
100
AcDbEntity
  8
0
  6
BYBLOCK
100
AcDbLine
 10
460.44252789256
 20
-745.0222277566231
 30
0.0
 11
462.44252789256
 21
-745.0222277566231
 31
0.0
  0
TEXT
  5
BD15
330
18
100
AcDbEntity
  8
1DIM
  6
CONTINUOUS
100
AcDbText
 10
475.5279445592267
 20
-744.3222277566231
 30
0.0
 40
3.5
  1
□40
100
AcDbText
1001
ACAD
1000
DSTYLE
1002
{
1070
     3
1000
□<>
1070
    40
1040
1.0
1002
}
  0
LINE
  5
BD16
330
18
100
AcDbEntity
  8
0
  6
BYBLOCK
100
AcDbLine
 10
657.546319224692
 20
-754.3287534932415
 30
0.0
 11
657.0104208446919
 21
-756.3287534932415
 31
0.0
  0
LINE
  5
BD17
330
18
100
AcDbEntity
  8
0
  6
BYBLOCK
100
AcDbLine
 10
657.0104208446919
 20
-756.3287534932415
 30
0.0
 11
656.4745224646919
 21
-754.3287534932415
 31
0.0
  0
LINE
  5
BD18
330
18
100
AcDbEntity
  8
0
  6
BYBLOCK
100
AcDbLine
 10
657.0104208446919
 20
-756.3287534932415
 30
0.0
 11
657.0104208446919
 21
-754.3287534932415
 31
0.0
  0
LINE
  5
BD19
330
18
100
AcDbEntity
  8
0
  6
BYBLOCK
100
AcDbLine
 10
656.4745224646919
 20
-708.3287536973694
 30
0.0
 11
657.0104208446919
 21
-706.3287536973694
 31
0.0
  0
LINE
  5
BD1A
330
18
100
AcDbEntity
  8
0
  6
BYBLOCK
100
AcDbLine
 10
657.0104208446919
 20
-706.3287536973694
 30
0.0
 11
657.546319224692
 21
-708.3287536973694
 31
0.0
  0
LINE
  5
BD1B
330
18
100
AcDbEntity
  8
0
  6
BYBLOCK
100
AcDbLine
 10
657.0104208446919
 20
-706.3287536973694
 30
0.0
 11
657.0104208446919
 21
-708.3287536973694
 31
0.0
  0
TEXT
  5
BD1C
330
18
100
AcDbEntity
  8
1DIM
  6
CONTINUOUS
100
AcDbText
 10
656.3104208446921
 20
-752.6471563730831
 30
0.0
 40
3.5
  1
ハンドル取付位置=50
 50
90.0
100
AcDbText
1001
ACAD
1000
DSTYLE
1002
{
1070
    40
1040
1.0
1002
}
  0
LINE
  5
BD1D
330
18
100
AcDbEntity
  8
0
  6
BYBLOCK
100
AcDbLine
 10
568.2003061331421
 20
-711.924120211097
 30
0.0
 11
569.1640436335147
 21
-709.41084422448
 31
0.0
  0
LINE
  5
BD1E
330
18
100
AcDbEntity
  8
0
  6
BYBLOCK
100
AcDbLine
 10
569.1640436335147
 20
-709.41084422448
 30
0.0
 11
569.5860604568608
 21
-712.0692738277125
 31
0.0
  0
LINE
  5
BD1F
330
18
100
AcDbEntity
  8
0
  6
BYBLOCK
100
AcDbLine
 10
569.1640436335147
 20
-709.41084422448
 30
0.0
 11
568.8931832950014
 21
-711.9966970194048
 31
0.0
  0
LINE
  5
BD20
330
18
100
AcDbEntity
  8
0
  6
BYBLOCK
100
AcDbLine
 10
540.0109602389509
 20
-698.3618750257999
 30
0.0
 11
538.6318334050986
 21
-700.6734449102462
 31
0.0
  0
LINE
  5
BD21
330
18
100
AcDbEntity
  8
0
  6
BYBLOCK
100
AcDbLine
 10
538.6318334050986
 20
-700.6734449102462
 30
0.0
 11
538.6704073482422
 21
-697.9820032509415
 31
0.0
  0
LINE
  5
BD22
330
18
100
AcDbEntity
  8
0
  6
BYBLOCK
100
AcDbLine
 10
538.6318334050986
 20
-700.6734449102462
 30
0.0
 11
539.3406837935966
 21
-698.1719391383707
 31
0.0
  0
LINE
  5
BD23
330
18
100
AcDbEntity
  8
0
  6
BYBLOCK
100
AcDbLine
 10
738.3982330039838
 20
-719.140285741691
 30
0.0
 11
736.3982330039838
 21
-718.6043873616909
 31
0.0
  0
LINE
  5
BD24
330
18
100
AcDbEntity
  8
0
  6
BYBLOCK
100
AcDbLine
 10
736.3982330039838
 20
-718.6043873616909
 30
0.0
 11
738.3982330039838
 21
-718.0684889816908
 31
0.0
  0
LINE
  5
BD25
330
18
100
AcDbEntity
  8
0
  6
BYBLOCK
100
AcDbLine
 10
736.3982330039838
 20
-718.6043873616909
 30
0.0
 11
738.3982330039838
 21
-718.6043873616909
 31
0.0
  0
LINE
  5
BD26
330
18
100
AcDbEntity
  8
0
  6
BYBLOCK
100
AcDbLine
 10
764.3982330039838
 20
-718.0684889816908
 30
0.0
 11
766.3982330039838
 21
-718.6043873616909
 31
0.0
  0
LINE
  5
BD27
330
18
100
AcDbEntity
  8
0
  6
BYBLOCK
100
AcDbLine
 10
766.3982330039838
 20
-718.6043873616909
 30
0.0
 11
764.3982330039838
 21
-719.140285741691
 31
0.0
  0
LINE
  5
BD28
330
18
100
AcDbEntity
  8
0
  6
BYBLOCK
100
AcDbLine
 10
766.3982330039838
 20
-718.6043873616909
 30
0.0
 11
764.3982330039838
 21
-718.6043873616909
 31
0.0
  0
TEXT
  5
BD29
330
18
100
AcDbEntity
  8
1DIM
  6
CONTINUOUS
100
AcDbText
 10
748.7003163373172
 20
-717.9043873616909
 30
0.0
 40
3.5
  1
30
100
AcDbText
  0
LINE
  5
BD2A
330
18
100
AcDbEntity
  8
0
  6
BYBLOCK
100
AcDbLine
 10
736.1084746877061
 20
-722.7045494518896
 30
0.0000000000562575
 11
736.3531558888986
 21
-724.7605937567307
 31
0.0000000000562575
  0
LINE
  5
BD2B
330
18
100
AcDbEntity
  8
0
  6
BYBLOCK
100
AcDbLine
 10
736.3531558888986
 20
-724.7605937567307
 30
0.0000000000562575
 11
735.1132336079396
 21
-723.1023477524033
 31
0.0000000000562575
  0
LINE
  5
BD2C
330
18
100
AcDbEntity
  8
0
  6
BYBLOCK
100
AcDbLine
 10
736.3531558888986
 20
-724.7605937567307
 30
0.0000000000562575
 11
735.6108541478228
 21
-722.9034486021465
 31
0.0000000000562575
  0
LINE
  5
BD2D
330
18
100
AcDbEntity
  8
0
  6
BYBLOCK
100
AcDbLine
 10
527.756358802297
 20
-695.2203826926709
 30
0.0
 11
527.5888507172962
 21
-697.2841482111215
 31
0.0
  0
LINE
  5
BD2E
330
18
100
AcDbEntity
  8
0
  6
BYBLOCK
100
AcDbLine
 10
527.5888507172962
 20
-697.2841482111215
 30
0.0
 11
526.7020342235088
 21
-695.4131207981654
 31
0.0
  0
LINE
  5
BD2F
330
18
100
AcDbEntity
  8
0
  6
BYBLOCK
100
AcDbLine
 10
527.5888507172962
 20
-697.2841482111215
 30
0.0
 11
527.2291965129028
 21
-695.3167517454182
 31
0.0
  0
LINE
  5
BD30
330
18
100
AcDbEntity
  8
0
  6
BYBLOCK
100
AcDbLine
 10
489.7617299214709
 20
-689.114469726332
 30
0.0
 11
488.1734107410043
 21
-690.4427879316761
 31
0.0
  0
LINE
  5
BD31
330
18
100
AcDbEntity
  8
0
  6
BYBLOCK
100
AcDbLine
 10
488.1734107410043
 20
-690.4427879316761
 30
0.0
 11
488.8847764067557
 21
-688.4982710345326
 31
0.0
  0
LINE
  5
BD32
330
18
100
AcDbEntity
  8
0
  6
BYBLOCK
100
AcDbLine
 10
488.1734107410043
 20
-690.4427879316761
 30
0.0
 11
489.3232531641133
 21
-688.8063703804323
 31
0.0
  0
VIEWPORT
  5
20C3
330
15
100
AcDbEntity
 67
     1
  8
0
  6
CONTINUOUS
100
AcDbViewport
 68
     1
 10
0.0
 20
0.0
 30
0.0
 40
535.5106132075472
 41
297.0
 68
     1
 69
     1
1001
ACAD
1000
MVIEW
1002
{
1070
    16
1010
0.0
1020
0.0
1030
0.0
1010
0.0
1020
0.0
1030
1.0
1040
0.0
1040
297.0
1040
-4.171999999999855
1040
12.83899999999988
1040
50.0
1040
0.0
1040
0.0
1070
    16
1070
   100
1070
     0
1070
     1
1070
     0
1070
     0
1070
     0
1070
     0
1040
0.0
1040
0.0
1040
0.0
1040
1.0
1040
1.0
1040
0.0
1040
0.0
1070
     0
1002
{
1002
}
1002
}
  0
ENDSEC
  0
SECTION
  2
OBJECTS
  0
DICTIONARY
  5
C
330
0
100
AcDbDictionary
  3
ACAD_CIP_PREVIOUS_PRODUCT_INFO
350
A8D5
  3
ACAD_COLOR
350
6590
  3
ACAD_GROUP
350
D
  3
ACAD_LAYOUT
350
6591
  3
ACAD_MATERIAL
350
658F
  3
ACAD_MLEADERSTYLE
350
9D75
  3
ACAD_MLINESTYLE
350
1B
  3
ACAD_PLOTSETTINGS
350
6592
  3
ACAD_SCALELIST
350
9D53
  3
ACAD_VISUALSTYLE
350
9D42
  3
ACDBHEADERROUNDTRIPXREC
350
BD33
  3
ACDBVARIABLEDICTIONARY
350
2739
  3
AEC_PROPERTY_SET_DEFS
350
AE4A
  3
CONTENTDICTIONARY
350
1BFA
  3
DRAWINGVARIABLESDICT
350
3B87
  3
DWGPROPS
350
BD36
1001
ACAD
1000
TREAT_AS_HARD
1070
     0
  0
DICTIONARY
  5
83EE
330
2
100
AcDbDictionary
  3
ACAD_LAYERSTATES
360
83EF
1001
ACAD
1000
TREAT_AS_HARD
1070
     1
  0
DICTIONARY
  5
9D7D
330
E
100
AcDbDictionary
  3
ADSK_XREC_LAYER_RECONCILED
360
9D7E
1001
ACAD
1000
TREAT_AS_HARD
1070
     1
  0
DICTIONARY
  5
9D7F
330
1C0B
100
AcDbDictionary
  3
ADSK_XREC_LAYER_RECONCILED
360
9D80
1001
ACAD
1000
TREAT_AS_HARD
1070
     1
  0
DICTIONARY
  5
9D81
330
1C0C
100
AcDbDictionary
  3
ADSK_XREC_LAYER_RECONCILED
360
9D82
1001
ACAD
1000
TREAT_AS_HARD
1070
     1
  0
DICTIONARY
  5
9D83
330
1C0E
100
AcDbDictionary
  3
ADSK_XREC_LAYER_RECONCILED
360
9D84
1001
ACAD
1000
TREAT_AS_HARD
1070
     1
  0
DICTIONARY
  5
9D89
330
37AE
100
AcDbDictionary
  3
ADSK_XREC_LAYER_RECONCILED
360
9D8A
1001
ACAD
1000
TREAT_AS_HARD
1070
     1
  0
DICTIONARY
  5
963A
330
9639
100
AcDbDictionary
  3
ADSK_XREC_LAYER_RECONCILED
360
963C
1001
ACAD
1000
TREAT_AS_HARD
1070
     1
  0
DICTIONARY
  5
B172
330
18
100
AcDbDictionary
  3
ACAD_SORTENTS
360
B173
1001
ACAD
1000
TREAT_AS_HARD
1070
     1
  0
XRECORD
  5
A8D5
102
{ACAD_REACTORS
330
C
102
}
330
C
100
AcDbXrecord
300
ACDLT
300
2012
300
ACDLT_F_S
  0
DICTIONARY
  5
6590
102
{ACAD_REACTORS
330
C
102
}
330
C
100
AcDbDictionary
1001
ACAD
1000
TREAT_AS_HARD
1070
     0
  0
DICTIONARY
  5
D
102
{ACAD_REACTORS
330
C
102
}
330
C
100
AcDbDictionary
1001
ACAD
1000
TREAT_AS_HARD
1070
     0
  0
DICTIONARY
  5
6591
102
{ACAD_REACTORS
330
C
102
}
330
C
100
AcDbDictionary
1001
ACAD
1000
TREAT_AS_HARD
1070
     0
  0
DICTIONARY
  5
658F
102
{ACAD_REACTORS
330
C
102
}
330
C
100
AcDbDictionary
  3
BYBLOCK
350
9D3A
  3
BYLAYER
350
9D32
  3
GLOBAL
350
9655
1001
ACAD
1000
TREAT_AS_HARD
1070
     0
  0
DICTIONARY
  5
9D75
102
{ACAD_REACTORS
330
C
102
}
330
C
100
AcDbDictionary
  3
STANDARD
350
9D76
1001
ACAD
1000
TREAT_AS_HARD
1070
     0
  0
DICTIONARY
  5
1B
102
{ACAD_REACTORS
330
C
102
}
330
C
100
AcDbDictionary
  3
STANDARD
350
1C
1001
ACAD
1000
TREAT_AS_HARD
1070
     0
  0
DICTIONARY
  5
6592
102
{ACAD_REACTORS
330
C
102
}
330
C
100
AcDbDictionary
1001
ACAD
1000
TREAT_AS_HARD
1070
     0
  0
DICTIONARY
  5
9D53
102
{ACAD_REACTORS
330
C
102
}
330
C
100
AcDbDictionary
  3
A0
350
9D54
  3
A1
350
9D55
  3
A2
350
9D56
  3
A3
350
9D57
  3
A4
350
9D58
  3
A5
350
9D59
  3
A6
350
9D5A
  3
A7
350
9D5B
  3
A8
350
9D5C
  3
A9
350
9D5D
  3
B0
350
9D5E
  3
B1
350
9D5F
  3
B2
350
9D60
  3
B3
350
9D61
  3
B4
350
9D62
  3
B5
350
9D63
  3
B6
350
9D64
  3
B7
350
9D65
  3
B8
350
9D66
  3
B9
350
9D67
  3
C0
350
9D68
  3
C1
350
9D69
  3
C2
350
9D6A
  3
C3
350
9D6B
  3
C4
350
9D6C
  3
C5
350
9D6D
  3
C6
350
9D6E
  3
C7
350
9D6F
  3
C8
350
9D70
  3
C9
350
9D71
  3
D0
350
9D72
  3
D1
350
9D73
  3
D2
350
9D74
1001
ACAD
1000
TREAT_AS_HARD
1070
     0
  0
DICTIONARY
  5
9D42
102
{ACAD_REACTORS
330
C
102
}
330
C
100
AcDbDictionary
  3
2DWIREFRAME
350
9D48
  3
3D_HIDDEN
350
9D4A
  3
3DWIREFRAME
350
9D49
  3
BASIC
350
9D47
  3
BRIGHTEN
350
9D4E
  3
COLORCHANGE
350
9D52
  3
CONCEPTUAL
350
9D4B
  3
DIM
350
9D4D
  3
EDGECOLOROFF
350
A8D0
  3
FACEPATTERN
350
9D51
  3
FLAT
350
9D43
  3
FLATWITHEDGES
350
9D44
  3
GOURAUD
350
9D45
  3
GOURAUDWITHEDGES
350
9D46
  3
HIDDEN
350
A8C8
  3
JITTEROFF
350
A8CE
  3
LINEPATTERN
350
9D50
  3
MODELING
350
BAF1
  3
OVERHANGOFF
350
A8CF
  3
REALISTIC
350
9D4C
  3
SHADED
350
A8CD
  3
SHADED_WITH_EDGES
350
A8CC
  3
SHADES_OF_GRAY
350
A8C9
  3
SKETCHY
350
A8CA
  3
THICKEN
350
9D4F
  3
WIREFRAME
350
A8C7
  3
X-RAY
350
A8CB
1001
ACAD
1000
TREAT_AS_HARD
1070
     0
  0
DICTIONARY
  5
BD33
102
{ACAD_REACTORS
330
C
102
}
330
C
100
AcDbDictionary
  3
COLORDICT
350
BD34
  3
MATERIALDICT
350
BD35
1001
ACAD
1000
TREAT_AS_HARD
1070
     0
  0
DICTIONARY
  5
2739
102
{ACAD_REACTORS
330
C
102
}
330
C
100
AcDbDictionary
  3
CANNOSCALE
350
9E5C
  3
CMLEADERSTYLE
350
9E5B
  3
CTABLESTYLE
350
8076
  3
DIMADEC
350
3FDC
  3
DIMASSOC
350
7B85
  3
HIDETEXT
350
9173
  3
INDEXCTL
350
9E5D
  3
INTERSECTIONCOLOR
350
9177
  3
INTERSECTIONDISPLAY
350
9176
  3
MSLTSCALE
350
BB9B
  3
OBSCOLOR
350
9174
  3
OBSLTYPE
350
9175
  3
PROJECTNAME
350
7B86
  3
SORTENTS
350
273A
  3
XCLIPFRAME
350
BAF0
1001
ACAD
1000
TREAT_AS_HARD
1070
     0
  0
DICTIONARY
  5
AE4A
102
{ACAD_REACTORS
330
C
102
}
330
C
100
AcDbDictionary
1001
ACAD
1000
TREAT_AS_HARD
1070
     0
  0
DICTIONARY
  5
1BFA
102
{ACAD_REACTORS
330
C
102
}
330
C
100
AcDbDictionary
1001
CONTENTTABDATA
1070
    11
1000
Child
1000
D:\ACLT\TABset\CHILDREN.dwg
1070
     0
1070
     0
1070
     1
1000
PK
1000
D:\ACLT\TABset\PK.dwg
1070
     0
1070
     0
1070
     1
1000
Lev1
1000
D:\ACLT\TABset\Lever01.dwg
1070
     0
1070
     0
1070
     1
1000
Lev2
1000
D:\ACLT\TABset\Lever02.dwg
1070
     0
1070
     0
1070
     1
1000
L3
1000
D:\Aclt\TABset\Lever03.dwg
1070
     0
1070
     0
1070
     1
1000
Form
1000
D:\ACLT\FORMAT
1070
     1
1070
     0
1070
     1
1000
Jnt
1000
D:\ACLT\TABset\JOINTPARTS.dwg
1070
     0
1070
     0
1070
     1
1000
ISO
1000
D:\ACLT\TABset\Isome01.dwg
1070
     0
1070
     0
1070
     1
1000
R
1000
D:\ACLT\TABset\REGION.dwg
1070
     0
1070
     0
1070
     1
1000
std
1000
D:\ACLT\TABset\std_sym_all.dwg
1070
     0
1070
     0
1070
     1
1000
丸
1000
D:\Aclt\TABset\MARU.dwg
1070
     0
1070
     0
1070
     1
1001
CONTENTCURRENTTAB
1070
     2
1001
ACAD
1000
TREAT_AS_HARD
1070
     0
  0
DICTIONARY
  5
3B87
102
{ACAD_REACTORS
330
C
102
}
330
C
100
AcDbDictionary
1001
DRAWINGVARIABLESXDATA
1000
POLARANG
1000
0.261799387799149410000000
1000
POLARMODE
1000
1
1000
POLARSTYLE
1000
1
1001
ACAD
1000
TREAT_AS_HARD
1070
     0
  0
XRECORD
  5
BD36
102
{ACAD_REACTORS
330
C
102
}
330
C
100
AcDbXrecord
  1
DWGPROPS COOKIE
  2

  3

  4

  6

  7

  8
3684
  9

300
=
301
=
302
=
303
=
304
=
305
=
306
=
307
=
308
=
309
=
 40
0.0
 41
2451024.204593021
 42
2458549.141028658
  1

 90
        0
  0
DICTIONARY
  5
83EF
102
{ACAD_REACTORS
330
83EE
102
}
330
83EE
100
AcDbDictionary
1001
ACAD
1000
TREAT_AS_HARD
1070
     0
  0
ACAD_PROXY_OBJECT
  5
9D7E
102
{ACAD_REACTORS
330
9D7D
102
}
330
9D7D
100
AcDbZombieObject
 90
      499
 91
      516
 93
       34
310
40C8804040
  0
ACAD_PROXY_OBJECT
  5
9D80
102
{ACAD_REACTORS
330
9D7F
102
}
330
9D7F
100
AcDbZombieObject
 90
      499
 91
      516
 93
       34
310
40C8804040
  0
ACAD_PROXY_OBJECT
  5
9D82
102
{ACAD_REACTORS
330
9D81
102
}
330
9D81
100
AcDbZombieObject
 90
      499
 91
      516
 93
       34
310
40C8804040
  0
ACAD_PROXY_OBJECT
  5
9D84
102
{ACAD_REACTORS
330
9D83
102
}
330
9D83
100
AcDbZombieObject
 90
      499
 91
      516
 93
       34
310
40C8804040
  0
ACAD_PROXY_OBJECT
  5
9D8A
102
{ACAD_REACTORS
330
9D89
102
}
330
9D89
100
AcDbZombieObject
 90
      499
 91
      516
 93
       34
310
40C8804040
  0
ACAD_PROXY_OBJECT
  5
963C
102
{ACAD_REACTORS
330
963A
102
}
330
963A
100
AcDbZombieObject
 90
      499
 91
      516
 93
       34
310
40C8804040
  0
SORTENTSTABLE
  5
B173
102
{ACAD_REACTORS
330
B172
102
}
330
B172
100
AcDbSortentsTable
330
18
331
9123
  5
A71A
331
9124
  5
A71D
331
9211
  5
A72B
331
9212
  5
A72C
331
9273
  5
A72D
331
9282
  5
A72E
331
929D
  5
A72F
331
929E
  5
A730
331
92AA
  5
A731
331
92AB
  5
A732
331
0
  5
9873
331
0
  5
9875
331
9873
  5
A73B
331
9875
  5
A73C
331
9876
  5
A73D
331
9877
  5
A73E
331
987D
  5
A73F
331
987E
  5
A74F
331
987F
  5
A750
331
9880
  5
A751
331
9881
  5
A752
331
9882
  5
A753
331
9886
  5
A754
331
9889
  5
A755
331
988B
  5
A756
331
988C
  5
A757
331
988D
  5
A758
331
988E
  5
A759
331
9892
  5
A75A
331
9893
  5
A763
331
9896
  5
A764
331
9897
  5
A765
331
9898
  5
A766
331
9899
  5
A767
331
98E3
  5
A76A
331
98E4
  5
A76B
331
98E5
  5
A76E
331
98E6
  5
A76F
331
98E9
  5
A771
331
98EC
  5
A772
331
98EE
  5
A773
331
98EF
  5
A774
331
98F1
  5
A775
331
98F2
  5
A776
331
98F6
  5
A777
331
98F7
  5
A778
331
98FA
  5
A779
331
98FB
  5
A77A
331
9955
  5
A77B
331
9956
  5
A77C
331
9957
  5
A77D
331
9958
  5
A77E
331
9959
  5
A77F
331
995A
  5
A780
331
995B
  5
A781
331
9961
  5
A782
331
9962
  5
A783
331
0
  5
9F39
331
0
  5
9F3A
331
9F39
  5
A7BD
331
0
  5
9F3C
331
0
  5
A708
331
0
  5
A709
331
0
  5
A70A
331
0
  5
A70B
331
0
  5
A70C
331
0
  5
A70D
331
0
  5
A70E
331
A6FB
  5
A931
331
A6FC
  5
A932
331
A6FD
  5
A933
331
A6FE
  5
A934
331
A6FF
  5
A935
331
A700
  5
A936
331
A701
  5
A937
331
A702
  5
A938
331
A703
  5
A939
331
A704
  5
A93A
331
A705
  5
A93B
331
A706
  5
A93C
331
A707
  5
A93D
331
A708
  5
A93E
331
A709
  5
A93F
331
A70A
  5
A940
331
A70B
  5
A941
331
A70C
  5
A942
331
A70D
  5
A943
331
A70E
  5
A944
331
A70F
  5
A945
331
A710
  5
A946
331
A711
  5
A947
331
A712
  5
A948
331
A713
  5
A949
331
A714
  5
A94A
331
A717
  5
A94B
331
A718
  5
A94C
331
A71B
  5
AE4C
331
A71C
  5
AE4D
331
A71D
  5
B16E
331
A71E
  5
B16F
331
A71F
  5
B170
331
A720
  5
B171
331
A722
  5
B174
331
A723
  5
B177
331
A724
  5
B178
331
A727
  5
B179
331
A728
  5
B17A
331
A729
  5
B17B
331
A72A
  5
B17C
331
A72B
  5
B17E
331
A72C
  5
B25C
331
A72D
  5
B25D
331
A72E
  5
B25E
331
A72F
  5
B25F
331
A730
  5
B260
331
A731
  5
B261
331
A732
  5
B262
331
A733
  5
B263
331
A734
  5
B264
331
A735
  5
B266
331
A736
  5
B267
331
A737
  5
B268
331
A738
  5
B269
331
A739
  5
B26A
331
A73A
  5
B26B
331
A73B
  5
B26C
331
A73C
  5
B26D
331
A73D
  5
B26E
331
A74D
  5
B26F
331
A74E
  5
B270
331
A74F
  5
B271
331
A750
  5
B272
331
A751
  5
B273
331
A752
  5
B274
331
A753
  5
B275
331
A754
  5
B276
331
A755
  5
B277
331
A756
  5
B278
331
A757
  5
B279
331
A758
  5
B27A
331
A759
  5
B27B
331
A75A
  5
B27C
331
A75B
  5
B27D
331
A75E
  5
B27E
331
A75F
  5
B27F
331
A762
  5
B280
331
A763
  5
B281
331
A764
  5
B282
331
A765
  5
B283
331
A766
  5
B284
331
A767
  5
B285
331
A769
  5
B286
331
A76A
  5
BC77
331
A76B
  5
BC78
331
A76E
  5
BC79
331
A76F
  5
BC7A
331
A770
  5
BC7B
331
A771
  5
BC7C
331
A772
  5
BC7D
331
A773
  5
BC7E
331
A774
  5
BC7F
331
A775
  5
BC80
331
A776
  5
BC89
331
A777
  5
BC8A
331
A778
  5
BC8B
331
A779
  5
BC8D
331
A77A
  5
BC8E
331
A77B
  5
BC8F
331
A77C
  5
BC90
331
A77D
  5
BC91
331
A77E
  5
BC92
331
A77F
  5
BC93
331
A780
  5
BC94
331
A781
  5
BC95
331
A782
  5
BC96
331
A783
  5
BC97
331
A784
  5
BC98
331
A7B8
  5
BC99
331
A7B9
  5
BC9A
331
A7BA
  5
BC9B
331
A7BB
  5
BC9C
331
A7BC
  5
BC9D
331
A7BD
  5
BC9E
331
A7BE
  5
BC9F
331
A7BF
  5
BCA0
331
A7C0
  5
BCA1
331
A7C1
  5
BCA2
331
A7C2
  5
BCA3
331
A7C3
  5
BCA4
331
A7C4
  5
BCA5
331
A7C5
  5
BCA6
331
A7C6
  5
BCA7
331
A7C7
  5
BCA8
331
A7C8
  5
BCA9
331
A7C9
  5
BCAA
331
A7CA
  5
BCAB
331
A7CB
  5
BCAC
331
A7CC
  5
BCAD
331
A7CD
  5
BCAE
331
A7CE
  5
BCAF
331
A7CF
  5
BCB0
331
A7D0
  5
BCB1
331
A7D1
  5
BCB2
331
A7DA
  5
BCB3
331
A7DB
  5
BCB4
331
A7DC
  5
BCB5
331
A7E0
  5
BCB6
331
A7F3
  5
BCB7
331
A7F4
  5
BCB8
331
A7F5
  5
BCB9
331
A7F6
  5
BCBA
331
A7F7
  5
BCBB
331
A7F8
  5
BCBC
331
A7F9
  5
BCBD
331
A7FA
  5
BCBE
331
A922
  5
BCBF
331
A923
  5
BCC0
331
A924
  5
BCC1
331
A925
  5
BCC2
331
A926
  5
BCC3
331
A927
  5
BCC4
331
A928
  5
BCC5
331
A929
  5
BCC6
331
A92A
  5
BCC7
331
A92B
  5
BCC8
331
A92C
  5
BCC9
331
A92D
  5
BCCA
331
A92E
  5
BCCB
331
A92F
  5
BCCC
331
A930
  5
BCCD
331
A931
  5
BCCE
331
A932
  5
BCCF
331
A933
  5
BCD0
331
A934
  5
BCD1
331
A935
  5
BCD2
331
A936
  5
BCD3
331
A937
  5
BCD4
331
A938
  5
BCD5
331
A939
  5
BCD6
331
A93A
  5
BCD7
331
A93B
  5
BCD8
331
A93C
  5
BCD9
331
A93D
  5
BCDA
331
A93E
  5
BCDB
331
A93F
  5
BCDC
331
A940
  5
BCDD
331
A941
  5
BCDE
331
A942
  5
BCDF
331
A943
  5
BCE0
331
A944
  5
BCE1
331
A945
  5
BCE2
331
A946
  5
BCE3
331
A947
  5
BCE4
331
A948
  5
BCE5
331
A949
  5
BCE6
331
A94A
  5
BCE7
331
A94B
  5
BCE8
331
A94C
  5
BCE9
331
B16C
  5
BCEA
331
B16D
  5
BCEB
331
B16E
  5
BCEC
331
B16F
  5
BCED
331
B170
  5
BCEE
331
B177
  5
BCEF
331
B178
  5
BCF0
331
B179
  5
BCF1
331
B17A
  5
BCF2
331
B17B
  5
BCF3
331
B17C
  5
BCF4
331
B17E
  5
BCF5
331
B25C
  5
BCF8
331
B25D
  5
BCF9
331
B25E
  5
BCFA
331
B25F
  5
BCFB
331
B260
  5
BCFC
331
B261
  5
BCFD
331
B262
  5
BCFE
331
B263
  5
BCFF
331
B264
  5
BD00
331
B266
  5
BD01
331
B267
  5
BD02
331
B268
  5
BD03
331
B269
  5
BD04
331
B26A
  5
BD05
331
B26B
  5
BD06
331
B26C
  5
BD07
331
B26D
  5
BD08
331
B26E
  5
BD09
331
B26F
  5
BD0A
331
B270
  5
BD0B
331
B271
  5
BD0C
331
B272
  5
BD0D
331
B273
  5
BD0E
331
B274
  5
BD0F
331
B275
  5
BD10
331
B276
  5
BD11
331
B277
  5
BD12
331
B278
  5
BD13
331
B279
  5
BD14
331
B27A
  5
BD15
331
B27B
  5
BD16
331
B27C
  5
BD17
331
B27D
  5
BD18
331
B27E
  5
BD19
331
B27F
  5
BD1A
331
B280
  5
BD1B
331
B281
  5
BD1C
331
B282
  5
BD1D
331
B283
  5
BD1E
331
B284
  5
BD1F
331
B285
  5
BD20
331
B286
  5
BD21
331
BC77
  5
A7BE
331
BC78
  5
A7BF
331
BC79
  5
A7C0
331
0
  5
9F5C
331
BC7B
  5
A7CB
331
BC7C
  5
A7CC
331
BC7D
  5
A7CD
331
BC7E
  5
A7CE
331
BC7F
  5
BCF6
331
BC80
  5
BCF7
331
BC89
  5
BD22
331
BC8A
  5
BD23
331
BC8B
  5
BD24
331
BC8D
  5
BD2F
331
BC8E
  5
BD30
331
BC8F
  5
BD31
331
BC90
  5
BD32
331
BC91
  5
A7C1
331
BC92
  5
A7C2
331
BC93
  5
A7C3
331
BC94
  5
A7C4
331
BC95
  5
A7C5
331
BC96
  5
A7C6
331
BC97
  5
A7C7
331
BC98
  5
A7C8
331
BC99
  5
A7C9
331
BC9A
  5
A7CA
331
BC9B
  5
BD25
331
BC9C
  5
BD26
331
BC9D
  5
BD27
331
BC9E
  5
BD28
331
BC9F
  5
BD29
331
BCA0
  5
BD2A
331
BCA1
  5
BD2B
331
BCA2
  5
BD2C
331
BCA3
  5
BD2D
331
BCA4
  5
BD2E
331
BCA5
  5
9123
331
BCA6
  5
9124
331
BCA7
  5
9211
331
0
  5
9212
331
0
  5
9273
331
0
  5
929E
331
BCAB
  5
9889
331
BCAC
  5
988B
331
BCAD
  5
9892
331
0
  5
946D
331
0
  5
9876
331
0
  5
9877
331
BCB1
  5
98F1
331
BCB2
  5
98F2
331
BCB3
  5
98F6
331
0
  5
9880
331
0
  5
9881
331
0
  5
9882
331
BCB7
  5
9961
331
BCB8
  5
9BE4
331
BCB9
  5
9BE5
331
0
  5
988C
331
0
  5
988D
331
0
  5
988E
331
BCBD
  5
A6FD
331
BCBE
  5
A6FE
331
BCBF
  5
A6FF
331
0
  5
9897
331
0
  5
9898
331
0
  5
9899
331
BCC3
  5
A707
331
BCC4
  5
A70F
331
BCC5
  5
A710
331
0
  5
98E6
331
0
  5
98E9
331
0
  5
98EC
331
BCC9
  5
A71E
331
BCCA
  5
A71F
331
BCCB
  5
A720
331
0
  5
98F7
331
0
  5
98FA
331
0
  5
98FB
331
0
  5
9962
331
BCD0
  5
A737
331
BCD1
  5
A738
331
BCD2
  5
A739
331
BCD3
  5
A73A
331
0
  5
A733
331
BCD5
  5
A7BA
331
BCD6
  5
A7BB
331
BCD7
  5
A7BC
331
BCD8
  5
A7CF
331
BCD9
  5
A7D0
331
BCDA
  5
A7D1
331
0
  5
A75B
331
0
  5
A75E
331
0
  5
A75F
331
0
  5
A762
331
BCDF
  5
A7F9
331
BCE0
  5
A7FA
331
BCE1
  5
A7FB
331
BCE2
  5
A7FC
331
BCE3
  5
A924
331
0
  5
A769
331
BCE5
  5
A928
331
BCE6
  5
A929
331
BCE7
  5
A92A
331
BCE8
  5
A92B
331
0
  5
A770
331
BCEA
  5
A92F
331
BCEB
  5
A930
331
BCEC
  5
92AA
331
BCED
  5
92AB
331
BCEE
  5
946C
331
BCEF
  5
987D
331
BCF0
  5
987E
331
BCF1
  5
987F
331
BCF2
  5
9886
331
BCF3
  5
9893
331
BCF4
  5
9896
331
BCF5
  5
98E3
331
BCF6
  5
98E4
331
BCF7
  5
98E5
331
BCF8
  5
98EE
331
BCF9
  5
98EF
331
BCFA
  5
9955
331
BCFB
  5
9956
331
BCFC
  5
9957
331
BCFD
  5
9958
331
BCFE
  5
9959
331
BCFF
  5
995A
331
BD00
  5
995B
331
BD01
  5
9F3B
331
BD02
  5
9F3D
331
BD03
  5
9F5A
331
BD04
  5
9F5B
331
BD05
  5
9F5D
331
BD06
  5
A6FB
331
BD07
  5
A6FC
331
BD08
  5
A700
331
BD09
  5
A701
331
BD0A
  5
A702
331
BD0B
  5
A703
331
BD0C
  5
A704
331
BD0D
  5
A705
331
BD0E
  5
A706
331
BD0F
  5
A711
331
BD10
  5
A712
331
BD11
  5
A713
331
BD12
  5
A714
331
BD13
  5
A715
331
BD14
  5
A716
331
BD15
  5
A719
331
BD16
  5
A721
331
BD17
  5
A722
331
BD18
  5
A724
331
BD19
  5
A725
331
BD1A
  5
A726
331
BD1B
  5
A729
331
BD1C
  5
A72A
331
BD1D
  5
A734
331
BD1E
  5
A735
331
BD1F
  5
A736
331
BD20
  5
A784
331
BD21
  5
A794
331
BD22
  5
A795
331
BD23
  5
A7D2
331
BD24
  5
A7D3
331
BD25
  5
A7DC
331
BD26
  5
A7DE
331
BD27
  5
A7DF
331
BD28
  5
A7F4
331
BD29
  5
A7F5
331
BD2A
  5
A7F6
331
BD2B
  5
A7F7
331
BD2C
  5
A7F8
331
BD2D
  5
A925
331
BD2E
  5
A926
331
BD2F
  5
A927
331
BD30
  5
A92C
331
BD31
  5
A92D
331
BD32
  5
A92E
  0
MATERIAL
  5
9D3A
102
{ACAD_REACTORS
330
658F
102
}
102
{ACAD_XDICTIONARY
360
BED1
102
}
330
658F
100
AcDbMaterial
  1
BYBLOCK
 72
     0
 73
     2
 43
0.0208333333333333
 43
0.0
 43
0.0
 43
0.0
 43
0.0
 43
0.0208333333333333
 43
0.0
 43
0.0
 43
0.0
 43
0.0
 43
1.0
 43
0.0
 43
0.0
 43
0.0
 43
0.0
 43
1.0
 77
     0
 78
     2
 47
0.0208333333333333
 47
0.0
 47
0.0
 47
0.0
 47
0.0
 47
0.0208333333333333
 47
0.0
 47
0.0
 47
0.0
 47
0.0
 47
1.0
 47
0.0
 47
0.0
 47
0.0
 47
0.0
 47
1.0
171
     0
172
     2
 49
0.0208333333333333
 49
0.0
 49
0.0
 49
0.0
 49
0.0
 49
0.0208333333333333
 49
0.0
 49
0.0
 49
0.0
 49
0.0
 49
1.0
 49
0.0
 49
0.0
 49
0.0
 49
0.0
 49
1.0
175
     0
176
     2
142
0.0208333333333333
142
0.0
142
0.0
142
0.0
142
0.0
142
0.0208333333333333
142
0.0
142
0.0
142
0.0
142
0.0
142
1.0
142
0.0
142
0.0
142
0.0
142
0.0
142
1.0
179
     0
270
     2
144
0.0208333333333333
144
0.0
144
0.0
144
0.0
144
0.0
144
0.0208333333333333
144
0.0
144
0.0
144
0.0
144
0.0
144
1.0
144
0.0
144
0.0
144
0.0
144
0.0
144
1.0
274
     2
147
0.0208333333333333
147
0.0
147
0.0
147
0.0
147
0.0
147
0.0208333333333333
147
0.0
147
0.0
147
0.0
147
0.0
147
1.0
147
0.0
147
0.0
147
0.0
147
0.0
147
1.0
  0
MATERIAL
  5
9D32
102
{ACAD_REACTORS
330
658F
102
}
102
{ACAD_XDICTIONARY
360
BED3
102
}
330
658F
100
AcDbMaterial
  1
BYLAYER
 72
     0
 73
     2
 43
0.0208333333333333
 43
0.0
 43
0.0
 43
0.0
 43
0.0
 43
0.0208333333333333
 43
0.0
 43
0.0
 43
0.0
 43
0.0
 43
1.0
 43
0.0
 43
0.0
 43
0.0
 43
0.0
 43
1.0
 77
     0
 78
     2
 47
0.0208333333333333
 47
0.0
 47
0.0
 47
0.0
 47
0.0
 47
0.0208333333333333
 47
0.0
 47
0.0
 47
0.0
 47
0.0
 47
1.0
 47
0.0
 47
0.0
 47
0.0
 47
0.0
 47
1.0
171
     0
172
     2
 49
0.0208333333333333
 49
0.0
 49
0.0
 49
0.0
 49
0.0
 49
0.0208333333333333
 49
0.0
 49
0.0
 49
0.0
 49
0.0
 49
1.0
 49
0.0
 49
0.0
 49
0.0
 49
0.0
 49
1.0
175
     0
176
     2
142
0.0208333333333333
142
0.0
142
0.0
142
0.0
142
0.0
142
0.0208333333333333
142
0.0
142
0.0
142
0.0
142
0.0
142
1.0
142
0.0
142
0.0
142
0.0
142
0.0
142
1.0
179
     0
270
     2
144
0.0208333333333333
144
0.0
144
0.0
144
0.0
144
0.0
144
0.0208333333333333
144
0.0
144
0.0
144
0.0
144
0.0
144
1.0
144
0.0
144
0.0
144
0.0
144
0.0
144
1.0
274
     2
147
0.0208333333333333
147
0.0
147
0.0
147
0.0
147
0.0
147
0.0208333333333333
147
0.0
147
0.0
147
0.0
147
0.0
147
1.0
147
0.0
147
0.0
147
0.0
147
0.0
147
1.0
  0
MATERIAL
  5
9655
102
{ACAD_REACTORS
330
658F
102
}
102
{ACAD_XDICTIONARY
360
BED5
102
}
330
658F
100
AcDbMaterial
  1
GLOBAL
 72
     0
 73
     2
 43
0.0208333333333333
 43
0.0
 43
0.0
 43
0.0
 43
0.0
 43
0.0208333333333333
 43
0.0
 43
0.0
 43
0.0
 43
0.0
 43
1.0
 43
0.0
 43
0.0
 43
0.0
 43
0.0
 43
1.0
 77
     0
 78
     2
 47
0.0208333333333333
 47
0.0
 47
0.0
 47
0.0
 47
0.0
 47
0.0208333333333333
 47
0.0
 47
0.0
 47
0.0
 47
0.0
 47
1.0
 47
0.0
 47
0.0
 47
0.0
 47
0.0
 47
1.0
171
     0
172
     2
 49
0.0208333333333333
 49
0.0
 49
0.0
 49
0.0
 49
0.0
 49
0.0208333333333333
 49
0.0
 49
0.0
 49
0.0
 49
0.0
 49
1.0
 49
0.0
 49
0.0
 49
0.0
 49
0.0
 49
1.0
175
     0
176
     2
142
0.0208333333333333
142
0.0
142
0.0
142
0.0
142
0.0
142
0.0208333333333333
142
0.0
142
0.0
142
0.0
142
0.0
142
1.0
142
0.0
142
0.0
142
0.0
142
0.0
142
1.0
179
     0
270
     2
144
0.0208333333333333
144
0.0
144
0.0
144
0.0
144
0.0
144
0.0208333333333333
144
0.0
144
0.0
144
0.0
144
0.0
144
1.0
144
0.0
144
0.0
144
0.0
144
0.0
144
1.0
274
     2
147
0.0208333333333333
147
0.0
147
0.0
147
0.0
147
0.0
147
0.0208333333333333
147
0.0
147
0.0
147
0.0
147
0.0
147
1.0
147
0.0
147
0.0
147
0.0
147
0.0
147
1.0
  0
ACAD_PROXY_OBJECT
  5
9D76
102
{ACAD_REACTORS
330
9D75
102
}
330
9D75
100
AcDbZombieObject
 90
      499
 91
      513
 93
      610
310
40901902A4063FBFFFFFE000000000000002040AD7A3703D0AD73F4214DD185B99185C990000000000000104090141901A00000000000004100000000000000041025764000000000000300FC0
340
12
340
0
340
F
340
0
 94
        0
1001
ACAD_MLEADERVER
1070
     2
  0
MLINESTYLE
  5
1C
102
{ACAD_REACTORS
330
1B
102
}
330
1B
100
AcDbMlineStyle
  2
STANDARD
 70
     0
  3

 62
   256
 51
90.0
 52
90.0
 71
     2
 49
0.5
 62
   256
  6
BYLAYER
 49
-0.5
 62
   256
  6
BYLAYER
  0
ACAD_PROXY_OBJECT
  5
9D54
102
{ACAD_REACTORS
330
9D53
102
}
330
9D53
100
AcDbZombieObject
 90
      499
 91
      512
 93
       41
310
903313A31580
  0
ACAD_PROXY_OBJECT
  5
9D55
102
{ACAD_REACTORS
330
9D53
102
}
330
9D53
100
AcDbZombieObject
 90
      499
 91
      512
 93
      105
310
903313A324000000000000004000
  0
ACAD_PROXY_OBJECT
  5
9D56
102
{ACAD_REACTORS
330
9D53
102
}
330
9D53
100
AcDbZombieObject
 90
      499
 91
      512
 93
      105
310
903313A344000000000000104000
  0
ACAD_PROXY_OBJECT
  5
9D57
102
{ACAD_REACTORS
330
9D53
102
}
330
9D53
100
AcDbZombieObject
 90
      499
 91
      512
 93
      105
310
903313A354000000000000144000
  0
ACAD_PROXY_OBJECT
  5
9D58
102
{ACAD_REACTORS
330
9D53
102
}
330
9D53
100
AcDbZombieObject
 90
      499
 91
      512
 93
      105
310
903313A384000000000000204000
  0
ACAD_PROXY_OBJECT
  5
9D59
102
{ACAD_REACTORS
330
9D53
102
}
330
9D53
100
AcDbZombieObject
 90
      499
 91
      512
 93
      113
310
904313A31304000000000000244000
  0
ACAD_PROXY_OBJECT
  5
9D5A
102
{ACAD_REACTORS
330
9D53
102
}
330
9D53
100
AcDbZombieObject
 90
      499
 91
      512
 93
      113
310
904313A31364000000000000304000
  0
ACAD_PROXY_OBJECT
  5
9D5B
102
{ACAD_REACTORS
330
9D53
102
}
330
9D53
100
AcDbZombieObject
 90
      499
 91
      512
 93
      113
310
904313A32304000000000000344000
  0
ACAD_PROXY_OBJECT
  5
9D5C
102
{ACAD_REACTORS
330
9D53
102
}
330
9D53
100
AcDbZombieObject
 90
      499
 91
      512
 93
      113
310
904313A333040000000000003E4000
  0
ACAD_PROXY_OBJECT
  5
9D5D
102
{ACAD_REACTORS
330
9D53
102
}
330
9D53
100
AcDbZombieObject
 90
      499
 91
      512
 93
      113
310
904313A34304000000000000444000
  0
ACAD_PROXY_OBJECT
  5
9D5E
102
{ACAD_REACTORS
330
9D53
102
}
330
9D53
100
AcDbZombieObject
 90
      499
 91
      512
 93
      113
310
904313A35304000000000000494000
  0
ACAD_PROXY_OBJECT
  5
9D5F
102
{ACAD_REACTORS
330
9D53
102
}
330
9D53
100
AcDbZombieObject
 90
      499
 91
      512
 93
      121
310
905313A3130304000000000000594000
  0
ACAD_PROXY_OBJECT
  5
9D60
102
{ACAD_REACTORS
330
9D53
102
}
330
9D53
100
AcDbZombieObject
 90
      499
 91
      512
 93
      105
310
903323A310000000000000010100
  0
ACAD_PROXY_OBJECT
  5
9D61
102
{ACAD_REACTORS
330
9D53
102
}
330
9D53
100
AcDbZombieObject
 90
      499
 91
      512
 93
      105
310
903343A310000000000000410100
  0
ACAD_PROXY_OBJECT
  5
9D62
102
{ACAD_REACTORS
330
9D53
102
}
330
9D53
100
AcDbZombieObject
 90
      499
 91
      512
 93
      105
310
903383A310000000000000810100
  0
ACAD_PROXY_OBJECT
  5
9D63
102
{ACAD_REACTORS
330
9D53
102
}
330
9D53
100
AcDbZombieObject
 90
      499
 91
      512
 93
      113
310
90431303A310000000000000910100
  0
ACAD_PROXY_OBJECT
  5
9D64
102
{ACAD_REACTORS
330
9D53
102
}
330
9D53
100
AcDbZombieObject
 90
      499
 91
      512
 93
      121
310
9053130303A310000000000001650100
  0
ACAD_PROXY_OBJECT
  5
9D65
102
{ACAD_REACTORS
330
9D53
102
}
330
9D53
100
AcDbZombieObject
 90
      499
 91
      512
 93
      257
310
90E312F31323822203D2031272D3022000000000000200FC000000000000284000
  0
ACAD_PROXY_OBJECT
  5
9D66
102
{ACAD_REACTORS
330
9D53
102
}
330
9D53
100
AcDbZombieObject
 90
      499
 91
      512
 93
      249
310
90D312F363422203D2031272D3022000000000000240FC000000000000284000
  0
ACAD_PROXY_OBJECT
  5
9D67
102
{ACAD_REACTORS
330
9D53
102
}
330
9D53
100
AcDbZombieObject
 90
      499
 91
      512
 93
      249
310
90D312F333222203D2031272D3022000000000000280FC000000000000284000
  0
ACAD_PROXY_OBJECT
  5
9D68
102
{ACAD_REACTORS
330
9D53
102
}
330
9D53
100
AcDbZombieObject
 90
      499
 91
      512
 93
      249
310
90D312F313622203D2031272D30220000000000002C0FC000000000000284000
  0
ACAD_PROXY_OBJECT
  5
9D69
102
{ACAD_REACTORS
330
9D53
102
}
330
9D53
100
AcDbZombieObject
 90
      499
 91
      512
 93
      249
310
90D332F333222203D2031272D30220000000000002E0FC000000000000284000
  0
ACAD_PROXY_OBJECT
  5
9D6A
102
{ACAD_REACTORS
330
9D53
102
}
330
9D53
100
AcDbZombieObject
 90
      499
 91
      512
 93
      241
310
90C312F3822203D2031272D3022000000000000300FC000000000000284000
  0
ACAD_PROXY_OBJECT
  5
9D6B
102
{ACAD_REACTORS
330
9D53
102
}
330
9D53
100
AcDbZombieObject
 90
      499
 91
      512
 93
      249
310
90D332F313622203D2031272D3022000000000000320FC000000000000284000
  0
ACAD_PROXY_OBJECT
  5
9D6C
102
{ACAD_REACTORS
330
9D53
102
}
330
9D53
100
AcDbZombieObject
 90
      499
 91
      512
 93
      241
310
90C312F3422203D2031272D3022000000000000340FC000000000000284000
  0
ACAD_PROXY_OBJECT
  5
9D6D
102
{ACAD_REACTORS
330
9D53
102
}
330
9D53
100
AcDbZombieObject
 90
      499
 91
      512
 93
      241
310
90C332F3822203D2031272D3022000000000000360FC000000000000284000
  0
ACAD_PROXY_OBJECT
  5
9D6E
102
{ACAD_REACTORS
330
9D53
102
}
330
9D53
100
AcDbZombieObject
 90
      499
 91
      512
 93
      241
310
90C312F3222203D2031272D3022000000000000380FC000000000000284000
  0
ACAD_PROXY_OBJECT
  5
9D6F
102
{ACAD_REACTORS
330
9D53
102
}
330
9D53
100
AcDbZombieObject
 90
      499
 91
      512
 93
      241
310
90C332F3422203D2031272D30220000000000003A0FC000000000000284000
  0
ACAD_PROXY_OBJECT
  5
9D70
102
{ACAD_REACTORS
330
9D53
102
}
330
9D53
100
AcDbZombieObject
 90
      499
 91
      512
 93
      161
310
90A3122203D2031272D30224000000000000284000
  0
ACAD_PROXY_OBJECT
  5
9D71
102
{ACAD_REACTORS
330
9D53
102
}
330
9D53
100
AcDbZombieObject
 90
      499
 91
      512
 93
      257
310
90E312D312F3222203D2031272D30220000000000003E0FC000000000000284000
  0
ACAD_PROXY_OBJECT
  5
9D72
102
{ACAD_REACTORS
330
9D53
102
}
330
9D53
100
AcDbZombieObject
 90
      499
 91
      512
 93
      225
310
90A3322203D2031272D302200000000000002100000000000000284000
  0
ACAD_PROXY_OBJECT
  5
9D73
102
{ACAD_REACTORS
330
9D53
102
}
330
9D53
100
AcDbZombieObject
 90
      499
 91
      512
 93
      225
310
90A3622203D2031272D302200000000000006100000000000000284000
  0
ACAD_PROXY_OBJECT
  5
9D74
102
{ACAD_REACTORS
330
9D53
102
}
330
9D53
100
AcDbZombieObject
 90
      499
 91
      512
 93
      249
310
90D31272D3022203D2031272D30220000000000000A100000000000000284000
  0
ACAD_PROXY_OBJECT
  5
9D48
102
{ACAD_REACTORS
330
9D42
102
}
330
9D42
100
AcDbZombieObject
 90
      499
 91
      511
 93
      436
310
42CC9915DA5C99599C985B595049028333333333333E3BF0000000000000FB0107901411070040501600405405064090741402480A0340
1001
ACAD
1000
AcDbSavedByObjectVersion
1070
     0
  0
ACAD_PROXY_OBJECT
  5
9D4A
102
{ACAD_REACTORS
330
9D42
102
}
330
9D42
100
AcDbZombieObject
 90
      499
 91
      511
 93
      500
310
424CD108121A5919195B90640502408333333333333E3BF0000000000000FB01079024090700405020000000000001110200405405064090740C02480A0340
1001
ACAD
1000
AcDbSavedByObjectVersion
1070
     0
  0
ACAD_PROXY_OBJECT
  5
9D49
102
{ACAD_REACTORS
330
9D42
102
}
330
9D42
100
AcDbZombieObject
 90
      499
 91
      511
 93
      436
310
42CCD915DA5C99599C985B595059028333333333333E3BF0000000000000FB0107901411070040501600405405064090741402480A0340
1001
ACAD
1000
AcDbSavedByObjectVersion
1070
     0
  0
ACAD_PROXY_OBJECT
  5
9D47
102
{ACAD_REACTORS
330
9D42
102
}
330
9D42
100
AcDbZombieObject
 90
      499
 91
      511
 93
      388
310
4150985CDA58D07406404333333333333E3BF0000000000000FB0107A41107004050150841D405064090741402480A0350
1001
ACAD
1000
AcDbSavedByObjectVersion
1070
     0
  0
ACAD_PROXY_OBJECT
  5
9D4E
102
{ACAD_REACTORS
330
9D42
102
}
330
9D42
100
AcDbZombieObject
 90
      499
 91
      511
 93
      428
310
42109C9A59DA1D195B90C409028333333333333E3BF0000000000000FB010790141107004050150841D405064090741402480A029950
1001
ACAD
1000
AcDbSavedByObjectVersion
1070
     0
  0
ACAD_PROXY_OBJECT
  5
9D52
102
{ACAD_REACTORS
330
9D42
102
}
330
9D42
100
AcDbZombieObject
 90
      499
 91
      511
 93
      452
310
42D0DBDB1BDC90DA185B99D95104090240C333333333333E3BF0000000000000FB0108901411070040501508421405064090741402480A0350
1001
ACAD
1000
AcDbSavedByObjectVersion
1070
     0
  0
ACAD_PROXY_OBJECT
  5
9D4B
102
{ACAD_REACTORS
330
9D42
102
}
330
9D42
100
AcDbZombieObject
 90
      499
 91
      511
 93
      500
310
4290DBDB98D95C1D1D585B10940D028333333333333E3BF0000000000000FB0107902409070040501000000000000111010841D405064090740C02480A0340
1001
ACAD
1000
AcDbSavedByObjectVersion
1070
     0
  0
ACAD_PROXY_OBJECT
  5
9D4D
102
{ACAD_REACTORS
330
9D42
102
}
330
9D42
100
AcDbZombieObject
 90
      499
 91
      511
 93
      412
310
40D11A5B50B409028333333333333E3BF0000000000000FB010790141107004050150841D405064090741402480A02677FFFFFD0
1001
ACAD
1000
AcDbSavedByObjectVersion
1070
     0
  0
ACAD_PROXY_OBJECT
  5
A8D0
102
{ACAD_REACTORS
330
9D42
102
}
330
9D42
100
AcDbZombieObject
 90
      499
 91
      511
 93
      452
310
43115919D950DBDB1BDC93D999916409028333333333333E3BF0000000000000FB010790141107004050150841D405064090741402480A0350
1001
ACAD
1000
AcDbSavedByObjectVersion
1070
     0
  0
ACAD_PROXY_OBJECT
  5
9D51
102
{ACAD_REACTORS
330
9D42
102
}
330
9D42
100
AcDbZombieObject
 90
      499
 91
      511
 93
      444
310
42D19858D95C185D1D195C9B90F409028333333333333E3BF0000000000000FB010790141107004050150841D405064090741402480A0350
1001
ACAD
1000
AcDbSavedByObjectVersion
1070
     0
  0
ACAD_PROXY_OBJECT
  5
9D43
102
{ACAD_REACTORS
330
9D42
102
}
330
9D42
100
AcDbZombieObject
 90
      499
 91
      511
 93
      388
310
41119B185D240901404333333333333E3BF0000000000000F9010740A41107004050150841D405064090741402480A1B50
1001
ACAD
1000
AcDbSavedByObjectVersion
1070
     0
  0
ACAD_PROXY_OBJECT
  5
9D44
102
{ACAD_REACTORS
330
9D42
102
}
330
9D42
100
AcDbZombieObject
 90
      499
 91
      511
 93
      476
310
43519B185D15DA5D1A115919D95CD0140901404333333333333E3BF0000000000000F9010740901411070040501600405405064090741402480A1B50
1001
ACAD
1000
AcDbSavedByObjectVersion
1070
     0
  0
ACAD_PROXY_OBJECT
  5
9D45
102
{ACAD_REACTORS
330
9D42
102
}
330
9D42
100
AcDbZombieObject
 90
      499
 91
      511
 93
      412
310
41D1DBDD5C985D5910240902404333333333333E3BF0000000000000F9010740A411070040501641D405064090741402480A1B50
1001
ACAD
1000
AcDbSavedByObjectVersion
1070
     0
  0
ACAD_PROXY_OBJECT
  5
9D46
102
{ACAD_REACTORS
330
9D42
102
}
330
9D42
100
AcDbZombieObject
 90
      499
 91
      511
 93
      500
310
4411DBDD5C985D5915DA5D1A115919D95CD0340902404333333333333E3BF0000000000000F9010740901411070040501600405405064090741402480A1B50
1001
ACAD
1000
AcDbSavedByObjectVersion
1070
     0
  0
ACAD_PROXY_OBJECT
  5
A8C8
102
{ACAD_REACTORS
330
9D42
102
}
330
9D42
100
AcDbZombieObject
 90
      499
 91
      511
 93
      476
310
41921A5919195B90640502408333333333333E3BF0000000000000FB01079024090700405020000000000001110200405405064090740C02480A0340
1001
ACAD
1000
AcDbSavedByObjectVersion
1070
     0
  0
ACAD_PROXY_OBJECT
  5
A8CE
102
{ACAD_REACTORS
330
9D42
102
}
330
9D42
100
AcDbZombieObject
 90
      499
 91
      511
 93
      428
310
42529A5D1D195C93D999914409028333333333333E3BF0000000000000FB010790141107004050150A41D405064090741402480A0350
1001
ACAD
1000
AcDbSavedByObjectVersion
1070
     0
  0
ACAD_PROXY_OBJECT
  5
9D50
102
{ACAD_REACTORS
330
9D42
102
}
330
9D42
100
AcDbZombieObject
 90
      499
 91
      511
 93
      444
310
42D31A5B995C185D1D195C9B90E409028333333333333E3BF0000000000000FB010790141107004050750841D405064090741402483A0350
1001
ACAD
1000
AcDbSavedByObjectVersion
1070
     0
  0
ACAD_PROXY_OBJECT
  5
BAF1
102
{ACAD_REACTORS
330
9D42
102
}
330
9D42
100
AcDbZombieObject
 90
      499
 91
      511
 93
      484
310
42135BD9195B1A5B99D0A409038333333333333E33F0000000000000F901074090290700405010000000000201990108421405064090741402480A1B40
1001
ACAD
1000
AcDbSavedByObjectVersion
1070
     0
  0
ACAD_PROXY_OBJECT
  5
A8CF
102
{ACAD_REACTORS
330
9D42
102
}
330
9D42
100
AcDbZombieObject
 90
      499
 91
      511
 93
      444
310
42D3DD995C9A185B99D3D999915409028333333333333E3BF0000000000000FB010790141107004050150941D405064090741402480A0350
1001
ACAD
1000
AcDbSavedByObjectVersion
1070
     0
  0
ACAD_PROXY_OBJECT
  5
9D4C
102
{ACAD_REACTORS
330
9D42
102
}
330
9D42
100
AcDbZombieObject
 90
      499
 91
      511
 93
      420
310
425499585B1A5CDD1A58D08409028333333333333E3BF0000000000000FB01079019070040501508421405064090741402480A1B40
1001
ACAD
1000
AcDbSavedByObjectVersion
1070
     0
  0
ACAD_PROXY_OBJECT
  5
A8CD
102
{ACAD_REACTORS
330
9D42
102
}
330
9D42
100
AcDbZombieObject
 90
      499
 91
      511
 93
      420
310
4194DA1859195911B40902404333333333333E3BF0000000000000F9010740A41107004050150800405405064090840C02480A0B40
1001
ACAD
1000
AcDbSavedByObjectVersion
1070
     0
  0
ACAD_PROXY_OBJECT
  5
A8CC
102
{ACAD_REACTORS
330
9D42
102
}
330
9D42
100
AcDbZombieObject
 90
      499
 91
      511
 93
      516
310
4454DA18591959081DDA5D1A08195919D95CD1A40902404333333333333E3BF0000000000000F901074090142907004050250800405405064090740C02480A0B40
1001
ACAD
1000
AcDbSavedByObjectVersion
1070
     0
  0
ACAD_PROXY_OBJECT
  5
A8C9
102
{ACAD_REACTORS
330
9D42
102
}
330
9D42
100
AcDbZombieObject
 90
      499
 91
      511
 93
      532
310
4394DA1859195CC81BD98811DC985E5174090240C333333333333E3BF0000000000000FB01079024090741D01000000000000111010841D405064090740C02480A0340
1001
ACAD
1000
AcDbSavedByObjectVersion
1070
     0
  0
ACAD_PROXY_OBJECT
  5
A8CA
102
{ACAD_REACTORS
330
9D42
102
}
330
9D42
100
AcDbZombieObject
 90
      499
 91
      511
 93
      476
310
41D4DAD95D18DA1E51840502408333333333333E3BF0000000000000FB01079024090741D01000000000000111010B41D405064090741802480A0340
1001
ACAD
1000
AcDbSavedByObjectVersion
1070
     0
  0
ACAD_PROXY_OBJECT
  5
9D4F
102
{ACAD_REACTORS
330
9D42
102
}
330
9D42
100
AcDbZombieObject
 90
      499
 91
      511
 93
      412
310
41D51A1A58DAD95B90D409028333333333333E3BF0000000000000FB010790141107004050150C41D405064090741402480A0350
1001
ACAD
1000
AcDbSavedByObjectVersion
1070
     0
  0
ACAD_PROXY_OBJECT
  5
A8C7
102
{ACAD_REACTORS
330
9D42
102
}
330
9D42
100
AcDbZombieObject
 90
      499
 91
      511
 93
      420
310
4255DA5C99599C985B595059028333333333333E3BF0000000000000FB0107901411070040501600405405064090740C02480A0340
1001
ACAD
1000
AcDbSavedByObjectVersion
1070
     0
  0
ACAD_PROXY_OBJECT
  5
A8CB
102
{ACAD_REACTORS
330
9D42
102
}
330
9D42
100
AcDbZombieObject
 90
      499
 91
      511
 93
      404
310
41560B54985E51940902404000000000000E03F0000000000000FB010740501907004050150841D405064090740C02480A1B40
1001
ACAD
1000
AcDbSavedByObjectVersion
1070
     0
  0
XRECORD
  5
BD34
102
{ACAD_REACTORS
330
BD33
102
}
330
BD33
100
AcDbXrecord
340
6590
  0
XRECORD
  5
BD35
102
{ACAD_REACTORS
330
BD33
102
}
330
BD33
100
AcDbXrecord
340
658F
  0
DICTIONARYVAR
  5
9E5C
102
{ACAD_REACTORS
330
2739
102
}
330
2739
100
DictionaryVariables
280
     0
  1
1:1
  0
DICTIONARYVAR
  5
9E5B
102
{ACAD_REACTORS
330
2739
102
}
330
2739
100
DictionaryVariables
280
     0
  1
Standard
  0
DICTIONARYVAR
  5
8076
102
{ACAD_REACTORS
330
2739
102
}
330
2739
100
DictionaryVariables
280
     0
  1
Standard
  0
DICTIONARYVAR
  5
3FDC
102
{ACAD_REACTORS
330
2739
102
}
330
2739
100
DictionaryVariables
280
     0
  1
-1
  0
DICTIONARYVAR
  5
7B85
102
{ACAD_REACTORS
330
2739
102
}
330
2739
100
DictionaryVariables
280
     0
  1
2
  0
DICTIONARYVAR
  5
9173
102
{ACAD_REACTORS
330
2739
102
}
330
2739
100
DictionaryVariables
280
     0
  1
1
  0
DICTIONARYVAR
  5
9E5D
102
{ACAD_REACTORS
330
2739
102
}
330
2739
100
DictionaryVariables
280
     0
  1
0
  0
DICTIONARYVAR
  5
9177
102
{ACAD_REACTORS
330
2739
102
}
330
2739
100
DictionaryVariables
280
     0
  1
8
  0
DICTIONARYVAR
  5
9176
102
{ACAD_REACTORS
330
2739
102
}
330
2739
100
DictionaryVariables
280
     0
  1
1
  0
DICTIONARYVAR
  5
BB9B
102
{ACAD_REACTORS
330
2739
102
}
330
2739
100
DictionaryVariables
280
     0
  1
0
  0
DICTIONARYVAR
  5
9174
102
{ACAD_REACTORS
330
2739
102
}
330
2739
100
DictionaryVariables
280
     0
  1
8
  0
DICTIONARYVAR
  5
9175
102
{ACAD_REACTORS
330
2739
102
}
330
2739
100
DictionaryVariables
280
     0
  1
2
  0
DICTIONARYVAR
  5
7B86
102
{ACAD_REACTORS
330
2739
102
}
330
2739
100
DictionaryVariables
280
     0
  1

  0
DICTIONARYVAR
  5
273A
102
{ACAD_REACTORS
330
2739
102
}
330
2739
100
DictionaryVariables
280
     0
  1
96
  0
DICTIONARYVAR
  5
BAF0
102
{ACAD_REACTORS
330
2739
102
}
330
2739
100
DictionaryVariables
280
     0
  1
2
  0
DICTIONARY
  5
BED1
330
9D3A
100
AcDbDictionary
  3
ACAD_XREC_ROUNDTRIP
360
BED2
1001
ACAD
1000
TREAT_AS_HARD
1070
     1
  0
DICTIONARY
  5
BED3
330
9D32
100
AcDbDictionary
  3
ACAD_XREC_ROUNDTRIP
360
BED4
1001
ACAD
1000
TREAT_AS_HARD
1070
     1
  0
DICTIONARY
  5
BED5
330
9655
100
AcDbDictionary
  3
ACAD_XREC_ROUNDTRIP
360
BED6
1001
ACAD
1000
TREAT_AS_HARD
1070
     1
  0
XRECORD
  5
BED2
102
{ACAD_REACTORS
330
BED1
102
}
330
BED1
100
AcDbXrecord
102
MATERIAL
148
0.0
149
0.0
149
0.0
 93
        0
 94
      127
282
     0
 72
     0
 77
     0
171
     0
175
     0
179
     0
273
     0
  0
XRECORD
  5
BED4
102
{ACAD_REACTORS
330
BED3
102
}
330
BED3
100
AcDbXrecord
102
MATERIAL
148
0.0
149
0.0
149
0.0
 93
        0
 94
      127
282
     0
 72
     0
 77
     0
171
     0
175
     0
179
     0
273
     0
  0
XRECORD
  5
BED6
102
{ACAD_REACTORS
330
BED5
102
}
330
BED5
100
AcDbXrecord
102
MATERIAL
148
0.0
149
0.0
149
0.0
 93
        0
 94
      127
282
     0
 72
     0
 77
     0
171
     0
175
     0
179
     0
273
     0
  0
ENDSEC
  0
EOF
