  0
SECTION
  2
HEADER
  9
$ACADVER
  1
AC1012
  9
$DWGCODEPAGE
  3
ansi_932
  9
$INSBASE
 10
0.0
 20
0.0
 30
0.0
  9
$EXTMIN
 10
445.1468411375426
 20
-831.84657424845
 30
-0.0000000000562548
  9
$EXTMAX
 10
733.5687438227003
 20
-581.8314917601012
 30
0.0000000000562748
  9
$LIMMIN
 10
0.0
 20
0.0
  9
$LIMMAX
 10
12.0
 20
9.0
  9
$ORTHOMODE
 70
     0
  9
$REGENMODE
 70
     1
  9
$FILLMODE
 70
     1
  9
$QTEXTMODE
 70
     0
  9
$MIRRTEXT
 70
     0
  9
$DRAGMODE
 70
     2
  9
$LTSCALE
 40
0.5
  9
$OSMODE
 70
 16383
  9
$ATTMODE
 70
     1
  9
$TEXTSIZE
 40
4.0
  9
$TRACEWID
 40
0.05
  9
$TEXTSTYLE
  7
STANDARD
  9
$CLAYER
  8
1TEXT
  9
$CELTYPE
  6
BYLAYER
  9
$CECOLOR
 62
   256
  9
$CELTSCALE
 40
1.0
  9
$DELOBJ
 70
     1
  9
$DISPSILH
 70
     0
  9
$DIMSCALE
 40
1.0
  9
$DIMASZ
 40
2.0
  9
$DIMEXO
 40
0.0
  9
$DIMDLI
 40
7.0
  9
$DIMRND
 40
0.0
  9
$DIMDLE
 40
0.0
  9
$DIMEXE
 40
1.0
  9
$DIMTP
 40
0.0
  9
$DIMTM
 40
0.0
  9
$DIMTXT
 40
3.5
  9
$DIMCEN
 40
0.0
  9
$DIMTSZ
 40
0.0
  9
$DIMTOL
 70
     0
  9
$DIMLIM
 70
     0
  9
$DIMTIH
 70
     0
  9
$DIMTOH
 70
     0
  9
$DIMSE1
 70
     0
  9
$DIMSE2
 70
     0
  9
$DIMTAD
 70
     1
  9
$DIMZIN
 70
     8
  9
$DIMBLK
  1

  9
$DIMASO
 70
     1
  9
$DIMSHO
 70
     1
  9
$DIMPOST
  1
 
  9
$DIMAPOST
  1

  9
$DIMALT
 70
     0
  9
$DIMALTD
 70
     2
  9
$DIMALTF
 40
25.4
  9
$DIMLFAC
 40
1.0
  9
$DIMTOFL
 70
     1
  9
$DIMTVP
 40
0.0
  9
$DIMTIX
 70
     0
  9
$DIMSOXD
 70
     0
  9
$DIMSAH
 70
     1
  9
$DIMBLK1
  1
OPEN30
  9
$DIMBLK2
  1
OPEN30
  9
$DIMSTYLE
  2
NEWX10
  9
$DIMCLRD
 70
   256
  9
$DIMCLRE
 70
   256
  9
$DIMCLRT
 70
   201
  9
$DIMTFAC
 40
0.7
  9
$DIMGAP
 40
0.7
  9
$DIMJUST
 70
     0
  9
$DIMSD1
 70
     0
  9
$DIMSD2
 70
     0
  9
$DIMTOLJ
 70
     1
  9
$DIMTZIN
 70
     8
  9
$DIMALTZ
 70
     0
  9
$DIMALTTZ
 70
     0
  9
$DIMFIT
 70
     2
  9
$DIMUPT
 70
     0
  9
$DIMUNIT
 70
     2
  9
$DIMDEC
 70
     2
  9
$DIMTDEC
 70
     4
  9
$DIMALTU
 70
     2
  9
$DIMALTTD
 70
     2
  9
$DIMTXSTY
  7
STANDARD
  9
$DIMAUNIT
 70
     0
  9
$LUNITS
 70
     2
  9
$LUPREC
 70
     4
  9
$SKETCHINC
 40
0.1
  9
$FILLETRAD
 40
0.0
  9
$AUNITS
 70
     0
  9
$AUPREC
 70
     2
  9
$MENU
  1
acad
  9
$ELEVATION
 40
0.0
  9
$PELEVATION
 40
0.0
  9
$THICKNESS
 40
0.0
  9
$LIMCHECK
 70
     0
  9
$CHAMFERA
 40
0.0
  9
$CHAMFERB
 40
0.0
  9
$CHAMFERC
 40
0.0
  9
$CHAMFERD
 40
0.0
  9
$SKPOLY
 70
     0
  9
$TDCREATE
 40
2451024.579593021
  9
$TDUPDATE
 40
2458575.791248808
  9
$TDINDWG
 40
1.0045594097
  9
$TDUSRTIMER
 40
1.0045594097
  9
$USRTIMER
 70
     1
  9
$ANGBASE
 50
0.0
  9
$ANGDIR
 70
     0
  9
$PDMODE
 70
     0
  9
$PDSIZE
 40
0.0
  9
$PLINEWID
 40
0.0
  9
$COORDS
 70
     2
  9
$SPLFRAME
 70
     0
  9
$SPLINETYPE
 70
     6
  9
$SPLINESEGS
 70
     8
  9
$ATTDIA
 70
     0
  9
$ATTREQ
 70
     1
  9
$HANDLING
 70
     1
  9
$HANDSEED
  5
F194
  9
$SURFTAB1
 70
     6
  9
$SURFTAB2
 70
     6
  9
$SURFTYPE
 70
     6
  9
$SURFU
 70
     6
  9
$SURFV
 70
     6
  9
$UCSNAME
  2

  9
$UCSORG
 10
0.0
 20
0.0
 30
0.0
  9
$UCSXDIR
 10
1.0
 20
0.0
 30
0.0
  9
$UCSYDIR
 10
0.0
 20
1.0
 30
0.0
  9
$PUCSNAME
  2

  9
$PUCSORG
 10
0.0
 20
0.0
 30
0.0
  9
$PUCSXDIR
 10
1.0
 20
0.0
 30
0.0
  9
$PUCSYDIR
 10
0.0
 20
1.0
 30
0.0
  9
$USERI1
 70
     0
  9
$USERI2
 70
     0
  9
$USERI3
 70
     0
  9
$USERI4
 70
     0
  9
$USERI5
 70
     0
  9
$USERR1
 40
0.0
  9
$USERR2
 40
0.0
  9
$USERR3
 40
0.0
  9
$USERR4
 40
0.0
  9
$USERR5
 40
0.0
  9
$WORLDVIEW
 70
     1
  9
$SHADEDGE
 70
     3
  9
$SHADEDIF
 70
    70
  9
$TILEMODE
 70
     1
  9
$MAXACTVP
 70
    48
  9
$PINSBASE
 10
0.0
 20
0.0
 30
0.0
  9
$PLIMCHECK
 70
     0
  9
$PEXTMIN
 10
1.000000000000000E+20
 20
1.000000000000000E+20
 30
1.000000000000000E+20
  9
$PEXTMAX
 10
-1.000000000000000E+20
 20
-1.000000000000000E+20
 30
-1.000000000000000E+20
  9
$PLIMMIN
 10
0.0
 20
0.0
  9
$PLIMMAX
 10
12.0
 20
9.0
  9
$UNITMODE
 70
     0
  9
$VISRETAIN
 70
     1
  9
$PLINEGEN
 70
     0
  9
$PSLTSCALE
 70
     1
  9
$TREEDEPTH
 70
  3020
  9
$PICKSTYLE
 70
     0
  9
$CMLSTYLE
  2
STANDARD
  9
$CMLJUST
 70
     0
  9
$CMLSCALE
 40
1.0
  9
$SAVEIMAGES
 70
     1
  0
ENDSEC
  0
SECTION
  2
CLASSES
  0
CLASS
  1
IDBUFFER
  2
AcDbIdBuffer
  3
ObjectDBX Classes
 90
    32768
280
     0
281
     0
  0
CLASS
  1
LWPOLYLINE
  2
AcDbPolyline
  3
ObjectDBX Classes
 90
    32768
280
     0
281
     1
  0
CLASS
  1
DICTIONARYVAR
  2
AcDbDictionaryVar
  3
ObjectDBX Classes
 90
        0
280
     0
281
     0
  0
CLASS
  1
HATCH
  2
AcDbHatch
  3
ObjectDBX Classes
 90
    32768
280
     0
281
     1
  0
CLASS
  1
ACDBDICTIONARYWDFLT
  2
AcDbDictionaryWithDefault
  3
ObjectDBX Classes
 90
    32768
280
     0
281
     0
  0
CLASS
  1
ACDBPLACEHOLDER
  2
AcDbPlaceHolder
  3
ObjectDBX Classes
 90
        0
280
     0
281
     0
  0
CLASS
  1
LAYOUT
  2
AcDbLayout
  3
ObjectDBX Classes
 90
        0
280
     0
281
     0
  0
CLASS
  1
TABLESTYLE
  2
AcDbTableStyle
  3
ObjectDBX Classes
 90
     4095
280
     0
281
     0
  0
CLASS
  1
SORTENTSTABLE
  2
AcDbSortentsTable
  3
ObjectDBX Classes
 90
    32768
280
     0
281
     0
  0
CLASS
  1
DIMASSOC
  2
AcDbDimAssoc
  3
"AcDbDimAssoc|Product Desc:     AcDim ARX App For Dimension|Company:          Autodesk, Inc.|WEB Address:      www.autodesk.com"
 90
        0
280
     0
281
     0
  0
CLASS
  1
MATERIAL
  2
AcDbMaterial
  3
ObjectDBX Classes
 90
     1153
280
     0
281
     0
  0
CLASS
  1
VISUALSTYLE
  2
AcDbVisualStyle
  3
ObjectDBX Classes
 90
     4095
280
     0
281
     0
  0
CLASS
  1
SCALE
  2
AcDbScale
  3
ObjectDBX Classes
 90
     1153
280
     0
281
     0
  0
CLASS
  1
MLEADERSTYLE
  2
AcDbMLeaderStyle
  3
ACDB_MLEADERSTYLE_CLASS
 90
     4095
280
     0
281
     0
  0
CLASS
  1
CELLSTYLEMAP
  2
AcDbCellStyleMap
  3
ObjectDBX Classes
 90
     1152
280
     0
281
     0
  0
CLASS
  1
SUN
  2
AcDbSun
  3
SCENEOE
 90
     1153
280
     0
281
     0
  0
CLASS
  1
XRECORD
  2
AcDbXrecord
  3
ObjectDBX Classes
 90
    32768
280
     0
281
     0
  0
ENDSEC
  0
SECTION
  2
TABLES
  0
TABLE
  2
VPORT
  5
8
330
0
100
AcDbSymbolTable
 70
     1
  0
VPORT
  5
A363
330
8
100
AcDbSymbolTableRecord
100
AcDbViewportTableRecord
  2
*ACTIVE
 70
     0
 10
0.0
 20
0.0
 11
1.0
 21
1.0
 12
589.3577924801215
 22
-706.8390330042756
 13
0.0
 23
0.0
 14
1.0
 24
1.0
 15
0.0
 25
0.0
 16
0.0
 26
0.0
 36
1.0
 17
0.0
 27
0.0
 37
0.0
 40
268.4372464611745
 41
1.803066037735849
 42
50.0
 43
0.0
 44
0.0
 50
0.0
 51
0.0
 71
    16
 72
  1000
 73
     1
 74
     1
 75
     0
 76
     0
 77
     0
 78
     0
1001
ACAD_NAV_VCDISPLAY
1070
     3
  0
ENDTAB
  0
TABLE
  2
LTYPE
  5
5
330
0
100
AcDbSymbolTable
 70
     2
  0
LTYPE
  5
12
330
5
100
AcDbSymbolTableRecord
100
AcDbLinetypeTableRecord
  2
BYBLOCK
 70
     0
  3

 72
    65
 73
     0
 40
0.0
  0
LTYPE
  5
13
330
5
100
AcDbSymbolTableRecord
100
AcDbLinetypeTableRecord
  2
BYLAYER
 70
     0
  3

 72
    65
 73
     0
 40
0.0
  0
LTYPE
  5
14
330
5
100
AcDbSymbolTableRecord
100
AcDbLinetypeTableRecord
  2
CONTINUOUS
 70
     0
  3
Solid line
 72
    65
 73
     0
 40
0.0
  0
LTYPE
  5
1C04
330
5
100
AcDbSymbolTableRecord
100
AcDbLinetypeTableRecord
  2
CENTER2
 70
     0
  3
Center (.5x) ___ _ ___ _ ___ _ ___ _ ___ _ ___
 72
    65
 73
     4
 40
28.575
 49
19.05
 74
     0
 49
-3.175
 74
     0
 49
3.175
 74
     0
 49
-3.175
 74
     0
  0
ENDTAB
  0
TABLE
  2
LAYER
  5
2
102
{ACAD_XDICTIONARY
360
83EE
102
}
330
0
100
AcDbSymbolTable
 70
     6
  0
LAYER
  5
E
102
{ACAD_XDICTIONARY
360
A3E2
102
}
330
2
100
AcDbSymbolTableRecord
100
AcDbLayerTableRecord
  2
0
 70
     0
 62
     7
  6
CONTINUOUS
  0
LAYER
  5
1C0B
102
{ACAD_XDICTIONARY
360
A3E4
102
}
330
2
100
AcDbSymbolTableRecord
100
AcDbLayerTableRecord
  2
1CENTER
 70
     0
 62
     7
  6
CENTER2
  0
LAYER
  5
1C0C
102
{ACAD_XDICTIONARY
360
A3E6
102
}
330
2
100
AcDbSymbolTableRecord
100
AcDbLayerTableRecord
  2
1DIM
 70
     0
 62
     7
  6
CONTINUOUS
  0
LAYER
  5
1C0E
102
{ACAD_XDICTIONARY
360
A3E8
102
}
330
2
100
AcDbSymbolTableRecord
100
AcDbLayerTableRecord
  2
1TEXT
 70
     0
 62
     7
  6
CONTINUOUS
  0
LAYER
  5
37AE
102
{ACAD_XDICTIONARY
360
A3EE
102
}
330
2
100
AcDbSymbolTableRecord
100
AcDbLayerTableRecord
  2
1HATCH
 70
     0
 62
     7
  6
CONTINUOUS
  0
LAYER
  5
93A7
102
{ACAD_XDICTIONARY
360
A400
102
}
330
2
100
AcDbSymbolTableRecord
100
AcDbLayerTableRecord
  2
01
 70
     0
 62
     1
  6
CONTINUOUS
  0
ENDTAB
  0
TABLE
  2
STYLE
  5
3
330
0
100
AcDbSymbolTable
 70
     1
  0
STYLE
  5
F
330
3
100
AcDbSymbolTableRecord
100
AcDbTextStyleTableRecord
  2
STANDARD
 70
     0
 40
0.0
 41
1.0
 50
0.0
 71
     0
 42
4.0
  3
txt.shx
  4
extfont.shx
  0
ENDTAB
  0
TABLE
  2
VIEW
  5
6
330
0
100
AcDbSymbolTable
 70
     1
  0
VIEW
  5
2071
330
6
100
AcDbSymbolTableRecord
100
AcDbViewTableRecord
  2
A
 70
     0
 40
163.8886542118344
 10
23.75874513620715
 20
-310.5239119589886
 41
232.0683926202114
 11
0.0
 21
0.0
 31
1.0
 12
0.0
 22
0.0
 32
0.0
 42
50.0
 43
0.0
 44
0.0
 50
0.0
 71
     0
  0
ENDTAB
  0
TABLE
  2
UCS
  5
7
330
0
100
AcDbSymbolTable
 70
     0
  0
ENDTAB
  0
TABLE
  2
APPID
  5
9
330
0
100
AcDbSymbolTable
 70
    19
  0
APPID
  5
10
330
9
100
AcDbSymbolTableRecord
100
AcDbRegAppTableRecord
  2
ACAD
 70
     0
  0
APPID
  5
1BDB
330
9
100
AcDbSymbolTableRecord
100
AcDbRegAppTableRecord
  2
CONTENTBLOCKICON
 70
     0
  0
APPID
  5
1BDC
330
9
100
AcDbSymbolTableRecord
100
AcDbRegAppTableRecord
  2
CONTENTBLOCKDESCRIPTION
 70
     0
  0
APPID
  5
1BED
330
9
100
AcDbSymbolTableRecord
100
AcDbRegAppTableRecord
  2
CONTENTTABDATA
 70
     0
  0
APPID
  5
1BEE
330
9
100
AcDbSymbolTableRecord
100
AcDbRegAppTableRecord
  2
CONTENTCURRENTTAB
 70
     0
  0
APPID
  5
37BE
330
9
100
AcDbSymbolTableRecord
100
AcDbRegAppTableRecord
  2
DRAWINGVARIABLESXDATA
 70
     0
  0
APPID
  5
37BF
330
9
100
AcDbSymbolTableRecord
100
AcDbRegAppTableRecord
  2
CONTENTLONGBLOCKNAME
 70
     0
  0
APPID
  5
8492
330
9
100
AcDbSymbolTableRecord
100
AcDbRegAppTableRecord
  2
ACAD_DSTYLE_DIMTEXT_FILL
 70
     0
  0
APPID
  5
91C7
330
9
100
AcDbSymbolTableRecord
100
AcDbRegAppTableRecord
  2
ACAD_PSEXT
 70
     0
  0
APPID
  5
A3DC
330
9
100
AcDbSymbolTableRecord
100
AcDbRegAppTableRecord
  2
ACAD_MLEADERVER
 70
     0
  0
APPID
  5
B916
330
9
100
AcDbSymbolTableRecord
100
AcDbRegAppTableRecord
  2
ACAD_DSTYLE_DIMRADIAL_EXTE
 70
     0
  0
APPID
  5
DA55
330
9
100
AcDbSymbolTableRecord
100
AcDbRegAppTableRecord
  2
ACAD_NAV_VCDISPLAY
 70
     0
  0
APPID
  5
DAB0
330
9
100
AcDbSymbolTableRecord
100
AcDbRegAppTableRecord
  2
ACAD_EXEMPT_FROM_CAD_STAND
 70
     0
  0
APPID
  5
DF5D
330
9
100
AcDbSymbolTableRecord
100
AcDbRegAppTableRecord
  2
ACADANNOTATIVE
 70
     0
  0
APPID
  5
DF5E
330
9
100
AcDbSymbolTableRecord
100
AcDbRegAppTableRecord
  2
ACLAYERTOOLS
 70
     0
  0
APPID
  5
DF5F
330
9
100
AcDbSymbolTableRecord
100
AcDbRegAppTableRecord
  2
ACAD_DSTYLE_DIMJOGGED_JOGA
 70
     0
  0
APPID
  5
DF60
330
9
100
AcDbSymbolTableRecord
100
AcDbRegAppTableRecord
  2
GRADIENTCOLOR1ACI
 70
     0
  0
APPID
  5
DF61
330
9
100
AcDbSymbolTableRecord
100
AcDbRegAppTableRecord
  2
GRADIENTCOLOR2ACI
 70
     0
  0
APPID
  5
ECBF
330
9
100
AcDbSymbolTableRecord
100
AcDbRegAppTableRecord
  2
ACDBBLOCKREPETAG
 70
     0
  0
ENDTAB
  0
TABLE
  2
DIMSTYLE
  5
A
330
0
100
AcDbSymbolTable
 70
     2
  0
DIMSTYLE
105
37CD
330
A
100
AcDbSymbolTableRecord
100
AcDbDimStyleTableRecord
  2
NEWX10
 70
     0
  3
 
  4

  5

  6
OPEN30
  7
OPEN30
 40
1.0
 41
2.0
 42
0.0
 43
7.0
 44
1.0
 45
0.0
 46
0.0
 47
0.0
 48
0.0
140
3.5
141
0.0
142
0.0
143
25.4
144
1.0
145
0.0
146
0.7
147
0.7
 71
     0
 72
     0
 73
     0
 74
     0
 75
     0
 76
     0
 77
     1
 78
     8
170
     0
171
     2
172
     1
173
     1
174
     0
175
     0
176
   256
177
   256
178
   201
179
     2
270
     2
271
     2
272
     4
273
     2
274
     2
340
F
275
     0
280
     0
281
     0
282
     0
283
     1
284
     8
285
     0
286
     0
287
     2
288
     0
  0
DIMSTYLE
105
B627
330
A
100
AcDbSymbolTableRecord
100
AcDbDimStyleTableRecord
  2
ISO-25
 70
     0
  3

  4

  5

  6

  7

 40
1.0
 41
2.5
 42
0.625
 43
3.75
 44
1.25
 45
0.0
 46
0.0
 47
0.0
 48
0.0
140
2.5
141
2.5
142
0.0
143
0.03937007874016
144
1.0
145
0.0
146
1.0
147
0.625
 71
     0
 72
     0
 73
     0
 74
     0
 75
     0
 76
     0
 77
     1
 78
     8
170
     0
171
     3
172
     1
173
     0
174
     0
175
     0
176
     0
177
     0
178
     0
270
     2
271
     2
272
     2
273
     2
274
     3
340
F
275
     0
280
     0
281
     0
282
     0
283
     0
284
     8
285
     0
286
     0
287
     3
288
     0
  0
ENDTAB
  0
TABLE
  2
BLOCK_RECORD
  5
1
330
0
100
AcDbSymbolTable
 70
     8
  0
BLOCK_RECORD
  5
18
102
{ACAD_XDICTIONARY
360
D654
102
}
330
1
100
AcDbSymbolTableRecord
100
AcDbBlockTableRecord
  2
*MODEL_SPACE
  0
BLOCK_RECORD
  5
15
330
1
100
AcDbSymbolTableRecord
100
AcDbBlockTableRecord
  2
*PAPER_SPACE
  0
BLOCK_RECORD
  5
3853
330
1
100
AcDbSymbolTableRecord
100
AcDbBlockTableRecord
  2
_OPEN30
  0
BLOCK_RECORD
  5
E869
330
1
100
AcDbSymbolTableRecord
100
AcDbBlockTableRecord
  2
A3WAKUKAWAJUN2017_HYOUDAI_
  0
BLOCK_RECORD
  5
EFF4
330
1
100
AcDbSymbolTableRecord
100
AcDbBlockTableRecord
  2
*X42
  0
BLOCK_RECORD
  5
F042
330
1
100
AcDbSymbolTableRecord
100
AcDbBlockTableRecord
  2
*X43
  0
BLOCK_RECORD
  5
F094
330
1
100
AcDbSymbolTableRecord
100
AcDbBlockTableRecord
  2
*X44
  0
BLOCK_RECORD
  5
F0E5
330
1
100
AcDbSymbolTableRecord
100
AcDbBlockTableRecord
  2
*X45
  0
BLOCK_RECORD
  5
F122
330
1
100
AcDbSymbolTableRecord
100
AcDbBlockTableRecord
  2
*X46
  0
BLOCK_RECORD
  5
F162
330
1
100
AcDbSymbolTableRecord
100
AcDbBlockTableRecord
  2
*X47
  0
ENDTAB
  0
ENDSEC
  0
SECTION
  2
BLOCKS
  0
BLOCK
  5
19
330
18
100
AcDbEntity
  8
0
100
AcDbBlockBegin
  2
*MODEL_SPACE
 70
     0
 10
0.0
 20
0.0
 30
0.0
  3
*MODEL_SPACE
  1

  0
ENDBLK
  5
1A
330
18
100
AcDbEntity
  8
0
100
AcDbBlockEnd
  0
BLOCK
  5
16
330
15
100
AcDbEntity
 67
     1
  8
0
100
AcDbBlockBegin
  2
*PAPER_SPACE
 70
     0
 10
0.0
 20
0.0
 30
0.0
  3
*PAPER_SPACE
  1

  0
ENDBLK
  5
17
330
15
100
AcDbEntity
 67
     1
  8
0
100
AcDbBlockEnd
  0
BLOCK
  5
3857
330
3853
100
AcDbEntity
  8
0
100
AcDbBlockBegin
  2
_OPEN30
 70
     0
 10
0.0
 20
0.0
 30
0.0
  3
_OPEN30
  1

  0
LINE
  5
3854
330
3853
100
AcDbEntity
  8
0
  6
BYBLOCK
 62
     0
100
AcDbLine
 10
-1.0
 20
0.26794919
 30
0.0
 11
0.0
 21
0.0
 31
0.0
  0
LINE
  5
3855
330
3853
100
AcDbEntity
  8
0
  6
BYBLOCK
 62
     0
100
AcDbLine
 10
0.0
 20
0.0
 30
0.0
 11
-1.0
 21
-0.26794919
 31
0.0
  0
LINE
  5
3856
330
3853
100
AcDbEntity
  8
0
  6
BYBLOCK
 62
     0
100
AcDbLine
 10
0.0
 20
0.0
 30
0.0
 11
-1.0
 21
0.0
 31
0.0
  0
ENDBLK
  5
3858
330
3853
100
AcDbEntity
  8
0
100
AcDbBlockEnd
  0
BLOCK
  5
E86A
330
E869
100
AcDbEntity
  8
0
100
AcDbBlockBegin
  2
A3WAKUKAWAJUN2017_HYOUDAI_
 70
     0
 10
0.0
 20
0.0
 30
0.0
  3
A3WAKUKAWAJUN2017_HYOUDAI_
  1

  0
LINE
  5
E86B
330
E869
100
AcDbEntity
  8
0
100
AcDbLine
 10
13.26299999998673
 20
-0.0001000000000317
 30
0.0
 11
9.236999999990758
 21
8.999899999990987
 31
0.0
1001
ACAD
1000
ASC_BOUNDS
1002
{
1070
    19
1005
E8AC
1002
}
  0
LINE
  5
E86C
330
E869
100
AcDbEntity
  8
0
100
AcDbLine
 10
5.657999999994331
 20
0.9999999999989768
 30
0.0
 11
9.236999999990758
 21
8.999999999991019
 31
0.0
1001
ACAD
1000
ASC_BOUNDS
1002
{
1070
    19
1005
E8AC
1002
}
  0
LINE
  5
E86D
330
E869
100
AcDbEntity
  8
0
100
AcDbLine
 10
18.59199999998134
 20
-0.2368999999997641
 30
0.0
 11
16.46099999998353
 21
5.432899999994561
 31
0.0
1001
ACAD
1000
ASC_BOUNDS
1002
{
1070
    19
1005
E8AD
1002
}
  0
LINE
  5
E86E
330
E869
100
AcDbEntity
  8
0
100
AcDbLine
 10
18.59199999998134
 20
-0.2368999999997641
 30
0.0
 11
22.38199999997767
 21
8.763099999991255
 31
0.0
1001
ACAD
1000
ASC_BOUNDS
1002
{
1070
    19
1005
E8AD
1002
}
  0
LINE
  5
E86F
330
E869
100
AcDbEntity
  8
0
100
AcDbLine
 10
14.32899999998563
 20
-0.2368999999997641
 30
0.0
 11
16.46099999998353
 21
5.432899999994561
 31
0.0
1001
ACAD
1000
ASC_BOUNDS
1002
{
1070
    19
1005
E8AD
1002
}
  0
LINE
  5
E870
330
E869
100
AcDbEntity
  8
0
100
AcDbLine
 10
14.32899999998563
 20
-0.2368999999997641
 30
0.0
 11
10.53899999998941
 21
8.763099999991255
 31
0.0
1001
ACAD
1000
ASC_BOUNDS
1002
{
1070
    19
1005
E8AD
1002
}
  0
LINE
  5
E871
330
E869
100
AcDbEntity
  8
0
100
AcDbLine
 10
19.53899999998043
 20
-0.0001000000000317
 30
0.0
 11
23.56599999997638
 21
8.999899999990987
 31
0.0
1001
ACAD
1000
ASC_BOUNDS
1002
{
1070
    19
1005
E8AE
1002
}
  0
LINE
  5
E872
330
E869
100
AcDbEntity
  8
0
100
AcDbLine
 10
26.97358892824991
 20
1.383099999991202
 30
0.0
 11
23.56599999997638
 21
8.999899999990987
 31
0.0
1001
ACAD
1000
ASC_BOUNDS
1002
{
1070
    19
1005
E8AE
1002
}
  0
LINE
  5
E873
330
E869
100
AcDbEntity
  8
0
100
AcDbLine
 10
5.657999999994331
 20
0.9999999999989768
 30
0.0
 11
3.181999999996833
 21
4.668599999995308
 31
0.0
1001
ACAD
1000
ASC_BOUNDS
1002
{
1070
    19
1005
E8AC
1002
}
  0
LINE
  5
E874
330
E869
100
AcDbEntity
  8
0
100
AcDbLine
 10
4.617999999995391
 20
-0.0001000000000317
 30
0.0
 11
1.420999999998571
 21
4.736799999995242
 31
0.0
1001
ACAD
1000
ASC_BOUNDS
1002
{
1070
    19
1005
E8AC
1002
}
  0
LINE
  5
E875
330
E869
100
AcDbEntity
  8
0
100
AcDbLine
 10
1.420999999998571
 20
8.763099999991255
 30
0.0
 11
1.420999999998571
 21
0.0
 31
0.0
1001
ACAD
1000
ASC_BOUNDS
1002
{
1070
    19
1005
E8B1
1002
}
  0
LINE
  5
E876
330
E869
100
AcDbEntity
  8
0
100
AcDbLine
 10
0.0
 20
8.763099999991255
 30
0.0
 11
0.0
 21
0.0
 31
0.0
1001
ACAD
1000
ASC_BOUNDS
1002
{
1070
    19
1005
E8B1
1002
}
  0
LINE
  5
E877
330
E869
100
AcDbEntity
  8
0
100
AcDbLine
 10
6.766999999993232
 20
-0.0001000000000317
 30
0.0
 11
7.826999999992154
 21
2.368399999997621
 31
0.0
1001
ACAD
1000
ASC_BOUNDS
1002
{
1070
    19
1005
E8AC
1002
}
  0
LINE
  5
E878
330
E869
100
AcDbEntity
  8
0
100
AcDbLine
 10
0.0
 20
0.0
 30
0.0
 11
1.420999999998571
 21
0.0
 31
0.0
1001
ACAD
1000
ASC_BOUNDS
1002
{
1070
    19
1005
E8B1
1002
}
  0
LINE
  5
E879
330
E869
100
AcDbEntity
  8
0
100
AcDbLine
 10
4.617999999995391
 20
0.0
 30
0.0
 11
6.766999999993232
 21
0.0
 31
0.0
1001
ACAD
1000
ASC_BOUNDS
1002
{
1070
    19
1005
E8AC
1002
}
  0
LINE
  5
E87A
330
E869
100
AcDbEntity
  8
0
100
AcDbLine
 10
11.70599999998831
 20
-0.0001000000000317
 30
0.0
 11
10.64699999998936
 21
2.368399999997621
 31
0.0
1001
ACAD
1000
ASC_BOUNDS
1002
{
1070
    19
1005
E8AC
1002
}
  0
LINE
  5
E87B
330
E869
100
AcDbEntity
  8
0
100
AcDbLine
 10
7.826999999992154
 20
2.368399999997621
 30
0.0
 11
10.64699999998936
 21
2.368399999997621
 31
0.0
1001
ACAD
1000
ASC_BOUNDS
1002
{
1070
    19
1005
E8AC
1002
}
  0
LINE
  5
E87C
330
E869
100
AcDbEntity
  8
0
100
AcDbLine
 10
11.70599999998831
 20
0.0
 30
0.0
 11
13.26299999998673
 21
0.0
 31
0.0
1001
ACAD
1000
ASC_BOUNDS
1002
{
1070
    19
1005
E8AC
1002
}
  0
LINE
  5
E87D
330
E869
100
AcDbEntity
  8
0
100
AcDbLine
 10
22.15599999997789
 20
2.368399999997621
 30
0.0
 11
24.97599999997499
 21
2.368399999997621
 31
0.0
1001
ACAD
1000
ASC_BOUNDS
1002
{
1070
    19
1005
E8AE
1002
}
  0
LINE
  5
E87E
330
E869
100
AcDbEntity
  8
0
100
AcDbLine
 10
19.53899999998043
 20
0.0
 30
0.0
 11
21.09599999997886
 21
0.0
 31
0.0
1001
ACAD
1000
ASC_BOUNDS
1002
{
1070
    19
1005
E8AE
1002
}
  0
LINE
  5
E87F
330
E869
100
AcDbEntity
  8
0
100
AcDbLine
 10
21.09599999997886
 20
-0.0001000000000317
 30
0.0
 11
22.15599999997789
 21
2.368399999997621
 31
0.0
1001
ACAD
1000
ASC_BOUNDS
1002
{
1070
    19
1005
E8AE
1002
}
  0
LINE
  5
E880
330
E869
100
AcDbEntity
  8
0
100
AcDbLine
 10
26.02015566812236
 20
0.0330999999912365
 30
0.0
 11
24.97599999997499
 21
2.368399999997621
 31
0.0
1001
ACAD
1000
ASC_BOUNDS
1002
{
1070
    19
1005
E8AE
1002
}
  0
LINE
  5
E881
330
E869
100
AcDbEntity
  8
0
100
AcDbLine
 10
14.32399999998563
 20
3.315799999996671
 30
0.0
 11
16.46099999998353
 21
8.999899999990987
 31
0.0
1001
ACAD
1000
ASC_BOUNDS
1002
{
1070
    19
1005
E8AD
1002
}
  0
LINE
  5
E882
330
E869
100
AcDbEntity
  8
0
100
AcDbLine
 10
6.432999999993513
 20
8.763099999991255
 30
0.0
 11
3.181999999996833
 21
4.668599999995308
 31
0.0
1001
ACAD
1000
ASC_BOUNDS
1002
{
1070
    19
1005
E8AC
1002
}
  0
LINE
  5
E883
330
E869
100
AcDbEntity
  8
0
100
AcDbLine
 10
4.617999999995391
 20
8.763099999991255
 30
0.0
 11
1.420999999998571
 21
4.736799999995242
 31
0.0
1001
ACAD
1000
ASC_BOUNDS
1002
{
1070
    19
1005
E8AC
1002
}
  0
LINE
  5
E884
330
E869
100
AcDbEntity
  8
0
100
AcDbLine
 10
0.0
 20
8.763099999991255
 30
0.0
 11
1.420999999998571
 21
8.763099999991255
 31
0.0
1001
ACAD
1000
ASC_BOUNDS
1002
{
1070
    19
1005
E8B1
1002
}
  0
LINE
  5
E885
330
E869
100
AcDbEntity
  8
0
100
AcDbLine
 10
4.617999999995391
 20
8.763099999991255
 30
0.0
 11
6.432999999993513
 21
8.763099999991255
 31
0.0
1001
ACAD
1000
ASC_BOUNDS
1002
{
1070
    19
1005
E8AC
1002
}
  0
LINE
  5
E886
330
E869
100
AcDbEntity
  8
0
100
AcDbLine
 10
14.32399999998563
 20
3.315799999996671
 30
0.0
 11
12.02999999998792
 21
8.763099999991255
 31
0.0
1001
ACAD
1000
ASC_BOUNDS
1002
{
1070
    19
1005
E8AD
1002
}
  0
LINE
  5
E887
330
E869
100
AcDbEntity
  8
0
100
AcDbLine
 10
10.06399999998996
 20
3.670999999996297
 30
0.0
 11
9.236999999990758
 21
5.5200999999945
 31
0.0
1001
ACAD
1000
ASC_BOUNDS
1002
{
1070
    19
1005
E8AC
1002
}
  0
LINE
  5
E888
330
E869
100
AcDbEntity
  8
0
100
AcDbLine
 10
8.409999999991555
 20
3.670999999996297
 30
0.0
 11
9.236999999990758
 21
5.5200999999945
 31
0.0
1001
ACAD
1000
ASC_BOUNDS
1002
{
1070
    19
1005
E8AC
1002
}
  0
LINE
  5
E889
330
E869
100
AcDbEntity
  8
0
100
AcDbLine
 10
8.409999999991555
 20
3.670999999996297
 30
0.0
 11
10.06399999998996
 21
3.670999999996297
 31
0.0
1001
ACAD
1000
ASC_BOUNDS
1002
{
1070
    19
1005
E8AC
1002
}
  0
LINE
  5
E88A
330
E869
100
AcDbEntity
  8
0
100
AcDbLine
 10
10.53899999998941
 20
8.763099999991255
 30
0.0
 11
12.02999999998792
 21
8.763099999991255
 31
0.0
1001
ACAD
1000
ASC_BOUNDS
1002
{
1070
    19
1005
E8AD
1002
}
  0
LINE
  5
E88B
330
E869
100
AcDbEntity
  8
0
100
AcDbLine
 10
22.7389999999773
 20
3.670999999996297
 30
0.0
 11
23.56599999997638
 21
5.5200999999945
 31
0.0
1001
ACAD
1000
ASC_BOUNDS
1002
{
1070
    19
1005
E8AE
1002
}
  0
LINE
  5
E88C
330
E869
100
AcDbEntity
  8
0
100
AcDbLine
 10
22.7389999999773
 20
3.670999999996297
 30
0.0
 11
24.39299999997559
 21
3.670999999996297
 31
0.0
1001
ACAD
1000
ASC_BOUNDS
1002
{
1070
    19
1005
E8AE
1002
}
  0
LINE
  5
E88D
330
E869
100
AcDbEntity
  8
0
100
AcDbLine
 10
18.59799999998143
 20
3.315799999996671
 30
0.0
 11
20.89099999997916
 21
8.763099999991255
 31
0.0
1001
ACAD
1000
ASC_BOUNDS
1002
{
1070
    19
1005
E8AD
1002
}
  0
LINE
  5
E88E
330
E869
100
AcDbEntity
  8
0
100
AcDbLine
 10
18.59799999998143
 20
3.315799999996671
 30
0.0
 11
16.46099999998353
 21
8.999899999990987
 31
0.0
1001
ACAD
1000
ASC_BOUNDS
1002
{
1070
    19
1005
E8AD
1002
}
  0
LINE
  5
E88F
330
E869
100
AcDbEntity
  8
0
100
AcDbLine
 10
20.89099999997916
 20
8.763099999991255
 30
0.0
 11
22.38199999997767
 21
8.763099999991255
 31
0.0
1001
ACAD
1000
ASC_BOUNDS
1002
{
1070
    19
1005
E8AD
1002
}
  0
LINE
  5
E890
330
E869
100
AcDbEntity
  8
0
100
AcDbLine
 10
24.39299999997559
 20
3.670999999996297
 30
0.0
 11
23.56599999997638
 21
5.5200999999945
 31
0.0
1001
ACAD
1000
ASC_BOUNDS
1002
{
1070
    19
1005
E8AE
1002
}
  0
LINE
  5
E891
330
E869
100
AcDbEntity
  8
0
100
AcDbLine
 10
44.99999999995498
 20
-0.2368999999997641
 30
0.0
 11
40.02599999995994
 21
5.341799999994635
 31
0.0
1001
ACAD
1000
ASC_BOUNDS
1002
{
1070
    19
1005
E8B0
1002
}
  0
LINE
  5
E892
330
E869
100
AcDbEntity
  8
0
100
AcDbLine
 10
40.02599999995994
 20
5.341799999994635
 30
0.0
 11
40.02599999995994
 21
0.0
 31
0.0
1001
ACAD
1000
ASC_BOUNDS
1002
{
1070
    19
1005
E8B0
1002
}
  0
LINE
  5
E893
330
E869
100
AcDbEntity
  8
0
100
AcDbLine
 10
38.60499999996136
 20
8.999999999991019
 30
0.0
 11
38.60499999996136
 21
0.0
 31
0.0
1001
ACAD
1000
ASC_BOUNDS
1002
{
1070
    19
1005
E8B0
1002
}
  0
LINE
  5
E894
330
E869
100
AcDbEntity
  8
0
100
AcDbLine
 10
44.99999999995498
 20
8.763099999991255
 30
0.0
 11
44.99999999995498
 21
-0.2368999999997641
 31
0.0
1001
ACAD
1000
ASC_BOUNDS
1002
{
1070
    19
1005
E8B0
1002
}
  0
LINE
  5
E895
330
E869
100
AcDbEntity
  8
0
100
AcDbLine
 10
38.60499999996136
 20
0.0
 30
0.0
 11
40.02599999995994
 21
0.0
 31
0.0
1001
ACAD
1000
ASC_BOUNDS
1002
{
1070
    19
1005
E8B0
1002
}
  0
LINE
  5
E896
330
E869
100
AcDbEntity
  8
0
100
AcDbLine
 10
43.57899999995641
 20
3.421199999996588
 30
0.0
 11
38.60499999996136
 21
8.999899999990987
 31
0.0
1001
ACAD
1000
ASC_BOUNDS
1002
{
1070
    19
1005
E8B0
1002
}
  0
LINE
  5
E897
330
E869
100
AcDbEntity
  8
0
100
AcDbLine
 10
43.57899999995641
 20
8.763099999991255
 30
0.0
 11
43.57899999995641
 21
3.421199999996588
 31
0.0
1001
ACAD
1000
ASC_BOUNDS
1002
{
1070
    19
1005
E8B0
1002
}
  0
LINE
  5
E898
330
E869
100
AcDbEntity
  8
0
100
AcDbLine
 10
43.57899999995641
 20
8.763099999991255
 30
0.0
 11
44.99999999995498
 21
8.763099999991255
 31
0.0
1001
ACAD
1000
ASC_BOUNDS
1002
{
1070
    19
1005
E8B0
1002
}
  0
LINE
  5
E899
330
E869
100
AcDbEntity
  8
0
100
AcDbLine
 10
37.67199999996831
 20
8.763099999991255
 30
0.0
 11
36.23199999996837
 21
8.763099999991255
 31
0.0
  0
LINE
  5
E89A
330
E869
100
AcDbEntity
  8
0
100
AcDbLine
 10
31.64199999996833
 20
8.763099999991255
 30
0.0
 11
31.64199999996833
 21
2.481619422925121
 31
0.0
  0
LINE
  5
E89B
330
E869
100
AcDbEntity
  8
0
100
AcDbLine
 10
37.67199999996831
 20
8.763099999991255
 30
0.0
 11
37.67199999996831
 21
2.481619422925121
 31
0.0
  0
LINE
  5
E89C
330
E869
100
AcDbEntity
  8
0
100
AcDbLine
 10
36.23199999996837
 20
8.763099999991255
 30
0.0
 11
36.23199999996837
 21
2.481619422925064
 31
0.0
  0
LINE
  5
E89D
330
E869
100
AcDbEntity
  8
0
100
AcDbLine
 10
33.08199999996839
 20
8.763099999991255
 30
0.0
 11
33.08199999996839
 21
2.481619422925121
 31
0.0
  0
ARC
  5
E89E
330
E869
100
AcDbEntity
  8
0
100
AcDbCircle
 10
34.65699999996832
 20
3.183099999991214
 30
0.0
 40
3.420000000000007
100
AcDbArc
 50
240.0000000000255
 51
299.9999999999766
  0
ARC
  5
E89F
330
E869
100
AcDbEntity
  8
0
100
AcDbCircle
 10
34.65699999996832
 20
3.183099999991214
 30
0.0
 40
1.97999999999999
100
AcDbArc
 50
240.000000000026
 51
299.9999999999703
  0
LINE
  5
E8A0
330
E869
100
AcDbEntity
  8
0
100
AcDbLine
 10
33.08199999996828
 20
8.763099999991255
 30
0.0
 11
31.64199999996833
 21
8.763099999991255
 31
0.0
  0
ARC
  5
E8A1
330
E869
100
AcDbEntity
  8
0
100
AcDbCircle
 10
35.06199999996829
 20
2.481619422925064
 30
0.0
 40
1.17
100
AcDbArc
 50
299.9999999999699
 51
0.0
  0
ARC
  5
E8A2
330
E869
100
AcDbEntity
  8
0
100
AcDbCircle
 10
34.25199999996835
 20
2.481619422925121
 30
0.0
 40
1.17
100
AcDbArc
 50
180.0
 51
240.0000000000238
  0
ARC
  5
E8A3
330
E869
100
AcDbEntity
  8
0
100
AcDbCircle
 10
35.06199999996841
 20
2.481619422925121
 30
0.0
 40
2.61
100
AcDbArc
 50
299.9999999999756
 51
0.0
  0
ARC
  5
E8A4
330
E869
100
AcDbEntity
  8
0
100
AcDbCircle
 10
34.25199999996835
 20
2.481619422925121
 30
0.0
 40
2.61
100
AcDbArc
 50
180.0
 51
240.0000000000244
  0
LINE
  5
E8A5
330
E869
100
AcDbEntity
  8
0
100
AcDbLine
 10
29.30199999996933
 20
8.763099999991255
 30
0.0
 11
30.74199999996927
 21
8.763099999991255
 31
0.0
1001
ACAD
1000
ASC_BOUNDS
1002
{
1070
    19
1005
E8AE
1002
}
  0
LINE
  5
E8A6
330
E869
100
AcDbEntity
  8
0
100
AcDbLine
 10
30.74199999996927
 20
8.763099999991255
 30
0.0
 11
30.74199999996927
 21
2.373099999991211
 31
0.0
1001
ACAD
1000
ASC_BOUNDS
1002
{
1070
    19
1005
E8AE
1002
}
  0
LINE
  5
E8A7
330
E869
100
AcDbEntity
  8
0
100
AcDbLine
 10
26.02015566812236
 20
0.0330999999912365
 30
0.0
 11
28.40199999996923
 21
0.0330999999912365
 31
0.0
1001
ACAD
1000
ASC_BOUNDS
1002
{
1070
    19
1005
E8AE
1002
}
  0
LINE
  5
E8A8
330
E869
100
AcDbEntity
  8
0
100
AcDbLine
 10
29.30199999996933
 20
8.763099999991255
 30
0.0
 11
29.30199999996933
 21
2.283099999991236
 31
0.0
1001
ACAD
1000
ASC_BOUNDS
1002
{
1070
    19
1005
E8AE
1002
}
  0
LINE
  5
E8A9
330
E869
100
AcDbEntity
  8
0
100
AcDbLine
 10
26.97358892824991
 20
1.383099999991202
 30
0.0
 11
28.40199999996923
 21
1.383099999991202
 31
0.0
1001
ACAD
1000
ASC_BOUNDS
1002
{
1070
    19
1005
E8AE
1002
}
  0
ARC
  5
E8AA
330
E869
100
AcDbEntity
  8
0
100
AcDbCircle
 10
28.40199999996923
 20
2.283099999991236
 30
0.0
 40
0.9
100
AcDbArc
 50
270.0
 51
0.0
1001
ACAD
1000
ASC_BOUNDS
1002
{
1070
    19
1005
E8AE
1002
}
  0
ARC
  5
E8AB
330
E869
100
AcDbEntity
  8
0
100
AcDbCircle
 10
28.40199999996923
 20
2.373099999991211
 30
0.0
 40
2.34
100
AcDbArc
 50
270.0
 51
0.0
1001
ACAD
1000
ASC_BOUNDS
1002
{
1070
    19
1005
E8AE
1002
}
  0
INSERT
  5
E8AC
330
E869
100
AcDbEntity
  8
0
100
AcDbBlockReference
  2
*X42
 10
0.0
 20
0.0
 30
0.0
1001
ACAD
1000
HATCH
1002
{
1070
    19
1000
ANSI37
1040
0.15
1040
0.0
1000
ASC_BOUNDS
1070
     2
1070
     2
1070
    12
1005
E86B
1005
E86C
1005
E873
1005
E882
1005
E885
1005
E883
1005
E874
1005
E879
1005
E877
1005
E87B
1005
E87A
1005
E87C
1070
     2
1070
     3
1005
E887
1005
E889
1005
E888
1000
ASC_SEEDPOINT
1011
3.614004224891801
1021
2.996669441146025
1031
0.0
1000
R14_HATCH_DATA
1000
E8AC
1011
1.0
1021
0.0
1031
0.0
1011
0.0
1021
1.0
1031
0.0
1011
0.0
1021
0.0
1031
1.0
1040
0.0
1010
0.0
1020
0.0
1030
1.0
1000
ANSI37
1070
     0
1070
     1
1071
        2
1071
        7
1070
     0
1070
     1
1071
       17
1040
13.26299999998673
1040
-0.0001000000000317
1040
9.236999999990758
1040
8.999899999990987
1040
9.236999999990758
1040
8.999999999991019
1040
5.657999999994331
1040
0.9999999999989768
1040
3.181999999996833
1040
4.668599999995308
1040
6.432999999993513
1040
8.763099999991255
1040
4.617999999995391
1040
8.763099999991255
1040
1.420999999998571
1040
4.736799999995242
1040
4.617999999995391
1040
-0.0001000000000317
1040
4.617999999995391
1040
0.0
1040
6.766999999993232
1040
0.0
1040
6.766999999993232
1040
-0.0001000000000317
1040
7.826999999992154
1040
2.368399999997621
1040
10.64699999998936
1040
2.368399999997621
1040
11.70599999998831
1040
-0.0001000000000317
1040
11.70599999998831
1040
0.0
1040
13.26299999998673
1040
0.0
1071
       12
1005
E86B
1005
E86C
1005
E873
1005
E882
1005
E885
1005
E883
1005
E874
1005
E879
1005
E877
1005
E87B
1005
E87A
1005
E87C
1071
       22
1070
     0
1070
     1
1071
        3
1040
9.236999999990758
1040
5.5200999999945
1040
10.06399999998996
1040
3.670999999996297
1040
8.409999999991555
1040
3.670999999996297
1071
        3
1005
E887
1005
E889
1005
E888
1070
     0
1070
     1
1040
0.0
1040
0.15
1070
     0
1070
     2
1040
0.7853981633974483
1040
49.29960901727088
1040
-10.17736998311392
1040
-0.3367596045400932
1040
0.3367596045400932
1070
     0
1040
2.356194490192345
1040
49.29960901727088
1040
-10.17736998311392
1040
-0.3367596045400932
1040
-0.3367596045400932
1070
     0
1040
0.0110235143455945
1071
        2
1040
3.614004224891801
1040
2.996669441146025
1040
0.0
1040
3.614004224891801
1040
2.996669441146025
1040
0.0
1002
}
  0
INSERT
  5
E8AD
330
E869
100
AcDbEntity
  8
0
100
AcDbBlockReference
  2
*X43
 10
0.0
 20
0.0
 30
0.0
1001
ACAD
1000
HATCH
1002
{
1070
    19
1000
ANSI37
1040
0.15
1040
0.0
1000
ASC_BOUNDS
1070
     1
1070
     2
1070
    10
1005
E86D
1005
E86E
1005
E88F
1005
E88D
1005
E88E
1005
E881
1005
E886
1005
E88A
1005
E870
1005
E86F
1000
ASC_SEEDPOINT
1011
14.73245321214324
1021
2.798246178283421
1031
0.0
1000
R14_HATCH_DATA
1000
E8AD
1011
1.0
1021
0.0
1031
0.0
1011
0.0
1021
1.0
1031
0.0
1011
0.0
1021
0.0
1031
1.0
1040
0.0
1010
0.0
1020
0.0
1030
1.0
1000
ANSI37
1070
     0
1070
     1
1071
        1
1071
        7
1070
     0
1070
     1
1071
       10
1040
16.46099999998353
1040
5.432899999994561
1040
18.59199999998134
1040
-0.2368999999997641
1040
22.38199999997767
1040
8.763099999991255
1040
20.89099999997916
1040
8.763099999991255
1040
18.59799999998143
1040
3.315799999996671
1040
16.46099999998353
1040
8.999899999990987
1040
14.32399999998563
1040
3.315799999996671
1040
12.02999999998792
1040
8.763099999991255
1040
10.53899999998941
1040
8.763099999991255
1040
14.32899999998563
1040
-0.2368999999997641
1071
       10
1005
E86D
1005
E86E
1005
E88F
1005
E88D
1005
E88E
1005
E881
1005
E886
1005
E88A
1005
E870
1005
E86F
1070
     0
1070
     1
1040
0.0
1040
0.15
1070
     0
1070
     2
1040
0.7853981633974483
1040
49.29960901727088
1040
-10.17736998311392
1040
-0.3367596045400932
1040
0.3367596045400932
1070
     0
1040
2.356194490192345
1040
49.29960901727088
1040
-10.17736998311392
1040
-0.3367596045400932
1040
-0.3367596045400932
1070
     0
1040
0.0110235143455945
1071
        1
1040
14.73245321214324
1040
2.798246178283421
1040
0.0
1002
}
  0
INSERT
  5
E8AE
330
E869
100
AcDbEntity
  8
0
100
AcDbBlockReference
  2
*X44
 10
0.0
 20
0.0
 30
0.0
1001
ACAD
1000
HATCH
1002
{
1070
    19
1000
ANSI37
1040
0.15
1040
0.0
1000
ASC_BOUNDS
1070
     2
1070
     2
1070
    13
1005
E871
1005
E87E
1005
E87F
1005
E87D
1005
E880
1005
E8A7
1005
E8AB
1005
E8A6
1005
E8A5
1005
E8A8
1005
E8AA
1005
E8A9
1005
E872
1070
     2
1070
     3
1005
E88B
1005
E890
1005
E88C
1000
ASC_SEEDPOINT
1011
21.97929957367762
1021
3.294304244259308
1031
0.0
1000
R14_HATCH_DATA
1000
E8AE
1011
1.0
1021
0.0
1031
0.0
1011
0.0
1021
1.0
1031
0.0
1011
0.0
1021
0.0
1031
1.0
1040
0.0
1010
0.0
1020
0.0
1030
1.0
1000
ANSI37
1070
     0
1070
     1
1071
        2
1071
        7
1070
     1
1070
     1
1071
       15
1040
23.56599999997638
1040
8.999899999990987
1040
0.0
1040
19.53899999998043
1040
-0.0001000000000317
1040
0.0
1040
19.53899999998043
1040
0.0
1040
0.0
1040
21.09599999997886
1040
0.0
1040
0.0
1040
21.09599999997886
1040
-0.0001000000000317
1040
0.0
1040
22.15599999997789
1040
2.368399999997621
1040
0.0
1040
24.97599999997499
1040
2.368399999997621
1040
0.0
1040
26.02015566812236
1040
0.0330999999912365
1040
0.0
1040
28.40199999996923
1040
0.0330999999912365
1040
0.414213562373095
1040
30.74199999996923
1040
2.373099999991211
1040
0.0
1040
30.74199999996927
1040
8.763099999991255
1040
0.0
1040
29.30199999996933
1040
8.763099999991255
1040
0.0
1040
29.30199999996933
1040
2.283099999991236
1040
-0.414213562373095
1040
28.40199999996923
1040
1.383099999991237
1040
0.0
1040
26.97358892824991
1040
1.383099999991202
1040
0.0
1071
       13
1005
E871
1005
E87E
1005
E87F
1005
E87D
1005
E880
1005
E8A7
1005
E8AB
1005
E8A6
1005
E8A5
1005
E8A8
1005
E8AA
1005
E8A9
1005
E872
1071
       22
1070
     0
1070
     1
1071
        3
1040
22.7389999999773
1040
3.670999999996297
1040
23.56599999997638
1040
5.5200999999945
1040
24.39299999997559
1040
3.670999999996297
1071
        3
1005
E88B
1005
E890
1005
E88C
1070
     0
1070
     1
1040
0.0
1040
0.15
1070
     0
1070
     2
1040
0.7853981633974483
1040
49.29960901727088
1040
-10.17736998311392
1040
-0.3367596045400932
1040
0.3367596045400932
1070
     0
1040
2.356194490192345
1040
49.29960901727088
1040
-10.17736998311392
1040
-0.3367596045400932
1040
-0.3367596045400932
1070
     0
1040
0.0110235143455945
1071
        2
1040
21.97929957367762
1040
3.294304244259308
1040
0.0
1040
21.97929957367762
1040
3.294304244259308
1040
0.0
1002
}
  0
INSERT
  5
E8AF
330
E869
100
AcDbEntity
  8
0
100
AcDbBlockReference
  2
*X45
 10
0.0
 20
0.0
 30
0.0
1001
ACAD
1000
HATCH
1002
{
1070
    19
1000
ANSI37
1040
0.15
1040
0.0
1000
R14_HATCH_DATA
1000
E8AF
1011
1.0
1021
0.0
1031
0.0
1011
0.0
1021
1.0
1031
0.0
1011
0.0
1021
0.0
1031
1.0
1040
0.0
1010
0.0
1020
0.0
1030
1.0
1000
ANSI37
1070
     0
1070
     1
1071
        1
1071
        7
1070
     1
1070
     1
1071
       12
1040
31.64199999996833
1040
2.481619422925121
1040
0.2679491924310942
1040
32.94699999997067
1040
0.2212931190493919
1040
0.2679491924301353
1040
36.36699999995983
1040
0.2212931190459813
1040
0.2679491924321411
1040
37.67199999996831
1040
2.481619422928361
1040
0.0
1040
37.67199999996831
1040
8.763099999991255
1040
0.0
1040
36.23199999996837
1040
8.763099999991255
1040
0.0
1040
36.23199999996837
1040
2.481619422925064
1040
-0.2679491924310291
1040
35.64699999996708
1040
1.468369700498386
1040
-0.267949192430519
1040
33.66699999997093
1040
1.468369700497703
1040
-0.267949192431809
1040
33.08199999996839
1040
2.481619422926997
1040
0.0
1040
33.08199999996839
1040
8.763099999991255
1040
0.0
1040
31.64199999996833
1040
8.763099999991255
1040
0.0
1071
        0
1070
     0
1070
     1
1040
0.0
1040
0.15
1070
     0
1070
     2
1040
0.7853981633974483
1040
49.29960901727088
1040
-10.17736998311392
1040
-0.3367596045400932
1040
0.3367596045400932
1070
     0
1040
2.356194490192345
1040
49.29960901727088
1040
-10.17736998311392
1040
-0.3367596045400932
1040
-0.3367596045400932
1070
     0
1040
0.0110235143455945
1071
        1
1040
32.30357378967278
1040
3.988785755459219
1040
0.0
1002
}
  0
INSERT
  5
E8B0
330
E869
100
AcDbEntity
  8
0
100
AcDbBlockReference
  2
*X46
 10
0.0
 20
0.0
 30
0.0
1001
ACAD
1000
HATCH
1002
{
1070
    19
1000
ANSI37
1040
0.15
1040
0.0
1000
ASC_BOUNDS
1070
     1
1070
     2
1070
     8
1005
E891
1005
E894
1005
E898
1005
E897
1005
E896
1005
E893
1005
E895
1005
E892
1000
ASC_SEEDPOINT
1011
39.74896370716704
1021
4.484843821435049
1031
0.0
1000
R14_HATCH_DATA
1000
E8B0
1011
1.0
1021
0.0
1031
0.0
1011
0.0
1021
1.0
1031
0.0
1011
0.0
1021
0.0
1031
1.0
1040
0.0
1010
0.0
1020
0.0
1030
1.0
1000
ANSI37
1070
     0
1070
     1
1071
        1
1071
        7
1070
     0
1070
     1
1071
        9
1040
40.02599999995994
1040
5.341799999994635
1040
44.99999999995498
1040
-0.2368999999997641
1040
44.99999999995498
1040
8.763099999991255
1040
43.57899999995641
1040
8.763099999991255
1040
43.57899999995641
1040
3.421199999996588
1040
38.60499999996136
1040
8.999899999990987
1040
38.60499999996136
1040
8.999999999991019
1040
38.60499999996136
1040
0.0
1040
40.02599999995994
1040
0.0
1071
        8
1005
E891
1005
E894
1005
E898
1005
E897
1005
E896
1005
E893
1005
E895
1005
E892
1070
     0
1070
     1
1040
0.0
1040
0.15
1070
     0
1070
     2
1040
0.7853981633974483
1040
49.29960901727088
1040
-10.17736998311392
1040
-0.3367596045400932
1040
0.3367596045400932
1070
     0
1040
2.356194490192345
1040
49.29960901727088
1040
-10.17736998311392
1040
-0.3367596045400932
1040
-0.3367596045400932
1070
     0
1040
0.0110235143455945
1071
        1
1040
39.74896370716704
1040
4.484843821435049
1040
0.0
1002
}
  0
INSERT
  5
E8B1
330
E869
100
AcDbEntity
  8
0
100
AcDbBlockReference
  2
*X47
 10
0.0
 20
0.0
 30
0.0
1001
ACAD
1000
HATCH
1002
{
1070
    19
1000
ANSI37
1040
0.15
1040
0.0
1000
ASC_BOUNDS
1070
     1
1070
     2
1070
     4
1005
E875
1005
E884
1005
E876
1005
E878
1000
ASC_SEEDPOINT
1011
1.079051535452663
1021
4.148538732891836
1031
0.0
1000
R14_HATCH_DATA
1000
E8B1
1011
1.0
1021
0.0
1031
0.0
1011
0.0
1021
1.0
1031
0.0
1011
0.0
1021
0.0
1031
1.0
1040
0.0
1010
0.0
1020
0.0
1030
1.0
1000
ANSI37
1070
     0
1070
     1
1071
        1
1071
        7
1070
     0
1070
     1
1071
        4
1040
1.420999999998571
1040
0.0
1040
1.420999999998571
1040
8.763099999991255
1040
0.0
1040
8.763099999991255
1040
0.0
1040
0.0
1071
        4
1005
E875
1005
E884
1005
E876
1005
E878
1070
     0
1070
     1
1040
0.0
1040
0.15
1070
     0
1070
     2
1040
0.7853981633974483
1040
49.29960901727088
1040
-10.17736998311392
1040
-0.3367596045400932
1040
0.3367596045400932
1070
     0
1040
2.356194490192345
1040
49.29960901727088
1040
-10.17736998311392
1040
-0.3367596045400932
1040
-0.3367596045400932
1070
     0
1040
0.0053004257112761
1071
        1
1040
1.079051535452663
1040
4.148538732891836
1040
0.0
1002
}
  0
ENDBLK
  5
E8B2
330
E869
100
AcDbEntity
  8
0
100
AcDbBlockEnd
  0
BLOCK
  5
F182
330
EFF4
100
AcDbEntity
  8
0
100
AcDbBlockBegin
  2
*X42
 70
     1
 10
0.0
 20
0.0
 30
0.0
  3
*X42
  1

  0
LINE
  5
EFF5
330
EFF4
100
AcDbEntity
  8
0
  6
CONTINUOUS
100
AcDbLine
 10
3.418023043697893
 20
7.251849696850613
 30
0.0
 11
4.929273346838536
 21
8.763099999991255
 31
0.0
  0
LINE
  5
EFF6
330
EFF4
100
AcDbEntity
  8
0
  6
CONTINUOUS
100
AcDbLine
 10
1.483656411257782
 20
4.643963855330318
 30
0.0
 11
5.60279255591872
 21
8.763099999991255
 31
0.0
  0
LINE
  5
EFF7
330
EFF4
100
AcDbEntity
  8
0
  6
CONTINUOUS
100
AcDbLine
 10
1.755053947328235
 20
4.241842182320584
 30
0.0
 11
6.276311764998907
 21
8.763099999991255
 31
0.0
  0
LINE
  5
EFF8
330
EFF4
100
AcDbEntity
  8
0
  6
CONTINUOUS
100
AcDbLine
 10
2.026451483398688
 20
3.839720509310849
 30
0.0
 11
4.441040904851878
 21
6.254309930764039
 31
0.0
  0
LINE
  5
EFF9
330
EFF4
100
AcDbEntity
  8
0
  6
CONTINUOUS
100
AcDbLine
 10
2.297849019469139
 20
3.437598836301114
 30
0.0
 11
3.321765168359338
 21
4.461514985191313
 31
0.0
  0
LINE
  5
EFFA
330
EFF4
100
AcDbEntity
  8
0
  6
CONTINUOUS
100
AcDbLine
 10
2.569246555539591
 20
3.03547716329138
 30
0.0
 11
3.593163397972743
 21
4.059394005724531
 31
0.0
  0
LINE
  5
EFFB
330
EFF4
100
AcDbEntity
  8
0
  6
CONTINUOUS
100
AcDbLine
 10
2.840644091610043
 20
2.633355490281646
 30
0.0
 11
3.864561627586149
 21
3.657273026257751
 31
0.0
  0
LINE
  5
EFFC
330
EFF4
100
AcDbEntity
  8
0
  6
CONTINUOUS
100
AcDbLine
 10
3.112041627680496
 20
2.231233817271911
 30
0.0
 11
4.135959857199554
 21
3.25515204679097
 31
0.0
  0
LINE
  5
EFFD
330
EFF4
100
AcDbEntity
  8
0
  6
CONTINUOUS
100
AcDbLine
 10
3.383439163750948
 20
1.829112144262177
 30
0.0
 11
4.40735808681296
 21
2.853031067324189
 31
0.0
  0
LINE
  5
EFFE
330
EFF4
100
AcDbEntity
  8
0
  6
CONTINUOUS
100
AcDbLine
 10
3.654836699821399
 20
1.426990471252442
 30
0.0
 11
4.678756316426365
 21
2.450910087857407
 31
0.0
  0
LINE
  5
EFFF
330
EFF4
100
AcDbEntity
  8
0
  6
CONTINUOUS
100
AcDbLine
 10
3.926234235891853
 20
1.024868798242709
 30
0.0
 11
4.95015454603977
 21
2.048789108390626
 31
0.0
  0
LINE
  5
F000
330
EFF4
100
AcDbEntity
  8
0
  6
CONTINUOUS
100
AcDbLine
 10
4.197631771962304
 20
0.6227471252329737
 30
0.0
 11
5.221552775653176
 21
1.646668128923846
 31
0.0
  0
LINE
  5
F001
330
EFF4
100
AcDbEntity
  8
0
  6
CONTINUOUS
100
AcDbLine
 10
8.715877546767851
 20
7.835069736359266
 30
0.0
 11
9.435953450375058
 21
8.555145639966472
 31
0.0
  0
LINE
  5
F002
330
EFF4
100
AcDbEntity
  8
0
  6
CONTINUOUS
100
AcDbLine
 10
8.170620868422267
 20
6.616293848933497
 30
0.0
 11
9.644120833743461
 21
8.08979381425469
 31
0.0
  0
LINE
  5
F003
330
EFF4
100
AcDbEntity
  8
0
  6
CONTINUOUS
100
AcDbLine
 10
7.625364190076684
 20
5.397517961507727
 30
0.0
 11
9.852288217111864
 21
7.624441988542907
 31
0.0
  0
LINE
  5
F004
330
EFF4
100
AcDbEntity
  8
0
  6
CONTINUOUS
100
AcDbLine
 10
7.080107511731101
 20
4.178742074081957
 30
0.0
 11
10.06045560048027
 21
7.159090162831124
 31
0.0
  0
LINE
  5
F005
330
EFF4
100
AcDbEntity
  8
0
  6
CONTINUOUS
100
AcDbLine
 10
6.534850833385518
 20
2.959966186656187
 30
0.0
 11
10.26862298384867
 21
6.693738337119342
 31
0.0
  0
LINE
  5
F006
330
EFF4
100
AcDbEntity
  8
0
  6
CONTINUOUS
100
AcDbLine
 10
4.469029308032756
 20
0.2206254522232385
 30
0.0
 11
5.492951005266582
 21
1.244547149457064
 31
0.0
  0
LINE
  5
F007
330
EFF4
100
AcDbEntity
  8
0
  6
CONTINUOUS
100
AcDbLine
 10
5.989594155039935
 20
1.741190299230417
 30
0.0
 11
8.806950407233131
 21
4.558546551423613
 31
0.0
  0
LINE
  5
F008
330
EFF4
100
AcDbEntity
  8
0
  6
CONTINUOUS
100
AcDbLine
 10
9.401251593263643
 20
5.152847737454126
 30
0.0
 11
10.47679036721708
 21
6.228386511407559
 31
0.0
  0
LINE
  5
F009
330
EFF4
100
AcDbEntity
  8
0
  6
CONTINUOUS
100
AcDbLine
 10
4.921837203428691
 20
-0.0000858614610131
 30
0.0
 11
8.592923064886001
 21
3.670999999996297
 31
0.0
  0
LINE
  5
F00A
330
EFF4
100
AcDbEntity
  8
0
  6
CONTINUOUS
100
AcDbLine
 10
9.609390446785305
 20
4.6874673818956
 30
0.0
 11
10.68495775058548
 21
5.763034685695775
 31
0.0
  0
LINE
  5
F00B
330
EFF4
100
AcDbEntity
  8
0
  6
CONTINUOUS
100
AcDbLine
 10
5.595387755019432
 20
-0.0000545189504582
 30
0.0
 11
7.716137258923768
 21
2.120694984953879
 31
0.0
  0
LINE
  5
F00C
330
EFF4
100
AcDbEntity
  8
0
  6
CONTINUOUS
100
AcDbLine
 10
6.268938306610172
 20
-0.000023176439905
 30
0.0
 11
7.170485805526503
 21
0.9015243224764267
 31
0.0
  0
LINE
  5
F00D
330
EFF4
100
AcDbEntity
  8
0
  6
CONTINUOUS
100
AcDbLine
 10
7.963842273967511
 20
2.368399999997621
 30
0.0
 11
9.266442273966188
 21
3.670999999996297
 31
0.0
  0
LINE
  5
F00E
330
EFF4
100
AcDbEntity
  8
0
  6
CONTINUOUS
100
AcDbLine
 10
8.637361483047696
 20
2.368399999997621
 30
0.0
 11
9.939961483046375
 21
3.670999999996297
 31
0.0
  0
LINE
  5
F00F
330
EFF4
100
AcDbEntity
  8
0
  6
CONTINUOUS
100
AcDbLine
 10
9.817529300306965
 20
4.222087026337075
 30
0.0
 11
10.89312513395388
 21
5.297682859983993
 31
0.0
  0
LINE
  5
F010
330
EFF4
100
AcDbEntity
  8
0
  6
CONTINUOUS
100
AcDbLine
 10
10.02566815382863
 20
3.756706670778549
 30
0.0
 11
11.10129251732229
 21
4.832331034272211
 31
0.0
  0
LINE
  5
F011
330
EFF4
100
AcDbEntity
  8
0
  6
CONTINUOUS
100
AcDbLine
 10
9.310880692127883
 20
2.368399999997621
 30
0.0
 11
11.30945990069069
 21
4.366979208560428
 31
0.0
  0
LINE
  5
F012
330
EFF4
100
AcDbEntity
  8
0
  6
CONTINUOUS
100
AcDbLine
 10
9.98439990120807
 20
2.36839999999762
 30
0.0
 11
11.5176272840591
 21
3.901627382848645
 31
0.0
  0
LINE
  5
F013
330
EFF4
100
AcDbEntity
  8
0
  6
CONTINUOUS
100
AcDbLine
 10
10.65037369446246
 20
2.36085458417182
 30
0.0
 11
11.7257946674275
 21
3.436275557136862
 31
0.0
  0
LINE
  5
F014
330
EFF4
100
AcDbEntity
  8
0
  6
CONTINUOUS
100
AcDbLine
 10
10.85847197087848
 20
1.895433651507656
 30
0.0
 11
11.9339620507959
 21
2.97092373142508
 31
0.0
  0
LINE
  5
F015
330
EFF4
100
AcDbEntity
  8
0
  6
CONTINUOUS
100
AcDbLine
 10
11.0665702472945
 20
1.430012718843491
 30
0.0
 11
12.14212943416431
 21
2.505571905713296
 31
0.0
  0
LINE
  5
F016
330
EFF4
100
AcDbEntity
  8
0
  6
CONTINUOUS
100
AcDbLine
 10
11.27466852371052
 20
0.9645917861793256
 30
0.0
 11
12.35029681753271
 21
2.040220080001513
 31
0.0
  0
LINE
  5
F017
330
EFF4
100
AcDbEntity
  8
0
  6
CONTINUOUS
100
AcDbLine
 10
11.48276680012654
 20
0.4991708535151611
 30
0.0
 11
12.55846420090111
 21
1.57486825428973
 31
0.0
  0
LINE
  5
F018
330
EFF4
100
AcDbEntity
  8
0
  6
CONTINUOUS
100
AcDbLine
 10
11.69086507654257
 20
0.0337499208509957
 30
0.0
 11
12.76663158426952
 21
1.109516428577947
 31
0.0
  0
LINE
  5
F019
330
EFF4
100
AcDbEntity
  8
0
  6
CONTINUOUS
100
AcDbLine
 10
12.33057447873954
 20
-0.0000598860322123
 30
0.0
 11
12.97479896763792
 21
0.6441646028661663
 31
0.0
  0
LINE
  5
F01A
330
EFF4
100
AcDbEntity
  8
0
  6
CONTINUOUS
100
AcDbLine
 10
13.00413694809395
 20
-0.0000166257579952
 30
0.0
 11
13.18296635100632
 21
0.1788127771543824
 31
0.0
  0
LINE
  5
F01B
330
EFF4
100
AcDbEntity
  8
0
  6
CONTINUOUS
100
AcDbLine
 10
4.772852165289667
 20
-0.000092794222212
 30
0.0
 11
4.296495091028902
 21
0.4762642800385528
 31
0.0
  0
LINE
  5
F01C
330
EFF4
100
AcDbEntity
  8
0
  6
CONTINUOUS
100
AcDbLine
 10
5.446340034776103
 20
-0.0000614546284616
 30
0.0
 11
2.898195908335625
 21
2.548082671812017
 31
0.0
  0
LINE
  5
F01D
330
EFF4
100
AcDbEntity
  8
0
  6
CONTINUOUS
100
AcDbLine
 10
6.119827904262539
 20
-0.0000301150347113
 30
0.0
 11
1.499896725642348
 21
4.61990106358548
 31
0.0
  0
LINE
  5
F01E
330
EFF4
100
AcDbEntity
  8
0
  6
CONTINUOUS
100
AcDbLine
 10
6.775136745476159
 20
0.0181802528318542
 30
0.0
 11
5.699826040202669
 21
1.093490958105344
 31
0.0
  0
LINE
  5
F01F
330
EFF4
100
AcDbEntity
  8
0
  6
CONTINUOUS
100
AcDbLine
 10
6.983376846288489
 20
0.4834593610997118
 30
0.0
 11
5.908008617934405
 21
1.558827589453796
 31
0.0
  0
LINE
  5
F020
330
EFF4
100
AcDbEntity
  8
0
  6
CONTINUOUS
100
AcDbLine
 10
5.377063484962296
 20
1.416253513345719
 30
0.0
 11
1.702276957014131
 21
5.091040041293883
 31
0.0
  0
LINE
  5
F021
330
EFF4
100
AcDbEntity
  8
0
  6
CONTINUOUS
100
AcDbLine
 10
3.978745891735324
 20
3.488090315652877
 30
0.0
 11
2.000373521109399
 21
5.466462686278803
 31
0.0
  0
LINE
  5
F022
330
EFF4
100
AcDbEntity
  8
0
  6
CONTINUOUS
100
AcDbLine
 10
7.191616947100819
 20
0.948738469367568
 30
0.0
 11
6.11619119566614
 21
2.024164220802247
 31
0.0
  0
LINE
  5
F023
330
EFF4
100
AcDbEntity
  8
0
  6
CONTINUOUS
100
AcDbLine
 10
7.399857047913149
 20
1.414017577635424
 30
0.0
 11
6.324373773397875
 21
2.489500852150698
 31
0.0
  0
LINE
  5
F024
330
EFF4
100
AcDbEntity
  8
0
  6
CONTINUOUS
100
AcDbLine
 10
7.608097148725479
 20
1.879296685903281
 30
0.0
 11
6.53255635112961
 21
2.95483748349915
 31
0.0
  0
LINE
  5
F025
330
EFF4
100
AcDbEntity
  8
0
  6
CONTINUOUS
100
AcDbLine
 10
7.816337249537808
 20
2.344575794171138
 30
0.0
 11
6.740738928861345
 21
3.420174114847601
 31
0.0
  0
LINE
  5
F026
330
EFF4
100
AcDbEntity
  8
0
  6
CONTINUOUS
100
AcDbLine
 10
3.310241080789734
 20
4.830114335678653
 30
0.0
 11
2.298470085204666
 21
5.84188533126372
 31
0.0
  0
LINE
  5
F027
330
EFF4
100
AcDbEntity
  8
0
  6
CONTINUOUS
100
AcDbLine
 10
3.60832983563551
 20
5.205544789913063
 30
0.0
 11
2.596566649299935
 21
6.217307976248638
 31
0.0
  0
LINE
  5
F028
330
EFF4
100
AcDbEntity
  8
0
  6
CONTINUOUS
100
AcDbLine
 10
3.906418590481286
 20
5.580975244147473
 30
0.0
 11
2.894663213395203
 21
6.592730621233557
 31
0.0
  0
LINE
  5
F029
330
EFF4
100
AcDbEntity
  8
0
  6
CONTINUOUS
100
AcDbLine
 10
4.204507345327062
 20
5.956405698381884
 30
0.0
 11
3.192759777490472
 21
6.968153266218474
 31
0.0
  0
LINE
  5
F02A
330
EFF4
100
AcDbEntity
  8
0
  6
CONTINUOUS
100
AcDbLine
 10
8.466032252791512
 20
2.368399999997621
 30
0.0
 11
6.948921506593081
 21
3.885510746196053
 31
0.0
  0
LINE
  5
F02B
330
EFF4
100
AcDbEntity
  8
0
  6
CONTINUOUS
100
AcDbLine
 10
9.139551461871699
 20
2.36839999999762
 30
0.0
 11
7.157104084324816
 21
4.350847377544504
 31
0.0
  0
LINE
  5
F02C
330
EFF4
100
AcDbEntity
  8
0
  6
CONTINUOUS
100
AcDbLine
 10
4.502596100172839
 20
6.331836152616295
 30
0.0
 11
3.49085634158574
 21
7.343575911203393
 31
0.0
  0
LINE
  5
F02D
330
EFF4
100
AcDbEntity
  8
0
  6
CONTINUOUS
100
AcDbLine
 10
4.800684855018615
 20
6.707266606850705
 30
0.0
 11
3.788952905681008
 21
7.718998556188312
 31
0.0
  0
LINE
  5
F02E
330
EFF4
100
AcDbEntity
  8
0
  6
CONTINUOUS
100
AcDbLine
 10
12.18154012887317
 20
-0.0000694579236642
 30
0.0
 11
11.32140332908496
 21
0.8600673418645499
 31
0.0
  0
LINE
  5
F02F
330
EFF4
100
AcDbEntity
  8
0
  6
CONTINUOUS
100
AcDbLine
 10
12.85501608323566
 20
-0.0000262032059659
 30
0.0
 11
10.77672456435345
 21
2.078265315676246
 31
0.0
  0
LINE
  5
F030
330
EFF4
100
AcDbEntity
  8
0
  6
CONTINUOUS
100
AcDbLine
 10
9.813070670951886
 20
2.36839999999762
 30
0.0
 11
8.51047067095321
 21
3.670999999996297
 31
0.0
  0
LINE
  5
F031
330
EFF4
100
AcDbEntity
  8
0
  6
CONTINUOUS
100
AcDbLine
 10
10.48658988003207
 20
2.36839999999762
 30
0.0
 11
9.183989880033396
 21
3.670999999996297
 31
0.0
  0
LINE
  5
F032
330
EFF4
100
AcDbEntity
  8
0
  6
CONTINUOUS
100
AcDbLine
 10
8.441048632286794
 20
3.740422038662712
 30
0.0
 11
7.365286662056551
 21
4.816184008892956
 31
0.0
  0
LINE
  5
F033
330
EFF4
100
AcDbEntity
  8
0
  6
CONTINUOUS
100
AcDbLine
 10
8.649187485808454
 20
4.205802394221237
 30
0.0
 11
7.573469239788285
 21
5.281520640241407
 31
0.0
  0
LINE
  5
F034
330
EFF4
100
AcDbEntity
  8
0
  6
CONTINUOUS
100
AcDbLine
 10
5.098773609864391
 20
7.082697061085115
 30
0.0
 11
4.087049469776277
 21
8.09442120117323
 31
0.0
  0
LINE
  5
F035
330
EFF4
100
AcDbEntity
  8
0
  6
CONTINUOUS
100
AcDbLine
 10
5.396862364710167
 20
7.458127515319526
 30
0.0
 11
4.385146033871544
 21
8.469843846158149
 31
0.0
  0
LINE
  5
F036
330
EFF4
100
AcDbEntity
  8
0
  6
CONTINUOUS
100
AcDbLine
 10
13.04801363231285
 20
0.4804954567970334
 30
0.0
 11
9.85750908911358
 21
3.670999999996297
 31
0.0
  0
LINE
  5
F037
330
EFF4
100
AcDbEntity
  8
0
  6
CONTINUOUS
100
AcDbLine
 10
8.857326339330116
 20
4.671182749779763
 30
0.0
 11
7.781651817520021
 21
5.746857271589858
 31
0.0
  0
LINE
  5
F038
330
EFF4
100
AcDbEntity
  8
0
  6
CONTINUOUS
100
AcDbLine
 10
5.694951119555943
 20
7.833557969553937
 30
0.0
 11
4.765409089118624
 21
8.763099999991255
 31
0.0
  0
LINE
  5
F039
330
EFF4
100
AcDbEntity
  8
0
  6
CONTINUOUS
100
AcDbLine
 10
12.50286117236978
 20
1.699167125820288
 30
0.0
 11
9.68611877250287
 21
4.515909525687196
 31
0.0
  0
LINE
  5
F03A
330
EFF4
100
AcDbEntity
  8
0
  6
CONTINUOUS
100
AcDbLine
 10
9.065465192851777
 20
5.136563105338288
 30
0.0
 11
7.989834395251757
 21
6.21219390293831
 31
0.0
  0
LINE
  5
F03B
330
EFF4
100
AcDbEntity
  8
0
  6
CONTINUOUS
100
AcDbLine
 10
5.993039874401719
 20
8.208988423788346
 30
0.0
 11
5.43892829819881
 21
8.763099999991255
 31
0.0
  0
LINE
  5
F03C
330
EFF4
100
AcDbEntity
  8
0
  6
CONTINUOUS
100
AcDbLine
 10
11.95770871242671
 20
2.917838794843543
 30
0.0
 11
8.19801697298349
 21
6.677530534286761
 31
0.0
  0
LINE
  5
F03D
330
EFF4
100
AcDbEntity
  8
0
  6
CONTINUOUS
100
AcDbLine
 10
6.291128629247495
 20
8.584418878022756
 30
0.0
 11
6.112447507278997
 21
8.763099999991255
 31
0.0
  0
LINE
  5
F03E
330
EFF4
100
AcDbEntity
  8
0
  6
CONTINUOUS
100
AcDbLine
 10
11.41255625248364
 20
4.136510463866797
 30
0.0
 11
8.406199550715227
 21
7.142867165635211
 31
0.0
  0
LINE
  5
F03F
330
EFF4
100
AcDbEntity
  8
0
  6
CONTINUOUS
100
AcDbLine
 10
10.86740379254057
 20
5.355182132890051
 30
0.0
 11
8.614382128446962
 21
7.608203796983664
 31
0.0
  0
LINE
  5
F040
330
EFF4
100
AcDbEntity
  8
0
  6
CONTINUOUS
100
AcDbLine
 10
10.3222513325975
 20
6.573853801913305
 30
0.0
 11
8.822564706178696
 21
8.073540428332114
 31
0.0
  0
LINE
  5
F041
330
EFF4
100
AcDbEntity
  8
0
  6
CONTINUOUS
100
AcDbLine
 10
9.777098872654436
 20
7.792525470936562
 30
0.0
 11
9.030747283910433
 21
8.538877059680566
 31
0.0
  0
ENDBLK
  5
F183
330
EFF4
100
AcDbEntity
  8
0
100
AcDbBlockEnd
  0
BLOCK
  5
F184
330
F042
100
AcDbEntity
  8
0
100
AcDbBlockBegin
  2
*X43
 70
     1
 10
0.0
 20
0.0
 30
0.0
  3
*X43
  1

  0
LINE
  5
F043
330
F042
100
AcDbEntity
  8
0
  6
CONTINUOUS
100
AcDbLine
 10
10.67292308101235
 20
8.445076852443387
 30
0.0
 11
10.99094622856022
 21
8.763099999991255
 31
0.0
  0
LINE
  5
F044
330
F042
100
AcDbEntity
  8
0
  6
CONTINUOUS
100
AcDbLine
 10
10.87250383178748
 20
7.971138394138331
 30
0.0
 11
11.6644654376404
 21
8.763099999991255
 31
0.0
  0
LINE
  5
F045
330
F042
100
AcDbEntity
  8
0
  6
CONTINUOUS
100
AcDbLine
 10
11.07208458256261
 20
7.497199935833273
 30
0.0
 11
12.12126590876355
 21
8.546381262034211
 31
0.0
  0
LINE
  5
F046
330
F042
100
AcDbEntity
  8
0
  6
CONTINUOUS
100
AcDbLine
 10
11.27166533333774
 20
7.023261477528216
 30
0.0
 11
12.32085164573666
 21
8.072447789927136
 31
0.0
  0
LINE
  5
F047
330
F042
100
AcDbEntity
  8
0
  6
CONTINUOUS
100
AcDbLine
 10
11.47124608411287
 20
6.549323019223158
 30
0.0
 11
12.52043738270977
 21
7.59851431782006
 31
0.0
  0
LINE
  5
F048
330
F042
100
AcDbEntity
  8
0
  6
CONTINUOUS
100
AcDbLine
 10
11.670826834888
 20
6.075384560918101
 30
0.0
 11
12.72002311968288
 21
7.124580845712984
 31
0.0
  0
LINE
  5
F049
330
F042
100
AcDbEntity
  8
0
  6
CONTINUOUS
100
AcDbLine
 10
11.87040758566313
 20
5.601446102613043
 30
0.0
 11
12.91960885665599
 21
6.650647373605907
 31
0.0
  0
LINE
  5
F04A
330
F042
100
AcDbEntity
  8
0
  6
CONTINUOUS
100
AcDbLine
 10
12.06998833643825
 20
5.127507644307986
 30
0.0
 11
13.1191945936291
 21
6.176713901498832
 31
0.0
  0
LINE
  5
F04B
330
F042
100
AcDbEntity
  8
0
  6
CONTINUOUS
100
AcDbLine
 10
12.26956908721338
 20
4.65356918600293
 30
0.0
 11
13.31878033060221
 21
5.702780429391757
 31
0.0
  0
LINE
  5
F04C
330
F042
100
AcDbEntity
  8
0
  6
CONTINUOUS
100
AcDbLine
 10
12.46914983798851
 20
4.179630727697873
 30
0.0
 11
13.51836606757532
 21
5.228846957284683
 31
0.0
  0
LINE
  5
F04D
330
F042
100
AcDbEntity
  8
0
  6
CONTINUOUS
100
AcDbLine
 10
12.66873058876364
 20
3.705692269392816
 30
0.0
 11
13.71795180454843
 21
4.754913485177607
 31
0.0
  0
LINE
  5
F04E
330
F042
100
AcDbEntity
  8
0
  6
CONTINUOUS
100
AcDbLine
 10
12.86831133953877
 20
3.231753811087759
 30
0.0
 11
13.91753754152154
 21
4.280980013070531
 31
0.0
  0
LINE
  5
F04F
330
F042
100
AcDbEntity
  8
0
  6
CONTINUOUS
100
AcDbLine
 10
13.0678920903139
 20
2.757815352782702
 30
0.0
 11
14.11712327849465
 21
3.807046540963456
 31
0.0
  0
LINE
  5
F050
330
F042
100
AcDbEntity
  8
0
  6
CONTINUOUS
100
AcDbLine
 10
13.26747284108903
 20
2.283876894477644
 30
0.0
 11
14.31670901546777
 21
3.333113068856379
 31
0.0
  0
LINE
  5
F051
330
F042
100
AcDbEntity
  8
0
  6
CONTINUOUS
100
AcDbLine
 10
16.36767838827179
 20
8.751678487061342
 30
0.0
 11
16.50332410898388
 21
8.887324207773432
 31
0.0
  0
LINE
  5
F052
330
F042
100
AcDbEntity
  8
0
  6
CONTINUOUS
100
AcDbLine
 10
15.96190732182191
 20
7.67238821153127
 30
0.0
 11
16.68735328004734
 21
8.397834169756699
 31
0.0
  0
LINE
  5
F053
330
F042
100
AcDbEntity
  8
0
  6
CONTINUOUS
100
AcDbLine
 10
15.55613625537202
 20
6.593097936001196
 30
0.0
 11
16.87138245111079
 21
7.908344131739965
 31
0.0
  0
LINE
  5
F054
330
F042
100
AcDbEntity
  8
0
  6
CONTINUOUS
100
AcDbLine
 10
15.15036518892213
 20
5.513807660471122
 30
0.0
 11
17.05541162217424
 21
7.418854093723231
 31
0.0
  0
LINE
  5
F055
330
F042
100
AcDbEntity
  8
0
  6
CONTINUOUS
100
AcDbLine
 10
14.74459412247225
 20
4.434517384941048
 30
0.0
 11
17.2394407932377
 21
6.929364055706499
 31
0.0
  0
LINE
  5
F056
330
F042
100
AcDbEntity
  8
0
  6
CONTINUOUS
100
AcDbLine
 10
14.33882305602236
 20
3.355227109410975
 30
0.0
 11
17.42346996430115
 21
6.439874017689766
 31
0.0
  0
LINE
  5
F057
330
F042
100
AcDbEntity
  8
0
  6
CONTINUOUS
100
AcDbLine
 10
13.46705359186416
 20
1.809938436172586
 30
0.0
 11
16.0819338255367
 21
4.424818669845129
 31
0.0
  0
LINE
  5
F058
330
F042
100
AcDbEntity
  8
0
  6
CONTINUOUS
100
AcDbLine
 10
16.63283254238972
 20
4.975717386698149
 30
0.0
 11
17.60749913536461
 21
5.950383979673033
 31
0.0
  0
LINE
  5
F059
330
F042
100
AcDbEntity
  8
0
  6
CONTINUOUS
100
AcDbLine
 10
13.66663434263929
 20
1.335999977867529
 30
0.0
 11
15.67604797733754
 21
3.345413612565779
 31
0.0
  0
LINE
  5
F05A
330
F042
100
AcDbEntity
  8
0
  6
CONTINUOUS
100
AcDbLine
 10
13.86621509341442
 20
0.8620615195624723
 30
0.0
 11
15.27016212913838
 21
2.26600855528643
 31
0.0
  0
LINE
  5
F05B
330
F042
100
AcDbEntity
  8
0
  6
CONTINUOUS
100
AcDbLine
 10
16.81682257348267
 20
4.486188208710908
 30
0.0
 11
17.79152830642806
 21
5.460893941656299
 31
0.0
  0
LINE
  5
F05C
330
F042
100
AcDbEntity
  8
0
  6
CONTINUOUS
100
AcDbLine
 10
17.00081260457561
 20
3.996659030723667
 30
0.0
 11
17.97555747749151
 21
4.971403903639565
 31
0.0
  0
LINE
  5
F05D
330
F042
100
AcDbEntity
  8
0
  6
CONTINUOUS
100
AcDbLine
 10
20.74362343514722
 20
8.412989070375462
 30
0.0
 11
21.09373436476302
 21
8.763099999991256
 31
0.0
  0
LINE
  5
F05E
330
F042
100
AcDbEntity
  8
0
  6
CONTINUOUS
100
AcDbLine
 10
20.25401257174777
 20
7.249858997895826
 30
0.0
 11
21.7672535738432
 21
8.763099999991255
 31
0.0
  0
LINE
  5
F05F
330
F042
100
AcDbEntity
  8
0
  6
CONTINUOUS
100
AcDbLine
 10
14.06579584418955
 20
0.3881230612574149
 30
0.0
 11
14.86427628093921
 21
1.186603498007082
 31
0.0
  0
LINE
  5
F060
330
F042
100
AcDbEntity
  8
0
  6
CONTINUOUS
100
AcDbLine
 10
14.26537659496467
 20
-0.0858153970476412
 30
0.0
 11
14.45839043274005
 21
0.1071984407277329
 31
0.0
  0
LINE
  5
F061
330
F042
100
AcDbEntity
  8
0
  6
CONTINUOUS
100
AcDbLine
 10
17.18480263566856
 20
3.507129852736426
 30
0.0
 11
18.15958664855496
 21
4.481913865622833
 31
0.0
  0
LINE
  5
F062
330
F042
100
AcDbEntity
  8
0
  6
CONTINUOUS
100
AcDbLine
 10
17.3687926667615
 20
3.017600674749186
 30
0.0
 11
18.34361581961842
 21
3.9924238276061
 31
0.0
  0
LINE
  5
F063
330
F042
100
AcDbEntity
  8
0
  6
CONTINUOUS
100
AcDbLine
 10
19.76440170834832
 20
6.086728925416191
 30
0.0
 11
22.33924590259489
 21
8.661573119662755
 31
0.0
  0
LINE
  5
F064
330
F042
100
AcDbEntity
  8
0
  6
CONTINUOUS
100
AcDbLine
 10
19.27479084494887
 20
4.923598852936555
 30
0.0
 11
21.84929622842713
 21
7.498104236414807
 31
0.0
  0
LINE
  5
F065
330
F042
100
AcDbEntity
  8
0
  6
CONTINUOUS
100
AcDbLine
 10
17.55278269785445
 20
2.528071496761945
 30
0.0
 11
18.52764499068187
 21
3.502933789589366
 31
0.0
  0
LINE
  5
F066
330
F042
100
AcDbEntity
  8
0
  6
CONTINUOUS
100
AcDbLine
 10
18.78517998154942
 20
3.760468780456919
 30
0.0
 11
21.35934655425936
 21
6.33463535316686
 31
0.0
  0
LINE
  5
F067
330
F042
100
AcDbEntity
  8
0
  6
CONTINUOUS
100
AcDbLine
 10
17.73677272894739
 20
2.038542318774704
 30
0.0
 11
20.8693968800916
 21
5.171166469918914
 31
0.0
  0
LINE
  5
F068
330
F042
100
AcDbEntity
  8
0
  6
CONTINUOUS
100
AcDbLine
 10
17.92076276004034
 20
1.549013140787464
 30
0.0
 11
20.37944720592384
 21
4.007697586670968
 31
0.0
  0
LINE
  5
F069
330
F042
100
AcDbEntity
  8
0
  6
CONTINUOUS
100
AcDbLine
 10
18.10475279113329
 20
1.059483962800223
 30
0.0
 11
19.88949753175608
 21
2.84422870342302
 31
0.0
  0
LINE
  5
F06A
330
F042
100
AcDbEntity
  8
0
  6
CONTINUOUS
100
AcDbLine
 10
18.28874282222623
 20
0.5699547848129822
 30
0.0
 11
19.39954785758832
 21
1.680759820175074
 31
0.0
  0
LINE
  5
F06B
330
F042
100
AcDbEntity
  8
0
  6
CONTINUOUS
100
AcDbLine
 10
18.47273285331918
 20
0.0804256068257416
 30
0.0
 11
18.90959818342056
 21
0.517290936927127
 31
0.0
  0
LINE
  5
F06C
330
F042
100
AcDbEntity
  8
0
  6
CONTINUOUS
100
AcDbLine
 10
14.3590401358224
 20
-0.1570118376323384
 30
0.0
 11
14.24903296539946
 21
-0.0470046672093929
 31
0.0
  0
LINE
  5
F06D
330
F042
100
AcDbEntity
  8
0
  6
CONTINUOUS
100
AcDbLine
 10
14.54309291258661
 20
0.332454594683643
 30
0.0
 11
13.75908329123172
 21
1.116464216038529
 31
0.0
  0
LINE
  5
F06E
330
F042
100
AcDbEntity
  8
0
  6
CONTINUOUS
100
AcDbLine
 10
14.72714568935081
 20
0.8219210269996244
 30
0.0
 11
13.26913361706399
 21
2.27993309928645
 31
0.0
  0
LINE
  5
F06F
330
F042
100
AcDbEntity
  8
0
  6
CONTINUOUS
100
AcDbLine
 10
14.91119846611502
 20
1.311387459315606
 30
0.0
 11
12.77918394289625
 21
3.443401982534371
 31
0.0
  0
LINE
  5
F070
330
F042
100
AcDbEntity
  8
0
  6
CONTINUOUS
100
AcDbLine
 10
15.09525124287922
 20
1.800853891631587
 30
0.0
 11
12.28923426872852
 21
4.606870865782293
 31
0.0
  0
LINE
  5
F071
330
F042
100
AcDbEntity
  8
0
  6
CONTINUOUS
100
AcDbLine
 10
15.27930401964343
 20
2.290320323947569
 30
0.0
 11
11.79928459456078
 21
5.770339749030213
 31
0.0
  0
LINE
  5
F072
330
F042
100
AcDbEntity
  8
0
  6
CONTINUOUS
100
AcDbLine
 10
15.46335679640763
 20
2.77978675626355
 30
0.0
 11
14.48885470994921
 21
3.754288842721972
 31
0.0
  0
LINE
  5
F073
330
F042
100
AcDbEntity
  8
0
  6
CONTINUOUS
100
AcDbLine
 10
13.88507249233704
 20
4.358071060334137
 30
0.0
 11
11.30933492039305
 21
6.933808632278135
 31
0.0
  0
LINE
  5
F074
330
F042
100
AcDbEntity
  8
0
  6
CONTINUOUS
100
AcDbLine
 10
18.75840522805855
 20
0.1582575336928151
 30
0.0
 11
18.25383727664818
 21
0.6628254851031863
 31
0.0
  0
LINE
  5
F075
330
F042
100
AcDbEntity
  8
0
  6
CONTINUOUS
100
AcDbLine
 10
15.64740957317184
 20
3.269253188579531
 30
0.0
 11
14.67288388101266
 21
4.243778880738705
 31
0.0
  0
LINE
  5
F076
330
F042
100
AcDbEntity
  8
0
  6
CONTINUOUS
100
AcDbLine
 10
13.39509276772158
 20
5.521569994029786
 30
0.0
 11
10.81938524622531
 21
8.097277515526056
 31
0.0
  0
LINE
  5
F077
330
F042
100
AcDbEntity
  8
0
  6
CONTINUOUS
100
AcDbLine
 10
18.95798597883369
 20
0.6321959919978686
 30
0.0
 11
17.84825644852853
 21
1.741925522303024
 31
0.0
  0
LINE
  5
F078
330
F042
100
AcDbEntity
  8
0
  6
CONTINUOUS
100
AcDbLine
 10
19.15756672960882
 20
1.106134450302922
 30
0.0
 11
17.44267562040888
 21
2.821025559502861
 31
0.0
  0
LINE
  5
F079
330
F042
100
AcDbEntity
  8
0
  6
CONTINUOUS
100
AcDbLine
 10
15.83146234993604
 20
3.758719620895513
 30
0.0
 11
14.85691305207612
 21
4.733268918755439
 31
0.0
  0
LINE
  5
F07A
330
F042
100
AcDbEntity
  8
0
  6
CONTINUOUS
100
AcDbLine
 10
16.01551512670025
 20
4.248186053211494
 30
0.0
 11
15.04094222313957
 21
5.222758956772172
 31
0.0
  0
LINE
  5
F07B
330
F042
100
AcDbEntity
  8
0
  6
CONTINUOUS
100
AcDbLine
 10
12.90511304310612
 20
6.685068927725435
 30
0.0
 11
10.8270819708403
 21
8.763099999991255
 31
0.0
  0
LINE
  5
F07C
330
F042
100
AcDbEntity
  8
0
  6
CONTINUOUS
100
AcDbLine
 10
12.41513331849066
 20
7.848567861421083
 30
0.0
 11
11.50060117992049
 21
8.763099999991255
 31
0.0
  0
LINE
  5
F07D
330
F042
100
AcDbEntity
  8
0
  6
CONTINUOUS
100
AcDbLine
 10
19.35714748038395
 20
1.580072908607975
 30
0.0
 11
17.03709479228923
 21
3.900125596702697
 31
0.0
  0
LINE
  5
F07E
330
F042
100
AcDbEntity
  8
0
  6
CONTINUOUS
100
AcDbLine
 10
19.55672823115909
 20
2.054011366913028
 30
0.0
 11
16.63151396416958
 21
4.979225633902534
 31
0.0
  0
LINE
  5
F07F
330
F042
100
AcDbEntity
  8
0
  6
CONTINUOUS
100
AcDbLine
 10
16.19956790346445
 20
4.737652485527476
 30
0.0
 11
15.22497139420302
 21
5.712248994788904
 31
0.0
  0
LINE
  5
F080
330
F042
100
AcDbEntity
  8
0
  6
CONTINUOUS
100
AcDbLine
 10
16.38362068022866
 20
5.227118917843457
 30
0.0
 11
15.40900056526648
 21
6.201739032805637
 31
0.0
  0
LINE
  5
F081
330
F042
100
AcDbEntity
  8
0
  6
CONTINUOUS
100
AcDbLine
 10
19.75630898193422
 20
2.527949825218081
 30
0.0
 11
18.70774536448286
 21
3.576513442669441
 31
0.0
  0
LINE
  5
F082
330
F042
100
AcDbEntity
  8
0
  6
CONTINUOUS
100
AcDbLine
 10
19.95588973270936
 20
3.001888283523134
 30
0.0
 11
18.90726987211446
 21
4.050508144118028
 31
0.0
  0
LINE
  5
F083
330
F042
100
AcDbEntity
  8
0
  6
CONTINUOUS
100
AcDbLine
 10
20.15547048348449
 20
3.475826741828186
 30
0.0
 11
19.10679437974606
 21
4.524502845566614
 31
0.0
  0
LINE
  5
F084
330
F042
100
AcDbEntity
  8
0
  6
CONTINUOUS
100
AcDbLine
 10
20.35505123425962
 20
3.94976520013324
 30
0.0
 11
19.30631888737766
 21
4.998497547015201
 31
0.0
  0
LINE
  5
F085
330
F042
100
AcDbEntity
  8
0
  6
CONTINUOUS
100
AcDbLine
 10
20.55463198503475
 20
4.423703658438292
 30
0.0
 11
19.50584339500926
 21
5.472492248463787
 31
0.0
  0
LINE
  5
F086
330
F042
100
AcDbEntity
  8
0
  6
CONTINUOUS
100
AcDbLine
 10
18.37481191085755
 20
3.909446896294752
 30
0.0
 11
15.59302973632993
 21
6.691229070822371
 31
0.0
  0
LINE
  5
F087
330
F042
100
AcDbEntity
  8
0
  6
CONTINUOUS
100
AcDbLine
 10
17.96904084440766
 20
4.988737171824825
 30
0.0
 11
15.77705890739338
 21
7.180719108839104
 31
0.0
  0
LINE
  5
F088
330
F042
100
AcDbEntity
  8
0
  6
CONTINUOUS
100
AcDbLine
 10
17.56326977795777
 20
6.068027447354899
 30
0.0
 11
15.96108807845684
 21
7.670209146855838
 31
0.0
  0
LINE
  5
F089
330
F042
100
AcDbEntity
  8
0
  6
CONTINUOUS
100
AcDbLine
 10
17.15749871150789
 20
7.147317722884972
 30
0.0
 11
16.14511724952029
 21
8.15969918487257
 31
0.0
  0
LINE
  5
F08A
330
F042
100
AcDbEntity
  8
0
  6
CONTINUOUS
100
AcDbLine
 10
16.751727645058
 20
8.226607998415046
 30
0.0
 11
16.32914642058374
 21
8.649189222889303
 31
0.0
  0
LINE
  5
F08B
330
F042
100
AcDbEntity
  8
0
  6
CONTINUOUS
100
AcDbLine
 10
20.75421273580989
 20
4.897642116743345
 30
0.0
 11
19.70536790264086
 21
5.946486949912374
 31
0.0
  0
LINE
  5
F08C
330
F042
100
AcDbEntity
  8
0
  6
CONTINUOUS
100
AcDbLine
 10
20.95379348658502
 20
5.371580575048398
 30
0.0
 11
19.90489241027246
 21
6.42048165136096
 31
0.0
  0
LINE
  5
F08D
330
F042
100
AcDbEntity
  8
0
  6
CONTINUOUS
100
AcDbLine
 10
21.15337423736015
 20
5.845519033353452
 30
0.0
 11
20.10441691790406
 21
6.894476352809547
 31
0.0
  0
LINE
  5
F08E
330
F042
100
AcDbEntity
  8
0
  6
CONTINUOUS
100
AcDbLine
 10
21.35295498813529
 20
6.319457491658505
 30
0.0
 11
20.30394142553566
 21
7.368471054258134
 31
0.0
  0
LINE
  5
F08F
330
F042
100
AcDbEntity
  8
0
  6
CONTINUOUS
100
AcDbLine
 10
21.55253573891042
 20
6.793395949963558
 30
0.0
 11
20.50346593316726
 21
7.842465755706721
 31
0.0
  0
LINE
  5
F090
330
F042
100
AcDbEntity
  8
0
  6
CONTINUOUS
100
AcDbLine
 10
21.75211648968556
 20
7.267334408268612
 30
0.0
 11
20.70299044079886
 21
8.316460457155308
 31
0.0
  0
LINE
  5
F091
330
F042
100
AcDbEntity
  8
0
  6
CONTINUOUS
100
AcDbLine
 10
21.95169724046069
 20
7.741272866573663
 30
0.0
 11
20.9298701070431
 21
8.763099999991256
 31
0.0
  0
LINE
  5
F092
330
F042
100
AcDbEntity
  8
0
  6
CONTINUOUS
100
AcDbLine
 10
22.15127799123582
 20
8.215211324878716
 30
0.0
 11
21.60338931612328
 21
8.763099999991256
 31
0.0
  0
LINE
  5
F093
330
F042
100
AcDbEntity
  8
0
  6
CONTINUOUS
100
AcDbLine
 10
22.35085874201096
 20
8.689149783183769
 30
0.0
 11
22.27690852520347
 21
8.763099999991255
 31
0.0
  0
ENDBLK
  5
F185
330
F042
100
AcDbEntity
  8
0
100
AcDbBlockEnd
  0
BLOCK
  5
F186
330
F094
100
AcDbEntity
  8
0
100
AcDbBlockBegin
  2
*X44
 70
     1
 10
0.0
 20
0.0
 30
0.0
  3
*X44
  1

  0
LINE
  5
F095
330
F094
100
AcDbEntity
  8
0
  6
CONTINUOUS
100
AcDbLine
 10
23.19462913593892
 20
8.169917934846424
 30
0.0
 11
23.70775465517246
 21
8.683043454079957
 31
0.0
  0
LINE
  5
F096
330
F094
100
AcDbEntity
  8
0
  6
CONTINUOUS
100
AcDbLine
 10
22.64923161835078
 20
6.951001208178088
 30
0.0
 11
23.9159364069932
 21
8.217705996820516
 31
0.0
  0
LINE
  5
F097
330
F094
100
AcDbEntity
  8
0
  6
CONTINUOUS
100
AcDbLine
 10
22.10383410076263
 20
5.732084481509751
 30
0.0
 11
24.12411815881395
 21
7.752368539561078
 31
0.0
  0
LINE
  5
F098
330
F094
100
AcDbEntity
  8
0
  6
CONTINUOUS
100
AcDbLine
 10
21.55843658317447
 20
4.513167754841414
 30
0.0
 11
24.3322999106347
 21
7.287031082301639
 31
0.0
  0
LINE
  5
F099
330
F094
100
AcDbEntity
  8
0
  6
CONTINUOUS
100
AcDbLine
 10
21.01303906558632
 20
3.294251028173077
 30
0.0
 11
24.54048166245544
 21
6.821693625042199
 31
0.0
  0
LINE
  5
F09A
330
F094
100
AcDbEntity
  8
0
  6
CONTINUOUS
100
AcDbLine
 10
20.46764154799817
 20
2.075334301504738
 30
0.0
 11
23.28571549467848
 21
4.89340824818505
 31
0.0
  0
LINE
  5
F09B
330
F094
100
AcDbEntity
  8
0
  6
CONTINUOUS
100
AcDbLine
 10
19.92224403041002
 20
0.8564175748364002
 30
0.0
 11
22.74075865492779
 21
3.674932199354171
 31
0.0
  0
LINE
  5
F09C
330
F094
100
AcDbEntity
  8
0
  6
CONTINUOUS
100
AcDbLine
 10
23.67305085490148
 20
5.280743608408048
 30
0.0
 11
24.74866341427619
 21
6.356356167782759
 31
0.0
  0
LINE
  5
F09D
330
F094
100
AcDbEntity
  8
0
  6
CONTINUOUS
100
AcDbLine
 10
23.88118970842314
 20
4.815363252849522
 30
0.0
 11
24.95684516609694
 21
5.89101871052332
 31
0.0
  0
LINE
  5
F09E
330
F094
100
AcDbEntity
  8
0
  6
CONTINUOUS
100
AcDbLine
 10
19.73925852647308
 20
-0.0000871381807288
 30
0.0
 11
23.4103456646501
 21
3.670999999996297
 31
0.0
  0
LINE
  5
F09F
330
F094
100
AcDbEntity
  8
0
  6
CONTINUOUS
100
AcDbLine
 10
24.0893285619448
 20
4.349982897290997
 30
0.0
 11
25.16502691791769
 21
5.42568125326388
 31
0.0
  0
LINE
  5
F0A0
330
F094
100
AcDbEntity
  8
0
  6
CONTINUOUS
100
AcDbLine
 10
20.41282099582748
 20
-0.0000438779065108
 30
0.0
 11
21.64944178675636
 21
1.236576913022366
 31
0.0
  0
LINE
  5
F0A1
330
F094
100
AcDbEntity
  8
0
  6
CONTINUOUS
100
AcDbLine
 10
22.78126487373161
 20
2.36839999999762
 30
0.0
 11
24.08386487373029
 21
3.670999999996297
 31
0.0
  0
LINE
  5
F0A2
330
F094
100
AcDbEntity
  8
0
  6
CONTINUOUS
100
AcDbLine
 10
24.29746741546646
 20
3.884602541732471
 30
0.0
 11
25.37320866973843
 21
4.960343796004441
 31
0.0
  0
LINE
  5
F0A3
330
F094
100
AcDbEntity
  8
0
  6
CONTINUOUS
100
AcDbLine
 10
21.08638346518189
 20
-0.0000006176322938
 30
0.0
 11
21.10379033335899
 21
0.0174062505448083
 31
0.0
  0
LINE
  5
F0A4
330
F094
100
AcDbEntity
  8
0
  6
CONTINUOUS
100
AcDbLine
 10
23.4547840828118
 20
2.36839999999762
 30
0.0
 11
25.58139042155918
 21
4.495006338745002
 31
0.0
  0
LINE
  5
F0A5
330
F094
100
AcDbEntity
  8
0
  6
CONTINUOUS
100
AcDbLine
 10
29.30199999996933
 20
8.215615917155148
 30
0.0
 11
29.84948408280543
 21
8.763099999991255
 31
0.0
  0
LINE
  5
F0A6
330
F094
100
AcDbEntity
  8
0
  6
CONTINUOUS
100
AcDbLine
 10
24.12830329189199
 20
2.36839999999762
 30
0.0
 11
25.78957217337993
 21
4.029668881485562
 31
0.0
  0
LINE
  5
F0A7
330
F094
100
AcDbEntity
  8
0
  6
CONTINUOUS
100
AcDbLine
 10
29.30199999996933
 20
7.54209670807496
 30
0.0
 11
30.52300329188562
 21
8.763099999991255
 31
0.0
  0
LINE
  5
F0A8
330
F094
100
AcDbEntity
  8
0
  6
CONTINUOUS
100
AcDbLine
 10
24.80182250097217
 20
2.36839999999762
 30
0.0
 11
25.99775392520067
 21
3.564331424226122
 31
0.0
  0
LINE
  5
F0A9
330
F094
100
AcDbEntity
  8
0
  6
CONTINUOUS
100
AcDbLine
 10
29.30199999996933
 20
6.868577498994774
 30
0.0
 11
30.74199999996926
 21
8.308577498994712
 31
0.0
  0
LINE
  5
F0AA
330
F094
100
AcDbEntity
  8
0
  6
CONTINUOUS
100
AcDbLine
 10
25.13028238392013
 20
2.023340673865392
 30
0.0
 11
26.20593567702142
 21
3.098993966966683
 31
0.0
  0
LINE
  5
F0AB
330
F094
100
AcDbEntity
  8
0
  6
CONTINUOUS
100
AcDbLine
 10
25.33838066033617
 20
1.557919741201244
 30
0.0
 11
26.41411742884217
 21
2.633656509707244
 31
0.0
  0
LINE
  5
F0AC
330
F094
100
AcDbEntity
  8
0
  6
CONTINUOUS
100
AcDbLine
 10
25.54647893675221
 20
1.092498808537098
 30
0.0
 11
26.62229918066291
 21
2.168319052447804
 31
0.0
  0
LINE
  5
F0AD
330
F094
100
AcDbEntity
  8
0
  6
CONTINUOUS
100
AcDbLine
 10
25.75457721316825
 20
0.62707787587295
 30
0.0
 11
26.83048093248366
 21
1.702981595188365
 31
0.0
  0
LINE
  5
F0AE
330
F094
100
AcDbEntity
  8
0
  6
CONTINUOUS
100
AcDbLine
 10
29.30199999996933
 20
6.195058289914587
 30
0.0
 11
30.74199999996926
 21
7.635058289914522
 31
0.0
  0
LINE
  5
F0AF
330
F094
100
AcDbEntity
  8
0
  6
CONTINUOUS
100
AcDbLine
 10
29.30199999996933
 20
5.521539080834401
 30
0.0
 11
30.74199999996926
 21
6.961539080834331
 31
0.0
  0
LINE
  5
F0B0
330
F094
100
AcDbEntity
  8
0
  6
CONTINUOUS
100
AcDbLine
 10
29.30199999996933
 20
4.848019871754214
 30
0.0
 11
30.74199999996925
 21
6.288019871754143
 31
0.0
  0
LINE
  5
F0B1
330
F094
100
AcDbEntity
  8
0
  6
CONTINUOUS
100
AcDbLine
 10
29.30199999996933
 20
4.174500662674028
 30
0.0
 11
30.74199999996925
 21
5.614500662673953
 31
0.0
  0
LINE
  5
F0B2
330
F094
100
AcDbEntity
  8
0
  6
CONTINUOUS
100
AcDbLine
 10
25.96267548958429
 20
0.1616569432088024
 30
0.0
 11
27.18411854636669
 21
1.383099999991207
 31
0.0
  0
LINE
  5
F0B3
330
F094
100
AcDbEntity
  8
0
  6
CONTINUOUS
100
AcDbLine
 10
29.30199999996933
 20
3.500981453593841
 30
0.0
 11
30.74199999996925
 21
4.940981453593762
 31
0.0
  0
LINE
  5
F0B4
330
F094
100
AcDbEntity
  8
0
  6
CONTINUOUS
100
AcDbLine
 10
26.50763775544691
 20
0.0330999999912356
 30
0.0
 11
27.85763775544689
 21
1.383099999991223
 31
0.0
  0
LINE
  5
F0B5
330
F094
100
AcDbEntity
  8
0
  6
CONTINUOUS
100
AcDbLine
 10
29.30199999996933
 20
2.827462244513656
 30
0.0
 11
30.74199999996925
 21
4.267462244513574
 31
0.0
  0
LINE
  5
F0B6
330
F094
100
AcDbEntity
  8
0
  6
CONTINUOUS
100
AcDbLine
 10
27.18115696452709
 20
0.0330999999912356
 30
0.0
 11
28.55073879889363
 21
1.402681834357775
 31
0.0
  0
LINE
  5
F0B7
330
F094
100
AcDbEntity
  8
0
  6
CONTINUOUS
100
AcDbLine
 10
29.28241816560272
 20
2.134361201066866
 30
0.0
 11
30.74199999996924
 21
3.593943035433383
 31
0.0
  0
LINE
  5
F0B8
330
F094
100
AcDbEntity
  8
0
  6
CONTINUOUS
100
AcDbLine
 10
27.85467617360728
 20
0.0330999999912356
 30
0.0
 11
30.74199999996924
 21
2.920423826353195
 31
0.0
  0
LINE
  5
F0B9
330
F094
100
AcDbEntity
  8
0
  6
CONTINUOUS
100
AcDbLine
 10
28.53897559587887
 20
0.0438802131826428
 30
0.0
 11
30.73121978677781
 21
2.236124404081585
 31
0.0
  0
LINE
  5
F0BA
330
F094
100
AcDbEntity
  8
0
  6
CONTINUOUS
100
AcDbLine
 10
29.45140055588722
 20
0.2827859641107988
 30
0.0
 11
30.49231403584965
 21
1.323699444073236
 31
0.0
  0
LINE
  5
F0BB
330
F094
100
AcDbEntity
  8
0
  6
CONTINUOUS
100
AcDbLine
 10
19.59027867740337
 20
-0.0000967065718083
 30
0.0
 11
19.55485265190471
 21
0.035329318926844
 31
0.0
  0
LINE
  5
F0BC
330
F094
100
AcDbEntity
  8
0
  6
CONTINUOUS
100
AcDbLine
 10
20.26375463176586
 20
-0.0000534518541091
 30
0.0
 11
19.76305575737534
 21
0.5006454225364014
 31
0.0
  0
LINE
  5
F0BD
330
F094
100
AcDbEntity
  8
0
  6
CONTINUOUS
100
AcDbLine
 10
20.93723058612834
 20
-0.0000101971364099
 30
0.0
 11
19.97125886284597
 21
0.965961526145958
 31
0.0
  0
LINE
  5
F0BE
330
F094
100
AcDbEntity
  8
0
  6
CONTINUOUS
100
AcDbLine
 10
21.25514828313686
 20
0.355591314935257
 30
0.0
 11
20.1794619683166
 21
1.431277629755512
 31
0.0
  0
LINE
  5
F0BF
330
F094
100
AcDbEntity
  8
0
  6
CONTINUOUS
100
AcDbLine
 10
21.46338838394921
 20
0.8208704232030986
 30
0.0
 11
20.38766507378723
 21
1.896593733365069
 31
0.0
  0
LINE
  5
F0C0
330
F094
100
AcDbEntity
  8
0
  6
CONTINUOUS
100
AcDbLine
 10
21.67162848476155
 20
1.28614953147094
 30
0.0
 11
20.59586817925786
 21
2.361909836974626
 31
0.0
  0
LINE
  5
F0C1
330
F094
100
AcDbEntity
  8
0
  6
CONTINUOUS
100
AcDbLine
 10
21.8798685855739
 20
1.751428639738782
 30
0.0
 11
20.80407128472849
 21
2.827225940584183
 31
0.0
  0
LINE
  5
F0C2
330
F094
100
AcDbEntity
  8
0
  6
CONTINUOUS
100
AcDbLine
 10
22.08810868638624
 20
2.216707748006623
 30
0.0
 11
21.01227439019912
 21
3.292542044193739
 31
0.0
  0
LINE
  5
F0C3
330
F094
100
AcDbEntity
  8
0
  6
CONTINUOUS
100
AcDbLine
 10
22.60993564347543
 20
2.36839999999762
 30
0.0
 11
21.22047749566975
 21
3.757858147803296
 31
0.0
  0
LINE
  5
F0C4
330
F094
100
AcDbEntity
  8
0
  6
CONTINUOUS
100
AcDbLine
 10
23.28345485255561
 20
2.36839999999762
 30
0.0
 11
21.42868060114038
 21
4.223174251412853
 31
0.0
  0
LINE
  5
F0C5
330
F094
100
AcDbEntity
  8
0
  6
CONTINUOUS
100
AcDbLine
 10
26.29227406164219
 20
0.0330999999912356
 30
0.0
 11
25.80009199592872
 21
0.5252820657046957
 31
0.0
  0
LINE
  5
F0C6
330
F094
100
AcDbEntity
  8
0
  6
CONTINUOUS
100
AcDbLine
 10
23.9569740616358
 20
2.36839999999762
 30
0.0
 11
21.63688370661101
 21
4.688490355022409
 31
0.0
  0
LINE
  5
F0C7
330
F094
100
AcDbEntity
  8
0
  6
CONTINUOUS
100
AcDbLine
 10
26.96579327072237
 20
0.0330999999912356
 30
0.0
 11
25.2554132311971
 21
1.743480039516508
 31
0.0
  0
LINE
  5
F0C8
330
F094
100
AcDbEntity
  8
0
  6
CONTINUOUS
100
AcDbLine
 10
24.63049327071599
 20
2.36839999999762
 30
0.0
 11
23.32789327071731
 21
3.670999999996297
 31
0.0
  0
LINE
  5
F0C9
330
F094
100
AcDbEntity
  8
0
  6
CONTINUOUS
100
AcDbLine
 10
22.92098674744635
 20
4.077906523267254
 30
0.0
 11
21.84508681208164
 21
5.153806458631966
 31
0.0
  0
LINE
  5
F0CA
330
F094
100
AcDbEntity
  8
0
  6
CONTINUOUS
100
AcDbLine
 10
27.63931247980256
 20
0.0330999999912356
 30
0.0
 11
24.0014124797975
 21
3.670999999996297
 31
0.0
  0
LINE
  5
F0CB
330
F094
100
AcDbEntity
  8
0
  6
CONTINUOUS
100
AcDbLine
 10
23.129125600968
 20
4.5432868788258
 30
0.0
 11
22.05328991755227
 21
5.619122562241522
 31
0.0
  0
LINE
  5
F0CC
330
F094
100
AcDbEntity
  8
0
  6
CONTINUOUS
100
AcDbLine
 10
28.31283168888275
 20
0.0330999999912356
 30
0.0
 11
24.16488385994816
 21
4.181047828925828
 31
0.0
  0
LINE
  5
F0CD
330
F094
100
AcDbEntity
  8
0
  6
CONTINUOUS
100
AcDbLine
 10
23.33726445448964
 20
5.008667234384345
 30
0.0
 11
22.2614930230229
 21
6.084438665851079
 31
0.0
  0
LINE
  5
F0CE
330
F094
100
AcDbEntity
  8
0
  6
CONTINUOUS
100
AcDbLine
 10
28.92085740005492
 20
0.0985934978992438
 30
0.0
 11
27.63635089796295
 21
1.383099999991217
 31
0.0
  0
LINE
  5
F0CF
330
F094
100
AcDbEntity
  8
0
  6
CONTINUOUS
100
AcDbLine
 10
26.43704649509776
 20
2.582404402856405
 30
0.0
 11
23.61992702019732
 21
5.399523877756844
 31
0.0
  0
LINE
  5
F0D0
330
F094
100
AcDbEntity
  8
0
  6
CONTINUOUS
100
AcDbLine
 10
23.54540330801128
 20
5.47404758994289
 30
0.0
 11
22.46969612849353
 21
6.549754769460635
 31
0.0
  0
LINE
  5
F0D1
330
F094
100
AcDbEntity
  8
0
  6
CONTINUOUS
100
AcDbLine
 10
29.42225615078443
 20
0.2707139562499279
 30
0.0
 11
28.30987010704312
 21
1.383099999991234
 31
0.0
  0
LINE
  5
F0D2
330
F094
100
AcDbEntity
  8
0
  6
CONTINUOUS
100
AcDbLine
 10
25.89179548232307
 20
3.801174624711282
 30
0.0
 11
22.67789923396416
 21
7.015070873070191
 31
0.0
  0
LINE
  5
F0D3
330
F094
100
AcDbEntity
  8
0
  6
CONTINUOUS
100
AcDbLine
 10
29.83624534690007
 20
0.5302439692144705
 30
0.0
 11
28.85811781497101
 21
1.508371501143527
 31
0.0
  0
LINE
  5
F0D4
330
F094
100
AcDbEntity
  8
0
  6
CONTINUOUS
100
AcDbLine
 10
25.34654446954838
 20
5.01994484656616
 30
0.0
 11
22.88610233943479
 21
7.480386976679748
 31
0.0
  0
LINE
  5
F0D5
330
F094
100
AcDbEntity
  8
0
  6
CONTINUOUS
100
AcDbLine
 10
30.17865975401872
 20
0.8613487711760022
 30
0.0
 11
29.18888744090175
 21
1.851121084292977
 31
0.0
  0
LINE
  5
F0D6
330
F094
100
AcDbEntity
  8
0
  6
CONTINUOUS
100
AcDbLine
 10
24.80129345677369
 20
6.238715068421037
 30
0.0
 11
23.09430544490542
 21
7.945703080289305
 31
0.0
  0
LINE
  5
F0D7
330
F094
100
AcDbEntity
  8
0
  6
CONTINUOUS
100
AcDbLine
 10
30.45496647202376
 20
1.258561262251155
 30
0.0
 11
29.30199999996933
 21
2.411527734305588
 31
0.0
  0
LINE
  5
F0D8
330
F094
100
AcDbEntity
  8
0
  6
CONTINUOUS
100
AcDbLine
 10
24.256042443999
 20
7.457485290275915
 30
0.0
 11
23.30250855037605
 21
8.411019183898862
 31
0.0
  0
LINE
  5
F0D9
330
F094
100
AcDbEntity
  8
0
  6
CONTINUOUS
100
AcDbLine
 10
30.64868582078271
 20
1.738361122572387
 30
0.0
 11
29.30199999996933
 21
3.085046943385775
 31
0.0
  0
LINE
  5
F0DA
330
F094
100
AcDbEntity
  8
0
  6
CONTINUOUS
100
AcDbLine
 10
23.71079143122431
 20
8.676255512130794
 30
0.0
 11
23.51071165584668
 21
8.876335287508416
 31
0.0
  0
LINE
  5
F0DB
330
F094
100
AcDbEntity
  8
0
  6
CONTINUOUS
100
AcDbLine
 10
30.73802122914428
 20
2.322544923291007
 30
0.0
 11
29.30199999996933
 21
3.758566152465961
 31
0.0
  0
LINE
  5
F0DC
330
F094
100
AcDbEntity
  8
0
  6
CONTINUOUS
100
AcDbLine
 10
30.74199999996924
 20
2.992085361546236
 30
0.0
 11
29.30199999996933
 21
4.432085361546148
 31
0.0
  0
LINE
  5
F0DD
330
F094
100
AcDbEntity
  8
0
  6
CONTINUOUS
100
AcDbLine
 10
30.74199999996924
 20
3.665604570626419
 30
0.0
 11
29.30199999996933
 21
5.105604570626333
 31
0.0
  0
LINE
  5
F0DE
330
F094
100
AcDbEntity
  8
0
  6
CONTINUOUS
100
AcDbLine
 10
30.74199999996925
 20
4.339123779706602
 30
0.0
 11
29.30199999996933
 21
5.77912377970652
 31
0.0
  0
LINE
  5
F0DF
330
F094
100
AcDbEntity
  8
0
  6
CONTINUOUS
100
AcDbLine
 10
30.74199999996925
 20
5.012642988786785
 30
0.0
 11
29.30199999996933
 21
6.452642988786707
 31
0.0
  0
LINE
  5
F0E0
330
F094
100
AcDbEntity
  8
0
  6
CONTINUOUS
100
AcDbLine
 10
30.74199999996925
 20
5.68616219786697
 30
0.0
 11
29.30199999996933
 21
7.126162197866894
 31
0.0
  0
LINE
  5
F0E1
330
F094
100
AcDbEntity
  8
0
  6
CONTINUOUS
100
AcDbLine
 10
30.74199999996925
 20
6.359681406947153
 30
0.0
 11
29.30199999996933
 21
7.799681406947081
 31
0.0
  0
LINE
  5
F0E2
330
F094
100
AcDbEntity
  8
0
  6
CONTINUOUS
100
AcDbLine
 10
30.74199999996926
 20
7.033200616027337
 30
0.0
 11
29.30199999996933
 21
8.473200616027269
 31
0.0
  0
LINE
  5
F0E3
330
F094
100
AcDbEntity
  8
0
  6
CONTINUOUS
100
AcDbLine
 10
30.74199999996926
 20
7.706719825107518
 30
0.0
 11
29.68561982508552
 21
8.763099999991255
 31
0.0
  0
LINE
  5
F0E4
330
F094
100
AcDbEntity
  8
0
  6
CONTINUOUS
100
AcDbLine
 10
30.74199999996926
 20
8.380239034187703
 30
0.0
 11
30.35913903416571
 21
8.763099999991255
 31
0.0
  0
ENDBLK
  5
F187
330
F094
100
AcDbEntity
  8
0
100
AcDbBlockEnd
  0
BLOCK
  5
F188
330
F0E5
100
AcDbEntity
  8
0
100
AcDbBlockBegin
  2
*X45
 70
     1
 10
0.0
 20
0.0
 30
0.0
  3
*X45
  1

  0
LINE
  5
F0E6
330
F0E5
100
AcDbEntity
  8
0
  6
CONTINUOUS
100
AcDbLine
 10
31.64199999996833
 20
8.535058289913598
 30
0.0
 11
31.87004171004599
 21
8.763099999991255
 31
0.0
  0
LINE
  5
F0E7
330
F0E5
100
AcDbEntity
  8
0
  6
CONTINUOUS
100
AcDbLine
 10
31.64199999996833
 20
7.861539080833412
 30
0.0
 11
32.54356091912618
 21
8.763099999991255
 31
0.0
  0
LINE
  5
F0E8
330
F0E5
100
AcDbEntity
  8
0
  6
CONTINUOUS
100
AcDbLine
 10
31.64199999996833
 20
7.188019871753226
 30
0.0
 11
33.08199999996839
 21
8.628019871753281
 31
0.0
  0
LINE
  5
F0E9
330
F0E5
100
AcDbEntity
  8
0
  6
CONTINUOUS
100
AcDbLine
 10
31.64199999996833
 20
6.51450066267304
 30
0.0
 11
33.08199999996839
 21
7.954500662673095
 31
0.0
  0
LINE
  5
F0EA
330
F0E5
100
AcDbEntity
  8
0
  6
CONTINUOUS
100
AcDbLine
 10
31.64199999996833
 20
5.840981453592853
 30
0.0
 11
33.08199999996839
 21
7.280981453592908
 31
0.0
  0
LINE
  5
F0EB
330
F0E5
100
AcDbEntity
  8
0
  6
CONTINUOUS
100
AcDbLine
 10
31.64199999996833
 20
5.167462244512667
 30
0.0
 11
33.08199999996839
 21
6.607462244512721
 31
0.0
  0
LINE
  5
F0EC
330
F0E5
100
AcDbEntity
  8
0
  6
CONTINUOUS
100
AcDbLine
 10
31.64199999996833
 20
4.493943035432481
 30
0.0
 11
33.08199999996839
 21
5.933943035432535
 31
0.0
  0
LINE
  5
F0ED
330
F0E5
100
AcDbEntity
  8
0
  6
CONTINUOUS
100
AcDbLine
 10
31.64199999996833
 20
3.820423826352293
 30
0.0
 11
33.08199999996839
 21
5.260423826352348
 31
0.0
  0
LINE
  5
F0EE
330
F0E5
100
AcDbEntity
  8
0
  6
CONTINUOUS
100
AcDbLine
 10
31.64199999996833
 20
3.146904617272106
 30
0.0
 11
33.08199999996839
 21
4.586904617272161
 31
0.0
  0
LINE
  5
F0EF
330
F0E5
100
AcDbEntity
  8
0
  6
CONTINUOUS
100
AcDbLine
 10
36.23199999996837
 20
8.410423826352325
 30
0.0
 11
36.5846761736073
 21
8.763099999991255
 31
0.0
  0
LINE
  5
F0F0
330
F0E5
100
AcDbEntity
  8
0
  6
CONTINUOUS
100
AcDbLine
 10
36.23199999996837
 20
7.73690461727214
 30
0.0
 11
37.25819538268748
 21
8.763099999991255
 31
0.0
  0
LINE
  5
F0F1
330
F0E5
100
AcDbEntity
  8
0
  6
CONTINUOUS
100
AcDbLine
 10
31.64257403601376
 20
2.473959444237348
 30
0.0
 11
33.08199999996839
 21
3.913385408191974
 31
0.0
  0
LINE
  5
F0F2
330
F0E5
100
AcDbEntity
  8
0
  6
CONTINUOUS
100
AcDbLine
 10
36.23199999996837
 20
7.063385408191953
 30
0.0
 11
37.67199999996831
 21
8.503385408191894
 31
0.0
  0
LINE
  5
F0F3
330
F0E5
100
AcDbEntity
  8
0
  6
CONTINUOUS
100
AcDbLine
 10
31.72013636841932
 20
1.87800256756272
 30
0.0
 11
33.08199999996839
 21
3.239866199111788
 31
0.0
  0
LINE
  5
F0F4
330
F0E5
100
AcDbEntity
  8
0
  6
CONTINUOUS
100
AcDbLine
 10
36.23199999996837
 20
6.389866199111767
 30
0.0
 11
37.67199999996831
 21
7.829866199111708
 31
0.0
  0
LINE
  5
F0F5
330
F0E5
100
AcDbEntity
  8
0
  6
CONTINUOUS
100
AcDbLine
 10
31.89042734314753
 20
1.374774333210744
 30
0.0
 11
33.08199999996839
 21
2.566346990031601
 31
0.0
  0
LINE
  5
F0F6
330
F0E5
100
AcDbEntity
  8
0
  6
CONTINUOUS
100
AcDbLine
 10
36.23199999996837
 20
5.71634699003158
 30
0.0
 11
37.67199999996831
 21
7.156346990031521
 31
0.0
  0
LINE
  5
F0F7
330
F0E5
100
AcDbEntity
  8
0
  6
CONTINUOUS
100
AcDbLine
 10
32.14210568064475
 20
0.952933461627778
 30
0.0
 11
33.18745552475986
 21
1.998283305742888
 31
0.0
  0
LINE
  5
F0F8
330
F0E5
100
AcDbEntity
  8
0
  6
CONTINUOUS
100
AcDbLine
 10
36.23199999996837
 20
5.042827780951393
 30
0.0
 11
37.67199999996831
 21
6.482827780951334
 31
0.0
  0
LINE
  5
F0F9
330
F0E5
100
AcDbEntity
  8
0
  6
CONTINUOUS
100
AcDbLine
 10
32.45820639400955
 20
0.5955149659123915
 30
0.0
 11
33.47242681921943
 21
1.60973539112227
 31
0.0
  0
LINE
  5
F0FA
330
F0E5
100
AcDbEntity
  8
0
  6
CONTINUOUS
100
AcDbLine
 10
36.23199999996837
 20
4.369308571871207
 30
0.0
 11
37.67199999996831
 21
5.809308571871147
 31
0.0
  0
LINE
  5
F0FB
330
F0E5
100
AcDbEntity
  8
0
  6
CONTINUOUS
100
AcDbLine
 10
32.83432456621412
 20
0.2981139290367771
 30
0.0
 11
33.89722476612215
 21
1.361014128944803
 31
0.0
  0
LINE
  5
F0FC
330
F0E5
100
AcDbEntity
  8
0
  6
CONTINUOUS
100
AcDbLine
 10
36.23199999996837
 20
3.69578936279102
 30
0.0
 11
37.67199999996831
 21
5.135789362790962
 31
0.0
  0
LINE
  5
F0FD
330
F0E5
100
AcDbEntity
  8
0
  6
CONTINUOUS
100
AcDbLine
 10
33.2711633111245
 20
0.0614334648669672
 30
0.0
 11
34.43247338014423
 21
1.222743533886696
 31
0.0
  0
LINE
  5
F0FE
330
F0E5
100
AcDbEntity
  8
0
  6
CONTINUOUS
100
AcDbLine
 10
36.23199999996837
 20
3.022270153710834
 30
0.0
 11
37.67199999996831
 21
4.462270153710775
 31
0.0
  0
LINE
  5
F0FF
330
F0E5
100
AcDbEntity
  8
0
  6
CONTINUOUS
100
AcDbLine
 10
33.76515245874577
 20
-0.1180965965919523
 30
0.0
 11
35.1587445516215
 21
1.27549549628378
 31
0.0
  0
LINE
  5
F100
330
F0E5
100
AcDbEntity
  8
0
  6
CONTINUOUS
100
AcDbLine
 10
36.21639478609585
 20
2.333145730758136
 30
0.0
 11
37.67199999996831
 21
3.788750944630588
 31
0.0
  0
LINE
  5
F101
330
F0E5
100
AcDbEntity
  8
0
  6
CONTINUOUS
100
AcDbLine
 10
34.34060583368432
 20
-0.2161624307335863
 30
0.0
 11
37.67199999996831
 21
3.115231735550401
 31
0.0
  0
LINE
  5
F102
330
F0E5
100
AcDbEntity
  8
0
  6
CONTINUOUS
100
AcDbLine
 10
35.01698193613905
 20
-0.2133055373590427
 30
0.0
 11
37.66876712070525
 21
2.438479647207154
 31
0.0
  0
LINE
  5
F103
330
F0E5
100
AcDbEntity
  8
0
  6
CONTINUOUS
100
AcDbLine
 10
35.90743367693304
 20
0.0036269943547609
 30
0.0
 11
37.51723902192366
 21
1.613432339345381
 31
0.0
  0
LINE
  5
F104
330
F0E5
100
AcDbEntity
  8
0
  6
CONTINUOUS
100
AcDbLine
 10
32.55309425579761
 20
0.5074718966376706
 30
0.0
 11
32.27784730925847
 21
0.7827188431768102
 31
0.0
  0
LINE
  5
F105
330
F0E5
100
AcDbEntity
  8
0
  6
CONTINUOUS
100
AcDbLine
 10
33.87496468909684
 20
-0.1408793275813673
 30
0.0
 11
31.67993083278052
 21
2.054154528734943
 31
0.0
  0
LINE
  5
F106
330
F0E5
100
AcDbEntity
  8
0
  6
CONTINUOUS
100
AcDbLine
 10
34.64362813207632
 20
-0.2360235614806649
 30
0.0
 11
31.64199999996833
 21
2.765604570627322
 31
0.0
  0
LINE
  5
F107
330
F0E5
100
AcDbEntity
  8
0
  6
CONTINUOUS
100
AcDbLine
 10
35.25801106796118
 20
-0.1768872882853429
 30
0.0
 11
31.64199999996833
 21
3.439123779707508
 31
0.0
  0
LINE
  5
F108
330
F0E5
100
AcDbEntity
  8
0
  6
CONTINUOUS
100
AcDbLine
 10
35.79065650332146
 20
-0.0360135145654361
 30
0.0
 11
34.54143210838231
 21
1.213210880373721
 31
0.0
  0
LINE
  5
F109
330
F0E5
100
AcDbEntity
  8
0
  6
CONTINUOUS
100
AcDbLine
 10
33.08199999996839
 20
2.67264298878764
 30
0.0
 11
31.64199999996833
 21
4.112642988787695
 31
0.0
  0
LINE
  5
F10A
330
F0E5
100
AcDbEntity
  8
0
  6
CONTINUOUS
100
AcDbLine
 10
36.25975597779143
 20
0.1684062200447833
 30
0.0
 11
35.15395110240023
 21
1.274211095435983
 31
0.0
  0
LINE
  5
F10B
330
F0E5
100
AcDbEntity
  8
0
  6
CONTINUOUS
100
AcDbLine
 10
33.08199999996839
 20
3.346162197867826
 30
0.0
 11
31.64199999996833
 21
4.786162197867881
 31
0.0
  0
LINE
  5
F10C
330
F0E5
100
AcDbEntity
  8
0
  6
CONTINUOUS
100
AcDbLine
 10
36.67226329638774
 20
0.4294181105286579
 30
0.0
 11
35.63766478748767
 21
1.464016619428737
 31
0.0
  0
LINE
  5
F10D
330
F0E5
100
AcDbEntity
  8
0
  6
CONTINUOUS
100
AcDbLine
 10
33.08199999996839
 20
4.019681406948012
 30
0.0
 11
31.64199999996833
 21
5.459681406948068
 31
0.0
  0
LINE
  5
F10E
330
F0E5
100
AcDbEntity
  8
0
  6
CONTINUOUS
100
AcDbLine
 10
37.01677749710036
 20
0.7584231188962329
 30
0.0
 11
35.99563422741351
 21
1.779566388583076
 31
0.0
  0
LINE
  5
F10F
330
F0E5
100
AcDbEntity
  8
0
  6
CONTINUOUS
100
AcDbLine
 10
33.08199999996839
 20
4.693200616028199
 30
0.0
 11
31.64199999996833
 21
6.133200616028255
 31
0.0
  0
LINE
  5
F110
330
F0E5
100
AcDbEntity
  8
0
  6
CONTINUOUS
100
AcDbLine
 10
37.29859977568887
 20
1.1501200493879
 30
0.0
 11
36.20680593341555
 21
2.241913891661226
 31
0.0
  0
LINE
  5
F111
330
F0E5
100
AcDbEntity
  8
0
  6
CONTINUOUS
100
AcDbLine
 10
33.08199999996839
 20
5.366719825108386
 30
0.0
 11
31.64199999996833
 21
6.80671982510844
 31
0.0
  0
LINE
  5
F112
330
F0E5
100
AcDbEntity
  8
0
  6
CONTINUOUS
100
AcDbLine
 10
37.5148623517228
 20
1.607376682434161
 30
0.0
 11
36.23199999996837
 21
2.890239034188594
 31
0.0
  0
LINE
  5
F113
330
F0E5
100
AcDbEntity
  8
0
  6
CONTINUOUS
100
AcDbLine
 10
33.08199999996839
 20
6.040239034188573
 30
0.0
 11
31.64199999996833
 21
7.480239034188627
 31
0.0
  0
LINE
  5
F114
330
F0E5
100
AcDbEntity
  8
0
  6
CONTINUOUS
100
AcDbLine
 10
37.64705163358367
 20
2.148706609653477
 30
0.0
 11
36.23199999996837
 21
3.56375824326878
 31
0.0
  0
LINE
  5
F115
330
F0E5
100
AcDbEntity
  8
0
  6
CONTINUOUS
100
AcDbLine
 10
33.08199999996839
 20
6.713758243268758
 30
0.0
 11
31.64199999996833
 21
8.153758243268815
 31
0.0
  0
LINE
  5
F116
330
F0E5
100
AcDbEntity
  8
0
  6
CONTINUOUS
100
AcDbLine
 10
37.67199999996831
 20
2.797277452349026
 30
0.0
 11
36.23199999996837
 21
4.237277452348967
 31
0.0
  0
LINE
  5
F117
330
F0E5
100
AcDbEntity
  8
0
  6
CONTINUOUS
100
AcDbLine
 10
37.67199999996831
 20
3.470796661429213
 30
0.0
 11
36.23199999996837
 21
4.910796661429154
 31
0.0
  0
LINE
  5
F118
330
F0E5
100
AcDbEntity
  8
0
  6
CONTINUOUS
100
AcDbLine
 10
37.67199999996831
 20
4.144315870509399
 30
0.0
 11
36.23199999996837
 21
5.58431587050934
 31
0.0
  0
LINE
  5
F119
330
F0E5
100
AcDbEntity
  8
0
  6
CONTINUOUS
100
AcDbLine
 10
33.08199999996839
 20
7.387277452348945
 30
0.0
 11
31.70617745232608
 21
8.763099999991255
 31
0.0
  0
LINE
  5
F11A
330
F0E5
100
AcDbEntity
  8
0
  6
CONTINUOUS
100
AcDbLine
 10
33.08199999996839
 20
8.060796661429132
 30
0.0
 11
32.37969666140626
 21
8.763099999991255
 31
0.0
  0
LINE
  5
F11B
330
F0E5
100
AcDbEntity
  8
0
  6
CONTINUOUS
100
AcDbLine
 10
33.08199999996839
 20
8.734315870509318
 30
0.0
 11
33.05321587048645
 21
8.763099999991255
 31
0.0
  0
LINE
  5
F11C
330
F0E5
100
AcDbEntity
  8
0
  6
CONTINUOUS
100
AcDbLine
 10
37.67199999996831
 20
4.817835079589585
 30
0.0
 11
36.23199999996837
 21
6.257835079589526
 31
0.0
  0
LINE
  5
F11D
330
F0E5
100
AcDbEntity
  8
0
  6
CONTINUOUS
100
AcDbLine
 10
37.67199999996831
 20
5.491354288669771
 30
0.0
 11
36.23199999996837
 21
6.931354288669713
 31
0.0
  0
LINE
  5
F11E
330
F0E5
100
AcDbEntity
  8
0
  6
CONTINUOUS
100
AcDbLine
 10
37.67199999996831
 20
6.164873497749958
 30
0.0
 11
36.23199999996837
 21
7.6048734977499
 31
0.0
  0
LINE
  5
F11F
330
F0E5
100
AcDbEntity
  8
0
  6
CONTINUOUS
100
AcDbLine
 10
37.67199999996831
 20
6.838392706830144
 30
0.0
 11
36.23199999996837
 21
8.278392706830086
 31
0.0
  0
LINE
  5
F120
330
F0E5
100
AcDbEntity
  8
0
  6
CONTINUOUS
100
AcDbLine
 10
37.67199999996831
 20
7.511911915910332
 30
0.0
 11
36.42081191588738
 21
8.763099999991255
 31
0.0
  0
LINE
  5
F121
330
F0E5
100
AcDbEntity
  8
0
  6
CONTINUOUS
100
AcDbLine
 10
37.67199999996831
 20
8.185431124990519
 30
0.0
 11
37.09433112496757
 21
8.763099999991255
 31
0.0
  0
ENDBLK
  5
F189
330
F0E5
100
AcDbEntity
  8
0
100
AcDbBlockEnd
  0
BLOCK
  5
F18A
330
F122
100
AcDbEntity
  8
0
100
AcDbBlockBegin
  2
*X46
 70
     1
 10
0.0
 20
0.0
 30
0.0
  3
*X46
  1

  0
LINE
  5
F123
330
F122
100
AcDbEntity
  8
0
  6
CONTINUOUS
100
AcDbLine
 10
38.60499999996136
 20
8.762866199104765
 30
0.0
 11
38.71672554182345
 21
8.874591740966855
 31
0.0
  0
LINE
  5
F124
330
F122
100
AcDbEntity
  8
0
  6
CONTINUOUS
100
AcDbLine
 10
38.60499999996136
 20
8.089346990024577
 30
0.0
 11
39.03418785440363
 21
8.518534844466847
 31
0.0
  0
LINE
  5
F125
330
F122
100
AcDbEntity
  8
0
  6
CONTINUOUS
100
AcDbLine
 10
38.60499999996136
 20
7.41582778094439
 30
0.0
 11
39.35165016698382
 21
8.16247794796684
 31
0.0
  0
LINE
  5
F126
330
F122
100
AcDbEntity
  8
0
  6
CONTINUOUS
100
AcDbLine
 10
38.60499999996136
 20
6.742308571864204
 30
0.0
 11
39.66911247956399
 21
7.806421051466834
 31
0.0
  0
LINE
  5
F127
330
F122
100
AcDbEntity
  8
0
  6
CONTINUOUS
100
AcDbLine
 10
38.60499999996136
 20
6.068789362784018
 30
0.0
 11
39.98657479214418
 21
7.450364154966827
 31
0.0
  0
LINE
  5
F128
330
F122
100
AcDbEntity
  8
0
  6
CONTINUOUS
100
AcDbLine
 10
38.60499999996136
 20
5.395270153703832
 30
0.0
 11
40.30403710472435
 21
7.09430725846682
 31
0.0
  0
LINE
  5
F129
330
F122
100
AcDbEntity
  8
0
  6
CONTINUOUS
100
AcDbLine
 10
38.60499999996136
 20
4.721750944623645
 30
0.0
 11
40.62149941730453
 21
6.738250361966813
 31
0.0
  0
LINE
  5
F12A
330
F122
100
AcDbEntity
  8
0
  6
CONTINUOUS
100
AcDbLine
 10
38.60499999996136
 20
4.048231735543458
 30
0.0
 11
40.93896172988471
 21
6.382193465466806
 31
0.0
  0
LINE
  5
F12B
330
F122
100
AcDbEntity
  8
0
  6
CONTINUOUS
100
AcDbLine
 10
38.60499999996136
 20
3.374712526463272
 30
0.0
 11
40.02599999995994
 21
4.795712526461843
 31
0.0
  0
LINE
  5
F12C
330
F122
100
AcDbEntity
  8
0
  6
CONTINUOUS
100
AcDbLine
 10
38.60499999996136
 20
2.701193317383085
 30
0.0
 11
40.02599999995994
 21
4.122193317381657
 31
0.0
  0
LINE
  5
F12D
330
F122
100
AcDbEntity
  8
0
  6
CONTINUOUS
100
AcDbLine
 10
40.28339754687704
 20
5.053110073378947
 30
0.0
 11
41.25642404246489
 21
6.026136568966799
 31
0.0
  0
LINE
  5
F12E
330
F122
100
AcDbEntity
  8
0
  6
CONTINUOUS
100
AcDbLine
 10
40.60085985945722
 20
4.697053176878939
 30
0.0
 11
41.57388635504507
 21
5.670079672466793
 31
0.0
  0
LINE
  5
F12F
330
F122
100
AcDbEntity
  8
0
  6
CONTINUOUS
100
AcDbLine
 10
43.57899999995641
 20
8.348712526458318
 30
0.0
 11
43.99338747348935
 21
8.763099999991255
 31
0.0
  0
LINE
  5
F130
330
F122
100
AcDbEntity
  8
0
  6
CONTINUOUS
100
AcDbLine
 10
43.57899999995641
 20
7.675193317378131
 30
0.0
 11
44.66690668256953
 21
8.763099999991255
 31
0.0
  0
LINE
  5
F131
330
F122
100
AcDbEntity
  8
0
  6
CONTINUOUS
100
AcDbLine
 10
38.60499999996136
 20
2.027674108302898
 30
0.0
 11
40.02599999995994
 21
3.44867410830147
 31
0.0
  0
LINE
  5
F132
330
F122
100
AcDbEntity
  8
0
  6
CONTINUOUS
100
AcDbLine
 10
38.60499999996136
 20
1.354154899222712
 30
0.0
 11
40.02599999995994
 21
2.775154899221284
 31
0.0
  0
LINE
  5
F133
330
F122
100
AcDbEntity
  8
0
  6
CONTINUOUS
100
AcDbLine
 10
38.60499999996136
 20
0.6806356901425255
 30
0.0
 11
40.02599999995994
 21
2.101635690141098
 31
0.0
  0
LINE
  5
F134
330
F122
100
AcDbEntity
  8
0
  6
CONTINUOUS
100
AcDbLine
 10
38.60499999996136
 20
0.0071164810623383
 30
0.0
 11
40.02599999995994
 21
1.428116481060911
 31
0.0
  0
LINE
  5
F135
330
F122
100
AcDbEntity
  8
0
  6
CONTINUOUS
100
AcDbLine
 10
40.9183221720374
 20
4.340996280378933
 30
0.0
 11
41.89134866762525
 21
5.314022775966786
 31
0.0
  0
LINE
  5
F136
330
F122
100
AcDbEntity
  8
0
  6
CONTINUOUS
100
AcDbLine
 10
41.23578448461758
 20
3.984939383878926
 30
0.0
 11
42.20881098020543
 21
4.957965879466778
 31
0.0
  0
LINE
  5
F137
330
F122
100
AcDbEntity
  8
0
  6
CONTINUOUS
100
AcDbLine
 10
41.55324679719776
 20
3.628882487378919
 30
0.0
 11
42.52627329278561
 21
4.601908982966772
 31
0.0
  0
LINE
  5
F138
330
F122
100
AcDbEntity
  8
0
  6
CONTINUOUS
100
AcDbLine
 10
41.87070910977793
 20
3.272825590878912
 30
0.0
 11
42.84373560536579
 21
4.245852086466765
 31
0.0
  0
LINE
  5
F139
330
F122
100
AcDbEntity
  8
0
  6
CONTINUOUS
100
AcDbLine
 10
43.57899999995641
 20
7.001674108297943
 30
0.0
 11
44.99999999995498
 21
8.422674108296516
 31
0.0
  0
LINE
  5
F13A
330
F122
100
AcDbEntity
  8
0
  6
CONTINUOUS
100
AcDbLine
 10
43.57899999995641
 20
6.328154899217758
 30
0.0
 11
44.99999999995498
 21
7.749154899216329
 31
0.0
  0
LINE
  5
F13B
330
F122
100
AcDbEntity
  8
0
  6
CONTINUOUS
100
AcDbLine
 10
43.57899999995641
 20
5.654635690137571
 30
0.0
 11
44.99999999995498
 21
7.075635690136142
 31
0.0
  0
LINE
  5
F13C
330
F122
100
AcDbEntity
  8
0
  6
CONTINUOUS
100
AcDbLine
 10
43.57899999995641
 20
4.981116481057384
 30
0.0
 11
44.99999999995498
 21
6.402116481055955
 31
0.0
  0
LINE
  5
F13D
330
F122
100
AcDbEntity
  8
0
  6
CONTINUOUS
100
AcDbLine
 10
39.27140272797921
 20
-0.0000000000000009
 30
0.0
 11
40.02599999995994
 21
0.7545972719807246
 31
0.0
  0
LINE
  5
F13E
330
F122
100
AcDbEntity
  8
0
  6
CONTINUOUS
100
AcDbLine
 10
39.9449219370594
 20
-0.0000000000000009
 30
0.0
 11
40.02599999995994
 21
0.0810780629005379
 31
0.0
  0
LINE
  5
F13F
330
F122
100
AcDbEntity
  8
0
  6
CONTINUOUS
100
AcDbLine
 10
42.18817142235812
 20
2.916768694378905
 30
0.0
 11
43.16119791794597
 21
3.889795189966758
 31
0.0
  0
LINE
  5
F140
330
F122
100
AcDbEntity
  8
0
  6
CONTINUOUS
100
AcDbLine
 10
42.50563373493829
 20
2.560711797878898
 30
0.0
 11
43.47866023052615
 21
3.533738293466751
 31
0.0
  0
LINE
  5
F141
330
F122
100
AcDbEntity
  8
0
  6
CONTINUOUS
100
AcDbLine
 10
43.57899999995641
 20
4.307597271977198
 30
0.0
 11
44.99999999995498
 21
5.728597271975769
 31
0.0
  0
LINE
  5
F142
330
F122
100
AcDbEntity
  8
0
  6
CONTINUOUS
100
AcDbLine
 10
43.57899999995641
 20
3.634078062897011
 30
0.0
 11
44.99999999995498
 21
5.055078062895582
 31
0.0
  0
LINE
  5
F143
330
F122
100
AcDbEntity
  8
0
  6
CONTINUOUS
100
AcDbLine
 10
42.82309604751848
 20
2.204654901378891
 30
0.0
 11
44.99999999995498
 21
4.381558853815395
 31
0.0
  0
LINE
  5
F144
330
F122
100
AcDbEntity
  8
0
  6
CONTINUOUS
100
AcDbLine
 10
43.14055836009865
 20
1.848598004878885
 30
0.0
 11
44.99999999995498
 21
3.70803964473521
 31
0.0
  0
LINE
  5
F145
330
F122
100
AcDbEntity
  8
0
  6
CONTINUOUS
100
AcDbLine
 10
43.45802067267883
 20
1.492541108378878
 30
0.0
 11
44.99999999995498
 21
3.034520435655023
 31
0.0
  0
LINE
  5
F146
330
F122
100
AcDbEntity
  8
0
  6
CONTINUOUS
100
AcDbLine
 10
43.77548298525902
 20
1.136484211878871
 30
0.0
 11
44.99999999995498
 21
2.361001226574837
 31
0.0
  0
LINE
  5
F147
330
F122
100
AcDbEntity
  8
0
  6
CONTINUOUS
100
AcDbLine
 10
44.09294529783919
 20
0.7804273153788639
 30
0.0
 11
44.99999999995498
 21
1.687482017494649
 31
0.0
  0
LINE
  5
F148
330
F122
100
AcDbEntity
  8
0
  6
CONTINUOUS
100
AcDbLine
 10
44.41040761041938
 20
0.4243704188788566
 30
0.0
 11
44.99999999995498
 21
1.013962808414463
 31
0.0
  0
LINE
  5
F149
330
F122
100
AcDbEntity
  8
0
  6
CONTINUOUS
100
AcDbLine
 10
44.72786992299955
 20
0.0683135223788494
 30
0.0
 11
44.99999999995498
 21
0.340443599334276
 31
0.0
  0
LINE
  5
F14A
330
F122
100
AcDbEntity
  8
0
  6
CONTINUOUS
100
AcDbLine
 10
39.12223903415696
 20
-0.0000000000000009
 30
0.0
 11
38.60499999996136
 21
0.5172390341955961
 31
0.0
  0
LINE
  5
F14B
330
F122
100
AcDbEntity
  8
0
  6
CONTINUOUS
100
AcDbLine
 10
39.79575824323715
 20
-0.0000000000000009
 30
0.0
 11
38.60499999996136
 21
1.190758243275783
 31
0.0
  0
LINE
  5
F14C
330
F122
100
AcDbEntity
  8
0
  6
CONTINUOUS
100
AcDbLine
 10
40.02599999995994
 20
0.443277452357397
 30
0.0
 11
38.60499999996136
 21
1.864277452355969
 31
0.0
  0
LINE
  5
F14D
330
F122
100
AcDbEntity
  8
0
  6
CONTINUOUS
100
AcDbLine
 10
40.02599999995994
 20
1.116796661437583
 30
0.0
 11
38.60499999996136
 21
2.537796661436155
 31
0.0
  0
LINE
  5
F14E
330
F122
100
AcDbEntity
  8
0
  6
CONTINUOUS
100
AcDbLine
 10
40.02599999995994
 20
1.79031587051777
 30
0.0
 11
38.60499999996136
 21
3.211315870516341
 31
0.0
  0
LINE
  5
F14F
330
F122
100
AcDbEntity
  8
0
  6
CONTINUOUS
100
AcDbLine
 10
40.02599999995994
 20
2.463835079597956
 30
0.0
 11
38.60499999996136
 21
3.884835079596527
 31
0.0
  0
LINE
  5
F150
330
F122
100
AcDbEntity
  8
0
  6
CONTINUOUS
100
AcDbLine
 10
40.02599999995994
 20
3.137354288678143
 30
0.0
 11
38.60499999996136
 21
4.558354288676714
 31
0.0
  0
LINE
  5
F151
330
F122
100
AcDbEntity
  8
0
  6
CONTINUOUS
100
AcDbLine
 10
40.02599999995994
 20
3.810873497758329
 30
0.0
 11
38.60499999996136
 21
5.2318734977569
 31
0.0
  0
LINE
  5
F152
330
F122
100
AcDbEntity
  8
0
  6
CONTINUOUS
100
AcDbLine
 10
40.02599999995994
 20
4.484392706838515
 30
0.0
 11
38.60499999996136
 21
5.905392706837086
 31
0.0
  0
LINE
  5
F153
330
F122
100
AcDbEntity
  8
0
  6
CONTINUOUS
100
AcDbLine
 10
44.99999999995498
 20
0.183911915923658
 30
0.0
 11
41.53858364506288
 21
3.64532827081576
 31
0.0
  0
LINE
  5
F154
330
F122
100
AcDbEntity
  8
0
  6
CONTINUOUS
100
AcDbLine
 10
40.02599999995994
 20
5.157911915918703
 30
0.0
 11
38.60499999996136
 21
6.578911915917274
 31
0.0
  0
LINE
  5
F155
330
F122
100
AcDbEntity
  8
0
  6
CONTINUOUS
100
AcDbLine
 10
44.99999999995498
 20
0.8574311250038447
 30
0.0
 11
38.60499999996136
 21
7.25243112499746
 31
0.0
  0
LINE
  5
F156
330
F122
100
AcDbEntity
  8
0
  6
CONTINUOUS
100
AcDbLine
 10
44.99999999995498
 20
1.530950334084031
 30
0.0
 11
38.60499999996136
 21
7.925950334077647
 31
0.0
  0
LINE
  5
F157
330
F122
100
AcDbEntity
  8
0
  6
CONTINUOUS
100
AcDbLine
 10
44.99999999995498
 20
2.204469543164218
 30
0.0
 11
43.57899999995641
 21
3.625469543162789
 31
0.0
  0
LINE
  5
F158
330
F122
100
AcDbEntity
  8
0
  6
CONTINUOUS
100
AcDbLine
 10
41.89876730984767
 20
5.305702233271528
 30
0.0
 11
38.60499999996136
 21
8.599469543157834
 31
0.0
  0
LINE
  5
F159
330
F122
100
AcDbEntity
  8
0
  6
CONTINUOUS
100
AcDbLine
 10
44.99999999995498
 20
2.877988752244405
 30
0.0
 11
43.57899999995641
 21
4.298988752242975
 31
0.0
  0
LINE
  5
F15A
330
F122
100
AcDbEntity
  8
0
  6
CONTINUOUS
100
AcDbLine
 10
44.99999999995498
 20
3.551507961324591
 30
0.0
 11
43.57899999995641
 21
4.972507961323163
 31
0.0
  0
LINE
  5
F15B
330
F122
100
AcDbEntity
  8
0
  6
CONTINUOUS
100
AcDbLine
 10
44.99999999995498
 20
4.225027170404777
 30
0.0
 11
43.57899999995641
 21
5.646027170403348
 31
0.0
  0
LINE
  5
F15C
330
F122
100
AcDbEntity
  8
0
  6
CONTINUOUS
100
AcDbLine
 10
44.99999999995498
 20
4.898546379484964
 30
0.0
 11
43.57899999995641
 21
6.319546379483535
 31
0.0
  0
LINE
  5
F15D
330
F122
100
AcDbEntity
  8
0
  6
CONTINUOUS
100
AcDbLine
 10
44.99999999995498
 20
5.572065588565151
 30
0.0
 11
43.57899999995641
 21
6.993065588563722
 31
0.0
  0
LINE
  5
F15E
330
F122
100
AcDbEntity
  8
0
  6
CONTINUOUS
100
AcDbLine
 10
44.99999999995498
 20
6.245584797645336
 30
0.0
 11
43.57899999995641
 21
7.666584797643908
 31
0.0
  0
LINE
  5
F15F
330
F122
100
AcDbEntity
  8
0
  6
CONTINUOUS
100
AcDbLine
 10
44.99999999995498
 20
6.919104006725522
 30
0.0
 11
43.57899999995641
 21
8.340104006724093
 31
0.0
  0
LINE
  5
F160
330
F122
100
AcDbEntity
  8
0
  6
CONTINUOUS
100
AcDbLine
 10
44.99999999995498
 20
7.592623215805709
 30
0.0
 11
43.82952321576943
 21
8.763099999991255
 31
0.0
  0
LINE
  5
F161
330
F122
100
AcDbEntity
  8
0
  6
CONTINUOUS
100
AcDbLine
 10
44.99999999995498
 20
8.266142424885896
 30
0.0
 11
44.50304242484962
 21
8.763099999991255
 31
0.0
  0
ENDBLK
  5
F18B
330
F122
100
AcDbEntity
  8
0
100
AcDbBlockEnd
  0
BLOCK
  5
F18C
330
F162
100
AcDbEntity
  8
0
100
AcDbBlockBegin
  2
*X47
 70
     1
 10
0.0
 20
0.0
 30
0.0
  3
*X47
  1

  0
LINE
  5
F163
330
F162
100
AcDbEntity
  8
0
  6
CONTINUOUS
100
AcDbLine
 10
0.0
 20
8.548461116714023
 30
0.0
 11
0.2146388832772324
 21
8.763099999991255
 31
0.0
  0
LINE
  5
F164
330
F162
100
AcDbEntity
  8
0
  6
CONTINUOUS
100
AcDbLine
 10
-0.0000000000000002
 20
7.874941907633837
 30
0.0
 11
0.8881580923574184
 21
8.763099999991255
 31
0.0
  0
LINE
  5
F165
330
F162
100
AcDbEntity
  8
0
  6
CONTINUOUS
100
AcDbLine
 10
0.0
 20
7.20142269855365
 30
0.0
 11
1.420999999998572
 21
8.622422698552223
 31
0.0
  0
LINE
  5
F166
330
F162
100
AcDbEntity
  8
0
  6
CONTINUOUS
100
AcDbLine
 10
-0.0000000000000001
 20
6.527903489473465
 30
0.0
 11
1.420999999998571
 21
7.948903489472036
 31
0.0
  0
LINE
  5
F167
330
F162
100
AcDbEntity
  8
0
  6
CONTINUOUS
100
AcDbLine
 10
-0.0000000000000002
 20
5.854384280393278
 30
0.0
 11
1.420999999998571
 21
7.275384280391849
 31
0.0
  0
LINE
  5
F168
330
F162
100
AcDbEntity
  8
0
  6
CONTINUOUS
100
AcDbLine
 10
-0.0000000000000002
 20
5.180865071313091
 30
0.0
 11
1.420999999998571
 21
6.601865071311663
 31
0.0
  0
LINE
  5
F169
330
F162
100
AcDbEntity
  8
0
  6
CONTINUOUS
100
AcDbLine
 10
0.0
 20
4.507345862232905
 30
0.0
 11
1.420999999998571
 21
5.928345862231477
 31
0.0
  0
LINE
  5
F16A
330
F162
100
AcDbEntity
  8
0
  6
CONTINUOUS
100
AcDbLine
 10
-0.0000000000000003
 20
3.833826653152718
 30
0.0
 11
1.420999999998571
 21
5.25482665315129
 31
0.0
  0
LINE
  5
F16B
330
F162
100
AcDbEntity
  8
0
  6
CONTINUOUS
100
AcDbLine
 10
-0.0000000000000002
 20
3.160307444072532
 30
0.0
 11
1.420999999998571
 21
4.581307444071103
 31
0.0
  0
LINE
  5
F16C
330
F162
100
AcDbEntity
  8
0
  6
CONTINUOUS
100
AcDbLine
 10
-0.0000000000000001
 20
2.486788234992345
 30
0.0
 11
1.420999999998571
 21
3.907788234990917
 31
0.0
  0
LINE
  5
F16D
330
F162
100
AcDbEntity
  8
0
  6
CONTINUOUS
100
AcDbLine
 10
-0.0000000000000006
 20
1.813269025912159
 30
0.0
 11
1.420999999998571
 21
3.234269025910731
 31
0.0
  0
LINE
  5
F16E
330
F162
100
AcDbEntity
  8
0
  6
CONTINUOUS
100
AcDbLine
 10
0.0
 20
1.139749816831973
 30
0.0
 11
1.420999999998571
 21
2.560749816830544
 31
0.0
  0
LINE
  5
F16F
330
F162
100
AcDbEntity
  8
0
  6
CONTINUOUS
100
AcDbLine
 10
0.0000000000000002
 20
0.466230607751787
 30
0.0
 11
1.420999999998571
 21
1.887230607750358
 31
0.0
  0
LINE
  5
F170
330
F162
100
AcDbEntity
  8
0
  6
CONTINUOUS
100
AcDbLine
 10
0.2072886013284003
 20
-0.0000000000000009
 30
0.0
 11
1.420999999998571
 21
1.213711398670171
 31
0.0
  0
LINE
  5
F171
330
F162
100
AcDbEntity
  8
0
  6
CONTINUOUS
100
AcDbLine
 10
0.8808078104085864
 20
-0.0000000000000009
 30
0.0
 11
1.420999999998571
 21
0.5401921895899839
 31
0.0
  0
LINE
  5
F172
330
F162
100
AcDbEntity
  8
0
  6
CONTINUOUS
100
AcDbLine
 10
0.0581249075061505
 20
-0.0000000000000009
 30
0.0
 11
-0.0000000000000002
 21
0.0581249075061496
 31
0.0
  0
LINE
  5
F173
330
F162
100
AcDbEntity
  8
0
  6
CONTINUOUS
100
AcDbLine
 10
0.7316441165863372
 20
-0.0000000000000009
 30
0.0
 11
-0.0000000000000002
 21
0.7316441165863363
 31
0.0
  0
LINE
  5
F174
330
F162
100
AcDbEntity
  8
0
  6
CONTINUOUS
100
AcDbLine
 10
1.405163325666523
 20
-0.0000000000000009
 30
0.0
 11
-0.0000000000000002
 21
1.405163325666523
 31
0.0
  0
LINE
  5
F175
330
F162
100
AcDbEntity
  8
0
  6
CONTINUOUS
100
AcDbLine
 10
1.420999999998572
 20
0.6576825347481381
 30
0.0
 11
-0.0000000000000001
 21
2.07868253474671
 31
0.0
  0
LINE
  5
F176
330
F162
100
AcDbEntity
  8
0
  6
CONTINUOUS
100
AcDbLine
 10
1.420999999998571
 20
1.331201743828324
 30
0.0
 11
-0.0000000000000001
 21
2.752201743826896
 31
0.0
  0
LINE
  5
F177
330
F162
100
AcDbEntity
  8
0
  6
CONTINUOUS
100
AcDbLine
 10
1.420999999998571
 20
2.004720952908511
 30
0.0
 11
-0.0000000000000002
 21
3.425720952907082
 31
0.0
  0
LINE
  5
F178
330
F162
100
AcDbEntity
  8
0
  6
CONTINUOUS
100
AcDbLine
 10
1.420999999998571
 20
2.678240161988697
 30
0.0
 11
-0.0000000000000001
 21
4.099240161987269
 31
0.0
  0
LINE
  5
F179
330
F162
100
AcDbEntity
  8
0
  6
CONTINUOUS
100
AcDbLine
 10
1.420999999998572
 20
3.351759371068884
 30
0.0
 11
0.0
 21
4.772759371067455
 31
0.0
  0
LINE
  5
F17A
330
F162
100
AcDbEntity
  8
0
  6
CONTINUOUS
100
AcDbLine
 10
1.420999999998571
 20
4.02527858014907
 30
0.0
 11
-0.0000000000000003
 21
5.446278580147642
 31
0.0
  0
LINE
  5
F17B
330
F162
100
AcDbEntity
  8
0
  6
CONTINUOUS
100
AcDbLine
 10
1.420999999998571
 20
4.698797789229257
 30
0.0
 11
0.0
 21
6.119797789227828
 31
0.0
  0
LINE
  5
F17C
330
F162
100
AcDbEntity
  8
0
  6
CONTINUOUS
100
AcDbLine
 10
1.420999999998571
 20
5.372316998309444
 30
0.0
 11
-0.0000000000000001
 21
6.793316998308015
 31
0.0
  0
LINE
  5
F17D
330
F162
100
AcDbEntity
  8
0
  6
CONTINUOUS
100
AcDbLine
 10
1.420999999998572
 20
6.045836207389629
 30
0.0
 11
-0.0000000000000004
 21
7.466836207388202
 31
0.0
  0
LINE
  5
F17E
330
F162
100
AcDbEntity
  8
0
  6
CONTINUOUS
100
AcDbLine
 10
1.420999999998571
 20
6.719355416469816
 30
0.0
 11
0.0
 21
8.140355416468388
 31
0.0
  0
LINE
  5
F17F
330
F162
100
AcDbEntity
  8
0
  6
CONTINUOUS
100
AcDbLine
 10
1.420999999998571
 20
7.392874625550003
 30
0.0
 11
0.0507746255573185
 21
8.763099999991255
 31
0.0
  0
LINE
  5
F180
330
F162
100
AcDbEntity
  8
0
  6
CONTINUOUS
100
AcDbLine
 10
1.420999999998571
 20
8.06639383463019
 30
0.0
 11
0.7242938346375052
 21
8.763099999991255
 31
0.0
  0
LINE
  5
F181
330
F162
100
AcDbEntity
  8
0
  6
CONTINUOUS
100
AcDbLine
 10
1.420999999998571
 20
8.739913043710375
 30
0.0
 11
1.397813043717691
 21
8.763099999991255
 31
0.0
  0
ENDBLK
  5
F18D
330
F162
100
AcDbEntity
  8
0
100
AcDbBlockEnd
  0
ENDSEC
  0
SECTION
  2
ENTITIES
  0
TEXT
  5
8FBC
330
18
100
AcDbEntity
  8
1TEXT
100
AcDbText
 10
461.4180680140553
 20
-607.0742101046737
 30
0.0
 40
8.0
  1
KLJ-3C-X
100
AcDbText
  0
LINE
  5
9123
330
18
100
AcDbEntity
  8
1CENTER
100
AcDbLine
 10
692.9903351506601
 20
-749.235898293242
 30
0.0
 11
692.9903351506604
 21
-763.4216086932412
 31
0.0
  0
LINE
  5
9124
330
18
100
AcDbEntity
  8
1CENTER
100
AcDbLine
 10
685.8974799506607
 20
-756.3287534932417
 30
0.0
 11
700.0831903506598
 21
-756.3287534932415
 31
0.0
  0
TEXT
  5
9972
330
18
100
AcDbEntity
  8
1TEXT
100
AcDbText
 10
469.1000807526569
 20
-800.9822536598368
 30
0.0
 40
4.0
  1
付属ねじ
100
AcDbText
  0
LINE
  5
9FBE
330
18
100
AcDbEntity
  8
01
100
AcDbLine
 10
491.6404098167417
 20
-651.644141583488
 30
0.0
 11
452.6404098167418
 21
-651.6441415834882
 31
0.0
  0
LINE
  5
9FC0
330
18
100
AcDbEntity
  8
01
100
AcDbLine
 10
452.1404098167416
 20
-645.3441415834881
 30
0.0
 11
492.1404098167417
 21
-645.3441415834875
 31
0.0
  0
LINE
  5
9FC1
330
18
100
AcDbEntity
  8
01
100
AcDbLine
 10
452.1404098167416
 20
-645.3441415834881
 30
0.0
 11
452.1404098167418
 21
-651.1441415834882
 31
0.0
  0
ARC
  5
9FC2
330
18
100
AcDbEntity
  8
01
100
AcDbCircle
 10
452.6404098167417
 20
-651.144141583488
 30
0.0
 40
0.5
100
AcDbArc
 50
180.0
 51
270.0
  0
LINE
  5
9FC8
330
18
100
AcDbEntity
  8
01
100
AcDbLine
 10
492.1404098167417
 20
-645.3441415834875
 30
0.0
 11
492.1404098167417
 21
-651.144141583488
 31
0.0
  0
ARC
  5
9FC9
330
18
100
AcDbEntity
  8
01
100
AcDbCircle
 10
491.6404098167417
 20
-651.144141583488
 30
0.0
 40
0.5
100
AcDbArc
 50
270.0
 51
0.0
  0
LINE
  5
A028
330
18
100
AcDbEntity
  8
01
100
AcDbLine
 10
531.9583510044494
 20
-720.3287536973628
 30
0.0
 11
531.9583510044492
 21
-681.3287536973633
 31
0.0
  0
LINE
  5
A02B
330
18
100
AcDbEntity
  8
01
100
AcDbLine
 10
538.2583510044492
 20
-680.8287536973628
 30
0.0
 11
538.2583510044449
 21
-720.8287536973629
 31
0.0
  0
LINE
  5
A02E
330
18
100
AcDbEntity
  8
01
100
AcDbLine
 10
538.2583510044449
 20
-720.8287536973629
 30
0.0
 11
532.4583510044492
 21
-720.8287536973628
 31
0.0
  0
ARC
  5
A02F
330
18
100
AcDbEntity
  8
01
100
AcDbCircle
 10
532.4583510044492
 20
-720.3287536973628
 30
0.0
 40
0.5
100
AcDbArc
 50
180.0
 51
270.0
  0
LINE
  5
A033
330
18
100
AcDbEntity
  8
01
100
AcDbLine
 10
538.2583510044492
 20
-680.8287536973628
 30
0.0
 11
532.4583510044492
 21
-680.8287536973633
 31
0.0
  0
ARC
  5
A034
330
18
100
AcDbEntity
  8
01
100
AcDbCircle
 10
532.4583510044492
 20
-681.3287536973633
 30
0.0
 40
0.5
100
AcDbArc
 50
90.0
 51
180.0
  0
LINE
  5
A1CA
330
18
100
AcDbEntity
  8
01
100
AcDbLine
 10
536.7583510044508
 20
-720.8287536973696
 30
0.0
 11
538.2583510044508
 21
-720.8287536973696
 31
0.0
  0
CIRCLE
  5
A1CC
330
18
100
AcDbEntity
  8
01
100
AcDbCircle
 10
472.1403975955326
 20
-700.8287536973701
 30
0.0
 40
20.00000000000007
  0
LINE
  5
A6EA
330
18
100
AcDbEntity
  8
01
100
AcDbLine
 10
676.2564083455769
 20
-659.4422040847979
 30
0.0
 11
709.7242619557438
 21
-659.4422040847979
 31
0.0
  0
ARC
  5
A6EB
330
18
100
AcDbEntity
  8
01
100
AcDbCircle
 10
709.7242619557438
 20
-658.4422040847978
 30
0.0
 40
1.000000000000028
100
AcDbArc
 50
270.0
 51
358.0340000000047
  0
LINE
  5
A6EC
330
18
100
AcDbEntity
  8
01
100
AcDbLine
 10
711.4903351506604
 20
-636.1422040847978
 30
0.0
 11
710.7236733165784
 21
-658.4765105249353
 31
0.0
  0
LINE
  5
A6ED
330
18
100
AcDbEntity
  8
01
100
AcDbLine
 10
711.4903351506604
 20
-636.1422040847979
 30
0.0
 11
674.4903351506604
 21
-636.1422040847979
 31
0.0
  0
LINE
  5
A6EE
330
18
100
AcDbEntity
  8
01
100
AcDbLine
 10
675.2569969847424
 20
-658.4765105249353
 30
0.0
 11
674.4903351506604
 21
-636.1422040847979
 31
0.0
  0
ARC
  5
A6EF
330
18
100
AcDbEntity
  8
01
100
AcDbCircle
 10
676.2564083455769
 20
-658.4422040847978
 30
0.0
 40
1.000000000000028
100
AcDbArc
 50
181.9659999999953
 51
270.0
  0
LINE
  5
A6F0
330
18
100
AcDbEntity
  8
01
100
AcDbLine
 10
691.4903351506603
 20
-711.0460132554243
 30
0.0
 11
691.4903351506603
 21
-701.6115021393144
 31
0.0
  0
ARC
  5
A6F1
330
18
100
AcDbEntity
  8
01
100
AcDbCircle
 10
692.9903351506603
 20
-706.3287576973694
 30
0.0
 40
4.950000000000013
100
AcDbArc
 50
107.6397013942331
 51
252.3602986057668
  0
LINE
  5
A6F2
330
18
100
AcDbEntity
  8
01
100
AcDbLine
 10
694.4903351506603
 20
-701.6115021393144
 30
0.0
 11
694.4903351506603
 21
-711.0460132554243
 31
0.0
  0
ARC
  5
A6F3
330
18
100
AcDbEntity
  8
01
100
AcDbCircle
 10
692.9903351506603
 20
-706.3287576973694
 30
0.0
 40
4.950000000000013
100
AcDbArc
 50
287.6397013942332
 51
287.7375975388389
  0
ARC
  5
A6F4
330
18
100
AcDbEntity
  8
01
100
AcDbCircle
 10
692.9903351506603
 20
-706.3287576973694
 30
0.0
 40
4.950000000000013
100
AcDbArc
 50
287.6397013942332
 51
72.36029860576686
  0
LINE
  5
A6F5
330
18
100
AcDbEntity
  8
01
100
AcDbLine
 10
693.5903351506602
 20
-711.2422595036172
 30
0.0
 11
693.5903351506602
 21
-710.8287576973694
 31
0.0
  0
LINE
  5
A6F6
330
18
100
AcDbEntity
  8
01
100
AcDbLine
 10
693.5903351506602
 20
-710.8287576973694
 30
0.0
 11
692.3903351506602
 21
-710.8287576973694
 31
0.0
  0
LINE
  5
A6F7
330
18
100
AcDbEntity
  8
01
100
AcDbLine
 10
692.3903351506602
 20
-710.8287576973694
 30
0.0
 11
692.3903351506602
 21
-710.4743421096409
 31
0.0
  0
LINE
  5
A6F8
330
18
100
AcDbEntity
  8
01
100
AcDbLine
 10
692.3903351506602
 20
-710.4743421096409
 30
0.0
 11
693.5903351506602
 21
-709.274342109641
 31
0.0
  0
LINE
  5
A6F9
330
18
100
AcDbEntity
  8
01
100
AcDbLine
 10
693.5903351506602
 20
-709.274342109641
 30
0.0
 11
693.5903351506602
 21
-703.7287576973694
 31
0.0
  0
LINE
  5
A6FA
330
18
100
AcDbEntity
  8
01
100
AcDbLine
 10
693.5903351506602
 20
-703.7287576973694
 30
0.0
 11
692.3903351506602
 21
-703.7287576973694
 31
0.0
  0
LINE
  5
A6FB
330
18
100
AcDbEntity
  8
01
100
AcDbLine
 10
692.3903351506602
 20
-703.7287576973694
 30
0.0
 11
692.3903351506602
 21
-707.9287576973694
 31
0.0
  0
LINE
  5
A6FC
330
18
100
AcDbEntity
  8
01
100
AcDbLine
 10
692.3903351506602
 20
-707.9287576973694
 30
0.0
 11
691.4903351506603
 21
-708.8287576973694
 31
0.0
  0
ARC
  5
A6FD
330
18
100
AcDbEntity
  8
01
100
AcDbCircle
 10
692.9903351506603
 20
-706.3287576973694
 30
0.0
 40
4.950000000000013
100
AcDbArc
 50
276.9620626910847
 51
287.6397013942332
  0
ARC
  5
A6FE
330
18
100
AcDbEntity
  8
01
100
AcDbCircle
 10
692.9903351506603
 20
-706.3287576973694
 30
0.0
 40
4.949999999999999
100
AcDbArc
 50
72.36029860576686
 51
107.6397013942331
  0
CIRCLE
  5
A709
330
18
100
AcDbEntity
  8
01
100
AcDbCircle
 10
692.9903351506603
 20
-700.8287576973694
 30
0.0
 40
18.50000000000001
  0
CIRCLE
  5
A70A
330
18
100
AcDbEntity
  8
1HATCH
100
AcDbCircle
 10
692.9903351506603
 20
-700.8287576973694
 30
0.0
 40
17.70018914480337
  0
CIRCLE
  5
A70B
330
18
100
AcDbEntity
  8
01
100
AcDbCircle
 10
692.9903351506603
 20
-700.8287576973694
 30
0.0
 40
18.50000000000001
  0
LINE
  5
A70F
330
18
100
AcDbEntity
  8
01
  6
BYBLOCK
100
AcDbLine
 10
571.086501112808
 20
-604.8506549375627
 30
0.0
 11
571.086501112808
 21
-611.8506549375627
 31
0.0
  0
LINE
  5
A710
330
18
100
AcDbEntity
  8
1HATCH
100
AcDbLine
 10
572.586501112808
 20
-606.2373433014534
 30
0.0
 11
572.586501112808
 21
-610.4639665736721
 31
0.0
  0
LINE
  5
A711
330
18
100
AcDbEntity
  8
01
  6
BYBLOCK
100
AcDbLine
 10
595.0865011128079
 20
-604.8506549375627
 30
0.0
 11
595.086501112808
 21
-611.8506549375627
 31
0.0
  0
LINE
  5
A712
330
18
100
AcDbEntity
  8
1HATCH
100
AcDbLine
 10
593.5865011128079
 20
-606.2373433014533
 30
0.0
 11
593.586501112808
 21
-610.4639665736721
 31
0.0
  0
LINE
  5
A713
330
18
100
AcDbEntity
  8
01
  6
BYBLOCK
100
AcDbLine
 10
578.3644003717428
 20
-597.3506549375627
 30
0.0
 11
588.086501112808
 21
-597.3506549375627
 31
0.0
  0
LINE
  5
A714
330
18
100
AcDbEntity
  8
01
  6
BYBLOCK
100
AcDbLine
 10
580.373865167361
 20
-599.6506549375626
 30
0.0
 11
586.2191364719795
 21
-599.6506549375626
 31
0.0
  0
LINE
  5
A715
330
18
100
AcDbEntity
  8
01
  6
BYBLOCK
100
AcDbLine
 10
576.8365011128079
 20
-623.3506549375627
 30
0.0
 11
578.0865011128079
 21
-623.3506549375627
 31
0.0
  0
LINE
  5
A716
330
18
100
AcDbEntity
  8
01
  6
BYBLOCK
100
AcDbLine
 10
587.786501112808
 20
-623.3506549375627
 30
0.0
 11
589.336501112808
 21
-623.3506549375627
 31
0.0
  0
LINE
  5
A717
330
18
100
AcDbEntity
  8
01
  6
BYBLOCK
100
AcDbLine
 10
587.786501112808
 20
-625.3506549375627
 30
0.0
 11
588.086501112808
 21
-625.3506549375627
 31
0.0
  0
LINE
  5
A718
330
18
100
AcDbEntity
  8
01
  6
BYBLOCK
100
AcDbLine
 10
578.086501112808
 20
-629.3506549375627
 30
0.0
 11
581.0865011128079
 21
-629.3506549375627
 31
0.0
  0
LINE
  5
A719
330
18
100
AcDbEntity
  8
01
  6
BYBLOCK
100
AcDbLine
 10
584.0865011128079
 20
-649.9506549375627
 30
0.0
 11
585.0865011128079
 21
-649.9506549375627
 31
0.0
  0
LINE
  5
A71A
330
18
100
AcDbEntity
  8
01
  6
BYBLOCK
100
AcDbLine
 10
592.586501112808
 20
-614.53749004241
 30
0.0
 11
592.586501112808
 21
-617.03749004241
 31
0.0
  0
LINE
  5
A71B
330
18
100
AcDbEntity
  8
01
  6
BYBLOCK
100
AcDbLine
 10
573.5865011128079
 20
-614.53749004241
 30
0.0
 11
573.586501112808
 21
-617.03749004241
 31
0.0
  0
LINE
  5
A71C
330
18
100
AcDbEntity
  8
01
  6
BYBLOCK
100
AcDbLine
 10
594.086501112808
 20
-611.9306326890731
 30
0.0
 11
594.086501112808
 21
-614.4306326890731
 31
0.0
  0
LINE
  5
A71D
330
18
100
AcDbEntity
  8
01
  6
BYBLOCK
100
AcDbLine
 10
572.0865011128079
 20
-611.9306326890731
 30
0.0
 11
572.086501112808
 21
-614.4306326890731
 31
0.0
  0
LINE
  5
A71E
330
18
100
AcDbEntity
  8
01
  6
BYBLOCK
100
AcDbLine
 10
578.0865011128079
 20
-623.3506549375627
 30
0.0
 11
578.086501112808
 21
-629.3506549375627
 31
0.0
  0
LINE
  5
A71F
330
18
100
AcDbEntity
  8
01
  6
BYBLOCK
100
AcDbLine
 10
587.786501112808
 20
-623.3506549375627
 30
0.0
 11
587.786501112808
 21
-625.3506549375627
 31
0.0
  0
LINE
  5
A720
330
18
100
AcDbEntity
  8
01
  6
BYBLOCK
100
AcDbLine
 10
588.086501112808
 20
-625.3506549375627
 30
0.0
 11
588.0865011128079
 21
-646.9506549375627
 31
0.0
  0
LINE
  5
A721
330
18
100
AcDbEntity
  8
01
  6
BYBLOCK
100
AcDbLine
 10
586.786501112808
 20
-623.3506549375627
 30
0.0
 11
586.786501112808
 21
-648.2506549375627
 31
0.0
  0
LINE
  5
A722
330
18
100
AcDbEntity
  8
01
  6
BYBLOCK
100
AcDbLine
 10
585.786501112808
 20
-623.3506549375627
 30
0.0
 11
585.786501112808
 21
-649.2506549375626
 31
0.0
  0
LINE
  5
A723
330
18
100
AcDbEntity
  8
01
  6
BYBLOCK
100
AcDbLine
 10
584.786501112808
 20
-630.3506549375627
 30
0.0
 11
584.786501112808
 21
-649.9506549375627
 31
0.0
  0
LINE
  5
A724
330
18
100
AcDbEntity
  8
01
  6
BYBLOCK
100
AcDbLine
 10
581.0865011128079
 20
-629.3506549375627
 30
0.0
 11
581.0865011128079
 21
-646.9506549375627
 31
0.0
  0
LINE
  5
A725
330
18
100
AcDbEntity
  8
01
  6
BYBLOCK
100
AcDbLine
 10
575.586501112808
 20
-617.3506549375627
 30
0.0
 11
576.836501112808
 21
-623.3506549375627
 31
0.0
  0
LINE
  5
A726
330
18
100
AcDbEntity
  8
01
  6
BYBLOCK
100
AcDbLine
 10
589.336501112808
 20
-623.3506549375627
 30
0.0
 11
590.586501112808
 21
-617.3506549375627
 31
0.0
  0
ARC
  5
A727
330
18
100
AcDbEntity
  8
01
  6
BYBLOCK
100
AcDbCircle
 10
583.086501112808
 20
-473.1006549375628
 30
0.0
 40
144.2499999999999
100
AcDbArc
 50
266.2238880807499
 51
273.7761119192501
  0
ARC
  5
A728
330
18
100
AcDbEntity
  8
01
  6
BYBLOCK
100
AcDbCircle
 10
583.086501112808
 20
-470.6006549375628
 30
0.0
 40
144.2499999999999
100
AcDbArc
 50
265.6265788215867
 51
274.3734211784133
  0
ARC
  5
A729
330
18
100
AcDbEntity
  8
01
  6
BYBLOCK
100
AcDbCircle
 10
583.086501112808
 20
-468.1006549375628
 30
0.0
 40
144.2499999999999
100
AcDbArc
 50
265.2281119392252
 51
274.7718880607748
  0
ARC
  5
A72A
330
18
100
AcDbEntity
  8
1HATCH
100
AcDbCircle
 10
583.086501112808
 20
-468.1006549375628
 30
0.0
 40
142.7499999999999
100
AcDbArc
 50
265.7817898839807
 51
274.2182101160193
  0
ARC
  5
A72B
330
18
100
AcDbEntity
  8
01
  6
BYBLOCK
100
AcDbCircle
 10
583.086501112808
 20
-748.6006549375626
 30
0.0
 40
144.2499999999999
100
AcDbArc
 50
85.22811193922529
 51
94.77188806077471
  0
ARC
  5
A72C
330
18
100
AcDbEntity
  8
1HATCH
100
AcDbCircle
 10
583.086501112808
 20
-748.6006549375626
 30
0.0
 40
142.7499999999999
100
AcDbArc
 50
85.78178988398071
 51
94.21821011601929
  0
LINE
  5
A72D
330
18
100
AcDbEntity
  8
01
  6
BYBLOCK
100
AcDbLine
 10
577.8651704701213
 20
-598.4051510766985
 30
0.0
 11
576.586501112808
 21
-604.4971764923843
 31
0.0
  0
LINE
  5
A72E
330
18
100
AcDbEntity
  8
01
  6
BYBLOCK
100
AcDbLine
 10
579.7839405283448
 20
-600.4602377943999
 30
0.0
 11
578.9549505734318
 21
-604.4098341820771
 31
0.0
  0
LINE
  5
A72F
330
18
100
AcDbEntity
  8
01
  6
BYBLOCK
100
AcDbLine
 10
588.086501112808
 20
-597.3506549375627
 30
0.0
 11
589.586501112808
 21
-604.4971764923843
 31
0.0
  0
LINE
  5
A730
330
18
100
AcDbEntity
  8
01
  6
BYBLOCK
100
AcDbLine
 10
586.2191364719795
 20
-599.6506549375626
 30
0.0
 11
587.2180516521842
 21
-604.4098341820771
 31
0.0
  0
LINE
  5
A731
330
18
100
AcDbEntity
  8
01
  6
BYBLOCK
100
AcDbLine
 10
581.0865011128079
 20
-646.9506549375627
 30
0.0
 11
584.0865011128079
 21
-649.9506549375627
 31
0.0
  0
LINE
  5
A732
330
18
100
AcDbEntity
  8
01
  6
BYBLOCK
100
AcDbLine
 10
588.0865011128079
 20
-646.9506549375627
 30
0.0
 11
585.0865011128079
 21
-649.9506549375627
 31
0.0
  0
LINE
  5
A733
330
18
100
AcDbEntity
  8
01
  6
BYBLOCK
100
AcDbLine
 10
586.786501112808
 20
-623.3506549375627
 30
0.0
 11
585.786501112808
 21
-623.3506549375627
 31
0.0
  0
ARC
  5
A734
330
18
100
AcDbEntity
  8
01
  6
BYBLOCK
100
AcDbCircle
 10
609.8825857303933
 20
-630.364381311503
 30
0.0
 40
25.09608837142445
100
AcDbArc
 50
163.7711333760272
 51
179.9686619156618
  0
LINE
  5
A735
330
18
100
AcDbEntity
  8
1HATCH
100
AcDbLine
 10
590.5812566678957
 20
-606.7374971599013
 30
0.0
 11
591.086501112308
 21
-606.7374971599013
 31
0.0
  0
LINE
  5
A736
330
18
100
AcDbEntity
  8
1HATCH
100
AcDbLine
 10
588.8127233346746
 20
-609.8532660485924
 30
0.0
 11
589.3179677790871
 21
-609.8532660485924
 31
0.0
  0
LINE
  5
A737
330
18
100
AcDbEntity
  8
1HATCH
100
AcDbLine
 10
591.086501112308
 20
-609.937497159698
 30
0.0
 11
589.3179677790871
 21
-607.9539593820464
 31
0.0
  0
LINE
  5
A738
330
18
100
AcDbEntity
  8
1HATCH
100
AcDbLine
 10
589.3179677790871
 20
-607.9539593820464
 30
0.0
 11
589.3179677790871
 21
-609.8532660485924
 31
0.0
  0
LINE
  5
A739
330
18
100
AcDbEntity
  8
1HATCH
100
AcDbLine
 10
588.8127233346746
 20
-606.6532660487958
 30
0.0
 11
588.8127233346746
 21
-609.8532660485924
 31
0.0
  0
LINE
  5
A73A
330
18
100
AcDbEntity
  8
1HATCH
100
AcDbLine
 10
591.086501112308
 20
-606.7374971599013
 30
0.0
 11
591.086501112308
 21
-609.937497159698
 31
0.0
  0
LINE
  5
A73B
330
18
100
AcDbEntity
  8
1HATCH
100
AcDbLine
 10
590.5812566678957
 20
-608.6368393820029
 30
0.0
 11
588.8127233346746
 21
-606.653301604351
 31
0.0
  0
LINE
  5
A73C
330
18
100
AcDbEntity
  8
1HATCH
100
AcDbLine
 10
590.5812566678957
 20
-606.7374971599013
 30
0.0
 11
590.5812566678957
 21
-608.6368393820029
 31
0.0
  0
LINE
  5
A73D
330
18
100
AcDbEntity
  8
1HATCH
100
AcDbLine
 10
588.4809900013645
 20
-606.7374971599013
 30
0.0
 11
587.9689900013965
 21
-606.7374971599013
 31
0.0
  0
LINE
  5
A73E
330
18
100
AcDbEntity
  8
1HATCH
100
AcDbLine
 10
586.8489900014665
 20
-606.7374971599013
 30
0.0
 11
586.3369900014985
 21
-606.7374971599013
 31
0.0
  0
LINE
  5
A73F
330
18
100
AcDbEntity
  8
1HATCH
100
AcDbLine
 10
585.5049900015508
 20
-606.7374971599013
 30
0.0
 11
586.0169900015188
 21
-606.7374971599013
 31
0.0
  0
ARC
  5
A740
330
18
100
AcDbEntity
  8
1HATCH
100
AcDbCircle
 10
587.5529900014225
 20
-608.9709124760518
 30
0.0
 40
0.415999999974
100
AcDbArc
 50
299.99999999997
 51
0.0
  0
ARC
  5
A741
330
18
100
AcDbEntity
  8
1HATCH
100
AcDbCircle
 10
587.2649900014405
 20
-608.9709124760518
 30
0.0
 40
0.415999999974
100
AcDbArc
 50
180.0
 51
240.0000000000225
  0
ARC
  5
A742
330
18
100
AcDbEntity
  8
1HATCH
100
AcDbCircle
 10
587.4089900014314
 20
-608.7214971597773
 30
0.0
 40
0.7039999999559964
100
AcDbArc
 50
240.0000000000225
 51
299.99999999997
  0
ARC
  5
A743
330
18
100
AcDbEntity
  8
1HATCH
100
AcDbCircle
 10
587.4089900014314
 20
-608.7214971597773
 30
0.0
 40
1.215999999924003
100
AcDbArc
 50
240.00000000003
 51
299.9999999999775
  0
ARC
  5
A744
330
18
100
AcDbEntity
  8
1HATCH
100
AcDbCircle
 10
587.2649900014405
 20
-608.9709124760518
 30
0.0
 40
0.9279999999419999
100
AcDbArc
 50
180.0
 51
240.00000000003
  0
LINE
  5
A745
330
18
100
AcDbEntity
  8
1HATCH
100
AcDbLine
 10
584.6771105094357
 20
-609.3614971597374
 30
0.0
 11
585.1849900015709
 21
-609.3614971597374
 31
0.0
  0
ARC
  5
A746
330
18
100
AcDbEntity
  8
1HATCH
100
AcDbCircle
 10
585.1849900015709
 20
-609.0414971597573
 30
0.0
 40
0.3199999999800001
100
AcDbArc
 50
270.0
 51
0.0
  0
LINE
  5
A747
330
18
100
AcDbEntity
  8
1HATCH
100
AcDbLine
 10
583.1714788905884
 20
-608.5480216042309
 30
0.0
 11
583.75956777944
 21
-608.5480216042309
 31
0.0
  0
LINE
  5
A748
330
18
100
AcDbEntity
  8
1HATCH
100
AcDbLine
 10
584.3381120169671
 20
-609.8414971597074
 30
0.0
 11
585.1849900015708
 21
-609.8414971597074
 31
0.0
  0
LINE
  5
A749
330
18
100
AcDbEntity
  8
1HATCH
100
AcDbLine
 10
584.3381120169671
 20
-609.8414971597074
 30
0.0
 11
583.9668566683157
 21
-609.0111682708682
 31
0.0
  0
ARC
  5
A74A
330
18
100
AcDbEntity
  8
1HATCH
100
AcDbCircle
 10
585.1849900015708
 20
-609.0094971597593
 30
0.0
 40
0.831999999948
100
AcDbArc
 50
270.0
 51
0.0
  0
LINE
  5
A74B
330
18
100
AcDbEntity
  8
1HATCH
100
AcDbLine
 10
584.6771105094357
 20
-609.3614971597374
 30
0.0
 11
583.4655233350142
 21
-606.653301604351
 31
0.0
  0
LINE
  5
A74C
330
18
100
AcDbEntity
  8
1HATCH
100
AcDbLine
 10
583.1714788905884
 20
-608.5480216042309
 30
0.0
 11
583.4655233350142
 21
-607.8905638264947
 31
0.0
  0
LINE
  5
A74D
330
18
100
AcDbEntity
  8
1HATCH
100
AcDbLine
 10
583.75956777944
 20
-608.5480216042309
 30
0.0
 11
583.4655233350142
 21
-607.8905638264947
 31
0.0
  0
LINE
  5
A74E
330
18
100
AcDbEntity
  8
1HATCH
100
AcDbLine
 10
586.3369900014985
 20
-606.7374971599013
 30
0.0
 11
586.3369900014985
 21
-608.9709124760518
 31
0.0
  0
LINE
  5
A74F
330
18
100
AcDbEntity
  8
1HATCH
100
AcDbLine
 10
588.4809900013645
 20
-606.7374971599013
 30
0.0
 11
588.4809900013645
 21
-608.9709124760518
 31
0.0
  0
LINE
  5
A750
330
18
100
AcDbEntity
  8
1HATCH
100
AcDbLine
 10
587.9689900013965
 20
-606.7374971599013
 30
0.0
 11
587.9689900013965
 21
-608.9709124760518
 31
0.0
  0
LINE
  5
A751
330
18
100
AcDbEntity
  8
1HATCH
100
AcDbLine
 10
586.8489900014665
 20
-606.7374971599013
 30
0.0
 11
586.8489900014665
 21
-608.9709124760518
 31
0.0
  0
LINE
  5
A752
330
18
100
AcDbEntity
  8
1HATCH
100
AcDbLine
 10
586.0169900015188
 20
-606.7374971599013
 30
0.0
 11
586.0169900015188
 21
-609.0094971597593
 31
0.0
  0
LINE
  5
A753
330
18
100
AcDbEntity
  8
1HATCH
100
AcDbLine
 10
585.5049900015508
 20
-606.7374971599013
 30
0.0
 11
585.5049900015508
 21
-609.0414971597573
 31
0.0
  0
ARC
  5
A754
330
18
100
AcDbEntity
  8
1HATCH
100
AcDbCircle
 10
587.5529900014226
 20
-608.9709124760518
 30
0.0
 40
0.9279999999419999
100
AcDbArc
 50
299.9999999999775
 51
0.0
  0
LINE
  5
A755
330
18
100
AcDbEntity
  8
1HATCH
100
AcDbLine
 10
582.5144122239635
 20
-606.7374971599013
 30
0.0
 11
583.0445455572632
 21
-606.7374971599013
 31
0.0
  0
LINE
  5
A756
330
18
100
AcDbEntity
  8
1HATCH
100
AcDbLine
 10
578.8337011130861
 20
-606.7374971599013
 30
0.0
 11
579.3638344463858
 21
-606.7374971599013
 31
0.0
  0
LINE
  5
A757
330
18
100
AcDbEntity
  8
1HATCH
100
AcDbLine
 10
582.0337011128829
 20
-609.8532660485924
 30
0.0
 11
582.5873011128477
 21
-609.8532660485924
 31
0.0
  0
LINE
  5
A758
330
18
100
AcDbEntity
  8
1HATCH
100
AcDbLine
 10
582.5873011128477
 20
-609.8533016041481
 30
0.0
 11
582.9641900017127
 21
-609.0111682708682
 31
0.0
  0
LINE
  5
A759
330
18
100
AcDbEntity
  8
1HATCH
100
AcDbLine
 10
577.8694344464807
 20
-609.0111682708682
 30
0.0
 11
578.8721011130837
 21
-609.0111682708682
 31
0.0
  0
LINE
  5
A75A
330
18
100
AcDbEntity
  8
1HATCH
100
AcDbLine
 10
578.0767233353564
 20
-608.5480216042309
 30
0.0
 11
578.6648122242079
 21
-608.5480216042309
 31
0.0
  0
LINE
  5
A75B
330
18
100
AcDbEntity
  8
1HATCH
100
AcDbLine
 10
579.248634446393
 20
-609.8532660485924
 30
0.0
 11
579.8022344463579
 21
-609.8532660485924
 31
0.0
  0
LINE
  5
A75C
330
18
100
AcDbEntity
  8
1HATCH
100
AcDbLine
 10
579.248634446393
 20
-609.8533016041481
 30
0.0
 11
578.8721011130837
 21
-609.0111682708682
 31
0.0
  0
LINE
  5
A75D
330
18
100
AcDbEntity
  8
1HATCH
100
AcDbLine
 10
579.8022344463579
 20
-609.8533016041481
 30
0.0
 11
578.3707677797821
 21
-606.653301604351
 31
0.0
  0
LINE
  5
A75E
330
18
100
AcDbEntity
  8
1HATCH
100
AcDbLine
 10
581.6969900017932
 20
-609.937497159698
 30
0.0
 11
580.9393011129524
 21
-607.9215682709373
 31
0.0
  0
LINE
  5
A75F
330
18
100
AcDbEntity
  8
1HATCH
100
AcDbLine
 10
581.6969900017932
 20
-609.937497159698
 30
0.0
 11
583.0445455572632
 21
-606.7374971599013
 31
0.0
  0
LINE
  5
A760
330
18
100
AcDbEntity
  8
1HATCH
100
AcDbLine
 10
580.1812566685561
 20
-609.937497159698
 30
0.0
 11
580.9393011129524
 21
-607.9215682709373
 31
0.0
  0
LINE
  5
A761
330
18
100
AcDbEntity
  8
1HATCH
100
AcDbLine
 10
580.1812566685561
 20
-609.937497159698
 30
0.0
 11
578.8337011130861
 21
-606.7374971599013
 31
0.0
  0
LINE
  5
A762
330
18
100
AcDbEntity
  8
1HATCH
100
AcDbLine
 10
580.1794788907785
 20
-608.6743149375562
 30
0.0
 11
580.9393011129524
 21
-606.653301604351
 31
0.0
  0
LINE
  5
A763
330
18
100
AcDbEntity
  8
1HATCH
100
AcDbLine
 10
580.1794788907785
 20
-608.6743149375562
 30
0.0
 11
579.3638344463858
 21
-606.7374971599013
 31
0.0
  0
LINE
  5
A764
330
18
100
AcDbEntity
  8
1HATCH
100
AcDbLine
 10
578.6648122242079
 20
-608.5480216042309
 30
0.0
 11
578.3707677797821
 21
-607.8905638264947
 31
0.0
  0
LINE
  5
A765
330
18
100
AcDbEntity
  8
1HATCH
100
AcDbLine
 10
578.0767233353564
 20
-608.5480216042309
 30
0.0
 11
578.3707677797821
 21
-607.8905638264947
 31
0.0
  0
LINE
  5
A766
330
18
100
AcDbEntity
  8
1HATCH
100
AcDbLine
 10
581.6991233351264
 20
-608.6743149375562
 30
0.0
 11
582.5144122239635
 21
-606.7374971599013
 31
0.0
  0
LINE
  5
A767
330
18
100
AcDbEntity
  8
1HATCH
100
AcDbLine
 10
581.6991233351264
 20
-608.6743149375562
 30
0.0
 11
580.9393011129524
 21
-606.653301604351
 31
0.0
  0
LINE
  5
A768
330
18
100
AcDbEntity
  8
1HATCH
100
AcDbLine
 10
576.7284566687754
 20
-606.7374971599013
 30
0.0
 11
577.3737900020677
 21
-606.7374971599013
 31
0.0
  0
LINE
  5
A769
330
18
100
AcDbEntity
  8
1HATCH
100
AcDbLine
 10
575.0865011133241
 20
-606.7374971599013
 30
0.0
 11
575.5917455577364
 21
-606.7374971599013
 31
0.0
  0
LINE
  5
A76A
330
18
100
AcDbEntity
  8
1HATCH
100
AcDbLine
 10
577.3737900020677
 20
-606.7374971599013
 30
0.0
 11
576.2178788910301
 21
-608.193319382031
 31
0.0
  0
LINE
  5
A76B
330
18
100
AcDbEntity
  8
1HATCH
100
AcDbLine
 10
576.7284566687754
 20
-606.7374971599013
 30
0.0
 11
575.5917455577364
 21
-608.1690704931436
 31
0.0
  0
LINE
  5
A76C
330
18
100
AcDbEntity
  8
1HATCH
100
AcDbLine
 10
576.7284566687754
 20
-609.8532660485924
 30
0.0
 11
577.4925455576158
 21
-609.8532660485924
 31
0.0
  0
LINE
  5
A76D
330
18
100
AcDbEntity
  8
1HATCH
100
AcDbLine
 10
575.0865011133241
 20
-609.8532660485924
 30
0.0
 11
575.5917455577364
 21
-609.8532660485924
 31
0.0
  0
LINE
  5
A76E
330
18
100
AcDbEntity
  8
1HATCH
100
AcDbLine
 10
577.0982344465297
 20
-609.4977104930596
 30
0.0
 11
576.2178788910301
 21
-608.193319382031
 31
0.0
  0
LINE
  5
A76F
330
18
100
AcDbEntity
  8
1HATCH
100
AcDbLine
 10
576.7284566687754
 20
-609.8533016041481
 30
0.0
 11
575.5917455577364
 21
-608.1690704931436
 31
0.0
  0
LINE
  5
A770
330
18
100
AcDbEntity
  8
1HATCH
100
AcDbLine
 10
575.5917455577364
 20
-606.7374971599013
 30
0.0
 11
575.5917455577364
 21
-609.8532660485924
 31
0.0
  0
LINE
  5
A771
330
18
100
AcDbEntity
  8
1HATCH
100
AcDbLine
 10
575.0865011133241
 20
-606.7374971599013
 30
0.0
 11
575.0865011133241
 21
-609.8532660485924
 31
0.0
  0
LINE
  5
A772
330
18
100
AcDbEntity
  8
1HATCH
100
AcDbLine
 10
577.0982344465297
 20
-609.4977104930596
 30
0.0
 11
578.3707677797821
 21
-606.6532660487958
 31
0.0
  0
LINE
  5
A773
330
18
100
AcDbEntity
  8
1HATCH
100
AcDbLine
 10
577.4925455576158
 20
-609.8533016041481
 30
0.0
 11
577.8694344464807
 21
-609.0111682708682
 31
0.0
  0
LINE
  5
A774
330
18
100
AcDbEntity
  8
1HATCH
100
AcDbLine
 10
582.0337011128829
 20
-609.8533016041481
 30
0.0
 11
583.4655233350142
 21
-606.653301604351
 31
0.0
  0
LINE
  5
A775
330
18
100
AcDbEntity
  8
1HATCH
100
AcDbLine
 10
582.9641900017127
 20
-609.0111682708682
 30
0.0
 11
583.9668566683157
 21
-609.0111682708682
 31
0.0
  0
LINE
  5
A776
330
18
100
AcDbEntity
  8
01
  6
BYBLOCK
100
AcDbLine
 10
603.1242651851395
 20
-597.3917175694717
 30
0.0
 11
606.6242651851395
 21
-603.4538953959627
 31
0.0
  0
LINE
  5
A777
330
18
100
AcDbEntity
  8
01
  6
BYBLOCK
100
AcDbLine
 10
589.8293494174075
 20
-596.4072867289808
 30
0.0
 11
593.3120873586486
 21
-594.3965270410883
 31
0.0
  0
LINE
  5
A778
330
18
100
AcDbEntity
  8
01
  6
BYBLOCK
100
AcDbLine
 10
588.5954548165839
 20
-599.7754873471902
 30
0.0
 11
589.7989485339059
 21
-599.0806499255262
 31
0.0
  0
LINE
  5
A779
330
18
100
AcDbEntity
  8
01
  6
BYBLOCK
100
AcDbLine
 10
591.7938136096991
 20
-597.92891403702
 30
0.0
 11
592.8449021415621
 21
-597.3220677902068
 31
0.0
  0
LINE
  5
A77A
330
18
100
AcDbEntity
  8
01
  6
BYBLOCK
100
AcDbLine
 10
587.786501112808
 20
-623.8718469731197
 30
0.0
 11
587.9158343146698
 21
-623.8371922461263
 31
0.0
  0
LINE
  5
A77B
330
18
100
AcDbEntity
  8
01
  6
BYBLOCK
100
AcDbLine
 10
606.052279737513
 20
-617.0631875394838
 30
0.0
 11
607.394619113379
 21
-616.2881875394837
 31
0.0
  0
LINE
  5
A77C
330
18
100
AcDbEntity
  8
01
  6
BYBLOCK
100
AcDbLine
 10
607.0522797375132
 20
-618.7952383470526
 30
0.0
 11
607.3120873586485
 21
-618.6452383470527
 31
0.0
  0
LINE
  5
A77D
330
18
100
AcDbEntity
  8
01
  6
BYBLOCK
100
AcDbLine
 10
600.6518333208041
 20
-627.1093399621903
 30
0.0
 11
603.2499095321574
 21
-625.6093399621903
 31
0.0
  0
LINE
  5
A77E
330
18
100
AcDbEntity
  8
01
  6
BYBLOCK
100
AcDbLine
 10
616.1479857435105
 20
-641.9494632801499
 30
0.0
 11
617.014011147295
 21
-641.4494632801499
 31
0.0
  0
LINE
  5
A77F
330
18
100
AcDbEntity
  8
01
  6
BYBLOCK
100
AcDbLine
 10
605.8026192281021
 20
-607.0307628525403
 30
0.0
 11
607.0526192281021
 21
-609.1958263620014
 31
0.0
  0
LINE
  5
A780
330
18
100
AcDbEntity
  8
01
  6
BYBLOCK
100
AcDbLine
 10
605.7982286571104
 20
-604.0231581605084
 30
0.0
 11
607.0482286571104
 21
-606.1882216699694
 31
0.0
  0
LINE
  5
A781
330
18
100
AcDbEntity
  8
01
  6
BYBLOCK
100
AcDbLine
 10
597.651833320804
 20
-621.9131875394837
 30
0.0
 11
600.6518333208041
 21
-627.1093399621903
 31
0.0
  0
LINE
  5
A782
330
18
100
AcDbEntity
  8
01
  6
BYBLOCK
100
AcDbLine
 10
606.052279737513
 20
-617.0631875394838
 30
0.0
 11
607.0522797375132
 21
-618.7952383470526
 31
0.0
  0
LINE
  5
A783
330
18
100
AcDbEntity
  8
01
  6
BYBLOCK
100
AcDbLine
 10
607.3120873586485
 20
-618.6452383470527
 30
0.0
 11
618.1120873586484
 21
-637.3513870687965
 31
0.0
  0
LINE
  5
A784
330
18
100
AcDbEntity
  8
01
  6
BYBLOCK
100
AcDbLine
 10
605.1862543337287
 20
-617.5631875394837
 30
0.0
 11
617.6362543337285
 21
-639.1272200937162
 31
0.0
  0
LINE
  5
A785
330
18
100
AcDbEntity
  8
01
  6
BYBLOCK
100
AcDbLine
 10
604.3202289299442
 20
-618.0631875394838
 30
0.0
 11
617.2702289299442
 21
-640.4932454975005
 31
0.0
  0
LINE
  5
A786
330
18
100
AcDbEntity
  8
01
  6
BYBLOCK
100
AcDbLine
 10
606.9542035261596
 20
-624.6253653659749
 30
0.0
 11
616.7542035261598
 21
-641.5994632801498
 31
0.0
  0
LINE
  5
A787
330
18
100
AcDbEntity
  8
01
  6
BYBLOCK
100
AcDbLine
 10
603.2499095321574
 20
-625.6093399621903
 30
0.0
 11
612.0499095321574
 21
-640.8513870687965
 31
0.0
  0
LINE
  5
A788
330
18
100
AcDbEntity
  8
01
  6
BYBLOCK
100
AcDbLine
 10
607.394619113379
 20
-616.2881875394837
 30
0.0
 11
605.4771508681096
 21
-610.4670351167771
 31
0.0
  0
ARC
  5
A789
330
18
100
AcDbEntity
  8
01
  6
BYBLOCK
100
AcDbCircle
 10
526.8569603397264
 20
-489.2928706208719
 30
0.0
 40
144.2499999999999
100
AcDbArc
 50
300.5739861080399
 51
303.7761119192532
  0
ARC
  5
A78A
330
18
100
AcDbEntity
  8
01
  6
BYBLOCK
100
AcDbCircle
 10
525.6069603397264
 20
-487.1278071114108
 30
0.0
 40
144.2499999999999
100
AcDbArc
 50
301.4612432337558
 51
304.3734211784137
  0
ARC
  5
A78B
330
18
100
AcDbEntity
  8
01
  6
BYBLOCK
100
AcDbCircle
 10
524.3569603397264
 20
-484.9627436019497
 30
0.0
 40
144.2499999999999
100
AcDbArc
 50
302.1446280944702
 51
304.7718880607773
  0
ARC
  5
A78C
330
18
100
AcDbEntity
  8
01
  6
BYBLOCK
100
AcDbCircle
 10
664.6069603397262
 20
-727.8828693634846
 30
0.0
 40
144.2499999999999
100
AcDbArc
 50
115.2281119392182
 51
119.3406055281477
  0
LINE
  5
A78D
330
18
100
AcDbEntity
  8
01
  6
BYBLOCK
100
AcDbLine
 10
593.3120873586485
 20
-594.3965270410883
 30
0.0
 11
598.1843862417359
 21
-599.8355962562568
 31
0.0
  0
LINE
  5
A78E
330
18
100
AcDbEntity
  8
01
  6
BYBLOCK
100
AcDbLine
 10
592.8449021415621
 20
-597.3220677902068
 30
0.0
 11
596.0895776861024
 21
-600.9441803270175
 31
0.0
  0
LINE
  5
A78F
330
18
100
AcDbEntity
  8
01
  6
BYBLOCK
100
AcDbLine
 10
612.0499095321574
 20
-640.8513870687965
 30
0.0
 11
616.1479857435105
 21
-641.9494632801499
 31
0.0
  0
LINE
  5
A790
330
18
100
AcDbEntity
  8
01
  6
BYBLOCK
100
AcDbLine
 10
618.1120873586484
 20
-637.3513870687965
 30
0.0
 11
617.014011147295
 21
-641.4494632801499
 31
0.0
  0
LINE
  5
A791
330
18
100
AcDbEntity
  8
01
  6
BYBLOCK
100
AcDbLine
 10
605.1862543337287
 20
-617.5631875394837
 30
0.0
 11
604.3202289299442
 21
-618.0631875394838
 31
0.0
  0
ARC
  5
A792
330
18
100
AcDbEntity
  8
01
  6
BYBLOCK
100
AcDbCircle
 10
628.694913527483
 20
-612.0892104457164
 30
0.0
 40
25.09608837142445
100
AcDbArc
 50
193.7711333760299
 51
209.9686619156588
  0
LINE
  5
A793
330
18
100
AcDbEntity
  8
01
  6
BYBLOCK
100
AcDbLine
 10
599.5484210271874
 20
-601.5676406930356
 30
0.0
 11
601.360154342905
 21
-608.3291214770592
 31
0.0
  0
LINE
  5
A794
330
18
100
AcDbEntity
  8
01
  6
BYBLOCK
100
AcDbLine
 10
586.3086513327345
 20
-597.3506549375627
 30
0.0
 11
590.845797404895
 21
-596.1349303115852
 31
0.0
  0
LINE
  5
A795
330
18
100
AcDbEntity
  8
01
  6
BYBLOCK
100
AcDbLine
 10
583.5855586794155
 20
-600.4614406298779
 30
0.0
 11
586.2400256706442
 21
-599.7501783432431
 31
0.0
  0
LINE
  5
A796
330
18
100
AcDbEntity
  8
01
  6
BYBLOCK
100
AcDbLine
 10
588.4650085501885
 20
-599.153995977496
 30
0.0
 11
589.6373454749555
 21
-598.8398692452475
 31
0.0
  0
LINE
  5
A797
330
18
100
AcDbEntity
  8
01
  6
BYBLOCK
100
AcDbLine
 10
597.2853148296738
 20
-621.3266475086318
 30
0.0
 11
598.7824998604219
 21
-620.9254779887228
 31
0.0
  0
LINE
  5
A798
330
18
100
AcDbEntity
  8
01
  6
BYBLOCK
100
AcDbLine
 10
597.8029529198789
 20
-623.2584991612099
 30
0.0
 11
598.0927306677656
 21
-623.1808534476792
 31
0.0
  0
LINE
  5
A799
330
18
100
AcDbEntity
  8
01
  6
BYBLOCK
100
AcDbLine
 10
589.4687485852851
 20
-629.6327472038606
 30
0.0
 11
592.3665260641523
 21
-628.8562900685531
 31
0.0
  0
LINE
  5
A79A
330
18
100
AcDbEntity
  8
01
  6
BYBLOCK
100
AcDbLine
 10
600.5959758721312
 20
-647.9779049548004
 30
0.0
 11
601.5619016984203
 21
-647.7190859096978
 31
0.0
  0
LINE
  5
A79B
330
18
100
AcDbEntity
  8
01
  6
BYBLOCK
100
AcDbLine
 10
599.6407438733669
 20
-611.5714525085675
 30
0.0
 11
600.2877914861232
 21
-613.9862670742901
 31
0.0
  0
LINE
  5
A79C
330
18
100
AcDbEntity
  8
01
  6
BYBLOCK
100
AcDbLine
 10
600.4149282818913
 20
-608.6651930978741
 30
0.0
 11
601.0619758946476
 21
-611.0800076635968
 31
0.0
  0
LINE
  5
A79D
330
18
100
AcDbEntity
  8
01
  6
BYBLOCK
100
AcDbLine
 10
587.9158343146698
 20
-623.8371922461263
 30
0.0
 11
589.4687485852851
 21
-629.6327472038606
 31
0.0
  0
LINE
  5
A79E
330
18
100
AcDbEntity
  8
01
  6
BYBLOCK
100
AcDbLine
 10
597.2853148296738
 20
-621.3266475086318
 30
0.0
 11
597.8029529198789
 21
-623.2584991612099
 31
0.0
  0
LINE
  5
A79F
330
18
100
AcDbEntity
  8
01
  6
BYBLOCK
100
AcDbLine
 10
598.0927306677656
 20
-623.1808534476792
 30
0.0
 11
603.68322204198
 21
-644.044851295523
 31
0.0
  0
LINE
  5
A7A0
330
18
100
AcDbEntity
  8
01
  6
BYBLOCK
100
AcDbLine
 10
596.3193890033848
 20
-621.5854665537342
 30
0.0
 11
602.7639832264375
 21
-645.637019628332
 31
0.0
  0
LINE
  5
A7A1
330
18
100
AcDbEntity
  8
01
  6
BYBLOCK
100
AcDbLine
 10
595.3534631770956
 20
-621.8442855988368
 30
0.0
 11
602.056876445251
 21
-646.8617644997236
 31
0.0
  0
LINE
  5
A7A2
330
18
100
AcDbEntity
  8
01
  6
BYBLOCK
100
AcDbLine
 10
596.1992706665243
 20
-628.8645854279628
 30
0.0
 11
601.2721239505336
 21
-647.7967316232285
 31
0.0
  0
LINE
  5
A7A3
330
18
100
AcDbEntity
  8
01
  6
BYBLOCK
100
AcDbLine
 10
592.3665260641523
 20
-628.8562900685531
 30
0.0
 11
596.9217412579566
 21
-645.8565846112407
 31
0.0
  0
LINE
  5
A7A4
330
18
100
AcDbEntity
  8
01
  6
BYBLOCK
100
AcDbLine
 10
598.7824998604219
 20
-620.9254779887228
 30
0.0
 11
598.4369928726682
 21
-614.8063992246103
 31
0.0
  0
ARC
  5
A7A5
330
18
100
AcDbEntity
  8
01
  6
BYBLOCK
100
AcDbCircle
 10
553.8579019194615
 20
-477.4127416206812
 30
0.0
 40
144.2499999999999
100
AcDbArc
 50
285.5739861080416
 51
288.7761119192527
  0
ARC
  5
A7A6
330
18
100
AcDbEntity
  8
01
  6
BYBLOCK
100
AcDbCircle
 10
553.2108543067052
 20
-474.9979270549585
 30
0.0
 40
144.2499999999999
100
AcDbArc
 50
286.4612432337551
 51
289.3734211784117
  0
ARC
  5
A7A7
330
18
100
AcDbEntity
  8
01
  6
BYBLOCK
100
AcDbCircle
 10
552.5638066939489
 20
-472.583112489236
 30
0.0
 40
144.2499999999999
100
AcDbArc
 50
287.1446280944801
 51
289.7718880607745
  0
ARC
  5
A7A8
330
18
100
AcDbEntity
  8
01
  6
BYBLOCK
100
AcDbCircle
 10
625.1625488452058
 20
-743.5253067633193
 30
0.0
 40
144.2499999999999
100
AcDbArc
 50
100.2281119392215
 51
104.3406055281487
  0
LINE
  5
A7A9
330
18
100
AcDbEntity
  8
01
  6
BYBLOCK
100
AcDbLine
 10
581.2375215962572
 20
-599.6506549375626
 30
0.0
 11
581.2737771716842
 21
-600.3102600062832
 31
0.0
  0
LINE
  5
A7AA
330
18
100
AcDbEntity
  8
01
  6
BYBLOCK
100
AcDbLine
 10
581.3400039671643
 20
-601.515137586337
 30
0.0
 11
581.4963415938756
 21
-604.3594198738531
 31
0.0
  0
LINE
  5
A7AB
330
18
100
AcDbEntity
  8
01
  6
BYBLOCK
100
AcDbLine
 10
583.5855586794155
 20
-600.4614406298779
 30
0.0
 11
583.6377962785014
 21
-601.411809910441
 31
0.0
  0
LINE
  5
A7AC
330
18
100
AcDbEntity
  8
01
  6
BYBLOCK
100
AcDbLine
 10
583.6959170733968
 20
-602.4692133707277
 30
0.0
 11
583.7994284373748
 21
-604.3524167000373
 31
0.0
  0
LINE
  5
A7AD
330
18
100
AcDbEntity
  8
01
  6
BYBLOCK
100
AcDbLine
 10
590.845797404895
 20
-596.1349303115852
 30
0.0
 11
594.1443420289521
 21
-602.6497114818651
 31
0.0
  0
LINE
  5
A7AE
330
18
100
AcDbEntity
  8
01
  6
BYBLOCK
100
AcDbLine
 10
589.6373454749555
 20
-598.8398692452475
 30
0.0
 11
591.8339896733244
 21
-603.1783451163839
 31
0.0
  0
LINE
  5
A7AF
330
18
100
AcDbEntity
  8
01
  6
BYBLOCK
100
AcDbLine
 10
596.9217412579566
 20
-645.8565846112407
 30
0.0
 11
600.5959758721312
 21
-647.9779049548004
 31
0.0
  0
LINE
  5
A7B0
330
18
100
AcDbEntity
  8
01
  6
BYBLOCK
100
AcDbLine
 10
603.68322204198
 20
-644.044851295523
 30
0.0
 11
601.5619016984203
 21
-647.7190859096978
 31
0.0
  0
LINE
  5
A7B1
330
18
100
AcDbEntity
  8
01
  6
BYBLOCK
100
AcDbLine
 10
596.3193890033848
 20
-621.5854665537342
 30
0.0
 11
595.3534631770956
 21
-621.8442855988368
 31
0.0
  0
ARC
  5
A7B2
330
18
100
AcDbEntity
  8
01
  6
BYBLOCK
100
AcDbCircle
 10
620.4437795843818
 20
-622.3824994305177
 30
0.0
 40
25.09608837142445
100
AcDbArc
 50
178.7711333760267
 51
194.9686619156642
  0
ARC
  5
A7B3
330
18
100
AcDbEntity
  8
01
  6
BYBLOCK
100
AcDbCircle
 10
586.4302543871596
 20
-592.3314917601012
 30
0.0
 40
9.5
100
AcDbArc
 50
285.4139799106692
 51
296.3792223244822
  0
ARC
  5
A7B4
330
18
100
AcDbEntity
  8
01
  6
BYBLOCK
100
AcDbCircle
 10
586.4302543871596
 20
-592.3314917601012
 30
0.0
 40
9.5
100
AcDbArc
 50
310.3760163376896
 51
320.6215320564892
  0
ARC
  5
A7B5
330
18
100
AcDbEntity
  8
01
  6
BYBLOCK
100
AcDbCircle
 10
586.4302543871596
 20
-592.3314917601012
 30
0.0
 40
9.5
100
AcDbArc
 50
335.0907413191984
 51
271.4835511155014
  0
ARC
  5
A7B6
330
18
100
AcDbEntity
  8
01
  6
BYBLOCK
100
AcDbCircle
 10
586.4302543871596
 20
-592.3314917601012
 30
0.0
 40
10.5
100
AcDbArc
 50
285.0745453738473
 51
296.4244277613397
  0
ARC
  5
A7B7
330
18
100
AcDbEntity
  8
01
  6
BYBLOCK
100
AcDbCircle
 10
586.4302543871596
 20
-592.3314917601012
 30
0.0
 40
10.5
100
AcDbArc
 50
309.0672187189969
 51
319.780858296452
  0
ARC
  5
A7B8
330
18
100
AcDbEntity
  8
01
  6
BYBLOCK
100
AcDbCircle
 10
586.4302543871596
 20
-592.3314917601012
 30
0.0
 40
10.5
100
AcDbArc
 50
332.7674072845762
 51
272.4805916030467
  0
CIRCLE
  5
A7D9
330
18
100
AcDbEntity
  8
01
100
AcDbCircle
 10
692.99033515066
 20
-706.3287576973694
 30
0.0
 40
5.599999999999952
  0
CIRCLE
  5
A7DA
330
18
100
AcDbEntity
  8
01
100
AcDbCircle
 10
692.99033515066
 20
-706.3287576973694
 30
0.0
 40
6.49999999999998
  0
LINE
  5
A887
330
18
100
AcDbEntity
  8
1CENTER
100
AcDbLine
 10
701.5769664434375
 20
-706.3287576973694
 30
0.0
 11
684.403703857883
 21
-706.3287576973694
 31
0.0
  0
LINE
  5
A888
330
18
100
AcDbEntity
  8
1CENTER
100
AcDbLine
 10
692.9903351506603
 20
-697.7421264045921
 30
0.0
 11
692.9903351506603
 21
-714.9153889901467
 31
0.0
  0
LINE
  5
A90E
330
18
100
AcDbEntity
  8
1CENTER
100
AcDbLine
 10
477.1403975955345
 20
-706.3287536973701
 30
0.0
 11
467.1403975955345
 21
-706.3287536973701
 31
0.0
  0
LINE
  5
A90F
330
18
100
AcDbEntity
  8
1CENTER
100
AcDbLine
 10
472.1403975955345
 20
-701.3287536973701
 30
0.0
 11
472.1403975955345
 21
-711.3287536973701
 31
0.0
  0
LINE
  5
A911
330
18
100
AcDbEntity
  8
1CENTER
100
AcDbLine
 10
543.2583510044465
 20
-706.3287536973701
 30
0.0
 11
533.2583510044465
 21
-706.3287536973701
 31
0.0
  0
LINE
  5
A912
330
18
100
AcDbEntity
  8
1CENTER
100
AcDbLine
 10
472.1403975955345
 20
-640.3441415834878
 30
0.0
 11
472.1403975955345
 21
-650.3441415834878
 31
0.0
  0
LINE
  5
A938
330
18
100
AcDbEntity
  8
01
100
AcDbLine
 10
651.6037815380888
 20
-717.5626845024528
 30
0.0
 11
651.6037815380888
 21
-684.0948308922859
 31
0.0
  0
ARC
  5
A939
330
18
100
AcDbEntity
  8
01
100
AcDbCircle
 10
650.6037815380887
 20
-684.0948308922859
 30
0.0
 40
1.000000000000028
100
AcDbArc
 50
0.0
 51
88.03400000000465
  0
LINE
  5
A93A
330
18
100
AcDbEntity
  8
01
100
AcDbLine
 10
628.3037815380886
 20
-682.3287576973694
 30
0.0
 11
650.6380879782262
 21
-683.0954195314514
 31
0.0
  0
LINE
  5
A93B
330
18
100
AcDbEntity
  8
01
100
AcDbLine
 10
628.3037815380887
 20
-682.3287576973694
 30
0.0
 11
628.3037815380887
 21
-719.3287576973694
 31
0.0
  0
LINE
  5
A93C
330
18
100
AcDbEntity
  8
01
100
AcDbLine
 10
650.6380879782262
 20
-718.5620958632874
 30
0.0
 11
628.3037815380887
 21
-719.3287576973694
 31
0.0
  0
ARC
  5
A93D
330
18
100
AcDbEntity
  8
01
100
AcDbCircle
 10
650.6037815380887
 20
-717.5626845024528
 30
0.0
 40
1.000000000000028
100
AcDbArc
 50
271.9659999999953
 51
0.0
  0
LINE
  5
A93F
330
18
100
AcDbEntity
  8
1CENTER
100
AcDbLine
 10
692.9903351506603
 20
-627.5555727920206
 30
0.0
 11
692.9903351506603
 21
-644.7288353775751
 31
0.0
  0
ARC
  5
C053
330
18
100
AcDbEntity
  8
01
100
AcDbCircle
 10
474.1403975955345
 20
-697.2975577632759
 30
0.0
 40
0.5000000000000013
100
AcDbArc
 50
0.0
 51
77.51311018584438
  0
ARC
  5
C054
330
18
100
AcDbEntity
  8
01
100
AcDbCircle
 10
470.1403975955345
 20
-715.3599496314644
 30
0.0
 40
0.5000000000000029
100
AcDbArc
 50
180.0
 51
257.5131101858384
  0
ARC
  5
C055
330
18
100
AcDbEntity
  8
01
100
AcDbCircle
 10
474.1403975955345
 20
-715.3599496314644
 30
0.0
 40
0.5000000000000013
100
AcDbArc
 50
282.4868898141556
 51
0.0
  0
ARC
  5
C056
330
18
100
AcDbEntity
  8
01
100
AcDbCircle
 10
472.1403975955345
 20
-706.3287536973701
 30
0.0
 40
9.749999999999995
100
AcDbArc
 50
77.51311018584438
 51
102.4868898141556
  0
ARC
  5
C057
330
18
100
AcDbEntity
  8
01
100
AcDbCircle
 10
470.1403975955345
 20
-697.2975577632759
 30
0.0
 40
0.5000000000000029
100
AcDbArc
 50
102.4868898141556
 51
180.0
  0
ARC
  5
C058
330
18
100
AcDbEntity
  8
01
100
AcDbCircle
 10
472.1403975955345
 20
-706.3287536973701
 30
0.0
 40
9.75
100
AcDbArc
 50
257.5131101858444
 51
282.4868898141556
  0
LINE
  5
C059
330
18
100
AcDbEntity
  8
01
100
AcDbLine
 10
474.6403975955345
 20
-697.2975577632759
 30
0.0
 11
474.6403975955345
 21
-715.3599496314644
 31
0.0
  0
LINE
  5
C05A
330
18
100
AcDbEntity
  8
01
100
AcDbLine
 10
469.6403975955345
 20
-715.3599496314644
 30
0.0
 11
469.6403975955345
 21
-697.2975577632759
 31
0.0
  0
SPLINE
  5
C05B
330
18
100
AcDbEntity
  8
01
100
AcDbSpline
210
0.0
220
0.0
230
1.0
 70
     8
 71
     3
 72
    18
 73
    14
 74
     0
 42
0.0000000001
 43
0.0000000001
 40
0.0
 40
0.0
 40
0.0
 40
0.0
 40
0.2500000000000002
 40
0.2500000000000002
 40
0.375
 40
0.375
 40
0.4999999999999998
 40
0.4999999999999998
 40
0.6249999999999996
 40
0.6249999999999996
 40
0.7499999999999993
 40
0.7499999999999993
 40
1.0
 40
1.0
 40
1.0
 40
1.0
 10
475.8295867847237
 20
-715.3538510999675
 30
0.0
 10
475.6363257274475
 20
-715.4328504250041
 30
0.0
 10
475.4440041157201
 20
-715.5041179595737
 30
0.0
 10
475.1646786572603
 20
-715.5983750707472
 30
0.0
 10
475.075185514752
 20
-715.627008295935
 30
0.0
 10
474.9039083069604
 20
-715.6793433717356
 30
0.0
 10
474.8212588937904
 20
-715.7032755366563
 30
0.0
 10
474.6697857543497
 20
-715.745274953003
 30
0.0
 10
474.6011141833935
 20
-715.7633368205624
 30
0.0
 10
474.4787462091332
 20
-715.794407958723
 30
0.0
 10
474.4249059725166
 20
-715.8074394913299
 30
0.0
 10
474.2955516852861
 20
-715.8379945960904
 30
0.0
 10
474.2485057036426
 20
-715.8481223846586
 30
0.0
 10
474.2485057036426
 20
-715.8481223846586
 30
0.0
  0
SPLINE
  5
C05C
330
18
100
AcDbEntity
  8
01
100
AcDbSpline
210
0.0
220
0.0
230
1.0
 70
     8
 71
     3
 72
    18
 73
    14
 74
     0
 42
0.0000000001
 43
0.0000000001
 40
0.0
 40
0.0
 40
0.0
 40
0.0
 40
0.2500000000000002
 40
0.2500000000000002
 40
0.3750000000000002
 40
0.3750000000000002
 40
0.5000000000000002
 40
0.5000000000000002
 40
0.6250000000000002
 40
0.6250000000000002
 40
0.7500000000000001
 40
0.7500000000000001
 40
1.0
 40
1.0
 40
1.0
 40
1.0
 10
468.4512084063454
 20
-697.3036562947727
 30
0.0
 10
468.6444694636216
 20
-697.2246569697361
 30
0.0
 10
468.836791075349
 20
-697.1533894351667
 30
0.0
 10
469.1161165338086
 20
-697.059132323993
 30
0.0
 10
469.205609676317
 20
-697.0304990988053
 30
0.0
 10
469.3768868841086
 20
-696.9781640230046
 30
0.0
 10
469.4595362972786
 20
-696.954231858084
 30
0.0
 10
469.6110094367193
 20
-696.9122324417374
 30
0.0
 10
469.6796810076755
 20
-696.8941705741779
 30
0.0
 10
469.8020489819357
 20
-696.8630994360171
 30
0.0
 10
469.8558892185524
 20
-696.8500679034103
 30
0.0
 10
469.9852435057829
 20
-696.8195127986498
 30
0.0
 10
470.0322894874264
 20
-696.8093850100817
 30
0.0
 10
470.0322894874264
 20
-696.8093850100817
 30
0.0
  0
SPLINE
  5
C05D
330
18
100
AcDbEntity
  8
01
100
AcDbSpline
210
0.0
220
0.0
230
1.0
 70
     8
 71
     3
 72
    16
 73
    12
 74
     0
 42
0.0000000001
 43
0.0000000001
 40
0.0
 40
0.0
 40
0.0
 40
0.0
 40
0.1249999999999998
 40
0.1249999999999998
 40
0.2499999999999997
 40
0.2499999999999997
 40
0.4999999999999998
 40
0.4999999999999998
 40
0.7499999999999999
 40
0.7499999999999999
 40
1.0
 40
1.0
 40
1.0
 40
1.0
 10
470.0322894874264
 20
-715.8481223846586
 30
0.0
 10
470.0322894874264
 20
-715.8481223846586
 30
0.0
 10
470.0208739652998
 20
-715.8456144286677
 30
0.0
 10
469.9764409089588
 20
-715.8356096475075
 30
0.0
 10
469.9427453084053
 20
-715.8279529824579
 30
0.0
 10
469.8133979869439
 20
-715.7974084779253
 30
0.0
 10
469.6869421066369
 20
-715.7663083241483
 30
0.0
 10
469.3859959056413
 20
-715.6829053157767
 30
0.0
 10
469.2092024708738
 20
-715.6297563862541
 30
0.0
 10
468.8395061988709
 20
-715.5050640596505
 30
0.0
 10
468.6444350406362
 20
-715.4328363539199
 30
0.0
 10
468.4512084063454
 20
-715.3538510999675
 30
0.0
  0
SPLINE
  5
C05E
330
18
100
AcDbEntity
  8
01
100
AcDbSpline
210
0.0
220
0.0
230
1.0
 70
     8
 71
     3
 72
    16
 73
    12
 74
     0
 42
0.0000000001
 43
0.0000000001
 40
0.0
 40
0.0
 40
0.0
 40
0.0
 40
0.1249999999999997
 40
0.1249999999999997
 40
0.2499999999999993
 40
0.2499999999999993
 40
0.4999999999999996
 40
0.4999999999999996
 40
0.7499999999999998
 40
0.7499999999999998
 40
1.0
 40
1.0
 40
1.0
 40
1.0
 10
474.2485057036426
 20
-696.8093850100817
 30
0.0
 10
474.2485057036426
 20
-696.8093850100817
 30
0.0
 10
474.2599212257692
 20
-696.8118929660727
 30
0.0
 10
474.3043542821101
 20
-696.8218977472329
 30
0.0
 10
474.3380498826637
 20
-696.8295544122825
 30
0.0
 10
474.4673972041252
 20
-696.8600989168151
 30
0.0
 10
474.5938530844321
 20
-696.8911990705919
 30
0.0
 10
474.8947992854278
 20
-696.9746020789636
 30
0.0
 10
475.0715927201952
 20
-697.0277510084861
 30
0.0
 10
475.441288992198
 20
-697.1524433350897
 30
0.0
 10
475.6363601504328
 20
-697.2246710408203
 30
0.0
 10
475.8295867847237
 20
-697.3036562947727
 30
0.0
  0
ARC
  5
C05F
330
18
100
AcDbEntity
  8
01
100
AcDbCircle
 10
472.1403975955345
 20
-706.3287536973701
 30
0.0
 40
9.750000000000005
100
AcDbArc
 50
112.2332717982959
 51
247.766728201704
  0
ARC
  5
C060
330
18
100
AcDbEntity
  8
01
100
AcDbCircle
 10
472.1403975955345
 20
-706.3287536973701
 30
0.0
 40
9.750000000000009
100
AcDbArc
 50
292.233271798296
 51
67.76672820170407
  0
CIRCLE
  5
C061
330
18
100
AcDbEntity
  8
01
100
AcDbCircle
 10
472.1403975955345
 20
-706.3287536973701
 30
0.0
 40
10.3
  0
SPLINE
  5
C063
330
18
100
AcDbEntity
  8
01
100
AcDbSpline
210
0.0
220
0.0
230
1.0
 70
    24
 71
     1
 72
     4
 73
     2
 74
     0
 42
0.0000000001
 43
0.0000000001
 40
0.1160848018737504
 40
0.1160848018737504
 40
1.0
 40
1.0
 10
531.9583510044492
 20
-716.0787536973701
 30
0.0
 10
517.258326193437
 20
-716.0787536973701
 30
0.0
  0
SPLINE
  5
C064
330
18
100
AcDbEntity
  8
01
100
AcDbSpline
210
0.0
220
0.0
230
1.0
 70
    24
 71
     1
 72
     4
 73
     2
 74
     0
 42
0.0000000001
 43
0.0000000001
 40
0.0
 40
0.0
 40
0.8839151981262495
 40
0.8839151981262495
 10
517.258326193437
 20
-696.5787536973701
 30
0.0
 10
531.9583510044491
 20
-696.5787536973701
 30
0.0
  0
ARC
  5
C065
330
18
100
AcDbEntity
  8
01
100
AcDbCircle
 10
517.258326193437
 20
-715.0787536973701
 30
0.0
 40
1.0
100
AcDbArc
 50
180.0
 51
270.0
  0
ARC
  5
C066
330
18
100
AcDbEntity
  8
01
100
AcDbCircle
 10
517.258326193437
 20
-697.5787536973701
 30
0.0
 40
1.0
100
AcDbArc
 50
90.0
 51
180.0
  0
LINE
  5
C067
330
18
100
AcDbEntity
  8
01
100
AcDbLine
 10
530.758326193437
 20
-697.7664818025983
 30
0.0
 11
530.758326193437
 21
-714.8910255921419
 31
0.0
  0
SPLINE
  5
C068
330
18
100
AcDbEntity
  8
01
100
AcDbSpline
210
0.0
220
0.0
230
1.0
 70
     8
 71
     3
 72
    14
 73
    10
 74
     0
 42
0.0000000001
 43
0.0000000001
 40
0.0
 40
0.0
 40
0.0
 40
0.0
 40
0.25
 40
0.25
 40
0.5
 40
0.5
 40
0.75
 40
0.75
 40
1.0
 40
1.0
 40
1.0
 40
1.0
 10
529.758326193437
 20
-697.2975577632759
 30
0.0
 10
529.89829387119
 20
-697.2975577632759
 30
0.0
 10
530.0367151453357
 20
-697.3071937185827
 30
0.0
 10
530.2867654852902
 20
-697.3462746275243
 30
0.0
 10
530.3990830481192
 20
-697.376080762398
 30
0.0
 10
530.5801304192062
 20
-697.4570004991821
 30
0.0
 10
530.6479310555101
 20
-697.5073900353735
 30
0.0
 10
530.7375499720532
 20
-697.6267596243885
 30
0.0
 10
530.758326193437
 20
-697.6935590750998
 30
0.0
 10
530.758326193437
 20
-697.7664818025983
 30
0.0
  0
SPLINE
  5
C069
330
18
100
AcDbEntity
  8
01
100
AcDbSpline
210
0.0
220
0.0
230
1.0
 70
     8
 71
     3
 72
    14
 73
    10
 74
     0
 42
0.0000000001
 43
0.0000000001
 40
0.0
 40
0.0
 40
0.0
 40
0.0
 40
0.25
 40
0.25
 40
0.5
 40
0.5
 40
0.75
 40
0.75
 40
1.0
 40
1.0
 40
1.0
 40
1.0
 10
530.758326193437
 20
-714.8910255921419
 30
0.0
 10
530.758326193437
 20
-714.9639422792764
 30
0.0
 10
530.7369657861765
 20
-715.0317269751373
 30
0.0
 10
530.6478265945005
 20
-715.1500538491009
 30
0.0
 10
530.5788939643463
 20
-715.201166703869
 30
0.0
 10
530.3988465239794
 20
-715.2814242960228
 30
0.0
 10
530.286140850484
 20
-715.3113871157294
 30
0.0
 10
530.0355702368653
 20
-715.3504354912634
 30
0.0
 10
529.8981840875467
 20
-715.3599496314644
 30
0.0
 10
529.758326193437
 20
-715.3599496314644
 30
0.0
  0
LINE
  5
C06A
330
18
100
AcDbEntity
  8
01
100
AcDbLine
 10
529.758326193437
 20
-715.3599496314644
 30
0.0
 11
517.258326193437
 21
-715.3599496314644
 31
0.0
  0
LINE
  5
C06B
330
18
100
AcDbEntity
  8
01
100
AcDbLine
 10
517.258326193437
 20
-697.2975577632759
 30
0.0
 11
529.758326193437
 21
-697.2975577632759
 31
0.0
  0
SPLINE
  5
C06C
330
18
100
AcDbEntity
  8
01
100
AcDbSpline
210
0.0
220
0.0
230
1.0
 70
     8
 71
     3
 72
    14
 73
    10
 74
     0
 42
0.0000000001
 43
0.0000000001
 40
0.0
 40
0.0
 40
0.0
 40
0.0
 40
0.2500000000000001
 40
0.2500000000000001
 40
0.5000000000000002
 40
0.5000000000000002
 40
0.7500000000000003
 40
0.7500000000000003
 40
1.0
 40
1.0
 40
1.0
 40
1.0
 10
517.258326193437
 20
-697.2975577632759
 30
0.0
 10
517.1211172785096
 20
-697.2975577632759
 30
0.0
 10
516.9861137329974
 20
-697.3089325733711
 30
0.0
 10
516.7387772743443
 20
-697.3518874406914
 30
0.0
 10
516.6282758449798
 20
-697.3831317677959
 30
0.0
 10
516.4460821714514
 20
-697.460317285187
 30
0.0
 10
516.3770890690668
 20
-697.5046579004465
 30
0.0
 10
516.2823215305804
 20
-697.6026395518248
 30
0.0
 10
516.258326193437
 20
-697.6551329748415
 30
0.0
 10
516.258326193437
 20
-697.7082838725868
 30
0.0
  0
SPLINE
  5
C06D
330
18
100
AcDbEntity
  8
01
100
AcDbSpline
210
0.0
220
0.0
230
1.0
 70
     8
 71
     3
 72
    14
 73
    10
 74
     0
 42
0.0000000001
 43
0.0000000001
 40
0.0
 40
0.0
 40
0.0
 40
0.0
 40
0.2500000000000001
 40
0.2500000000000001
 40
0.5000000000000002
 40
0.5000000000000002
 40
0.7500000000000003
 40
0.7500000000000003
 40
1.0
 40
1.0
 40
1.0
 40
1.0
 10
517.258326193437
 20
-715.3599496314644
 30
0.0
 10
517.1211172785096
 20
-715.3599496314644
 30
0.0
 10
516.9861137329974
 20
-715.3485748213691
 30
0.0
 10
516.7387772743443
 20
-715.3056199540488
 30
0.0
 10
516.6282758449798
 20
-715.2743756269442
 30
0.0
 10
516.4460821714514
 20
-715.1971901095532
 30
0.0
 10
516.3770890690668
 20
-715.1528494942936
 30
0.0
 10
516.2823215305804
 20
-715.0548678429153
 30
0.0
 10
516.258326193437
 20
-715.0023744198987
 30
0.0
 10
516.258326193437
 20
-714.9492235221535
 30
0.0
  0
LINE
  5
C06E
330
18
100
AcDbEntity
  8
01
100
AcDbLine
 10
516.258326193437
 20
-697.7082838725868
 30
0.0
 11
516.258326193437
 21
-714.9492235221535
 31
0.0
  0
LINE
  5
C06F
330
18
100
AcDbEntity
  8
01
100
AcDbLine
 10
516.258326193437
 20
-714.9492235221535
 30
0.0
 11
516.258326193437
 21
-715.0787536973701
 31
0.0
  0
LINE
  5
D755
330
18
100
AcDbEntity
  8
01
100
AcDbLine
 10
475.6403975955284
 20
-652.8902550985063
 30
0.0000000000000173
 11
481.390397595534
 21
-652.8902550985074
 31
0.0000000000000173
  0
LINE
  5
D756
330
18
100
AcDbEntity
  8
01
100
AcDbLine
 10
474.6403975955266
 20
-666.3902780427129
 30
0.0000000000000173
 11
474.6403975955284
 21
-653.8902550985063
 31
0.0000000000000173
  0
LINE
  5
D757
330
18
100
AcDbEntity
  8
01
100
AcDbLine
 10
469.6403975955266
 20
-666.3902780427111
 30
0.0000000000000173
 11
469.6403975955266
 21
-653.8902550985081
 31
0.0000000000000173
  0
ARC
  5
D758
330
18
100
AcDbEntity
  8
01
100
AcDbCircle
 10
470.6403975955258
 20
-666.3902780427129
 30
0.0000000000000173
 40
1.0
100
AcDbArc
 50
180.0000000000521
 51
270.0
  0
ARC
  5
D759
330
18
100
AcDbEntity
  8
01
100
AcDbCircle
 10
473.6403975955258
 20
-666.3902780427129
 30
0.0000000000000173
 40
1.0
100
AcDbArc
 50
270.0
 51
0.0
  0
LINE
  5
D75A
330
18
100
AcDbEntity
  8
01
100
AcDbLine
 10
470.6403975955266
 20
-667.3902780427147
 30
0.0000000000000173
 11
473.6403975955257
 21
-667.3902780427147
 31
0.0000000000000173
  0
LINE
  5
D75B
330
18
100
AcDbEntity
  8
01
100
AcDbLine
 10
462.8903975955349
 20
-652.8902550985082
 30
0.0000000000000173
 11
468.6403975955266
 21
-652.8902550985081
 31
0.0000000000000173
  0
ARC
  5
D75C
330
18
100
AcDbEntity
  8
01
100
AcDbCircle
 10
468.6403975955258
 20
-653.8902550985081
 30
0.0000000000000173
 40
1.0
100
AcDbArc
 50
0.0
 51
90.0
  0
ARC
  5
D75D
330
18
100
AcDbEntity
  8
01
100
AcDbCircle
 10
475.6403975955276
 20
-653.8902550985063
 30
0.0000000000000173
 40
1.0
100
AcDbArc
 50
89.99999999998697
 51
180.0
  0
LINE
  5
D75E
330
18
100
AcDbEntity
  8
01
100
AcDbLine
 10
481.8903975955342
 20
-652.3902550985077
 30
0.0000000000562748
 11
481.8903975955342
 21
-651.6902584317068
 31
0.0000000000562526
  0
ARC
  5
D75F
330
18
100
AcDbEntity
  8
01
100
AcDbCircle
 10
481.3903975955341
 20
-652.3902550985077
 30
0.0000000000562748
 40
0.5
100
AcDbArc
 50
269.999999999987
 51
0.0
  0
LINE
  5
D798
330
18
100
AcDbEntity
  8
01
100
AcDbLine
 10
462.3903975955348
 20
-652.3902550985077
 30
0.0000000000562748
 11
462.3903975955348
 21
-651.6902584317068
 31
0.0000000000562526
  0
ARC
  5
D799
330
18
100
AcDbEntity
  8
01
100
AcDbCircle
 10
462.8903975955349
 20
-652.3902550985077
 30
0.0000000000562748
 40
0.5
100
AcDbArc
 50
180.0
 51
270.000000000013
  0
TEXT
  5
DA85
330
18
100
AcDbEntity
  8
1TEXT
100
AcDbText
 10
557.3723191947244
 20
-735.1147578531604
 30
0.0
 40
4.0
  1
材質：亜鉛ダイキャスト・真鍮・ポリアセタール
 11
557.3723191947244
 21
-733.1147578531604
 31
0.0
100
AcDbText
 73
     2
  0
TEXT
  5
DA86
330
18
100
AcDbEntity
  8
1TEXT
100
AcDbText
 10
614.8276690316317
 20
-742.3807854394827
 30
0.0
 40
4.0
  1
表面処理
 72
     1
 11
624.0943356982983
 21
-742.3807854394827
 31
0.0
100
AcDbText
  0
TEXT
  5
DA87
330
18
100
AcDbEntity
  8
1TEXT
100
AcDbText
 10
614.6276690316316
 20
-756.2160740990071
 30
0.0
 40
4.0
  1
クローム
 72
     1
 11
624.0943356982983
 21
-756.2160740990071
 31
0.0
100
AcDbText
  0
TEXT
  5
DA88
330
18
100
AcDbEntity
  8
1TEXT
100
AcDbText
 10
612.561002364965
 20
-749.358680459467
 30
0.0
 40
4.0
  1
本金メッキ
 72
     1
 11
624.0943356982983
 21
-749.358680459467
 31
0.0
100
AcDbText
  0
LINE
  5
DA89
330
18
100
AcDbEntity
  8
1DIM
100
AcDbLine
 10
556.6943356982985
 20
-736.8807854394827
 30
0.0
 11
676.6943356982982
 21
-736.8807854394827
 31
0.0
  0
LINE
  5
DA8A
330
18
100
AcDbEntity
  8
1DIM
100
AcDbLine
 10
606.6943356982982
 20
-750.8807854394827
 30
0.0
 11
676.6943356982982
 21
-750.8807854394827
 31
0.0
  0
LINE
  5
DA8B
330
18
100
AcDbEntity
  8
1DIM
100
AcDbLine
 10
556.6943356982985
 20
-743.8807854394827
 30
0.0
 11
676.6943356982982
 21
-743.8807854394827
 31
0.0
  0
LINE
  5
DA8C
330
18
100
AcDbEntity
  8
1DIM
100
AcDbLine
 10
606.6943356982982
 20
-757.8807854394827
 30
0.0
 11
676.6943356982982
 21
-757.8807854394827
 31
0.0
  0
LINE
  5
DA8D
330
18
100
AcDbEntity
  8
1DIM
100
AcDbLine
 10
606.6943356982982
 20
-757.8807854394827
 30
0.0
 11
676.6943356982982
 21
-757.8807854394827
 31
0.0
  0
LINE
  5
DA8E
330
18
100
AcDbEntity
  8
1DIM
100
AcDbLine
 10
641.6943356982982
 20
-736.8807854394827
 30
0.0
 11
641.6943356982983
 21
-799.8807854394826
 31
0.0
  0
TEXT
  5
DA8F
330
18
100
AcDbEntity
  8
1TEXT
100
AcDbText
 10
643.7610023649654
 20
-749.5951424231321
 30
0.0
 40
4.0
  1
KLJ-3C-G
 72
     1
 11
659.0943356982988
 21
-749.5951424231321
 31
0.0
100
AcDbText
  0
TEXT
  5
DA90
330
18
100
AcDbEntity
  8
1TEXT
100
AcDbText
 10
652.2276690316316
 20
-742.3807854394827
 30
0.0
 40
4.0
  1
コード
 72
     1
 11
659.0943356982983
 21
-742.3807854394827
 31
0.0
100
AcDbText
  0
LINE
  5
DA91
330
18
100
AcDbEntity
  8
1DIM
100
AcDbLine
 10
606.6943356982983
 20
-799.8807854394826
 30
0.0
 11
606.6943356982982
 21
-736.8807854394827
 31
0.0
  0
LINE
  5
DA92
330
18
100
AcDbEntity
  8
1DIM
100
AcDbLine
 10
581.6943356982982
 20
-799.8807854394826
 30
0.0
 11
581.6943356982983
 21
-736.8807854394827
 31
0.0
  0
LINE
  5
DA93
330
18
100
AcDbEntity
  8
1DIM
100
AcDbLine
 10
676.6943356982982
 20
-799.8807854394828
 30
0.0
 11
676.6943356982982
 21
-736.8807854394827
 31
0.0
  0
LINE
  5
DA94
330
18
100
AcDbEntity
  8
1DIM
100
AcDbLine
 10
606.6943356982982
 20
-764.8807854394827
 30
0.0
 11
676.6943356982982
 21
-764.8807854394827
 31
0.0
  0
LINE
  5
DA95
330
18
100
AcDbEntity
  8
1DIM
100
AcDbLine
 10
606.6943356982982
 20
-764.8807854394827
 30
0.0
 11
676.6943356982982
 21
-764.8807854394827
 31
0.0
  0
LINE
  5
DA96
330
18
100
AcDbEntity
  8
1DIM
100
AcDbLine
 10
606.6943356982982
 20
-771.8807854394827
 30
0.0
 11
676.6943356982982
 21
-771.8807854394827
 31
0.0
  0
LINE
  5
DA97
330
18
100
AcDbEntity
  8
1DIM
100
AcDbLine
 10
606.6943356982982
 20
-771.8807854394827
 30
0.0
 11
676.6943356982982
 21
-771.8807854394827
 31
0.0
  0
TEXT
  5
DA98
330
18
100
AcDbEntity
  8
1TEXT
100
AcDbText
 10
607.561002364965
 20
-770.2160740990071
 30
0.0
 40
4.0
  1
サテンニッケル
 72
     1
 11
624.0943356982983
 21
-770.2160740990071
 31
0.0
100
AcDbText
  0
LINE
  5
DA99
330
18
100
AcDbEntity
  8
1DIM
100
AcDbLine
 10
606.6943356982982
 20
-778.8807854394827
 30
0.0
 11
676.6943356982982
 21
-778.8807854394827
 31
0.0
  0
LINE
  5
DA9A
330
18
100
AcDbEntity
  8
1DIM
100
AcDbLine
 10
606.6943356982982
 20
-778.8807854394827
 30
0.0
 11
676.6943356982982
 21
-778.8807854394827
 31
0.0
  0
TEXT
  5
DA9B
330
18
100
AcDbEntity
  8
1TEXT
100
AcDbText
 10
607.6943356982983
 20
-763.2160740990071
 30
0.0
 40
4.0
  1
パールクローム
 72
     1
 11
624.0943356982983
 21
-763.2160740990071
 31
0.0
100
AcDbText
  0
TEXT
  5
DA9C
330
18
100
AcDbEntity
  8
1TEXT
100
AcDbText
 10
643.7610023649654
 20
-756.5951424231321
 30
0.0
 40
4.0
  1
KLJ-3C-C
 72
     1
 11
659.0943356982988
 21
-756.5951424231321
 31
0.0
100
AcDbText
  0
TEXT
  5
DA9D
330
18
100
AcDbEntity
  8
1TEXT
100
AcDbText
 10
643.7610023649654
 20
-770.5951424231321
 30
0.0
 40
4.0
  1
KLJ-3C-N
 72
     1
 11
659.0943356982988
 21
-770.5951424231321
 31
0.0
100
AcDbText
  0
TEXT
  5
DA9E
330
18
100
AcDbEntity
  8
1TEXT
100
AcDbText
 10
643.7610023649654
 20
-763.5951424231321
 30
0.0
 40
4.0
  1
KLJ-3C-B
 72
     1
 11
659.0943356982988
 21
-763.5951424231321
 31
0.0
100
AcDbText
  0
TEXT
  5
DA9F
330
18
100
AcDbEntity
  8
1TEXT
100
AcDbText
 10
643.4893356982981
 20
-784.3807854394827
 30
0.0
 40
4.0
  1
KLJ-3C-4Q
 41
0.9
 72
     1
 11
659.0943356982981
 21
-784.3807854394827
 31
0.0
100
AcDbText
  0
TEXT
  5
DAA0
330
18
100
AcDbEntity
  8
1TEXT
100
AcDbText
 10
607.894335698298
 20
-784.3807854394827
 30
0.0
 40
4.0
  1
ダークアンバー
 72
     1
 11
624.0943356982981
 21
-784.3807854394827
 31
0.0
100
AcDbText
  0
LINE
  5
DAA1
330
18
100
AcDbEntity
  8
1DIM
100
AcDbLine
 10
606.6943356982982
 20
-785.8807854394827
 30
0.0
 11
676.6943356982982
 21
-785.8807854394827
 31
0.0
  0
LINE
  5
DAA2
330
18
100
AcDbEntity
  8
1DIM
100
AcDbLine
 10
606.6943356982982
 20
-792.8807854394828
 30
0.0
 11
676.6943356982982
 21
-792.8807854394828
 31
0.0
  0
TEXT
  5
DAA3
330
18
100
AcDbEntity
  8
1TEXT
100
AcDbText
 10
643.7610023649647
 20
-777.3807854394827
 30
0.0
 40
4.0
  1
KLJ-3C-D
 72
     1
 11
659.0943356982981
 21
-777.3807854394827
 31
0.0
100
AcDbText
  0
TEXT
  5
DAA4
330
18
100
AcDbEntity
  8
1TEXT
100
AcDbText
 10
607.0943356982981
 20
-777.3807854394827
 30
0.0
 40
4.0
  1
ミラーニッケル
 72
     1
 11
624.0943356982981
 21
-777.3807854394827
 31
0.0
100
AcDbText
  0
TEXT
  5
DAA5
330
18
100
AcDbEntity
  8
1TEXT
100
AcDbText
 10
643.4768356982981
 20
-791.3807854394828
 30
0.0
 40
4.0
  1
KLJ-3C-GQ
 41
0.9
 72
     1
 11
659.0943356982981
 21
-791.3807854394828
 31
0.0
100
AcDbText
  0
TEXT
  5
DAA6
330
18
100
AcDbEntity
  8
1TEXT
100
AcDbText
 10
607.9610023649648
 20
-791.3807854394828
 30
0.0
 40
4.0
  1
パールブラック
 72
     1
 11
624.0943356982981
 21
-791.3807854394828
 31
0.0
100
AcDbText
  0
TEXT
  5
DAA7
330
18
100
AcDbEntity
  8
1TEXT
100
AcDbText
 10
582.8743356982983
 20
-742.3807854394827
 30
0.0
 40
4.0
  1
材質：サムターン
 41
0.6
 72
     4
 11
594.1943356982983
 21
-740.3807854394827
 31
0.0
100
AcDbText
  0
TEXT
  5
DAA8
330
18
100
AcDbEntity
  8
1TEXT
100
AcDbText
 10
589.6610023649649
 20
-772.4554865188522
 30
0.0
 40
4.0
  1
亜鉛
 72
     4
 11
594.1943356982982
 21
-770.3221531855189
 31
0.0
100
AcDbText
  0
TEXT
  5
DAA9
330
18
100
AcDbEntity
  8
1TEXT
100
AcDbText
 10
583.261002364965
 20
-777.5266290456541
 30
0.0
 40
4.0
  1
ダイキャスト
 41
0.8
 72
     4
 11
594.1943356982982
 21
-775.3932957123208
 31
0.0
100
AcDbText
  0
LINE
  5
DAAA
330
18
100
AcDbEntity
  8
1DIM
100
AcDbLine
 10
556.6943356982983
 20
-799.8807854394826
 30
0.0
 11
556.6943356982985
 21
-736.8807854394827
 31
0.0
  0
TEXT
  5
DAAB
330
18
100
AcDbEntity
  8
1TEXT
100
AcDbText
 10
559.486928290891
 20
-742.3807854394827
 30
0.0
 40
4.0
  1
材質:カバー
 41
0.8
 72
     4
 11
569.1943356982985
 21
-740.3807854394827
 31
0.0
100
AcDbText
  0
TEXT
  5
DAAC
330
18
100
AcDbEntity
  8
1TEXT
100
AcDbText
 10
564.7276690316316
 20
-772.8319108402493
 30
0.0
 40
4.0
  1
真鍮
 72
     4
 11
569.1943356982983
 21
-770.7652441735826
 31
0.0
100
AcDbText
  0
TEXT
  5
DAAD
330
18
100
AcDbEntity
  8
1TEXT
100
AcDbText
 10
643.4893356982981
 20
-798.3807854394828
 30
0.0
 40
4.0
  1
KLJ-3C-8Q
 41
0.9
 72
     1
 11
659.0943356982981
 21
-798.3807854394828
 31
0.0
100
AcDbText
  0
TEXT
  5
DAAE
330
18
100
AcDbEntity
  8
1TEXT
100
AcDbText
 10
607.4276690316315
 20
-798.3807854394828
 30
0.0
 40
4.0
  1
ミラーブラック
 72
     1
 11
624.0943356982981
 21
-798.3807854394828
 31
0.0
100
AcDbText
  0
LINE
  5
DAAF
330
18
100
AcDbEntity
  8
1DIM
100
AcDbLine
 10
556.6943356982983
 20
-799.8807854394826
 30
0.0
 11
676.6943356982981
 21
-799.8807854394828
 31
0.0
  0
LINE
  5
E498
330
18
100
AcDbEntity
  8
1CENTER
100
AcDbLine
 10
636.2767208776465
 20
-707.5424496505892
 30
0.0
 11
619.103458292092
 21
-707.5424496505892
 31
0.0
  0
LINE
  5
E499
330
18
100
AcDbEntity
  8
01
100
AcDbLine
 10
627.690089584869
 20
-715.5630622029944
 30
0.0
 11
625.4900895848689
 21
-715.5630622029944
 31
0.0
  0
LINE
  5
E49A
330
18
100
AcDbEntity
  8
01
100
AcDbLine
 10
625.4900895848689
 20
-699.4630622029944
 30
0.0
 11
627.690089584869
 21
-699.4630622029944
 31
0.0
  0
ARC
  5
E49B
330
18
100
AcDbEntity
  8
01
100
AcDbCircle
 10
625.4900895848689
 20
-700.4630622029944
 30
0.0
 40
1.000000000000007
100
AcDbArc
 50
90.0
 51
180.0
  0
ARC
  5
E49C
330
18
100
AcDbEntity
  8
01
100
AcDbCircle
 10
625.4900895848689
 20
-714.5630622029944
 30
0.0
 40
1.000000000000007
100
AcDbArc
 50
180.0
 51
270.0
  0
LINE
  5
E49D
330
18
100
AcDbEntity
  8
01
100
AcDbLine
 10
624.4900895848689
 20
-700.4630622029944
 30
0.0
 11
624.4900895848689
 21
-714.5630622029944
 31
0.0
  0
LINE
  5
E49E
330
18
100
AcDbEntity
  8
01
100
AcDbLine
 10
611.6838846666911
 20
-704.6846350782481
 30
0.0
 11
612.1838846666911
 21
-704.1846350782481
 31
0.0
  0
LINE
  5
E49F
330
18
100
AcDbEntity
  8
01
100
AcDbLine
 10
612.1838846666911
 20
-710.8414893277405
 30
0.0
 11
611.6838846666911
 21
-710.3414893277405
 31
0.0
  0
LINE
  5
E4A0
330
18
100
AcDbEntity
  8
01
100
AcDbLine
 10
624.4900895848689
 20
-701.6130622029943
 30
0.0
 11
624.2838846666912
 21
-701.6130622029943
 31
0.0
  0
LINE
  5
E4A1
330
18
100
AcDbEntity
  8
01
100
AcDbLine
 10
623.9838846666911
 20
-701.9130622029944
 30
0.0
 11
624.2838846666912
 21
-701.6130622029943
 31
0.0
  0
LINE
  5
E4A2
330
18
100
AcDbEntity
  8
01
100
AcDbLine
 10
623.9838846666911
 20
-713.1130622029943
 30
0.0
 11
623.9838846666911
 21
-701.9130622029944
 31
0.0
  0
LINE
  5
E4A3
330
18
100
AcDbEntity
  8
01
100
AcDbLine
 10
612.1838846666911
 20
-704.1846350782481
 30
0.0
 11
617.6838846666911
 21
-704.1846350782481
 31
0.0
  0
LINE
  5
E4A4
330
18
100
AcDbEntity
  8
01
100
AcDbLine
 10
618.6838846666911
 20
-704.1846350782482
 30
0.0
 11
623.9838846666911
 21
-704.1846350782481
 31
0.0
  0
LINE
  5
E4A5
330
18
100
AcDbEntity
  8
01
100
AcDbLine
 10
611.6838846666911
 20
-710.3414893277405
 30
0.0
 11
611.6838846666911
 21
-704.6846350782481
 31
0.0
  0
LINE
  5
E4A6
330
18
100
AcDbEntity
  8
01
100
AcDbLine
 10
623.9838846666911
 20
-710.8414893277405
 30
0.0
 11
618.6838846666911
 21
-710.8414893277405
 31
0.0
  0
LINE
  5
E4A7
330
18
100
AcDbEntity
  8
01
100
AcDbLine
 10
617.6838846666911
 20
-710.8414893277405
 30
0.0
 11
612.1838846666911
 21
-710.8414893277405
 31
0.0
  0
LINE
  5
E4A8
330
18
100
AcDbEntity
  8
01
100
AcDbLine
 10
624.2838846666912
 20
-713.4130622029944
 30
0.0
 11
623.9838846666911
 21
-713.1130622029943
 31
0.0
  0
LINE
  5
E4A9
330
18
100
AcDbEntity
  8
01
100
AcDbLine
 10
624.2838846666912
 20
-713.4130622029944
 30
0.0
 11
624.4900895848689
 21
-713.4130622029944
 31
0.0
  0
LINE
  5
E4AA
330
18
100
AcDbEntity
  8
01
100
AcDbLine
 10
617.6838846666911
 20
-704.1846350782481
 30
0.0
 11
617.9717526353545
 21
-704.4725030438923
 31
0.0
  0
ARC
  5
E4AB
330
18
100
AcDbEntity
  8
01
100
AcDbCircle
 10
618.1838846697104
 20
-704.2603710095362
 30
0.0
 40
0.3
100
AcDbArc
 50
225.0000000000033
 51
314.9999999999967
  0
LINE
  5
E4AC
330
18
100
AcDbEntity
  8
01
100
AcDbLine
 10
618.6838846666911
 20
-704.1846350782481
 30
0.0
 11
618.3960167040664
 21
-704.4725030438923
 31
0.0
  0
LINE
  5
E4AD
330
18
100
AcDbEntity
  8
01
100
AcDbLine
 10
617.6838846666911
 20
-710.8414893277405
 30
0.0
 11
617.9717526353545
 21
-710.5536213620966
 31
0.0
  0
ARC
  5
E4AE
330
18
100
AcDbEntity
  8
01
100
AcDbCircle
 10
618.1838846697104
 20
-710.7657533964525
 30
0.0
 40
0.3
100
AcDbArc
 50
45.0000000000033
 51
134.9999999999967
  0
LINE
  5
E4AF
330
18
100
AcDbEntity
  8
01
100
AcDbLine
 10
618.6838846666911
 20
-710.8414893277405
 30
0.0
 11
618.3960167040664
 21
-710.5536213620966
 31
0.0
  0
LINE
  5
E4B0
330
18
100
AcDbEntity
  8
01
100
AcDbLine
 10
618.6838846666911
 20
-704.1846350782482
 30
0.0
 11
618.6838846666911
 21
-710.8414893277405
 31
0.0
  0
LINE
  5
E4B1
330
18
100
AcDbEntity
  8
01
100
AcDbLine
 10
617.6838846666911
 20
-704.1846350782481
 30
0.0
 11
617.6838846666911
 21
-710.8414893277405
 31
0.0
  0
LINE
  5
E4B2
330
18
100
AcDbEntity
  8
01
100
AcDbLine
 10
612.1838846666911
 20
-704.1846350782481
 30
0.0
 11
612.1838846666911
 21
-710.8414893277405
 31
0.0
  0
LINE
  5
E4B3
330
18
100
AcDbEntity
  8
01
100
AcDbLine
 10
623.9838846666911
 20
-707.5424496505892
 30
0.0
 11
618.6838846666911
 21
-707.5424496505892
 31
0.0
  0
LINE
  5
E4B4
330
18
100
AcDbEntity
  8
01
100
AcDbLine
 10
617.6838846666913
 20
-707.5424496505892
 30
0.0
 11
612.1838846666911
 21
-707.5424496505892
 31
0.0
  0
LINE
  5
E4B5
330
18
100
AcDbEntity
  8
01
100
AcDbLine
 10
602.690089584869
 20
-699.3424496578078
 30
0.0
 11
627.690089584869
 21
-699.3424496578078
 31
0.0
  0
LINE
  5
E4B6
330
18
100
AcDbEntity
  8
01
100
AcDbLine
 10
600.4900895848679
 20
-698.3424495877745
 30
0.0
 11
600.4900895848679
 21
-695.6424496575302
 31
0.0
  0
LINE
  5
E4B7
330
18
100
AcDbEntity
  8
01
100
AcDbLine
 10
600.4900895848679
 20
-695.6424496575302
 30
0.0
 11
600.4900895848679
 21
-693.4576015862823
 31
0.0
  0
LINE
  5
E4B8
330
18
100
AcDbEntity
  8
01
100
AcDbLine
 10
602.6900895848677
 20
-699.3424496575302
 30
0.0
 11
602.6900895848677
 21
-695.8424495877745
 31
0.0
  0
LINE
  5
E4B9
330
18
100
AcDbEntity
  8
01
100
AcDbLine
 10
602.6900895848677
 20
-698.8424495877745
 30
0.0
 11
600.9900895848679
 21
-698.8424495877745
 31
0.0
  0
LINE
  5
E4BA
330
18
100
AcDbEntity
  8
01
100
AcDbLine
 10
625.0900895848691
 20
-692.8424495877745
 30
0.0
 11
620.4900895848679
 21
-692.8424495877745
 31
0.0
  0
LINE
  5
E4BB
330
18
100
AcDbEntity
  8
01
100
AcDbLine
 10
600.9900895848679
 20
-698.8424495877745
 30
0.0
 11
600.4900895848679
 21
-698.3424495877745
 31
0.0
  0
LINE
  5
E4BC
330
18
100
AcDbEntity
  8
01
100
AcDbLine
 10
600.9900895848679
 20
-692.9377120798023
 30
0.0
 11
619.7400895848679
 21
-692.9377120798023
 31
0.0
  0
LINE
  5
E4BD
330
18
100
AcDbEntity
  8
01
100
AcDbLine
 10
600.4900895848679
 20
-693.4576015862823
 30
0.0
 11
600.9900895848679
 21
-692.9377120798023
 31
0.0
  0
ELLIPSE
  5
E4BE
330
18
100
AcDbEntity
  8
01
100
AcDbEllipse
 10
619.7400895848679
 20
-692.8424495877745
 30
0.0
 11
0.75
 21
0.0
 31
0.0
210
0.0
220
0.0
230
1.0
 40
0.1270166560369338
 41
4.71238898038469
 42
6.283185307179586
  0
LINE
  5
E4BF
330
18
100
AcDbEntity
  8
01
100
AcDbLine
 10
600.9900895848679
 20
-692.9377120798023
 30
0.0
 11
600.9900895848679
 21
-698.8424495877745
 31
0.0
  0
ARC
  5
E4C0
330
18
100
AcDbEntity
  8
01
100
AcDbCircle
 10
627.0900895848691
 20
-695.5424496578079
 30
0.0
 40
2.0
100
AcDbArc
 50
180.0
 51
188.62692452941
  0
LINE
  5
E4C1
330
18
100
AcDbEntity
  8
01
100
AcDbLine
 10
625.0900895848691
 20
-692.5424496578079
 30
0.0
 11
625.0900895848691
 21
-695.5424496578079
 31
0.0
  0
ARC
  5
E4C2
330
18
100
AcDbEntity
  8
01
100
AcDbCircle
 10
627.0900895848691
 20
-692.5424496578079
 30
0.0
 40
2.0
100
AcDbArc
 50
90.0
 51
180.0
  0
LINE
  5
E4C3
330
18
100
AcDbEntity
  8
01
100
AcDbLine
 10
627.690089584869
 20
-690.5424496578079
 30
0.0
 11
627.0900895848691
 21
-690.5424496578079
 31
0.0
  0
LINE
  5
E4C4
330
18
100
AcDbEntity
  8
01
100
AcDbLine
 10
602.6900895848677
 20
-698.3424497264481
 30
0.0
 11
627.690089584869
 21
-698.3424497264481
 31
0.0
  0
LINE
  5
E4C5
330
18
100
AcDbEntity
  8
01
100
AcDbLine
 10
602.6900895848677
 20
-695.8424495877745
 30
0.0
 11
627.690089584869
 21
-695.8424495877745
 31
0.0
  0
LINE
  5
E4C6
330
18
100
AcDbEntity
  8
01
100
AcDbLine
 10
702.9952716352803
 20
-609.4454684523771
 30
0.0
 11
702.4919867786033
 21
-608.9422040847967
 31
0.0
  0
LINE
  5
E4C7
330
18
100
AcDbEntity
  8
01
100
AcDbLine
 10
697.4918797882659
 20
-608.9422040847967
 30
0.0
 11
696.9886163520081
 21
-609.4454684523771
 31
0.0
  0
LINE
  5
E4C8
330
18
100
AcDbEntity
  8
01
100
AcDbLine
 10
702.9918797584636
 20
-611.1422059355209
 30
0.0
 11
702.9918797584636
 21
-609.4420784382055
 31
0.0
  0
LINE
  5
E4C9
330
18
100
AcDbEntity
  8
01
100
AcDbLine
 10
696.9918801719708
 20
-609.4422050980756
 30
0.0
 11
696.9918801719708
 21
-611.1422059355209
 31
0.0
  0
LINE
  5
E4CC
330
18
100
AcDbEntity
  8
01
100
AcDbLine
 10
688.9918797919912
 20
-611.1422059355209
 30
0.0
 11
688.9918797919912
 21
-609.4420784382055
 31
0.0
  0
LINE
  5
E4CD
330
18
100
AcDbEntity
  8
01
100
AcDbLine
 10
682.9918802054984
 20
-609.4422050980756
 30
0.0
 11
682.9918802054984
 21
-611.1422059355209
 31
0.0
  0
LINE
  5
E4CE
330
18
100
AcDbEntity
  8
01
100
AcDbLine
 10
697.4918793226046
 20
-608.9422040847967
 30
0.0
 11
696.9886768879754
 21
-609.4454088477323
 31
0.0
  0
LINE
  5
E4CF
330
18
100
AcDbEntity
  8
01
100
AcDbLine
 10
683.4918793561322
 20
-608.9422040847967
 30
0.0
 11
682.9886773871643
 21
-609.4454088477323
 31
0.0
  0
SPLINE
  5
E4D0
330
18
100
AcDbEntity
  8
01
100
AcDbSpline
210
0.0
220
0.0
230
1.0
 70
    24
 71
     3
 72
    11
 73
     7
 74
     0
 42
0.0000000001
 43
0.0000000001
 40
0.0
 40
0.0
 40
0.0
 40
0.0
 40
0.0003607178768828
 40
0.0003607178768828
 40
0.0003607178768828
 40
0.0007214404088506
 40
0.0007214404088506
 40
0.0007214404088506
 40
0.0007214404088506
 10
700.7418799819822
 20
-609.4423414595697
 30
0.0
 10
700.7418799819822
 20
-609.3586963041754
 30
0.0
 10
700.7418799819822
 20
-609.2751691654518
 30
0.0
 10
700.7418799819822
 20
-609.1917984008531
 30
0.0
 10
700.7418799819822
 20
-609.108426613618
 30
0.0
 10
700.7418799819822
 20
-609.0252101988178
 30
0.0
 10
700.7418799819822
 20
-608.9422052649907
 30
0.0
  0
SPLINE
  5
E4D1
330
18
100
AcDbEntity
  8
01
100
AcDbSpline
210
0.0
220
0.0
230
1.0
 70
    24
 71
     3
 72
    16
 73
    12
 74
     0
 42
0.0000000001
 43
0.0000000001
 40
0.0
 40
0.0
 40
0.0
 40
0.0
 40
0.0134835891622112
 40
0.1486773039996227
 40
0.2798573639350279
 40
0.4148419006937338
 40
0.5461977267117744
 40
0.6813647953550469
 40
0.8126075957812087
 40
0.9476293466950491
 40
1.0
 40
1.0
 40
1.0
 40
1.0
 10
702.4887904795272
 20
-608.9422040847967
 30
0.0
 10
702.4898242422072
 20
-608.9422040847967
 30
0.0
 10
702.5012230653525
 20
-608.9422040847967
 30
0.0
 10
702.4553298189484
 20
-608.9422040847967
 30
0.0
 10
702.3472588602211
 20
-608.9422040847967
 30
0.0
 10
702.1660626779783
 20
-608.9422040847967
 30
0.0
 10
701.9238114185675
 20
-608.9422040847967
 30
0.0
 10
701.6282983363732
 20
-608.9422040847967
 30
0.0
 10
701.2836355415083
 20
-608.9422040847967
 30
0.0
 10
700.9813323196554
 20
-608.9422040847967
 30
0.0
 10
700.7941826667809
 20
-608.9422040847967
 30
0.0
 10
700.7418798553211
 20
-608.9422040847967
 30
0.0
  0
SPLINE
  5
E4D2
330
18
100
AcDbEntity
  8
01
100
AcDbSpline
210
0.0
220
0.0
230
1.0
 70
     8
 71
     3
 72
    15
 73
    11
 74
     0
 42
0.0000000001
 43
0.0000000001
 40
0.0
 40
0.0
 40
0.0
 40
0.0
 40
0.1258590206341089
 40
0.2556966312497209
 40
0.381875535932899
 40
0.5117136234224768
 40
0.6378922006179232
 40
0.7677298033291556
 40
0.882500160812819
 40
1.0
 40
1.0
 40
1.0
 40
1.0
 10
702.9917754503352
 20
-609.4420784382055
 30
0.0
 10
702.9837766723033
 20
-609.4421465430518
 30
0.0
 10
702.9675262630233
 20
-609.4422849056392
 30
0.0
 10
702.8367971537638
 20
-609.4420358291986
 30
0.0
 10
702.6298324400267
 20
-609.4424189335772
 30
0.0
 10
702.3485378592151
 20
-609.4421247012052
 30
0.0
 10
701.9980414799163
 20
-609.4420751489515
 30
0.0
 10
701.6055414462786
 20
-609.4423330928694
 30
0.0
 10
701.1829306136123
 20
-609.4419748549167
 30
0.0
 10
700.890044042815
 20
-609.4422192833974
 30
0.0
 10
700.7418798553211
 20
-609.4423429338167
 30
0.0
  0
LINE
  5
E4D3
330
18
100
AcDbEntity
  8
01
100
AcDbLine
 10
702.9918797584636
 20
-636.1422053767274
 30
0.0
 11
702.9918797584636
 21
-611.1422059355209
 31
0.0
  0
LINE
  5
E4D4
330
18
100
AcDbEntity
  8
01
100
AcDbLine
 10
696.9918801719708
 20
-611.1422059355209
 30
0.0
 11
696.9918801719708
 21
-636.1422053767274
 31
0.0
  0
LINE
  5
E4D5
330
18
100
AcDbEntity
  8
01
100
AcDbLine
 10
699.2418800751133
 20
-628.1922049118111
 30
0.0
 11
699.2418800751133
 21
-609.4422013727853
 31
0.0
  0
SPLINE
  5
E4D6
330
18
100
AcDbEntity
  8
01
100
AcDbSpline
210
0.0
220
0.0
230
1.0
 70
     8
 71
     3
 72
    18
 73
    14
 74
     0
 42
0.0000000001
 43
0.0000000001
 40
0.0
 40
0.0
 40
0.0
 40
0.0
 40
0.1249999999999994
 40
0.1249999999999994
 40
0.2499999999999989
 40
0.2499999999999989
 40
0.4999999999999991
 40
0.4999999999999991
 40
0.6249999999999992
 40
0.6249999999999992
 40
0.7499999999999993
 40
0.7499999999999993
 40
1.0
 40
1.0
 40
1.0
 40
1.0
 10
700.7418799819822
 20
-628.1922052649741
 30
0.0
 10
700.7418799819822
 20
-628.291675140328
 30
0.0
 10
700.7221668068352
 20
-628.3892420505573
 30
0.0
 10
700.6468262614089
 20
-628.5706067878197
 30
0.0
 10
700.5911907873578
 20
-628.6535139050933
 30
0.0
 10
700.3847186156426
 20
-628.8601081167859
 30
0.0
 10
700.190795485844
 20
-628.9422091551995
 30
0.0
 10
699.8924002290403
 20
-628.9422033196464
 30
0.0
 10
699.7948281129248
 20
-628.9224901477987
 30
0.0
 10
699.6134372150609
 20
-628.8471300861148
 30
0.0
 10
699.5305224978541
 20
-628.7914786211928
 30
0.0
 10
699.3239433716433
 20
-628.5849874172008
 30
0.0
 10
699.2418799819822
 20
-628.3911340772581
 30
0.0
 10
699.2418799819822
 20
-628.1922052649741
 30
0.0
  0
LINE
  5
E4D7
330
18
100
AcDbEntity
  8
01
100
AcDbLine
 10
700.7418798553211
 20
-609.4423429338167
 30
0.0
 11
700.7418798553211
 21
-628.1922049118111
 31
0.0
  0
SPLINE
  5
E4D8
330
18
100
AcDbEntity
  8
01
100
AcDbSpline
210
0.0
220
0.0
230
1.0
 70
     8
 71
     3
 72
    14
 73
    10
 74
     0
 42
0.0000000001
 43
0.0000000001
 40
0.0
 40
0.0
 40
0.0
 40
0.0
 40
0.2500000000000002
 40
0.2500000000000002
 40
0.5000000000000004
 40
0.5000000000000004
 40
0.7500000000000002
 40
0.7500000000000002
 40
1.0
 40
1.0
 40
1.0
 40
1.0
 10
699.2418799825624
 20
-609.4422017497127
 30
0.0
 10
698.9198809319913
 20
-609.4421308923394
 30
0.0
 10
698.6202081512805
 20
-609.4423944844481
 30
0.0
 10
698.0653363901744
 20
-609.4422232880266
 30
0.0
 10
697.8241148181115
 20
-609.4421494784916
 30
0.0
 10
697.4176685040221
 20
-609.4424030166405
 30
0.0
 10
697.2612377689354
 20
-609.4420414466186
 30
0.0
 10
697.0464656210219
 20
-609.4423069395342
 30
0.0
 10
696.9918799822071
 20
-609.4419490194754
 30
0.0
 10
696.9918799819827
 20
-609.4422052649753
 30
0.0
  0
SPLINE
  5
E4D9
330
18
100
AcDbEntity
  8
01
100
AcDbSpline
210
0.0
220
0.0
230
1.0
 70
    24
 71
     3
 72
    11
 73
     7
 74
     0
 42
0.0000000001
 43
0.0000000001
 40
0.0
 40
0.0
 40
0.0
 40
0.0
 40
0.0003607178768874
 40
0.0003607178768874
 40
0.0003607178768874
 40
0.0007214404088598
 40
0.0007214404088598
 40
0.0007214404088598
 40
0.0007214404088598
 10
686.7418799819814
 20
-609.4423414595707
 30
0.0
 10
686.7418799819814
 20
-609.3586963041768
 30
0.0
 10
686.7418799819814
 20
-609.2751691654533
 30
0.0
 10
686.7418799819814
 20
-609.1917984008552
 30
0.0
 10
686.7418799819814
 20
-609.1084266136205
 30
0.0
 10
686.7418799819814
 20
-609.0252101988209
 30
0.0
 10
686.7418799819814
 20
-608.9422052649944
 30
0.0
  0
SPLINE
  5
E4DA
330
18
100
AcDbEntity
  8
01
100
AcDbSpline
210
0.0
220
0.0
230
1.0
 70
    24
 71
     3
 72
    16
 73
    12
 74
     0
 42
0.0000000001
 43
0.0000000001
 40
0.0
 40
0.0
 40
0.0
 40
0.0
 40
0.0134835799619913
 40
0.1486772998782719
 40
0.2798574042794923
 40
0.414841820429102
 40
0.5461978198207288
 40
0.6813647901760788
 40
0.8126075955326842
 40
0.9476294837875501
 40
0.9999999999999999
 40
0.9999999999999999
 40
0.9999999999999999
 40
0.9999999999999999
 10
688.4887909787161
 20
-608.9422040847967
 30
0.0
 10
688.4898245776411
 20
-608.9422040847967
 30
0.0
 10
688.5012216025966
 20
-608.9422040847967
 30
0.0
 10
688.4553307350319
 20
-608.9422040847967
 30
0.0
 10
688.3472578115505
 20
-608.9422040847967
 30
0.0
 10
688.1660636400501
 20
-608.9422040847967
 30
0.0
 10
687.9238107529837
 20
-608.9422040847967
 30
0.0
 10
687.6282984474683
 20
-608.9422040847967
 30
0.0
 10
687.2836354562138
 20
-608.9422040847967
 30
0.0
 10
686.9813321082916
 20
-608.9422040847967
 30
0.0
 10
686.7941825397545
 20
-608.9422040847967
 30
0.0
 10
686.7418798888488
 20
-608.9422040847967
 30
0.0
  0
SPLINE
  5
E4DB
330
18
100
AcDbEntity
  8
01
100
AcDbSpline
210
0.0
220
0.0
230
1.0
 70
     8
 71
     3
 72
    15
 73
    11
 74
     0
 42
0.0000000001
 43
0.0000000001
 40
0.0
 40
0.0
 40
0.0
 40
0.0
 40
0.1258589057345688
 40
0.255696460288807
 40
0.3818754157444429
 40
0.5117135384558782
 40
0.637891946975275
 40
0.7677296940508126
 40
0.8825001583629242
 40
1.0
 40
1.0
 40
1.0
 40
1.0
 10
688.9917750182016
 20
-609.4420784382055
 30
0.0
 10
688.9837761184586
 20
-609.4421465430319
 30
0.0
 10
688.9675254579388
 20
-609.4422849056128
 30
0.0
 10
688.8367981259411
 20
-609.4420358292188
 30
0.0
 10
688.6298320037929
 20
-609.4424189336052
 30
0.0
 10
688.3485389976416
 20
-609.4421247013232
 30
0.0
 10
687.9980412560815
 20
-609.4420751490583
 30
0.0
 10
687.6055422309979
 20
-609.4423330929351
 30
0.0
 10
687.1829306941428
 20
-609.4419748549043
 30
0.0
 10
686.8900440478932
 20
-609.4422192834303
 30
0.0
 10
686.7418798888488
 20
-609.4423429338167
 30
0.0
  0
LINE
  5
E4DC
330
18
100
AcDbEntity
  8
01
100
AcDbLine
 10
688.9918797919912
 20
-636.1422053767274
 30
0.0
 11
688.9918797919912
 21
-611.1422059355209
 31
0.0
  0
LINE
  5
E4DD
330
18
100
AcDbEntity
  8
01
100
AcDbLine
 10
682.9918802054984
 20
-636.1422053767274
 30
0.0
 11
682.9918802054984
 21
-611.1422059355209
 31
0.0
  0
LINE
  5
E4DE
330
18
100
AcDbEntity
  8
01
100
AcDbLine
 10
685.2418801086409
 20
-628.1922049118111
 30
0.0
 11
685.2418801086409
 21
-609.4422013727853
 31
0.0
  0
SPLINE
  5
E4DF
330
18
100
AcDbEntity
  8
01
100
AcDbSpline
210
0.0
220
0.0
230
1.0
 70
     8
 71
     3
 72
    18
 73
    14
 74
     0
 42
0.0000000001
 43
0.0000000001
 40
0.0
 40
0.0
 40
0.0
 40
0.0
 40
0.1250000000000005
 40
0.1250000000000005
 40
0.2500000000000011
 40
0.2500000000000011
 40
0.4999999999999996
 40
0.4999999999999996
 40
0.6249999999999993
 40
0.6249999999999993
 40
0.749999999999999
 40
0.749999999999999
 40
1.0
 40
1.0
 40
1.0
 40
1.0
 10
686.7418799819812
 20
-628.1922052646296
 30
0.0
 10
686.741879982027
 20
-628.2916751399848
 30
0.0
 10
686.7221668068395
 20
-628.3892420505362
 30
0.0
 10
686.646826261422
 20
-628.5706067877944
 30
0.0
 10
686.5911907873711
 20
-628.6535139050744
 30
0.0
 10
686.3847186156659
 20
-628.8601081167708
 30
0.0
 10
686.1907954858692
 20
-628.9422091551936
 30
0.0
 10
685.8924002290601
 20
-628.9422033196494
 30
0.0
 10
685.7948281129426
 20
-628.9224901478041
 30
0.0
 10
685.6134372150727
 20
-628.8471300861225
 30
0.0
 10
685.5305224978629
 20
-628.7914786212007
 30
0.0
 10
685.3239433716445
 20
-628.5849874172064
 30
0.0
 10
685.2418799819812
 20
-628.3911340772605
 30
0.0
 10
685.2418799819812
 20
-628.1922052649741
 30
0.0
  0
LINE
  5
E4E0
330
18
100
AcDbEntity
  8
01
100
AcDbLine
 10
686.7418798888488
 20
-609.4423429338167
 30
0.0
 11
686.7418798888488
 21
-628.1922049118111
 31
0.0
  0
SPLINE
  5
E4E1
330
18
100
AcDbEntity
  8
01
100
AcDbSpline
210
0.0
220
0.0
230
1.0
 70
     8
 71
     3
 72
    14
 73
    10
 74
     0
 42
0.0000000001
 43
0.0000000001
 40
0.0
 40
0.0
 40
0.0
 40
0.0
 40
0.25
 40
0.25
 40
0.5
 40
0.5
 40
0.75
 40
0.75
 40
1.0
 40
1.0
 40
1.0
 40
1.0
 10
685.2418799822716
 20
-609.4422017497127
 30
0.0
 10
684.9198809315665
 20
-609.4421308923394
 30
0.0
 10
684.6202081507391
 20
-609.4423944844472
 30
0.0
 10
684.0653363894371
 20
-609.4422232880366
 30
0.0
 10
683.8241148173281
 20
-609.4421494785116
 30
0.0
 10
683.4176685031911
 20
-609.4424030166487
 30
0.0
 10
683.2612377681481
 20
-609.442041446591
 30
0.0
 10
683.0464656203827
 20
-609.44230693955
 30
0.0
 10
682.9918799817052
 20
-609.4419490197024
 30
0.0
 10
682.9918799816552
 20
-609.4422052649753
 30
0.0
  0
SPLINE
  5
E4E2
330
18
100
AcDbEntity
  8
01
100
AcDbSpline
210
0.0
220
0.0
230
1.0
 70
    24
 71
     3
 72
    11
 73
     7
 74
     0
 42
0.0000000001
 43
0.0000000001
 40
12.5422763557778
 40
12.5422763557778
 40
12.5422763557778
 40
12.5422763557778
 40
12.69201870703971
 40
13.67932092783035
 40
14.67163434622995
 40
15.70745408779297
 40
15.70745408779297
 40
15.70745408779297
 40
15.70745408779297
 10
699.2418799820638
 20
-608.9422052649754
 30
0.0
 10
699.1942575412693
 20
-608.9422052649754
 30
0.0
 10
698.8360699061902
 20
-608.9422052649754
 30
0.0
 10
698.2236069600087
 20
-608.9422052649754
 30
0.0
 10
697.634003639817
 20
-608.9422052649755
 30
0.0
 10
697.4916138784142
 20
-608.9422052649755
 30
0.0
 10
697.4918799819065
 20
-608.9422052649755
 30
0.0
  0
SPLINE
  5
E4E3
330
18
100
AcDbEntity
  8
01
100
AcDbSpline
210
0.0
220
0.0
230
1.0
 70
    24
 71
     3
 72
    11
 73
     7
 74
     0
 42
0.0000000001
 43
0.0000000001
 40
0.0000000000000061
 40
0.0000000000000061
 40
0.0000000000000061
 40
0.0000000000000061
 40
0.00036063810356
 40
0.00036063810356
 40
0.00036063810356
 40
0.0007212803997743
 40
0.0007212803997743
 40
0.0007212803997743
 40
0.0007212803997743
 10
699.2418799819808
 20
-608.9422052649932
 30
0.0
 10
699.2418799819808
 20
-609.0251844727384
 30
0.0
 10
699.2418799819822
 20
-609.1083761454205
 30
0.0
 10
699.2418799819822
 20
-609.1917238243324
 30
0.0
 10
699.2418799819822
 20
-609.2750727520603
 30
0.0
 10
699.2418799819822
 20
-609.358578574628
 30
0.0
 10
699.2418799819822
 20
-609.4422031105358
 30
0.0
  0
SPLINE
  5
E4E4
330
18
100
AcDbEntity
  8
01
100
AcDbSpline
210
0.0
220
0.0
230
1.0
 70
    24
 71
     3
 72
    11
 73
     7
 74
     0
 42
0.0000000001
 43
0.0000000001
 40
12.54227635613844
 40
12.54227635613844
 40
12.54227635613844
 40
12.54227635613844
 40
12.69201870773213
 40
13.67932092866409
 40
14.67163434720575
 40
15.70745408779297
 40
15.70745408779297
 40
15.70745408779297
 40
15.70745408779297
 10
685.241879982034
 20
-608.9422052649754
 30
0.0
 10
685.194257541139
 20
-608.9422052649754
 30
0.0
 10
684.8360699059537
 20
-608.9422052649754
 30
0.0
 10
684.2236069596829
 20
-608.9422052649755
 30
0.0
 10
683.634003639711
 20
-608.9422052649755
 30
0.0
 10
683.4916138782462
 20
-608.9422052649755
 30
0.0
 10
683.4918799815807
 20
-608.9422052649755
 30
0.0
  0
SPLINE
  5
E4E5
330
18
100
AcDbEntity
  8
01
100
AcDbSpline
210
0.0
220
0.0
230
1.0
 70
    24
 71
     3
 72
    11
 73
     7
 74
     0
 42
0.0000000001
 43
0.0000000001
 40
0.0000000000000039
 40
0.0000000000000039
 40
0.0000000000000039
 40
0.0000000000000039
 40
0.0003606376145055
 40
0.0003606376145055
 40
0.0003606376145055
 40
0.0007212799106826
 40
0.0007212799106826
 40
0.0007212799106826
 40
0.0007212799106826
 10
685.2418799819806
 20
-608.9422052649866
 30
0.0
 10
685.2418799819806
 20
-609.025184360207
 30
0.0
 10
685.2418799819814
 20
-609.1083759197928
 30
0.0
 10
685.2418799819814
 20
-609.1917234852516
 30
0.0
 10
685.2418799819814
 20
-609.2750722995218
 30
0.0
 10
685.2418799819814
 20
-609.3585780082705
 30
0.0
 10
685.2418799819814
 20
-609.4422024301247
 30
0.0
  0
SPLINE
  5
E4E6
330
18
100
AcDbEntity
  8
01
100
AcDbSpline
210
0.0
220
0.0
230
1.0
 70
    24
 71
     3
 72
    18
 73
    14
 74
     0
 42
0.0000000001
 43
0.0000000001
 40
-1.333745785452581
 40
-1.333745785452581
 40
-1.333745785452581
 40
-1.333745785452581
 40
0.0
 40
0.0
 40
0.0
 40
0.1324261494914724
 40
0.3657262375835942
 40
0.5990083132974809
 40
0.8318817844114575
 40
1.0
 40
1.0
 40
1.0
 40
1.032726893625971
 40
1.032726893625971
 40
1.032726893625971
 40
1.032726893625971
 10
697.4918797882659
 20
-608.9422040847967
 30
0.0
 10
698.0900305593772
 20
-608.9422040847967
 30
0.0
 10
698.6881813304884
 20
-608.9422040847967
 30
0.0
 10
699.2863321015997
 20
-608.9422040847967
 30
0.0
 10
699.3457218326096
 20
-608.9422040847967
 30
0.0
 10
699.509740668442
 20
-608.9422040847967
 30
0.0
 10
699.797394359611
 20
-608.9422040847967
 30
0.0
 10
700.134604004878
 20
-608.9422040847967
 30
0.0
 10
700.4397591283929
 20
-608.9422040847967
 30
0.0
 10
700.621311068334
 20
-608.9422040847967
 30
0.0
 10
700.6974278288347
 20
-608.9422040847967
 30
0.0
 10
700.7122451709969
 20
-608.9422040847967
 30
0.0
 10
700.727062513159
 20
-608.9422040847967
 30
0.0
 10
700.7418798553211
 20
-608.9422040847967
 30
0.0
  0
SPLINE
  5
E4E7
330
18
100
AcDbEntity
  8
01
100
AcDbSpline
210
0.0
220
0.0
230
1.0
 70
    24
 71
     3
 72
    18
 73
    14
 74
     0
 42
0.0000000001
 43
0.0000000001
 40
-1.3337293096312
 40
-1.3337293096312
 40
-1.3337293096312
 40
-1.3337293096312
 40
0.0
 40
0.0
 40
0.0
 40
0.1324324317371045
 40
0.3657308304647318
 40
0.5990112169445546
 40
0.8318830017832409
 40
1.0
 40
1.0
 40
1.0
 40
1.032726656530257
 40
1.032726656530257
 40
1.032726656530257
 40
1.032726656530257
 10
683.4918802874547
 20
-608.9422040847967
 30
0.0
 10
684.0900276437166
 20
-608.9422040847967
 30
0.0
 10
684.6881749999784
 20
-608.9422040847967
 30
0.0
 10
685.2863223562402
 20
-608.9422040847967
 30
0.0
 10
685.3457152992871
 20
-608.9422040847967
 30
0.0
 10
685.5097372846824
 20
-608.9422040847967
 30
0.0
 10
685.7973943734371
 20
-608.9422040847967
 30
0.0
 10
686.1346040437061
 20
-608.9422040847967
 30
0.0
 10
686.439759161016
 20
-608.9422040847967
 30
0.0
 10
686.6213111015944
 20
-608.9422040847967
 30
0.0
 10
686.6974278623624
 20
-608.9422040847967
 30
0.0
 10
686.7122452045245
 20
-608.9422040847967
 30
0.0
 10
686.7270625466866
 20
-608.9422040847967
 30
0.0
 10
686.7418798888488
 20
-608.9422040847967
 30
0.0
  0
LINE
  5
E4E8
330
18
100
AcDbEntity
  8
01
100
AcDbLine
 10
696.4918800900144
 20
-611.1422059355209
 30
0.0
 11
696.9918801719708
 21
-611.1422059355209
 31
0.0
  0
LINE
  5
E4E9
330
18
100
AcDbEntity
  8
01
100
AcDbLine
 10
688.9918797919912
 20
-611.1422059355209
 30
0.0
 11
689.4918798739476
 21
-611.1422059355209
 31
0.0
  0
LINE
  5
E4EA
330
18
100
AcDbEntity
  8
01
100
AcDbLine
 10
689.4918798739476
 20
-611.1422059355209
 30
0.0
 11
696.4918800900144
 21
-611.1422059355209
 31
0.0
  0
LINE
  5
E4EB
330
18
100
AcDbEntity
  8
1CENTER
100
AcDbLine
 10
636.2767208776467
 20
-695.8424495877745
 30
0.0
 11
597.1171737348815
 21
-695.8424495877745
 31
0.0
  0
LINE
  5
E4EC
330
18
100
AcDbEntity
  8
01
100
AcDbLine
 10
482.6404098167416
 20
-642.8998610696515
 30
0.0
 11
482.6404098167416
 21
-645.3441415834875
 31
0.0
  0
LINE
  5
E4ED
330
18
100
AcDbEntity
  8
01
100
AcDbLine
 10
461.6404098167416
 20
-643.4773560859076
 30
0.0
 11
461.6404098167416
 21
-645.3441415834877
 31
0.0
  0
SPLINE
  5
E4EE
330
18
100
AcDbEntity
  8
01
100
AcDbSpline
210
0.0
220
0.0
230
1.0
 70
    24
 71
     1
 72
     5
 73
     3
 74
     0
 42
0.0000000001
 43
0.0000000001
 40
0.0000000000000249
 40
0.0000000000000249
 40
0.3003855657215301
 40
1.0
 40
1.0
 10
540.957965438725
 20
-701.3287536973701
 30
0.0
 10
541.2583510044465
 20
-701.6291392630915
 30
0.0
 10
541.957965438725
 20
-702.3287536973701
 30
0.0
  0
SPLINE
  5
E4EF
330
18
100
AcDbEntity
  8
01
100
AcDbSpline
210
0.0
220
0.0
230
1.0
 70
    24
 71
     1
 72
     5
 73
     3
 74
     0
 42
0.0000000001
 43
0.0000000001
 40
0.0
 40
0.0
 40
0.6996144342784699
 40
0.9999999999999467
 40
0.9999999999999467
 10
541.957965438725
 20
-710.3287536973701
 30
0.0
 10
541.2583510044465
 20
-711.0283681316484
 30
0.0
 10
540.957965438725
 20
-711.32875369737
 30
0.0
  0
SPLINE
  5
E4F0
330
18
100
AcDbEntity
  8
01
100
AcDbSpline
210
0.0
220
0.0
230
1.0
 70
    24
 71
     1
 72
     4
 73
     2
 74
     0
 42
0.0000000001
 43
0.0000000001
 40
0.0
 40
0.0
 40
1.0
 40
1.0
 10
553.457965438725
 20
-703.0003265726239
 30
0.0
 10
553.957965438725
 20
-703.5003265726239
 30
0.0
  0
SPLINE
  5
E4F1
330
18
100
AcDbEntity
  8
01
100
AcDbSpline
210
0.0
220
0.0
230
1.0
 70
    24
 71
     1
 72
     4
 73
     2
 74
     0
 42
0.0000000001
 43
0.0000000001
 40
0.0
 40
0.0
 40
1.0
 40
1.0
 10
547.8115188293183
 20
-703.0003265726239
 30
0.0
 10
553.457965438725
 20
-703.0003265726239
 30
0.0
  0
SPLINE
  5
E4F2
330
18
100
AcDbEntity
  8
01
100
AcDbSpline
210
0.0
220
0.0
230
1.0
 70
    24
 71
     1
 72
     4
 73
     2
 74
     0
 42
0.0000000001
 43
0.0000000001
 40
0.0
 40
0.0
 40
1.0
 40
1.0
 10
553.957965438725
 20
-709.1571808221163
 30
0.0
 10
553.457965438725
 20
-709.6571808221163
 30
0.0
  0
SPLINE
  5
E4F3
330
18
100
AcDbEntity
  8
01
100
AcDbSpline
210
0.0
220
0.0
230
1.0
 70
    24
 71
     1
 72
     4
 73
     2
 74
     0
 42
0.0000000001
 43
0.0000000001
 40
0.0
 40
0.0
 40
1.0
 40
1.0
 10
553.457965438725
 20
-709.6571808221163
 30
0.0
 10
547.8115188293183
 20
-709.6571808221163
 30
0.0
  0
SPLINE
  5
E4F4
330
18
100
AcDbEntity
  8
01
100
AcDbSpline
210
0.0
220
0.0
230
1.0
 70
    24
 71
     1
 72
     4
 73
     2
 74
     0
 42
0.0000000001
 43
0.0000000001
 40
0.0
 40
0.0
 40
1.0
 40
1.0
 10
541.957965438725
 20
-703.0003265726239
 30
0.0
 10
547.1044120481317
 20
-703.0003265726239
 30
0.0
  0
SPLINE
  5
E4F5
330
18
100
AcDbEntity
  8
01
100
AcDbSpline
210
0.0
220
0.0
230
1.0
 70
    24
 71
     1
 72
     4
 73
     2
 74
     0
 42
0.0000000001
 43
0.0000000001
 40
0.0
 40
0.0
 40
1.0
 40
1.0
 10
547.1044120481316
 20
-709.6571808221163
 30
0.0
 10
541.957965438725
 20
-709.6571808221163
 30
0.0
  0
LINE
  5
E4F6
330
18
100
AcDbEntity
  8
01
100
AcDbLine
 10
540.957965438725
 20
-706.3287536973701
 30
0.0
 11
540.957965438725
 21
-711.32875369737
 31
0.0
  0
LINE
  5
E4F7
330
18
100
AcDbEntity
  8
01
100
AcDbLine
 10
540.957965438725
 20
-701.3287536973701
 30
0.0
 11
540.957965438725
 21
-706.3287536973701
 31
0.0
  0
LINE
  5
E4F8
330
18
100
AcDbEntity
  8
01
100
AcDbLine
 10
541.957965438725
 20
-706.3287536973701
 30
0.0
 11
541.957965438725
 21
-702.3287536973701
 31
0.0
  0
LINE
  5
E4F9
330
18
100
AcDbEntity
  8
01
100
AcDbLine
 10
541.957965438725
 20
-710.3287536973701
 30
0.0
 11
541.957965438725
 21
-706.3287536973701
 31
0.0
  0
LINE
  5
E4FA
330
18
100
AcDbEntity
  8
01
100
AcDbLine
 10
553.1688417365604
 20
-706.3287536967769
 30
0.0
 11
547.957965438725
 21
-706.3287536967769
 31
0.0
  0
ELLIPSE
  5
E4FB
330
18
100
AcDbEntity
  8
01
100
AcDbEllipse
 10
547.457965438725
 20
-706.3287536973701
 30
0.0
 11
-0.4619397662556537
 21
-0.4619397662556395
 31
0.0
210
0.0
220
0.0
230
-1.0
 40
0.414213562373094
 41
3.53429173528851
 42
4.319689898685994
  0
ELLIPSE
  5
E4FC
330
18
100
AcDbEntity
  8
01
100
AcDbEllipse
 10
547.457965438725
 20
-706.3287536973701
 30
0.0
 11
-0.4619397662556537
 21
0.4619397662556467
 31
0.0
210
0.0
220
0.0
230
-1.0
 40
0.4142135623730754
 41
1.963495408493638
 42
2.748893571891077
  0
LINE
  5
E4FD
330
18
100
AcDbEntity
  8
01
100
AcDbLine
 10
547.957965438725
 20
-709.5107342127096
 30
0.0
 11
547.957965438725
 21
-706.6823070879634
 31
0.0
  0
LINE
  5
E4FE
330
18
100
AcDbEntity
  8
01
100
AcDbLine
 10
547.8115188293183
 20
-709.6571808221163
 30
0.0
 11
547.670097473081
 21
-709.4571808221162
 31
0.0
  0
LINE
  5
E4FF
330
18
100
AcDbEntity
  8
01
100
AcDbLine
 10
547.957965438725
 20
-705.9752003067767
 30
0.0
 11
547.957965438725
 21
-703.1467731820305
 31
0.0
  0
LINE
  5
E500
330
18
100
AcDbEntity
  8
01
100
AcDbLine
 10
547.8115188293183
 20
-703.0003265726239
 30
0.0
 11
547.670097473081
 21
-703.2003265726239
 31
0.0
  0
LINE
  5
E501
330
18
100
AcDbEntity
  8
01
100
AcDbLine
 10
546.957965438725
 20
-705.9752003067767
 30
0.0
 11
546.957965438725
 21
-703.1467731820305
 31
0.0
  0
ELLIPSE
  5
E502
330
18
100
AcDbEntity
  8
01
100
AcDbEllipse
 10
547.457965438725
 20
-706.3287536973701
 30
0.0
 11
-0.4619397662556395
 21
0.4619397662556395
 31
0.0
210
0.0
220
0.0
230
-1.0
 40
0.414213562373085
 41
5.105088062083387
 42
5.890486225480888
  0
LINE
  5
E503
330
18
100
AcDbEntity
  8
01
100
AcDbLine
 10
547.245833404369
 20
-703.2003265726239
 30
0.0
 11
547.1044120481316
 21
-703.0003265726239
 31
0.0
  0
ELLIPSE
  5
E504
330
18
100
AcDbEntity
  8
01
100
AcDbEllipse
 10
547.457965438725
 20
-706.3287536973701
 30
0.0
 11
0.4619397662556395
 21
0.4619397662556466
 31
0.0
210
0.0
220
0.0
230
-1.0
 40
0.4142135623730818
 41
3.534291735288567
 42
4.319689898685963
  0
LINE
  5
E505
330
18
100
AcDbEntity
  8
01
100
AcDbLine
 10
546.957965438725
 20
-709.5107342127096
 30
0.0
 11
546.957965438725
 21
-706.6823070879634
 31
0.0
  0
LINE
  5
E506
330
18
100
AcDbEntity
  8
01
100
AcDbLine
 10
547.245833404369
 20
-709.4571808221162
 30
0.0
 11
547.1044120481316
 21
-709.6571808221163
 31
0.0
  0
LINE
  5
E507
330
18
100
AcDbEntity
  8
01
100
AcDbLine
 10
546.957965438725
 20
-706.3287536967769
 30
0.0
 11
541.957965438725
 21
-706.3287536967769
 31
0.0
  0
LINE
  5
E508
330
18
100
AcDbEntity
  8
01
100
AcDbLine
 10
553.457965438725
 20
-703.1467731820305
 30
0.0
 11
553.457965438725
 21
-706.3287536967769
 31
0.0
  0
LINE
  5
E509
330
18
100
AcDbEntity
  8
01
100
AcDbLine
 10
553.957965438725
 20
-706.3287536973701
 30
0.0
 11
553.957965438725
 21
-703.5003265726239
 31
0.0
  0
LINE
  5
E50A
330
18
100
AcDbEntity
  8
01
100
AcDbLine
 10
553.957965438725
 20
-709.1571808221163
 30
0.0
 11
553.957965438725
 21
-706.3287536973701
 31
0.0
  0
LINE
  5
E50B
330
18
100
AcDbEntity
  8
01
100
AcDbLine
 10
553.457965438725
 20
-706.3287536967769
 30
0.0
 11
553.457965438725
 21
-709.5107342127096
 31
0.0
  0
ELLIPSE
  5
E50C
330
18
100
AcDbEntity
  8
01
100
AcDbEllipse
 10
547.457965438725
 20
-702.900326572624
 30
0.0
 11
0.0
 21
0.4242640687119347
 31
2.198241588757811E-15
210
0.0
220
5.181305113656384E-15
230
-1.0
 40
0.7071067811865304
 41
2.356194490192316
 42
3.926990816987264
  0
ELLIPSE
  5
E50D
330
18
100
AcDbEntity
  8
01
100
AcDbEllipse
 10
547.457965438725
 20
-709.7571808221162
 30
0.0
 11
0.0
 21
-0.4242640687119347
 31
-7.160938508832247E-16
210
0.0
220
1.687849393085030E-15
230
-1.0
 40
0.7071067811865304
 41
2.356194490192326
 42
3.926990816987297
  0
LINE
  5
E50E
330
18
100
AcDbEntity
  8
01
100
AcDbLine
 10
547.457965438725
 20
-703.6321453605208
 30
-0.0000000000000022
 11
547.457965438725
 21
-709.0776890668988
 31
-0.0000000000000022
  0
ELLIPSE
  5
E50F
330
18
100
AcDbEntity
  8
01
100
AcDbEllipse
 10
552.957965438725
 20
-706.3287536973701
 30
0.0
 11
-0.4619397662556537
 21
-0.4619397662556395
 31
0.0
210
0.0
220
0.0
230
-1.0
 40
0.414213562373094
 41
3.53429173528851
 42
4.319689898685994
  0
ELLIPSE
  5
E510
330
18
100
AcDbEntity
  8
01
100
AcDbEllipse
 10
552.957965438725
 20
-706.3287536973701
 30
0.0
 11
-0.4619397662556537
 21
0.4619397662556467
 31
0.0
210
0.0
220
0.0
230
-1.0
 40
0.4142135623730754
 41
1.963495408493638
 42
2.748893571891077
  0
SPLINE
  5
E511
330
18
100
AcDbEntity
  8
01
100
AcDbSpline
210
0.0
220
0.0
230
1.0
 70
    24
 71
     1
 72
     5
 73
     3
 74
     0
 42
0.0000000001
 43
0.0000000001
 40
-0.0000000000001448
 40
-0.0000000000001448
 40
0.3003855657215301
 40
1.0
 40
1.0
 10
467.1404098167415
 20
-642.6445271492091
 30
-0.0000000000562526
 10
467.4407953824631
 20
-642.3441415834875
 30
-0.0000000000562526
 10
468.1404098167416
 20
-641.6445271492091
 30
-0.0000000000562526
  0
SPLINE
  5
E512
330
18
100
AcDbEntity
  8
01
100
AcDbSpline
210
0.0
220
0.0
230
1.0
 70
    24
 71
     1
 72
     5
 73
     3
 74
     0
 42
0.0000000001
 43
0.0000000001
 40
0.0
 40
0.0
 40
0.6996144342784699
 40
1.000000000000145
 40
1.000000000000145
 10
476.1404098167416
 20
-641.6445271492091
 30
-0.0000000000562526
 10
476.8400242510201
 20
-642.3441415834875
 30
-0.0000000000562526
 10
477.1404098167418
 20
-642.6445271492091
 30
-0.0000000000562526
  0
SPLINE
  5
E513
330
18
100
AcDbEntity
  8
01
100
AcDbSpline
210
0.0
220
0.0
230
1.0
 70
    24
 71
     1
 72
     4
 73
     2
 74
     0
 42
0.0000000001
 43
0.0000000001
 40
0.0
 40
0.0
 40
1.0
 40
1.0
 10
468.8119826919954
 20
-630.1445271492091
 30
-0.0000000000562526
 10
469.3119826919954
 20
-629.6445271492091
 30
-0.0000000000562526
  0
SPLINE
  5
E514
330
18
100
AcDbEntity
  8
01
100
AcDbSpline
210
0.0
220
0.0
230
1.0
 70
    24
 71
     1
 72
     4
 73
     2
 74
     0
 42
0.0000000001
 43
0.0000000001
 40
0.0
 40
0.0
 40
1.0
 40
1.0
 10
468.8119826919954
 20
-635.7909737586158
 30
-0.0000000000562526
 10
468.8119826919954
 20
-630.1445271492091
 30
-0.0000000000562526
  0
SPLINE
  5
E515
330
18
100
AcDbEntity
  8
01
100
AcDbSpline
210
0.0
220
0.0
230
1.0
 70
    24
 71
     1
 72
     4
 73
     2
 74
     0
 42
0.0000000001
 43
0.0000000001
 40
0.0
 40
0.0
 40
1.0
 40
1.0
 10
474.9688369414878
 20
-629.6445271492091
 30
-0.0000000000562526
 10
475.4688369414878
 20
-630.1445271492091
 30
-0.0000000000562526
  0
SPLINE
  5
E516
330
18
100
AcDbEntity
  8
01
100
AcDbSpline
210
0.0
220
0.0
230
1.0
 70
    24
 71
     1
 72
     4
 73
     2
 74
     0
 42
0.0000000001
 43
0.0000000001
 40
0.0
 40
0.0
 40
1.0
 40
1.0
 10
475.4688369414878
 20
-630.1445271492091
 30
-0.0000000000562526
 10
475.4688369414878
 20
-635.7909737586158
 30
-0.0000000000562526
  0
SPLINE
  5
E517
330
18
100
AcDbEntity
  8
01
100
AcDbSpline
210
0.0
220
0.0
230
1.0
 70
    24
 71
     1
 72
     4
 73
     2
 74
     0
 42
0.0000000001
 43
0.0000000001
 40
0.0
 40
0.0
 40
1.0
 40
1.0
 10
468.8119826919954
 20
-641.6445271492091
 30
-0.0000000000562526
 10
468.8119826919954
 20
-636.4980805398022
 30
-0.0000000000562526
  0
SPLINE
  5
E518
330
18
100
AcDbEntity
  8
01
100
AcDbSpline
210
0.0
220
0.0
230
1.0
 70
    24
 71
     1
 72
     4
 73
     2
 74
     0
 42
0.0000000001
 43
0.0000000001
 40
0.0
 40
0.0
 40
1.0
 40
1.0
 10
475.4688369414878
 20
-636.4980805398025
 30
-0.0000000000562526
 10
475.4688369414878
 20
-641.6445271492091
 30
-0.0000000000562526
  0
LINE
  5
E519
330
18
100
AcDbEntity
  8
01
100
AcDbLine
 10
467.1404098167415
 20
-642.6445271492091
 30
-0.0000000000562526
 11
477.1404098167418
 21
-642.6445271492091
 31
-0.0000000000562526
  0
LINE
  5
E51A
330
18
100
AcDbEntity
  8
01
100
AcDbLine
 10
472.1404098167416
 20
-641.6445271492091
 30
-0.0000000000562526
 11
468.1404098167416
 21
-641.6445271492091
 31
-0.0000000000562526
  0
LINE
  5
E51B
330
18
100
AcDbEntity
  8
01
100
AcDbLine
 10
476.1404098167416
 20
-641.6445271492091
 30
-0.0000000000562526
 11
472.1404098167416
 21
-641.6445271492091
 31
-0.0000000000562526
  0
LINE
  5
E51C
330
18
100
AcDbEntity
  8
01
100
AcDbLine
 10
472.1404098161484
 20
-630.4336508513736
 30
-0.0000000000562526
 11
472.1404098161484
 21
-635.6445271492091
 31
-0.0000000000562526
  0
ELLIPSE
  5
E51D
330
18
100
AcDbEntity
  8
01
100
AcDbEllipse
 10
472.1404098167416
 20
-636.1445271492091
 30
-0.0000000000562526
 11
0.4619397662556395
 21
-0.4619397662556537
 31
0.0
210
0.0
220
0.0
230
-1.0
 40
0.414213562373094
 41
3.53429173528851
 42
4.319689898685994
  0
ELLIPSE
  5
E51E
330
18
100
AcDbEntity
  8
01
100
AcDbEllipse
 10
472.1404098167416
 20
-636.1445271492091
 30
-0.0000000000562526
 11
-0.4619397662556467
 21
-0.4619397662556537
 31
0.0
210
0.0
220
0.0
230
-1.0
 40
0.4142135623730754
 41
1.963495408493638
 42
2.748893571891077
  0
LINE
  5
E51F
330
18
100
AcDbEntity
  8
01
100
AcDbLine
 10
475.3223903320812
 20
-635.6445271492091
 30
-0.0000000000562526
 11
472.493963207335
 21
-635.6445271492091
 31
-0.0000000000562526
  0
LINE
  5
E520
330
18
100
AcDbEntity
  8
01
100
AcDbLine
 10
475.4688369414878
 20
-635.7909737586158
 30
-0.0000000000562526
 11
475.2688369414878
 21
-635.9323951148531
 31
-0.0000000000562526
  0
LINE
  5
E521
330
18
100
AcDbEntity
  8
01
100
AcDbLine
 10
471.7868564261484
 20
-635.6445271492091
 30
-0.0000000000562526
 11
468.9584293014022
 21
-635.6445271492091
 31
-0.0000000000562526
  0
LINE
  5
E522
330
18
100
AcDbEntity
  8
01
100
AcDbLine
 10
468.8119826919954
 20
-635.7909737586158
 30
-0.0000000000562526
 11
469.0119826919955
 21
-635.9323951148531
 31
-0.0000000000562526
  0
LINE
  5
E523
330
18
100
AcDbEntity
  8
01
100
AcDbLine
 10
471.7868564261484
 20
-636.6445271492091
 30
-0.0000000000562526
 11
468.9584293014022
 21
-636.6445271492091
 31
-0.0000000000562526
  0
ELLIPSE
  5
E524
330
18
100
AcDbEntity
  8
01
100
AcDbEllipse
 10
472.1404098167416
 20
-636.1445271492091
 30
-0.0000000000562526
 11
-0.4619397662556395
 21
-0.4619397662556395
 31
0.0
210
0.0
220
0.0
230
-1.0
 40
0.414213562373085
 41
5.105088062083387
 42
5.890486225480888
  0
LINE
  5
E525
330
18
100
AcDbEntity
  8
01
100
AcDbLine
 10
469.0119826919955
 20
-636.356659183565
 30
-0.0000000000562526
 11
468.8119826919954
 21
-636.4980805398025
 31
-0.0000000000562526
  0
ELLIPSE
  5
E526
330
18
100
AcDbEntity
  8
01
100
AcDbEllipse
 10
472.1404098167416
 20
-636.1445271492091
 30
-0.0000000000562526
 11
-0.4619397662556466
 21
0.4619397662556395
 31
0.0
210
0.0
220
0.0
230
-1.0
 40
0.4142135623730818
 41
3.534291735288567
 42
4.319689898685963
  0
LINE
  5
E527
330
18
100
AcDbEntity
  8
01
100
AcDbLine
 10
475.3223903320812
 20
-636.6445271492091
 30
-0.0000000000562526
 11
472.493963207335
 21
-636.6445271492091
 31
-0.0000000000562526
  0
LINE
  5
E528
330
18
100
AcDbEntity
  8
01
100
AcDbLine
 10
475.2688369414878
 20
-636.356659183565
 30
-0.0000000000562526
 11
475.4688369414878
 21
-636.4980805398025
 31
-0.0000000000562526
  0
LINE
  5
E529
330
18
100
AcDbEntity
  8
01
100
AcDbLine
 10
472.1404098161484
 20
-636.6445271492091
 30
-0.0000000000562526
 11
472.1404098161484
 21
-641.6445271492091
 31
-0.0000000000562526
  0
LINE
  5
E52A
330
18
100
AcDbEntity
  8
01
100
AcDbLine
 10
468.9584293014022
 20
-630.1445271492091
 30
-0.0000000000562526
 11
472.1404098161484
 21
-630.1445271492091
 31
-0.0000000000562526
  0
LINE
  5
E52B
330
18
100
AcDbEntity
  8
01
100
AcDbLine
 10
472.1404098167416
 20
-629.6445271492091
 30
-0.0000000000562526
 11
469.3119826919954
 21
-629.6445271492091
 31
-0.0000000000562526
  0
LINE
  5
E52C
330
18
100
AcDbEntity
  8
01
100
AcDbLine
 10
474.9688369414878
 20
-629.6445271492091
 30
-0.0000000000562526
 11
472.1404098167416
 21
-629.6445271492091
 31
-0.0000000000562526
  0
LINE
  5
E52D
330
18
100
AcDbEntity
  8
01
100
AcDbLine
 10
472.1404098161484
 20
-630.1445271492091
 30
-0.0000000000562526
 11
475.3223903320812
 21
-630.1445271492091
 31
-0.0000000000562526
  0
ELLIPSE
  5
E52E
330
18
100
AcDbEntity
  8
01
100
AcDbEllipse
 10
468.7119826919955
 20
-636.1445271492091
 30
-0.0000000000562526
 11
-0.4242640687119347
 21
2.597868168706518E-17
 31
2.198241588757811E-15
210
-5.181305113656384E-15
220
3.172634361422552E-31
230
-1.0
 40
0.7071067811865304
 41
2.356194490192316
 42
3.926990816987264
  0
ELLIPSE
  5
E52F
330
18
100
AcDbEntity
  8
01
100
AcDbEllipse
 10
475.5688369414879
 20
-636.1445271492091
 30
-0.0000000000562526
 11
0.4242640687119347
 21
-2.597868168706518E-17
 31
-7.160938508832247E-16
210
-1.687849393085030E-15
220
1.033509678342193E-31
230
-1.0
 40
0.7071067811865304
 41
2.356194490192326
 42
3.926990816987297
  0
LINE
  5
E530
330
18
100
AcDbEntity
  8
01
100
AcDbLine
 10
469.4438014798923
 20
-636.1445271492091
 30
-0.0000000000562548
 11
474.8893451862704
 21
-636.1445271492091
 31
-0.0000000000562548
  0
ELLIPSE
  5
E531
330
18
100
AcDbEntity
  8
01
100
AcDbEllipse
 10
472.1404098167416
 20
-630.6445271492091
 30
-0.0000000000562526
 11
0.4619397662556395
 21
-0.4619397662556537
 31
0.0
210
0.0
220
0.0
230
-1.0
 40
0.414213562373094
 41
3.53429173528851
 42
4.319689898685994
  0
ELLIPSE
  5
E532
330
18
100
AcDbEntity
  8
01
100
AcDbEllipse
 10
472.1404098167416
 20
-630.6445271492091
 30
-0.0000000000562526
 11
-0.4619397662556467
 21
-0.4619397662556537
 31
0.0
210
0.0
220
0.0
230
-1.0
 40
0.4142135623730754
 41
1.963495408493638
 42
2.748893571891077
  0
LINE
  5
E533
330
18
100
AcDbEntity
  8
01
100
AcDbLine
 10
540.7026315182844
 20
-715.8287536973701
 30
0.0
 11
538.2583510044454
 21
-715.8287536973701
 31
0.0
  0
LINE
  5
E534
330
18
100
AcDbEntity
  8
01
100
AcDbLine
 10
540.7026315182851
 20
-700.8459869653885
 30
0.0
 11
540.7026315182844
 21
-715.8287536973701
 31
0.0
  0
LINE
  5
E535
330
18
100
AcDbEntity
  8
01
100
AcDbLine
 10
540.7026315182844
 20
-700.8459869653884
 30
0.0
 11
540.7026315182844
 21
-691.128753627617
 31
0.0
  0
LINE
  5
E536
330
18
100
AcDbEntity
  8
01
100
AcDbLine
 10
540.7026315182844
 20
-691.128753627617
 30
0.0
 11
538.2583510044481
 21
-691.128753627617
 31
0.0
  0
SPLINE
  5
E537
330
18
100
AcDbEntity
  8
01
100
AcDbSpline
210
0.0
220
0.0
230
1.0
 70
    24
 71
     1
 72
     4
 73
     2
 74
     0
 42
0.0000000001
 43
0.0000000001
 40
0.7872217329667975
 40
0.7872217329667975
 40
1.0
 40
1.0
 10
540.7026315182851
 20
-701.3287536973701
 30
0.0
 10
540.957965438725
 20
-701.3287536973701
 30
0.0
  0
SPLINE
  5
E538
330
18
100
AcDbEntity
  8
01
100
AcDbSpline
210
0.0
220
0.0
230
1.0
 70
    24
 71
     1
 72
     4
 73
     2
 74
     0
 42
0.0000000001
 43
0.0000000001
 40
0.0
 40
0.0
 40
0.2127782670335814
 40
0.2127782670335814
 10
540.957965438725
 20
-711.3287536973701
 30
0.0
 10
540.7026315182846
 20
-711.3287536973701
 30
0.0
  0
LINE
  5
E539
330
18
100
AcDbEntity
  8
01
100
AcDbLine
 10
482.6404098167416
 20
-642.8998610696515
 30
0.0
 11
461.6404098167416
 21
-642.8998610696515
 31
0.0
  0
LINE
  5
E53A
330
18
100
AcDbEntity
  8
01
100
AcDbLine
 10
461.6404098167416
 20
-642.8998610696515
 30
0.0
 11
461.6404098167416
 21
-645.3441415834877
 31
0.0
  0
LINE
  5
E53B
330
18
100
AcDbEntity
  8
01
100
AcDbLine
 10
467.1404098167415
 20
-642.6445271492091
 30
-0.0000000000562526
 11
467.1404098167415
 21
-642.8998610696515
 31
0.0
  0
LINE
  5
E53C
330
18
100
AcDbEntity
  8
01
100
AcDbLine
 10
477.1404098167418
 20
-642.6445271492091
 30
-0.0000000000562526
 11
477.1404098167418
 21
-642.8998610696515
 31
0.0
  0
LINE
  5
EDB6
330
18
100
AcDbEntity
  8
01
100
AcDbLine
 10
694.4903351506603
 20
-633.542204084798
 30
0.0
 11
691.4903351506603
 21
-633.542204084798
 31
0.0
  0
ARC
  5
EDB7
330
18
100
AcDbEntity
  8
01
100
AcDbCircle
 10
694.4903351506603
 20
-635.542204084798
 30
0.0
 40
2.0
100
AcDbArc
 50
0.0
 51
90.0
  0
LINE
  5
EDB8
330
18
100
AcDbEntity
  8
01
100
AcDbLine
 10
696.4903351506603
 20
-636.1422040847979
 30
0.0
 11
696.4903351506603
 21
-635.542204084798
 31
0.0
  0
ARC
  5
EDB9
330
18
100
AcDbEntity
  8
01
100
AcDbCircle
 10
691.4903351506603
 20
-635.542204084798
 30
0.0
 40
2.0
100
AcDbArc
 50
90.0
 51
180.0
  0
LINE
  5
EDBA
330
18
100
AcDbEntity
  8
01
100
AcDbLine
 10
689.4903351506603
 20
-636.1422040847979
 30
0.0
 11
689.4903351506603
 21
-635.542204084798
 31
0.0
  0
LINE
  5
EF41
330
18
100
AcDbEntity
  8
1CENTER
100
AcDbLine
 10
493.1373395332068
 20
-774.2601672950259
 30
0.0
 11
459.9768956332068
 21
-774.2601672950259
 31
0.0
  0
LINE
  5
EF42
330
18
100
AcDbEntity
  8
1HATCH
100
AcDbLine
 10
491.5356645332068
 20
-772.6101672950259
 30
0.0
 11
463.1856645332068
 21
-772.6101672950259
 31
0.0
  0
LINE
  5
EF43
330
18
100
AcDbEntity
  8
1HATCH
100
AcDbLine
 10
491.5356645332068
 20
-775.9101672950259
 30
0.0
 11
463.1856645332068
 21
-775.9101672950259
 31
0.0
  0
LINE
  5
EF45
330
18
100
AcDbEntity
  8
1HATCH
100
AcDbLine
 10
491.1856645332068
 20
-772.2601672950259
 30
0.0
 11
491.1856645332068
 21
-776.2601672950259
 31
0.0
  0
LINE
  5
EF46
330
18
100
AcDbEntity
  8
1HATCH
100
AcDbLine
 10
461.8356645432069
 20
-771.2601672950259
 30
0.0
 11
461.8356645432069
 21
-777.2601672950259
 31
0.0
  0
LINE
  5
EF47
330
18
100
AcDbEntity
  8
1HATCH
100
AcDbLine
 10
462.8356647072808
 20
-776.2601672950259
 30
0.0
 11
463.1856645332068
 21
-775.9101672950259
 31
0.0
  0
LINE
  5
EF48
330
18
100
AcDbEntity
  8
1HATCH
100
AcDbLine
 10
463.1856645332068
 20
-772.6101672950259
 30
0.0
 11
462.8356647072808
 21
-772.2601672950259
 31
0.0
  0
LINE
  5
EF49
330
18
100
AcDbEntity
  8
01
100
AcDbLine
 10
688.9952712031467
 20
-609.4454684523771
 30
0.0
 11
688.7436287748081
 21
-609.1938362685869
 31
0.0
  0
LINE
  5
EF4A
330
18
100
AcDbEntity
  8
01
100
AcDbLine
 10
688.7436287748081
 20
-609.1938362685869
 30
0.0
 11
688.4919868121309
 21
-608.9422040847967
 31
0.0
  0
LINE
  5
EF4B
330
18
100
AcDbEntity
  8
01
100
AcDbLine
 10
683.4918802874548
 20
-608.9422040847967
 30
0.0
 11
683.2402481036646
 21
-609.1938362685869
 31
0.0
  0
LINE
  5
EF4C
330
18
100
AcDbEntity
  8
01
100
AcDbLine
 10
683.2402481036646
 20
-609.1938362685869
 30
0.0
 11
682.988616851197
 21
-609.4454684523771
 31
0.0
  0
LINE
  5
EF55
330
18
100
AcDbEntity
  8
1CENTER
100
AcDbLine
 10
493.1373395332068
 20
-788.1991077820919
 30
0.0
 11
459.9768956332068
 21
-788.1991077820919
 31
0.0
  0
LINE
  5
EF56
330
18
100
AcDbEntity
  8
1HATCH
100
AcDbLine
 10
491.5356645332068
 20
-786.5491077820919
 30
0.0
 11
463.1856645332068
 21
-786.5491077820919
 31
0.0
  0
LINE
  5
EF57
330
18
100
AcDbEntity
  8
1HATCH
100
AcDbLine
 10
491.5356645332068
 20
-789.8491077820919
 30
0.0
 11
463.1856645332068
 21
-789.8491077820919
 31
0.0
  0
LINE
  5
EF59
330
18
100
AcDbEntity
  8
1HATCH
100
AcDbLine
 10
491.1856645332068
 20
-786.1991077820919
 30
0.0
 11
491.1856645332068
 21
-790.1991077820919
 31
0.0
  0
LINE
  5
EF5A
330
18
100
AcDbEntity
  8
1HATCH
100
AcDbLine
 10
461.8356645432069
 20
-785.1991077820919
 30
0.0
 11
461.8356645432069
 21
-791.1991077820919
 31
0.0
  0
LINE
  5
EF5B
330
18
100
AcDbEntity
  8
1HATCH
100
AcDbLine
 10
462.8356647072808
 20
-790.1991077820919
 30
0.0
 11
463.1856645332068
 21
-789.8491077820919
 31
0.0
  0
LINE
  5
EF5C
330
18
100
AcDbEntity
  8
1HATCH
100
AcDbLine
 10
463.1856645332068
 20
-786.5491077820919
 30
0.0
 11
462.8356647072808
 21
-786.1991077820919
 31
0.0
  0
LINE
  5
EF5D
330
18
100
AcDbEntity
  8
01
100
AcDbLine
 10
462.8356647072808
 20
-776.2601672950259
 30
0.0
 11
491.1856645332069
 21
-776.2601672950259
 31
0.0
  0
LINE
  5
EF5E
330
18
100
AcDbEntity
  8
01
100
AcDbLine
 10
491.1856645332069
 20
-776.2601672950259
 30
0.0
 11
491.5356645332068
 21
-775.9101672950258
 31
0.0
  0
LINE
  5
EF5F
330
18
100
AcDbEntity
  8
01
100
AcDbLine
 10
491.5356645332068
 20
-775.9101672950258
 30
0.0
 11
491.5356645332068
 21
-772.6101672950259
 31
0.0
  0
LINE
  5
EF60
330
18
100
AcDbEntity
  8
01
100
AcDbLine
 10
491.5356645332068
 20
-772.6101672950259
 30
0.0
 11
491.1856645332069
 21
-772.2601672950259
 31
0.0
  0
LINE
  5
EF61
330
18
100
AcDbEntity
  8
01
100
AcDbLine
 10
491.1856645332069
 20
-772.2601672950259
 30
0.0
 11
462.8356647072808
 21
-772.2601672950259
 31
0.0
  0
LINE
  5
EF62
330
18
100
AcDbEntity
  8
01
100
AcDbLine
 10
462.8356647072808
 20
-772.2601672950259
 30
0.0
 11
461.8356645432069
 21
-771.2601672950259
 31
0.0
  0
LINE
  5
EF63
330
18
100
AcDbEntity
  8
01
100
AcDbLine
 10
461.8356645432069
 20
-771.2601672950259
 30
0.0
 11
461.5356645332068
 21
-771.2601672950259
 31
0.0
  0
LINE
  5
EF64
330
18
100
AcDbEntity
  8
01
100
AcDbLine
 10
461.5356645332068
 20
-771.2601672950259
 30
0.0
 11
461.5356645332068
 21
-777.2601672950259
 31
0.0
  0
LINE
  5
EF65
330
18
100
AcDbEntity
  8
01
100
AcDbLine
 10
461.5356645332068
 20
-777.2601672950259
 30
0.0
 11
461.8356646332069
 21
-777.2601672950259
 31
0.0
  0
LINE
  5
EF66
330
18
100
AcDbEntity
  8
01
100
AcDbLine
 10
461.8356646332069
 20
-777.2601672950259
 30
0.0
 11
462.8356647072808
 21
-776.2601672950259
 31
0.0
  0
LINE
  5
EF67
330
18
100
AcDbEntity
  8
01
100
AcDbLine
 10
462.8356647072808
 20
-790.1991077820919
 30
0.0
 11
491.1856645332069
 21
-790.1991077820919
 31
0.0
  0
LINE
  5
EF68
330
18
100
AcDbEntity
  8
01
100
AcDbLine
 10
491.1856645332069
 20
-790.1991077820919
 30
0.0
 11
491.5356645332068
 21
-789.8491077820918
 31
0.0
  0
LINE
  5
EF69
330
18
100
AcDbEntity
  8
01
100
AcDbLine
 10
491.5356645332068
 20
-789.8491077820918
 30
0.0
 11
491.5356645332068
 21
-786.5491077820919
 31
0.0
  0
LINE
  5
EF6A
330
18
100
AcDbEntity
  8
01
100
AcDbLine
 10
491.5356645332068
 20
-786.5491077820919
 30
0.0
 11
491.1856645332069
 21
-786.1991077820919
 31
0.0
  0
LINE
  5
EF6B
330
18
100
AcDbEntity
  8
01
100
AcDbLine
 10
491.1856645332069
 20
-786.1991077820919
 30
0.0
 11
462.8356647072808
 21
-786.1991077820919
 31
0.0
  0
LINE
  5
EF6C
330
18
100
AcDbEntity
  8
01
100
AcDbLine
 10
462.8356647072808
 20
-786.1991077820919
 30
0.0
 11
461.8356645432069
 21
-785.1991077820919
 31
0.0
  0
LINE
  5
EF6D
330
18
100
AcDbEntity
  8
01
100
AcDbLine
 10
461.8356645432069
 20
-785.1991077820919
 30
0.0
 11
461.5356645332068
 21
-785.1991077820919
 31
0.0
  0
LINE
  5
EF6E
330
18
100
AcDbEntity
  8
01
100
AcDbLine
 10
461.5356645332068
 20
-785.1991077820919
 30
0.0
 11
461.5356645332068
 21
-791.1991077820919
 31
0.0
  0
LINE
  5
EF6F
330
18
100
AcDbEntity
  8
01
100
AcDbLine
 10
461.5356645332068
 20
-791.1991077820919
 30
0.0
 11
461.8356646332069
 21
-791.1991077820919
 31
0.0
  0
LINE
  5
EF70
330
18
100
AcDbEntity
  8
01
100
AcDbLine
 10
461.8356646332069
 20
-791.1991077820919
 30
0.0
 11
462.8356647072808
 21
-790.1991077820919
 31
0.0
  0
LINE
  5
EF71
330
18
100
AcDbEntity
  8
1DIM
100
AcDbLine
 10
538.2583510044468
 20
-720.8287536973703
 30
0.0
 11
538.2583510044468
 21
-746.3222277566231
 31
0.0
1001
ACAD
1000
DSTYLE
1002
{
1070
    40
1040
1.3
1002
}
  0
LINE
  5
EF72
330
18
100
AcDbEntity
  8
1DIM
100
AcDbLine
 10
516.258326193437
 20
-716.3287586973672
 30
0.0
 11
516.258326193437
 21
-746.3222277566231
 31
0.0
1001
ACAD
1000
DSTYLE
1002
{
1070
    40
1040
1.3
1002
}
  0
LINE
  5
EF73
330
18
100
AcDbEntity
  8
1DIM
100
AcDbLine
 10
535.6583510044468
 20
-745.0222277566231
 30
0.0
 11
518.858326193437
 21
-745.0222277566231
 31
0.0
1001
ACAD
1000
DSTYLE
1002
{
1070
    40
1040
1.3
1002
}
  0
LINE
  5
EF77
330
18
100
AcDbEntity
  8
1DIM
100
AcDbLine
 10
538.2583510044468
 20
-720.8287536973703
 30
0.0
 11
538.2583510044468
 21
-737.2863975909179
 31
0.0
1001
ACAD
1000
DSTYLE
1002
{
1070
    40
1040
1.3
1070
   271
1070
     0
1002
}
  0
LINE
  5
EF78
330
18
100
AcDbEntity
  8
1DIM
100
AcDbLine
 10
531.9583510044466
 20
-720.3287536973703
 30
0.0
 11
531.9583510044466
 21
-737.2863975909179
 31
0.0
1001
ACAD
1000
DSTYLE
1002
{
1070
    40
1040
1.3
1070
   271
1070
     0
1002
}
  0
LINE
  5
EF79
330
18
100
AcDbEntity
  8
1DIM
100
AcDbLine
 10
540.8583510044468
 20
-735.9863975909179
 30
0.0
 11
543.4583510044469
 21
-735.9863975909179
 31
0.0
1001
ACAD
1000
DSTYLE
1002
{
1070
    40
1040
1.3
1070
   271
1070
     0
1002
}
  0
LINE
  5
EF7A
330
18
100
AcDbEntity
  8
1DIM
100
AcDbLine
 10
529.3583510044466
 20
-735.9863975909179
 30
0.0
 11
522.12168433778
 21
-735.9863975909179
 31
0.0
1001
ACAD
1000
DSTYLE
1002
{
1070
    40
1040
1.3
1070
   271
1070
     0
1002
}
  0
LINE
  5
EF7B
330
18
100
AcDbEntity
  8
1DIM
100
AcDbLine
 10
538.2583510044468
 20
-735.9863975909179
 30
0.0
 11
531.9583510044466
 21
-735.9863975909179
 31
0.0
1001
ACAD
1000
DSTYLE
1002
{
1070
    40
1040
1.3
1070
   271
1070
     0
1002
}
  0
LINE
  5
EF7F
330
18
100
AcDbEntity
  8
1DIM
100
AcDbLine
 10
700.0831903506598
 20
-756.3287534932415
 30
0.0
 11
733.5687438227003
 21
-756.3287534932415
 31
0.0
1001
ACAD
1000
DSTYLE
1002
{
1070
    40
1040
1.3
1002
}
  0
LINE
  5
EF80
330
18
100
AcDbEntity
  8
1DIM
100
AcDbLine
 10
700.7927790752559
 20
-706.3287536973694
 30
0.0
 11
733.5687438227003
 21
-706.3287536973694
 31
0.0
1001
ACAD
1000
DSTYLE
1002
{
1070
    40
1040
1.3
1002
}
  0
LINE
  5
EF81
330
18
100
AcDbEntity
  8
1DIM
100
AcDbLine
 10
732.2687438227003
 20
-753.7287534932415
 30
0.0
 11
732.2687438227003
 21
-708.9287536973694
 31
0.0
1001
ACAD
1000
DSTYLE
1002
{
1070
    40
1040
1.3
1002
}
  0
LINE
  5
EF82
330
18
100
AcDbEntity
  8
1DIM
100
AcDbLine
 10
732.2687438227003
 20
-706.3287536973694
 30
0.0
 11
732.2687438227003
 21
-644.5787536973695
 31
0.0
1001
ACAD
1000
DSTYLE
1002
{
1070
    40
1040
1.3
1002
}
  0
LINE
  5
EF86
330
18
100
AcDbEntity
  8
1DIM
100
AcDbLine
 10
452.1403975955373
 20
-700.8287536973701
 30
0.0
 11
452.1403975955373
 21
-746.3222277566231
 31
0.0
1001
ACAD
1000
DSTYLE
1002
{
1070
     3
1000
φ<>
1070
    40
1040
1.3
1002
}
  0
LINE
  5
EF87
330
18
100
AcDbEntity
  8
1DIM
100
AcDbLine
 10
492.1403975955315
 20
-700.8287536973701
 30
0.0
 11
492.1403975955315
 21
-746.3222277566231
 31
0.0
1001
ACAD
1000
DSTYLE
1002
{
1070
     3
1000
φ<>
1070
    40
1040
1.3
1002
}
  0
LINE
  5
EF88
330
18
100
AcDbEntity
  8
1DIM
100
AcDbLine
 10
454.7403975955373
 20
-745.0222277566231
 30
0.0
 11
489.5403975955315
 21
-745.0222277566231
 31
0.0
1001
ACAD
1000
DSTYLE
1002
{
1070
     3
1000
φ<>
1070
    40
1040
1.3
1002
}
  0
LINE
  5
EF8C
330
18
100
AcDbEntity
  8
1DIM
100
AcDbLine
 10
461.5356645332068
 20
-771.2601672950259
 30
0.0
 11
461.5356645332068
 21
-767.1389701030262
 31
0.0
  0
LINE
  5
EF8D
330
18
100
AcDbEntity
  8
1DIM
100
AcDbLine
 10
491.5356645332068
 20
-772.6101672950258
 30
0.0
 11
491.5356645332068
 21
-767.1389701030262
 31
0.0
  0
LINE
  5
EF8E
330
18
100
AcDbEntity
  8
1DIM
100
AcDbLine
 10
463.5356645332068
 20
-768.1389701030262
 30
0.0
 11
489.5356645332068
 21
-768.1389701030262
 31
0.0
  0
LINE
  5
EF93
330
18
100
AcDbEntity
  8
1DIM
100
AcDbLine
 10
460.7482856770458
 20
-772.4380313434817
 30
0.0
 11
457.180174470876
 21
-763.5110679930353
 31
0.0
  0
LINE
  5
EF94
330
18
100
AcDbEntity
  8
1DIM
100
AcDbLine
 10
457.180174470876
 20
-763.5110679930353
 30
0.0
 11
454.480174470876
 21
-763.5110679930353
 31
0.0
  0
TEXT
  5
EF95
330
18
100
AcDbEntity
  8
1DIM
  6
CONTINUOUS
100
AcDbText
 10
445.1468411375426
 20
-762.8110679930354
 30
0.0
 40
3.5
  1
SUS
100
AcDbText
  0
LINE
  5
EF96
330
18
100
AcDbEntity
  8
1DIM
100
AcDbLine
 10
651.6037815380888
 20
-684.0948308922859
 30
0.0
 11
651.6037815380888
 21
-672.8109584070163
 31
0.0
1001
ACAD
1000
DSTYLE
1002
{
1070
   271
1070
     1
1002
}
  0
LINE
  5
EF97
330
18
100
AcDbEntity
  8
1DIM
100
AcDbLine
 10
628.3037815380886
 20
-682.3287576973694
 30
0.0
 11
628.3037815380886
 21
-672.8109584070163
 31
0.0
1001
ACAD
1000
DSTYLE
1002
{
1070
   271
1070
     1
1002
}
  0
LINE
  5
EF98
330
18
100
AcDbEntity
  8
1DIM
100
AcDbLine
 10
649.6037815380888
 20
-673.8109584070163
 30
0.0
 11
630.3037815380886
 21
-673.8109584070163
 31
0.0
1001
ACAD
1000
DSTYLE
1002
{
1070
   271
1070
     1
1002
}
  0
LINE
  5
EF9C
330
18
100
AcDbEntity
  8
1DIM
100
AcDbLine
 10
674.4903351506603
 20
-700.8287576973694
 30
0.0
 11
674.4903351506603
 21
-672.8109584070163
 31
0.0
1001
ACAD
1000
DSTYLE
1002
{
1070
     3
1000
φ<>
1002
}
  0
LINE
  5
EF9D
330
18
100
AcDbEntity
  8
1DIM
100
AcDbLine
 10
711.4903351506603
 20
-700.8287576973694
 30
0.0
 11
711.4903351506603
 21
-672.8109584070163
 31
0.0
1001
ACAD
1000
DSTYLE
1002
{
1070
     3
1000
φ<>
1002
}
  0
LINE
  5
EF9E
330
18
100
AcDbEntity
  8
1DIM
100
AcDbLine
 10
676.4903351506603
 20
-673.8109584070163
 30
0.0
 11
709.4903351506603
 21
-673.8109584070163
 31
0.0
1001
ACAD
1000
DSTYLE
1002
{
1070
     3
1000
φ<>
1002
}
  0
TEXT
  5
EFA2
330
18
100
AcDbEntity
  8
1TEXT
  6
CONTINUOUS
100
AcDbText
 10
468.9833374125453
 20
-818.6465742484501
 30
0.0
 40
4.0
  1
カギ違い数　：1000通り
100
AcDbText
  0
TEXT
  5
EFA3
330
18
100
AcDbEntity
  8
1TEXT
  6
CONTINUOUS
100
AcDbText
 10
469.1166707458787
 20
-825.3132409151167
 30
0.0
 40
4.0
  1
同一キー　　：対応可
100
AcDbText
  0
TEXT
  5
EFA4
330
18
100
AcDbEntity
  8
1TEXT
  6
CONTINUOUS
100
AcDbText
 10
469.250004079212
 20
-831.9799075817833
 30
0.0
 40
4.0
  1
マスターキー：対応不可
100
AcDbText
  0
LINE
  5
EFA6
330
18
100
AcDbEntity
  8
1DIM
100
AcDbLine
 10
540.3652404504933
 20
-698.1955846628875
 30
0.0
 11
551.3663465335516
 21
-662.0313555773703
 31
0.0
1001
ACAD
1000
DSTYLE
1002
{
1070
    40
1040
1.3
1002
}
  0
LINE
  5
EFA7
330
18
100
AcDbEntity
  8
1DIM
100
AcDbLine
 10
551.3663465335516
 20
-662.0313555773703
 30
0.0
 11
596.059679866885
 21
-662.0313555773703
 31
0.0
1001
ACAD
1000
DSTYLE
1002
{
1070
    40
1040
1.3
1002
}
  0
TEXT
  5
EFA8
330
18
100
AcDbEntity
  8
1DIM
  6
CONTINUOUS
100
AcDbText
 10
554.6430132002182
 20
-661.1213555773703
 30
0.0
 40
3.5
  1
材質：ポリアセタール
100
AcDbText
  0
LINE
  5
EFAA
330
18
100
AcDbEntity
  8
1DIM
100
AcDbLine
 10
526.4890926671909
 20
-694.5946569445586
 30
0.0
 11
521.06299928114
 21
-651.8243598211138
 31
0.0
  0
LINE
  5
EFAB
330
18
100
AcDbEntity
  8
1DIM
100
AcDbLine
 10
521.06299928114
 20
-651.8243598211138
 30
0.0
 11
568.3296659478067
 21
-651.8243598211138
 31
0.0
  0
TEXT
  5
EFAC
330
18
100
AcDbEntity
  8
1DIM
  6
CONTINUOUS
100
AcDbText
 10
523.5296659478067
 20
-645.2910264877804
 30
0.0
 40
3.5
  1
材質：亜鉛ダイキャスト
100
AcDbText
  0
TEXT
  5
EFAD
330
18
100
AcDbEntity
  8
1DIM
  6
CONTINUOUS
100
AcDbText
 10
523.6463326144734
 20
-651.1243598211138
 30
0.0
 40
3.5
  1
仕上げ：各種メッキ
100
AcDbText
  0
LINE
  5
EFAF
330
18
100
AcDbEntity
  8
1DIM
100
AcDbLine
 10
631.0878714402434
 20
-688.1010995946265
 30
0.0
 11
623.1371498203872
 21
-644.6087076703221
 31
0.0
  0
LINE
  5
EFB0
330
18
100
AcDbEntity
  8
1DIM
100
AcDbLine
 10
623.1371498203872
 20
-644.6087076703221
 30
0.0
 11
662.5871498203873
 21
-644.6087076703221
 31
0.0
  0
TEXT
  5
EFB1
330
18
100
AcDbEntity
  8
1DIM
  6
CONTINUOUS
100
AcDbText
 10
625.6038164870539
 20
-638.0753743369887
 30
0.0
 40
3.5
  1
材質：真鍮
100
AcDbText
  0
TEXT
  5
EFB2
330
18
100
AcDbEntity
  8
1DIM
  6
CONTINUOUS
100
AcDbText
 10
625.7204831537206
 20
-643.9087076703221
 30
0.0
 40
3.5
  1
仕上げ：各種メッキ
100
AcDbText
  0
LINE
  5
EFB3
330
18
100
AcDbEntity
  8
0
  6
BYBLOCK
100
AcDbLine
 10
535.6583510044468
 20
-744.3255598626231
 30
0.0
 11
538.2583510044468
 21
-745.0222277566231
 31
0.0
  0
LINE
  5
EFB4
330
18
100
AcDbEntity
  8
0
  6
BYBLOCK
100
AcDbLine
 10
538.2583510044468
 20
-745.0222277566231
 30
0.0
 11
535.6583510044468
 21
-745.7188956506232
 31
0.0
  0
LINE
  5
EFB5
330
18
100
AcDbEntity
  8
0
  6
BYBLOCK
100
AcDbLine
 10
538.2583510044468
 20
-745.0222277566231
 30
0.0
 11
535.6583510044468
 21
-745.0222277566231
 31
0.0
  0
LINE
  5
EFB6
330
18
100
AcDbEntity
  8
0
  6
BYBLOCK
100
AcDbLine
 10
518.858326193437
 20
-745.7188956506232
 30
0.0
 11
516.258326193437
 21
-745.0222277566231
 31
0.0
  0
LINE
  5
EFB7
330
18
100
AcDbEntity
  8
0
  6
BYBLOCK
100
AcDbLine
 10
516.258326193437
 20
-745.0222277566231
 30
0.0
 11
518.858326193437
 21
-744.3255598626231
 31
0.0
  0
LINE
  5
EFB8
330
18
100
AcDbEntity
  8
0
  6
BYBLOCK
100
AcDbLine
 10
516.258326193437
 20
-745.0222277566231
 30
0.0
 11
518.858326193437
 21
-745.0222277566231
 31
0.0
  0
TEXT
  5
EFB9
330
18
100
AcDbEntity
  8
1DIM
  6
CONTINUOUS
100
AcDbText
 10
523.4666719322753
 20
-744.1122277566232
 30
0.0
 40
4.55
  1
22
100
AcDbText
1001
ACAD
1000
DSTYLE
1002
{
1070
    40
1040
1.3
1002
}
  0
LINE
  5
EFBA
330
18
100
AcDbEntity
  8
0
  6
BYBLOCK
100
AcDbLine
 10
540.8583510044468
 20
-736.683065484918
 30
0.0
 11
538.2583510044468
 21
-735.9863975909179
 31
0.0
  0
LINE
  5
EFBB
330
18
100
AcDbEntity
  8
0
  6
BYBLOCK
100
AcDbLine
 10
538.2583510044468
 20
-735.9863975909179
 30
0.0
 11
540.8583510044468
 21
-735.2897296969179
 31
0.0
  0
LINE
  5
EFBC
330
18
100
AcDbEntity
  8
0
  6
BYBLOCK
100
AcDbLine
 10
538.2583510044468
 20
-735.9863975909179
 30
0.0
 11
540.8583510044468
 21
-735.9863975909179
 31
0.0
  0
LINE
  5
EFBD
330
18
100
AcDbEntity
  8
0
  6
BYBLOCK
100
AcDbLine
 10
529.3583510044466
 20
-735.2897296969179
 30
0.0
 11
531.9583510044466
 21
-735.9863975909179
 31
0.0
  0
LINE
  5
EFBE
330
18
100
AcDbEntity
  8
0
  6
BYBLOCK
100
AcDbLine
 10
531.9583510044466
 20
-735.9863975909179
 30
0.0
 11
529.3583510044466
 21
-736.683065484918
 31
0.0
  0
LINE
  5
EFBF
330
18
100
AcDbEntity
  8
0
  6
BYBLOCK
100
AcDbLine
 10
531.9583510044466
 20
-735.9863975909179
 30
0.0
 11
529.3583510044466
 21
-735.9863975909179
 31
0.0
  0
TEXT
  5
EFC0
330
18
100
AcDbEntity
  8
1DIM
  6
CONTINUOUS
100
AcDbText
 10
522.9233510044467
 20
-735.076397590918
 30
0.0
 40
4.55
  1
6
100
AcDbText
1001
ACAD
1000
DSTYLE
1002
{
1070
    40
1040
1.3
1070
   271
1070
     0
1002
}
  0
LINE
  5
EFC1
330
18
100
AcDbEntity
  8
0
  6
BYBLOCK
100
AcDbLine
 10
732.9654117167004
 20
-753.7287534932415
 30
0.0
 11
732.2687438227003
 21
-756.3287534932415
 31
0.0
  0
LINE
  5
EFC2
330
18
100
AcDbEntity
  8
0
  6
BYBLOCK
100
AcDbLine
 10
732.2687438227003
 20
-756.3287534932415
 30
0.0
 11
731.5720759287003
 21
-753.7287534932415
 31
0.0
  0
LINE
  5
EFC3
330
18
100
AcDbEntity
  8
0
  6
BYBLOCK
100
AcDbLine
 10
732.2687438227003
 20
-756.3287534932415
 30
0.0
 11
732.2687438227003
 21
-753.7287534932415
 31
0.0
  0
LINE
  5
EFC4
330
18
100
AcDbEntity
  8
0
  6
BYBLOCK
100
AcDbLine
 10
731.5720759287003
 20
-708.9287536973694
 30
0.0
 11
732.2687438227003
 21
-706.3287536973694
 31
0.0
  0
LINE
  5
EFC5
330
18
100
AcDbEntity
  8
0
  6
BYBLOCK
100
AcDbLine
 10
732.2687438227003
 20
-706.3287536973694
 30
0.0
 11
732.9654117167004
 21
-708.9287536973694
 31
0.0
  0
LINE
  5
EFC6
330
18
100
AcDbEntity
  8
0
  6
BYBLOCK
100
AcDbLine
 10
732.2687438227003
 20
-706.3287536973694
 30
0.0
 11
732.2687438227003
 21
-708.9287536973694
 31
0.0
  0
TEXT
  5
EFC7
330
18
100
AcDbEntity
  8
1DIM
  6
CONTINUOUS
100
AcDbText
 10
731.3587438227005
 20
-701.8676773084804
 30
0.0
 40
4.55
  1
ハンドル取付位置=50
 50
90.0
100
AcDbText
1001
ACAD
1000
DSTYLE
1002
{
1070
    40
1040
1.3
1002
}
  0
LINE
  5
EFC8
330
18
100
AcDbEntity
  8
0
  6
BYBLOCK
100
AcDbLine
 10
454.7403975955373
 20
-745.7188956506232
 30
0.0
 11
452.1403975955373
 21
-745.0222277566231
 31
0.0
  0
LINE
  5
EFC9
330
18
100
AcDbEntity
  8
0
  6
BYBLOCK
100
AcDbLine
 10
452.1403975955373
 20
-745.0222277566231
 30
0.0
 11
454.7403975955373
 21
-744.3255598626231
 31
0.0
  0
LINE
  5
EFCA
330
18
100
AcDbEntity
  8
0
  6
BYBLOCK
100
AcDbLine
 10
452.1403975955373
 20
-745.0222277566231
 30
0.0
 11
454.7403975955373
 21
-745.0222277566231
 31
0.0
  0
LINE
  5
EFCB
330
18
100
AcDbEntity
  8
0
  6
BYBLOCK
100
AcDbLine
 10
489.5403975955315
 20
-744.3255598626231
 30
0.0
 11
492.1403975955315
 21
-745.0222277566231
 31
0.0
  0
LINE
  5
EFCC
330
18
100
AcDbEntity
  8
0
  6
BYBLOCK
100
AcDbLine
 10
492.1403975955315
 20
-745.0222277566231
 30
0.0
 11
489.5403975955315
 21
-745.7188956506232
 31
0.0
  0
LINE
  5
EFCD
330
18
100
AcDbEntity
  8
0
  6
BYBLOCK
100
AcDbLine
 10
492.1403975955315
 20
-745.0222277566231
 30
0.0
 11
489.5403975955315
 21
-745.0222277566231
 31
0.0
  0
TEXT
  5
EFCE
330
18
100
AcDbEntity
  8
1DIM
  6
CONTINUOUS
100
AcDbText
 10
465.2964392622011
 20
-744.1122277566232
 30
0.0
 40
4.55
  1
φ40
100
AcDbText
1001
ACAD
1000
DSTYLE
1002
{
1070
     3
1000
φ<>
1070
    40
1040
1.3
1002
}
  0
LINE
  5
EFCF
330
18
100
AcDbEntity
  8
0
  6
BYBLOCK
100
AcDbLine
 10
463.5356645332068
 20
-768.6748684830262
 30
0.0
 11
461.5356645332068
 21
-768.1389701030262
 31
0.0
  0
LINE
  5
EFD0
330
18
100
AcDbEntity
  8
0
  6
BYBLOCK
100
AcDbLine
 10
461.5356645332068
 20
-768.1389701030262
 30
0.0
 11
463.5356645332068
 21
-767.6030717230261
 31
0.0
  0
LINE
  5
EFD1
330
18
100
AcDbEntity
  8
0
  6
BYBLOCK
100
AcDbLine
 10
461.5356645332068
 20
-768.1389701030262
 30
0.0
 11
463.5356645332068
 21
-768.1389701030262
 31
0.0
  0
LINE
  5
EFD2
330
18
100
AcDbEntity
  8
0
  6
BYBLOCK
100
AcDbLine
 10
489.5356645332068
 20
-767.6030717230261
 30
0.0
 11
491.5356645332068
 21
-768.1389701030262
 31
0.0
  0
LINE
  5
EFD3
330
18
100
AcDbEntity
  8
0
  6
BYBLOCK
100
AcDbLine
 10
491.5356645332068
 20
-768.1389701030262
 30
0.0
 11
489.5356645332068
 21
-768.6748684830262
 31
0.0
  0
LINE
  5
EFD4
330
18
100
AcDbEntity
  8
0
  6
BYBLOCK
100
AcDbLine
 10
491.5356645332068
 20
-768.1389701030262
 30
0.0
 11
489.5356645332068
 21
-768.1389701030262
 31
0.0
  0
TEXT
  5
EFD5
330
18
100
AcDbEntity
  8
1DIM
  6
CONTINUOUS
100
AcDbText
 10
473.8377478665402
 20
-767.4389701030261
 30
0.0
 40
3.5
  1
30
100
AcDbText
  0
LINE
  5
EFD6
330
18
100
AcDbEntity
  8
0
  6
BYBLOCK
100
AcDbLine
 10
461.2459062169291
 20
-772.2391321932249
 30
0.0
 11
461.4905874181217
 21
-774.295176498066
 31
0.0
  0
LINE
  5
EFD7
330
18
100
AcDbEntity
  8
0
  6
BYBLOCK
100
AcDbLine
 10
461.4905874181217
 20
-774.295176498066
 30
0.0
 11
460.2506651371626
 21
-772.6369304937385
 31
0.0
  0
LINE
  5
EFD8
330
18
100
AcDbEntity
  8
0
  6
BYBLOCK
100
AcDbLine
 10
461.4905874181217
 20
-774.295176498066
 30
0.0
 11
460.7482856770459
 21
-772.4380313434817
 31
0.0
  0
LINE
  5
EFD9
330
18
100
AcDbEntity
  8
0
  6
BYBLOCK
100
AcDbLine
 10
649.6037815380888
 20
-673.2750600270163
 30
0.0
 11
651.6037815380888
 21
-673.8109584070163
 31
0.0
  0
LINE
  5
EFDA
330
18
100
AcDbEntity
  8
0
  6
BYBLOCK
100
AcDbLine
 10
651.6037815380888
 20
-673.8109584070163
 30
0.0
 11
649.6037815380888
 21
-674.3468567870163
 31
0.0
  0
LINE
  5
EFDB
330
18
100
AcDbEntity
  8
0
  6
BYBLOCK
100
AcDbLine
 10
651.6037815380888
 20
-673.8109584070163
 30
0.0
 11
649.6037815380888
 21
-673.8109584070163
 31
0.0
  0
LINE
  5
EFDC
330
18
100
AcDbEntity
  8
0
  6
BYBLOCK
100
AcDbLine
 10
630.3037815380886
 20
-674.3468567870163
 30
0.0
 11
628.3037815380886
 21
-673.8109584070163
 31
0.0
  0
LINE
  5
EFDD
330
18
100
AcDbEntity
  8
0
  6
BYBLOCK
100
AcDbLine
 10
628.3037815380886
 20
-673.8109584070163
 30
0.0
 11
630.3037815380886
 21
-673.2750600270163
 31
0.0
  0
LINE
  5
EFDE
330
18
100
AcDbEntity
  8
0
  6
BYBLOCK
100
AcDbLine
 10
628.3037815380886
 20
-673.8109584070163
 30
0.0
 11
630.3037815380886
 21
-673.8109584070163
 31
0.0
  0
TEXT
  5
EFDF
330
18
100
AcDbEntity
  8
1DIM
  6
CONTINUOUS
100
AcDbText
 10
635.0162171033871
 20
-673.1109584070163
 30
0.0
 40
3.5
  1
23.3
100
AcDbText
1001
ACAD
1000
DSTYLE
1002
{
1070
   271
1070
     1
1002
}
  0
LINE
  5
EFE0
330
18
100
AcDbEntity
  8
0
  6
BYBLOCK
100
AcDbLine
 10
676.4903351506603
 20
-674.3468567870163
 30
0.0
 11
674.4903351506603
 21
-673.8109584070163
 31
0.0
  0
LINE
  5
EFE1
330
18
100
AcDbEntity
  8
0
  6
BYBLOCK
100
AcDbLine
 10
674.4903351506603
 20
-673.8109584070163
 30
0.0
 11
676.4903351506603
 21
-673.2750600270163
 31
0.0
  0
LINE
  5
EFE2
330
18
100
AcDbEntity
  8
0
  6
BYBLOCK
100
AcDbLine
 10
674.4903351506603
 20
-673.8109584070163
 30
0.0
 11
676.4903351506603
 21
-673.8109584070163
 31
0.0
  0
LINE
  5
EFE3
330
18
100
AcDbEntity
  8
0
  6
BYBLOCK
100
AcDbLine
 10
709.4903351506603
 20
-673.2750600270163
 30
0.0
 11
711.4903351506603
 21
-673.8109584070163
 31
0.0
  0
LINE
  5
EFE4
330
18
100
AcDbEntity
  8
0
  6
BYBLOCK
100
AcDbLine
 10
711.4903351506603
 20
-673.8109584070163
 30
0.0
 11
709.4903351506603
 21
-674.3468567870163
 31
0.0
  0
LINE
  5
EFE5
330
18
100
AcDbEntity
  8
0
  6
BYBLOCK
100
AcDbLine
 10
711.4903351506603
 20
-673.8109584070163
 30
0.0
 11
709.4903351506603
 21
-673.8109584070163
 31
0.0
  0
TEXT
  5
EFE6
330
18
100
AcDbEntity
  8
1DIM
  6
CONTINUOUS
100
AcDbText
 10
687.507001817327
 20
-673.1109584070163
 30
0.0
 40
3.5
  1
φ37
100
AcDbText
1001
ACAD
1000
DSTYLE
1002
{
1070
     3
1000
φ<>
1002
}
  0
LINE
  5
EFE7
330
18
100
AcDbEntity
  8
0
  6
BYBLOCK
100
AcDbLine
 10
541.0317521354226
 20
-698.3983365516162
 30
0.0
 11
539.6085600935619
 21
-700.683040157451
 31
0.0
  0
LINE
  5
EFE8
330
18
100
AcDbEntity
  8
0
  6
BYBLOCK
100
AcDbLine
 10
539.6085600935619
 20
-700.683040157451
 30
0.0
 11
539.6987287655639
 21
-697.9928327741588
 31
0.0
  0
LINE
  5
EFE9
330
18
100
AcDbEntity
  8
0
  6
BYBLOCK
100
AcDbLine
 10
539.6085600935619
 20
-700.683040157451
 30
0.0
 11
540.3652404504933
 21
-698.1955846628875
 31
0.0
  0
LINE
  5
EFEA
330
18
100
AcDbEntity
  8
0
  6
BYBLOCK
100
AcDbLine
 10
527.0207297849885
 20
-694.5272103088633
 30
0.0
 11
526.7408069406888
 21
-696.5787536973701
 31
0.0
  0
LINE
  5
EFEB
330
18
100
AcDbEntity
  8
0
  6
BYBLOCK
100
AcDbLine
 10
526.7408069406888
 20
-696.5787536973701
 30
0.0
 11
525.9574555493934
 21
-694.6621035802536
 31
0.0
  0
LINE
  5
EFEC
330
18
100
AcDbEntity
  8
0
  6
BYBLOCK
100
AcDbLine
 10
526.7408069406888
 20
-696.5787536973701
 30
0.0
 11
526.4890926671909
 21
-694.5946569445586
 31
0.0
  0
LINE
  5
EFED
330
18
100
AcDbEntity
  8
0
  6
BYBLOCK
100
AcDbLine
 10
631.6150337296375
 20
-688.0047305418792
 30
0.0
 11
631.4475256446367
 21
-690.0684960603298
 31
0.0
  0
LINE
  5
EFEE
330
18
100
AcDbEntity
  8
0
  6
BYBLOCK
100
AcDbLine
 10
631.4475256446367
 20
-690.0684960603298
 30
0.0
 11
630.5607091508493
 21
-688.1974686473737
 31
0.0
  0
LINE
  5
EFEF
330
18
100
AcDbEntity
  8
0
  6
BYBLOCK
100
AcDbLine
 10
631.4475256446367
 20
-690.0684960603298
 30
0.0
 11
631.0878714402434
 21
-688.1010995946265
 31
0.0
  0
VIEWPORT
  5
20C3
330
15
100
AcDbEntity
 67
     1
  8
0
  6
CONTINUOUS
100
AcDbViewport
 68
     1
 10
0.0
 20
0.0
 30
0.0
 40
535.5106132075472
 41
297.0
 68
     1
 69
     1
1001
ACAD
1000
MVIEW
1002
{
1070
    16
1010
0.0
1020
0.0
1030
0.0
1010
0.0
1020
0.0
1030
1.0
1040
0.0
1040
297.0
1040
-4.171999999999912
1040
12.839
1040
50.0
1040
0.0
1040
0.0
1070
    16
1070
   100
1070
     0
1070
     1
1070
     0
1070
     0
1070
     0
1070
     0
1040
0.0
1040
0.0
1040
0.0
1040
1.0
1040
1.0
1040
0.0
1040
0.0
1070
     0
1002
{
1002
}
1002
}
  0
ENDSEC
  0
SECTION
  2
OBJECTS
  0
DICTIONARY
  5
C
330
0
100
AcDbDictionary
  3
ACAD_CIP_PREVIOUS_PRODUCT_INFO
350
DA4D
  3
ACAD_COLOR
350
6590
  3
ACAD_GROUP
350
D
  3
ACAD_LAYOUT
350
6591
  3
ACAD_MATERIAL
350
658F
  3
ACAD_MLEADERSTYLE
350
A3DA
  3
ACAD_MLINESTYLE
350
1B
  3
ACAD_PLOTSETTINGS
350
6592
  3
ACAD_SCALELIST
350
A3B8
  3
ACAD_VISUALSTYLE
350
A3A7
  3
ACDBHEADERROUNDTRIPXREC
350
EFF0
  3
ACDBVARIABLEDICTIONARY
350
2739
  3
AEC_PROPERTY_SET_DEFS
350
DD40
  3
CONTENTDICTIONARY
350
1BFA
  3
DRAWINGVARIABLESDICT
350
3B87
  3
DWGPROPS
350
EFF3
1001
ACAD
1000
TREAT_AS_HARD
1070
     0
  0
DICTIONARY
  5
83EE
330
2
100
AcDbDictionary
  3
ACAD_LAYERSTATES
360
83EF
1001
ACAD
1000
TREAT_AS_HARD
1070
     1
  0
DICTIONARY
  5
A3E2
330
E
100
AcDbDictionary
  3
ADSK_XREC_LAYER_RECONCILED
360
A3E3
1001
ACAD
1000
TREAT_AS_HARD
1070
     1
  0
DICTIONARY
  5
A3E4
330
1C0B
100
AcDbDictionary
  3
ADSK_XREC_LAYER_RECONCILED
360
A3E5
1001
ACAD
1000
TREAT_AS_HARD
1070
     1
  0
DICTIONARY
  5
A3E6
330
1C0C
100
AcDbDictionary
  3
ADSK_XREC_LAYER_RECONCILED
360
A3E7
1001
ACAD
1000
TREAT_AS_HARD
1070
     1
  0
DICTIONARY
  5
A3E8
330
1C0E
100
AcDbDictionary
  3
ADSK_XREC_LAYER_RECONCILED
360
A3E9
1001
ACAD
1000
TREAT_AS_HARD
1070
     1
  0
DICTIONARY
  5
A3EE
330
37AE
100
AcDbDictionary
  3
ADSK_XREC_LAYER_RECONCILED
360
A3EF
1001
ACAD
1000
TREAT_AS_HARD
1070
     1
  0
DICTIONARY
  5
A400
330
93A7
100
AcDbDictionary
  3
ADSK_XREC_LAYER_RECONCILED
360
A401
1001
ACAD
1000
TREAT_AS_HARD
1070
     1
  0
DICTIONARY
  5
D654
330
18
100
AcDbDictionary
  3
ACAD_SORTENTS
360
D655
1001
ACAD
1000
TREAT_AS_HARD
1070
     1
  0
XRECORD
  5
DA4D
102
{ACAD_REACTORS
330
C
102
}
330
C
100
AcDbXrecord
300
ACDLT
300
2012
300
ACDLT_F_S
  0
DICTIONARY
  5
6590
102
{ACAD_REACTORS
330
C
102
}
330
C
100
AcDbDictionary
1001
ACAD
1000
TREAT_AS_HARD
1070
     0
  0
DICTIONARY
  5
D
102
{ACAD_REACTORS
330
C
102
}
330
C
100
AcDbDictionary
1001
ACAD
1000
TREAT_AS_HARD
1070
     0
  0
DICTIONARY
  5
6591
102
{ACAD_REACTORS
330
C
102
}
330
C
100
AcDbDictionary
1001
ACAD
1000
TREAT_AS_HARD
1070
     0
  0
DICTIONARY
  5
658F
102
{ACAD_REACTORS
330
C
102
}
330
C
100
AcDbDictionary
  3
BYBLOCK
350
A39F
  3
BYLAYER
350
A397
  3
GLOBAL
350
9DA0
1001
ACAD
1000
TREAT_AS_HARD
1070
     0
  0
DICTIONARY
  5
A3DA
102
{ACAD_REACTORS
330
C
102
}
330
C
100
AcDbDictionary
  3
STANDARD
350
A3DB
1001
ACAD
1000
TREAT_AS_HARD
1070
     0
  0
DICTIONARY
  5
1B
102
{ACAD_REACTORS
330
C
102
}
330
C
100
AcDbDictionary
  3
STANDARD
350
1C
1001
ACAD
1000
TREAT_AS_HARD
1070
     0
  0
DICTIONARY
  5
6592
102
{ACAD_REACTORS
330
C
102
}
330
C
100
AcDbDictionary
1001
ACAD
1000
TREAT_AS_HARD
1070
     0
  0
DICTIONARY
  5
A3B8
102
{ACAD_REACTORS
330
C
102
}
330
C
100
AcDbDictionary
  3
A0
350
A3B9
  3
A1
350
A3BA
  3
A2
350
A3BB
  3
A3
350
A3BC
  3
A4
350
A3BD
  3
A5
350
A3BE
  3
A6
350
A3BF
  3
A7
350
A3C0
  3
A8
350
A3C1
  3
A9
350
A3C2
  3
B0
350
A3C3
  3
B1
350
A3C4
  3
B2
350
A3C5
  3
B3
350
A3C6
  3
B4
350
A3C7
  3
B5
350
A3C8
  3
B6
350
A3C9
  3
B7
350
A3CA
  3
B8
350
A3CB
  3
B9
350
A3CC
  3
C0
350
A3CD
  3
C1
350
A3CE
  3
C2
350
A3CF
  3
C3
350
A3D0
  3
C4
350
A3D1
  3
C5
350
A3D2
  3
C6
350
A3D3
  3
C7
350
A3D4
  3
C8
350
A3D5
  3
C9
350
A3D6
  3
D0
350
A3D7
  3
D1
350
A3D8
  3
D2
350
A3D9
1001
ACAD
1000
TREAT_AS_HARD
1070
     0
  0
DICTIONARY
  5
A3A7
102
{ACAD_REACTORS
330
C
102
}
330
C
100
AcDbDictionary
  3
2DWIREFRAME
350
A3AD
  3
3D_HIDDEN
350
A3AF
  3
3DWIREFRAME
350
A3AE
  3
BASIC
350
A3AC
  3
BRIGHTEN
350
A3B3
  3
COLORCHANGE
350
A3B7
  3
CONCEPTUAL
350
A3B0
  3
DIM
350
A3B2
  3
EDGECOLOROFF
350
ADB1
  3
FACEPATTERN
350
A3B6
  3
FLAT
350
A3A8
  3
FLATWITHEDGES
350
A3A9
  3
GOURAUD
350
A3AA
  3
GOURAUDWITHEDGES
350
A3AB
  3
HIDDEN
350
DA43
  3
JITTEROFF
350
ADAF
  3
LINEPATTERN
350
A3B5
  3
MODELING
350
EE9D
  3
OVERHANGOFF
350
ADB0
  3
REALISTIC
350
A3B1
  3
SHADED
350
DA48
  3
SHADED_WITH_EDGES
350
DA47
  3
SHADES_OF_GRAY
350
DA44
  3
SKETCHY
350
DA45
  3
THICKEN
350
A3B4
  3
WIREFRAME
350
DA42
  3
X-RAY
350
DA46
1001
ACAD
1000
TREAT_AS_HARD
1070
     0
  0
DICTIONARY
  5
EFF0
102
{ACAD_REACTORS
330
C
102
}
330
C
100
AcDbDictionary
  3
COLORDICT
350
EFF1
  3
MATERIALDICT
350
EFF2
1001
ACAD
1000
TREAT_AS_HARD
1070
     0
  0
DICTIONARY
  5
2739
102
{ACAD_REACTORS
330
C
102
}
330
C
100
AcDbDictionary
  3
CANNOSCALE
350
A4C8
  3
CMLEADERSTYLE
350
A4C7
  3
CTABLESTYLE
350
8076
  3
DIMADEC
350
3FDC
  3
DIMASSOC
350
7B85
  3
HIDETEXT
350
9173
  3
INDEXCTL
350
A4C9
  3
INTERSECTIONCOLOR
350
9177
  3
INTERSECTIONDISPLAY
350
9176
  3
MSLTSCALE
350
EF0E
  3
OBSCOLOR
350
9174
  3
OBSLTYPE
350
9175
  3
PROJECTNAME
350
7B86
  3
SORTENTS
350
273A
  3
XCLIPFRAME
350
EE9C
1001
ACAD
1000
TREAT_AS_HARD
1070
     0
  0
DICTIONARY
  5
DD40
102
{ACAD_REACTORS
330
C
102
}
330
C
100
AcDbDictionary
1001
ACAD
1000
TREAT_AS_HARD
1070
     0
  0
DICTIONARY
  5
1BFA
102
{ACAD_REACTORS
330
C
102
}
330
C
100
AcDbDictionary
1001
CONTENTTABDATA
1070
    11
1000
Child
1000
D:\ACLT\TABset\CHILDREN.dwg
1070
     0
1070
     0
1070
     1
1000
PK
1000
D:\ACLT\TABset\PK.dwg
1070
     0
1070
     0
1070
     1
1000
Lev1
1000
D:\ACLT\TABset\Lever01.dwg
1070
     0
1070
     0
1070
     1
1000
Lev2
1000
D:\ACLT\TABset\Lever02.dwg
1070
     0
1070
     0
1070
     1
1000
L3
1000
D:\Aclt\TABset\Lever03.dwg
1070
     0
1070
     0
1070
     1
1000
Form
1000
D:\ACLT\FORMAT
1070
     1
1070
     0
1070
     1
1000
Jnt
1000
D:\ACLT\TABset\JOINTPARTS.dwg
1070
     0
1070
     0
1070
     1
1000
ISO
1000
D:\ACLT\TABset\Isome01.dwg
1070
     0
1070
     0
1070
     1
1000
R
1000
D:\ACLT\TABset\REGION.dwg
1070
     0
1070
     0
1070
     1
1000
std
1000
D:\ACLT\TABset\std_sym_all.dwg
1070
     0
1070
     0
1070
     1
1000
丸
1000
D:\Aclt\TABset\MARU.dwg
1070
     0
1070
     0
1070
     1
1001
CONTENTCURRENTTAB
1070
     2
1001
ACAD
1000
TREAT_AS_HARD
1070
     0
  0
DICTIONARY
  5
3B87
102
{ACAD_REACTORS
330
C
102
}
330
C
100
AcDbDictionary
1001
DRAWINGVARIABLESXDATA
1000
POLARANG
1000
0.261799387799149410000000
1000
POLARMODE
1000
1
1000
POLARSTYLE
1000
1
1001
ACAD
1000
TREAT_AS_HARD
1070
     0
  0
XRECORD
  5
EFF3
102
{ACAD_REACTORS
330
C
102
}
330
C
100
AcDbXrecord
  1
DWGPROPS COOKIE
  2

  3

  4

  6

  7

  8
3684
  9

300
=
301
=
302
=
303
=
304
=
305
=
306
=
307
=
308
=
309
=
 40
0.0
 41
2451024.204593021
 42
2458575.416248808
  1

 90
        0
  0
DICTIONARY
  5
83EF
102
{ACAD_REACTORS
330
83EE
102
}
330
83EE
100
AcDbDictionary
1001
ACAD
1000
TREAT_AS_HARD
1070
     0
  0
ACAD_PROXY_OBJECT
  5
A3E3
102
{ACAD_REACTORS
330
A3E2
102
}
330
A3E2
100
AcDbZombieObject
 90
      499
 91
      516
 93
       34
310
40C8804040
  0
ACAD_PROXY_OBJECT
  5
A3E5
102
{ACAD_REACTORS
330
A3E4
102
}
330
A3E4
100
AcDbZombieObject
 90
      499
 91
      516
 93
       34
310
40C8804040
  0
ACAD_PROXY_OBJECT
  5
A3E7
102
{ACAD_REACTORS
330
A3E6
102
}
330
A3E6
100
AcDbZombieObject
 90
      499
 91
      516
 93
       34
310
40C8804040
  0
ACAD_PROXY_OBJECT
  5
A3E9
102
{ACAD_REACTORS
330
A3E8
102
}
330
A3E8
100
AcDbZombieObject
 90
      499
 91
      516
 93
       34
310
40C8804040
  0
ACAD_PROXY_OBJECT
  5
A3EF
102
{ACAD_REACTORS
330
A3EE
102
}
330
A3EE
100
AcDbZombieObject
 90
      499
 91
      516
 93
       34
310
40C8804040
  0
ACAD_PROXY_OBJECT
  5
A401
102
{ACAD_REACTORS
330
A400
102
}
330
A400
100
AcDbZombieObject
 90
      499
 91
      516
 93
       34
310
40C8804040
  0
SORTENTSTABLE
  5
D655
102
{ACAD_REACTORS
330
D654
102
}
330
D654
100
AcDbSortentsTable
330
18
331
9123
  5
A6FC
331
9124
  5
A6FD
331
9972
  5
A724
331
0
  5
A6EA
331
0
  5
A6EB
331
0
  5
A6EC
331
9FBE
  5
A749
331
9FC0
  5
A74A
331
9FC1
  5
A74B
331
9FC2
  5
A74C
331
9FC8
  5
A74D
331
9FC9
  5
A74E
331
A028
  5
A74F
331
A02B
  5
A750
331
A02E
  5
A751
331
A02F
  5
A752
331
A033
  5
A753
331
A034
  5
A754
331
A1CA
  5
A755
331
A1CC
  5
A756
331
0
  5
A6FB
331
A6EA
  5
A761
331
A6EB
  5
A762
331
A6EC
  5
A763
331
A6ED
  5
A764
331
A6EE
  5
A765
331
A6EF
  5
A766
331
A6F0
  5
A767
331
A6F1
  5
A768
331
A6F2
  5
A769
331
A6F3
  5
A76A
331
A6F4
  5
A76B
331
A6F5
  5
A76C
331
A6F6
  5
A76D
331
A6F7
  5
A76E
331
A6F8
  5
A76F
331
A6F9
  5
A770
331
A6FA
  5
A771
331
A6FB
  5
A772
331
A6FC
  5
A773
331
A6FD
  5
A774
331
A6FE
  5
A775
331
A709
  5
A776
331
A70A
  5
A777
331
A70B
  5
A778
331
A70F
  5
A779
331
A710
  5
A77A
331
A711
  5
A77B
331
A712
  5
A77C
331
A713
  5
A77D
331
A714
  5
A77E
331
A715
  5
A77F
331
A716
  5
A780
331
A717
  5
A781
331
A718
  5
A782
331
A719
  5
A783
331
A71A
  5
A784
331
A71B
  5
A785
331
A71C
  5
A786
331
A71D
  5
A787
331
A71E
  5
A788
331
A71F
  5
A789
331
A720
  5
A78A
331
A721
  5
A78B
331
A722
  5
A78C
331
A723
  5
A78D
331
A724
  5
A78E
331
A725
  5
A78F
331
A726
  5
A790
331
A727
  5
A791
331
A728
  5
A792
331
A729
  5
A793
331
A72A
  5
A794
331
A72B
  5
A795
331
A72C
  5
A796
331
A72D
  5
A797
331
A72E
  5
A798
331
A72F
  5
A799
331
A730
  5
A79A
331
A731
  5
A79B
331
A732
  5
A79C
331
A733
  5
A79D
331
A734
  5
A79E
331
A735
  5
A79F
331
A736
  5
A7A0
331
A737
  5
A7A1
331
A738
  5
A7A2
331
A739
  5
A7A3
331
A73A
  5
A7A4
331
A73B
  5
A7A5
331
A73C
  5
A7A6
331
A73D
  5
A7A7
331
A73E
  5
A7A8
331
A73F
  5
A7A9
331
A740
  5
A7AA
331
A741
  5
A7AB
331
A742
  5
A7AC
331
A743
  5
A7AD
331
A744
  5
A7AE
331
A745
  5
A7AF
331
A746
  5
A7B0
331
A747
  5
A7B1
331
A748
  5
A7B2
331
A749
  5
A7B3
331
A74A
  5
A7B4
331
A74B
  5
A7B5
331
A74C
  5
A7B6
331
A74D
  5
A7B7
331
A74E
  5
A7B8
331
A74F
  5
A7D9
331
A750
  5
A7DA
331
A751
  5
A7DB
331
A752
  5
A7DE
331
A753
  5
A887
331
A754
  5
A888
331
A755
  5
A90E
331
A756
  5
A90F
331
A757
  5
A911
331
A758
  5
A912
331
A759
  5
A938
331
A75A
  5
A939
331
A75B
  5
A93A
331
A75C
  5
A93B
331
A75D
  5
A93C
331
A75E
  5
A93D
331
A75F
  5
A93F
331
A760
  5
AC51
331
A761
  5
AC52
331
A762
  5
AC53
331
A763
  5
AC94
331
A764
  5
C053
331
A765
  5
C054
331
A766
  5
C055
331
A767
  5
C056
331
A768
  5
C057
331
A769
  5
C058
331
A76A
  5
C059
331
A76B
  5
C05A
331
A76C
  5
C05B
331
A76D
  5
C05C
331
A76E
  5
C05D
331
A76F
  5
C05E
331
A770
  5
C066
331
A771
  5
C067
331
A772
  5
C068
331
A773
  5
C069
331
A774
  5
C06A
331
A775
  5
C06B
331
A776
  5
C06C
331
A777
  5
C06D
331
A778
  5
C06E
331
A779
  5
C06F
331
A77A
  5
D755
331
A77B
  5
D756
331
A77C
  5
D757
331
A77D
  5
D758
331
A77E
  5
D759
331
A77F
  5
D75A
331
A780
  5
D75B
331
A781
  5
D75C
331
A782
  5
D75D
331
A783
  5
D75E
331
A784
  5
D75F
331
A785
  5
D798
331
A786
  5
D799
331
A787
  5
DA85
331
A788
  5
DA86
331
A789
  5
DA87
331
A78A
  5
DA88
331
A78B
  5
DA89
331
A78C
  5
DA8A
331
A78D
  5
DA8B
331
A78E
  5
DA8C
331
A78F
  5
DA8D
331
A790
  5
DA8E
331
A791
  5
DA92
331
A792
  5
DA93
331
A793
  5
DA94
331
A794
  5
DA95
331
A795
  5
DA96
331
A796
  5
DA97
331
A797
  5
DA98
331
A798
  5
DA99
331
A799
  5
DA9A
331
A79A
  5
DA9B
331
A79B
  5
DA9C
331
A79C
  5
DA9D
331
A79D
  5
DA9E
331
A79E
  5
DA9F
331
A79F
  5
DAA0
331
A7A0
  5
DAA1
331
A7A1
  5
DAA3
331
A7A2
  5
DAA4
331
A7A3
  5
DAA5
331
A7A4
  5
DAA7
331
A7A5
  5
DAA8
331
A7A6
  5
DAA9
331
A7A7
  5
DAAA
331
A7A8
  5
DAAC
331
A7A9
  5
DAAD
331
A7AA
  5
DAAE
331
A7AB
  5
DAAF
331
A7AC
  5
E498
331
A7AD
  5
E499
331
A7AE
  5
E49A
331
A7AF
  5
E49B
331
A7B0
  5
E49C
331
A7B1
  5
E49D
331
A7B2
  5
E49E
331
A7B3
  5
E49F
331
A7B4
  5
E4A0
331
A7B5
  5
E4A1
331
A7B6
  5
E4A2
331
A7B7
  5
E4A3
331
A7B8
  5
E4A4
331
A7D9
  5
E4A5
331
A7DA
  5
E4A6
331
0
  5
AC54
331
0
  5
AC93
331
A887
  5
E4B4
331
A888
  5
E4B5
331
A90E
  5
E4B6
331
A90F
  5
E4B7
331
A911
  5
E4B8
331
A912
  5
E4B9
331
A938
  5
E4BA
331
A939
  5
E4BB
331
A93A
  5
E4BC
331
A93B
  5
E4BD
331
A93C
  5
E4BE
331
A93D
  5
E4BF
331
A93F
  5
E4C0
331
0
  5
C05F
331
0
  5
C060
331
0
  5
C061
331
0
  5
C063
331
0
  5
C064
331
0
  5
C065
331
C053
  5
E4D7
331
C054
  5
E4D8
331
C055
  5
E4D9
331
C056
  5
E4DA
331
C057
  5
E4DB
331
C058
  5
E4DC
331
C059
  5
E4DD
331
C05A
  5
E4DE
331
C05B
  5
E4DF
331
C05C
  5
E4E0
331
C05D
  5
E4E1
331
C05E
  5
E4E2
331
C05F
  5
E4E3
331
C060
  5
E4E4
331
C061
  5
E4E5
331
C063
  5
E4E6
331
C064
  5
E4E7
331
C065
  5
E4E8
331
C066
  5
E4E9
331
C067
  5
E4EA
331
C068
  5
E4EB
331
C069
  5
E4EC
331
C06A
  5
E4ED
331
C06B
  5
E4EE
331
C06C
  5
E4EF
331
C06D
  5
E4F0
331
C06E
  5
E4F1
331
C06F
  5
E4F2
331
D755
  5
E4F3
331
D756
  5
E4F4
331
D757
  5
E4F5
331
D758
  5
E4F6
331
D759
  5
E4F7
331
D75A
  5
E4F8
331
D75B
  5
E4F9
331
D75C
  5
E4FA
331
D75D
  5
E4FB
331
D75E
  5
E4FC
331
D75F
  5
E4FD
331
D798
  5
E4FE
331
D799
  5
E4FF
331
DA85
  5
E500
331
DA86
  5
E501
331
DA87
  5
E502
331
DA88
  5
E503
331
DA89
  5
E504
331
DA8A
  5
E505
331
DA8B
  5
E506
331
DA8C
  5
E507
331
DA8D
  5
E508
331
DA8E
  5
E509
331
DA8F
  5
E50A
331
DA90
  5
E50B
331
DA91
  5
E50C
331
DA92
  5
E50D
331
DA93
  5
E50E
331
DA94
  5
E50F
331
DA95
  5
E510
331
DA96
  5
E511
331
DA97
  5
E512
331
DA98
  5
E513
331
DA99
  5
E514
331
DA9A
  5
E515
331
DA9B
  5
E516
331
DA9C
  5
E517
331
DA9D
  5
E518
331
DA9E
  5
E519
331
DA9F
  5
E51A
331
DAA0
  5
E51B
331
DAA1
  5
E51C
331
DAA2
  5
E51D
331
DAA3
  5
E51E
331
DAA4
  5
E51F
331
DAA5
  5
E520
331
DAA6
  5
E521
331
DAA7
  5
E522
331
DAA8
  5
E523
331
DAA9
  5
E524
331
DAAA
  5
E525
331
DAAB
  5
E526
331
DAAC
  5
E527
331
DAAD
  5
E528
331
DAAE
  5
E529
331
DAAF
  5
E52A
331
E498
  5
E52B
331
E499
  5
E52C
331
E49A
  5
E52D
331
E49B
  5
E52E
331
E49C
  5
E52F
331
E49D
  5
E530
331
E49E
  5
E531
331
E49F
  5
E532
331
E4A0
  5
E533
331
E4A1
  5
E534
331
E4A2
  5
E535
331
E4A3
  5
E536
331
E4A4
  5
E537
331
E4A5
  5
E538
331
E4A6
  5
E539
331
E4A7
  5
E53A
331
E4A8
  5
E53B
331
E4A9
  5
E53C
331
E4AA
  5
EDB6
331
E4AB
  5
EDB7
331
E4AC
  5
EDB8
331
E4AD
  5
EDB9
331
E4AE
  5
EDBA
331
E4AF
  5
EF41
331
E4B0
  5
EF42
331
E4B1
  5
EF43
331
E4B2
  5
EF44
331
E4B3
  5
EF45
331
E4B4
  5
EF46
331
E4B5
  5
EF47
331
E4B6
  5
EF48
331
E4B7
  5
EF49
331
E4B8
  5
EF4A
331
E4B9
  5
EF4C
331
E4BA
  5
EF55
331
E4BB
  5
EF56
331
E4BC
  5
EF57
331
E4BD
  5
EF58
331
E4BE
  5
EF59
331
E4BF
  5
EF5A
331
E4C0
  5
EF5B
331
E4C1
  5
EF5C
331
E4C2
  5
EF5D
331
E4C3
  5
EF5E
331
E4C4
  5
EF5F
331
E4C5
  5
EF60
331
E4C6
  5
EF61
331
E4C7
  5
EF62
331
E4C8
  5
EF63
331
E4C9
  5
EF64
331
E4CC
  5
EF69
331
E4CD
  5
EF6A
331
E4CE
  5
EF6B
331
E4CF
  5
EF6C
331
E4D0
  5
EF6D
331
E4D1
  5
EF6E
331
E4D2
  5
EF6F
331
E4D3
  5
EF70
331
E4D4
  5
EF71
331
E4D5
  5
EF72
331
E4D6
  5
EF73
331
E4D7
  5
EF74
331
E4D8
  5
EF75
331
E4D9
  5
EF76
331
E4DA
  5
EF77
331
E4DB
  5
EF78
331
E4DC
  5
EF79
331
E4DD
  5
EF7A
331
E4DE
  5
EF7B
331
E4DF
  5
EF7C
331
E4E0
  5
EF7D
331
E4E1
  5
EF7E
331
E4E2
  5
EF7F
331
E4E3
  5
EF80
331
E4E4
  5
EF81
331
E4E5
  5
EF82
331
E4E6
  5
EF83
331
E4E7
  5
EF84
331
E4E8
  5
EF85
331
E4E9
  5
EF86
331
E4EA
  5
EF87
331
E4EB
  5
EF88
331
E4EC
  5
EF89
331
E4ED
  5
EF8A
331
E4EE
  5
EF8B
331
E4EF
  5
EF8C
331
E4F0
  5
EF8D
331
E4F1
  5
EF8E
331
E4F2
  5
EF8F
331
E4F3
  5
EF90
331
E4F4
  5
EF91
331
E4F5
  5
EF92
331
E4F6
  5
EF93
331
E4F7
  5
EF94
331
E4F8
  5
EF95
331
E4F9
  5
EF96
331
E4FA
  5
EF97
331
E4FB
  5
EF98
331
E4FC
  5
EF99
331
E4FD
  5
EF9A
331
E4FE
  5
EF9B
331
E4FF
  5
EF9C
331
E500
  5
EF9D
331
E501
  5
EF9E
331
E502
  5
EF9F
331
E503
  5
EFA0
331
E504
  5
EFA1
331
E505
  5
EFA2
331
E506
  5
EFA3
331
E507
  5
EFA4
331
E508
  5
EFA5
331
E509
  5
EFA6
331
E50A
  5
EFA7
331
E50B
  5
EFA8
331
E50C
  5
EFA9
331
E50D
  5
EFAA
331
E50E
  5
EFAB
331
E50F
  5
EFAC
331
E510
  5
EFAD
331
E511
  5
EFAE
331
E512
  5
EFAF
331
E513
  5
EFB0
331
E514
  5
EFB1
331
E515
  5
EFB2
331
E516
  5
EFB3
331
E517
  5
EFB4
331
E518
  5
EFB5
331
E519
  5
EFB6
331
E51A
  5
EFB7
331
E51B
  5
EFB8
331
E51C
  5
EFB9
331
E51D
  5
EFBA
331
E51E
  5
EFBB
331
E51F
  5
EFBC
331
E520
  5
EFBD
331
E521
  5
EFBE
331
E522
  5
EFBF
331
E523
  5
EFC0
331
E524
  5
EFC1
331
E525
  5
EFC2
331
E526
  5
EFC3
331
E527
  5
EFC4
331
E528
  5
EFC5
331
E529
  5
EFC6
331
E52A
  5
EFC7
331
E52B
  5
EFC8
331
E52C
  5
EFC9
331
E52D
  5
EFCA
331
E52E
  5
EFCB
331
E52F
  5
EFCC
331
E530
  5
EFCD
331
E531
  5
EFCE
331
E532
  5
EFCF
331
E533
  5
EFD0
331
E534
  5
EFD1
331
E535
  5
EFD2
331
E536
  5
EFD3
331
E537
  5
EFD4
331
E538
  5
EFD5
331
E539
  5
EFD6
331
E53A
  5
EFD7
331
E53B
  5
EFD8
331
E53C
  5
EFD9
331
EDB6
  5
EFEB
331
EDB7
  5
EFEC
331
EDB8
  5
EFED
331
EDB9
  5
EFEE
331
EDBA
  5
EFEF
331
EF41
  5
A725
331
EF42
  5
A726
331
EF43
  5
A727
331
0
  5
9FBE
331
EF45
  5
A735
331
EF46
  5
A736
331
EF47
  5
A737
331
EF48
  5
A738
331
EF49
  5
EF65
331
EF4A
  5
EF66
331
EF4B
  5
EF67
331
EF4C
  5
EF68
331
EF55
  5
EFDA
331
EF56
  5
EFDB
331
EF57
  5
EFDC
331
0
  5
EF4B
331
EF59
  5
EFE7
331
EF5A
  5
EFE8
331
EF5B
  5
EFE9
331
EF5C
  5
EFEA
331
EF5D
  5
A728
331
EF5E
  5
A729
331
EF5F
  5
A72A
331
EF60
  5
A72B
331
EF61
  5
A72C
331
EF62
  5
A72D
331
EF63
  5
A72E
331
EF64
  5
A72F
331
EF65
  5
A730
331
EF66
  5
A734
331
EF67
  5
EFDD
331
EF68
  5
EFDE
331
EF69
  5
EFDF
331
EF6A
  5
EFE0
331
EF6B
  5
EFE1
331
EF6C
  5
EFE2
331
EF6D
  5
EFE3
331
EF6E
  5
EFE4
331
EF6F
  5
EFE5
331
EF70
  5
EFE6
331
EF71
  5
9123
331
EF72
  5
9124
331
EF73
  5
9972
331
0
  5
9974
331
0
  5
9975
331
0
  5
9976
331
EF77
  5
A034
331
EF78
  5
A1CA
331
EF79
  5
A1CC
331
EF7A
  5
A6E9
331
EF7B
  5
A6F0
331
0
  5
A028
331
0
  5
A02B
331
0
  5
A02E
331
EF7F
  5
A6FE
331
EF80
  5
A709
331
EF81
  5
A70A
331
EF82
  5
A70B
331
0
  5
A6ED
331
0
  5
A6EE
331
0
  5
A6EF
331
EF86
  5
A716
331
EF87
  5
A717
331
EF88
  5
A718
331
0
  5
A6F3
331
0
  5
A6F4
331
0
  5
A6F5
331
EF8C
  5
A739
331
EF8D
  5
A73A
331
EF8E
  5
A73B
331
0
  5
A719
331
0
  5
A71A
331
0
  5
A71B
331
0
  5
A71C
331
EF93
  5
A746
331
EF94
  5
A747
331
EF95
  5
A748
331
EF96
  5
A757
331
EF97
  5
A758
331
EF98
  5
A759
331
0
  5
A731
331
0
  5
A732
331
0
  5
A733
331
EF9C
  5
E4A7
331
EF9D
  5
E4A8
331
EF9E
  5
E4A9
331
0
  5
DA8F
331
0
  5
DA90
331
0
  5
DA91
331
EFA2
  5
E4B1
331
EFA3
  5
E4B2
331
EFA4
  5
E4B3
331
0
  5
DAA2
331
EFA6
  5
E4C4
331
EFA7
  5
E4C5
331
EFA8
  5
E4C6
331
0
  5
DAA6
331
EFAA
  5
E4CC
331
EFAB
  5
E4CD
331
EFAC
  5
E4CE
331
EFAD
  5
E4CF
331
0
  5
DAAB
331
EFAF
  5
E4D3
331
EFB0
  5
E4D4
331
EFB1
  5
E4D5
331
EFB2
  5
E4D6
331
EFB3
  5
9FC0
331
EFB4
  5
9FC1
331
EFB5
  5
9FC2
331
EFB6
  5
9FC8
331
EFB7
  5
9FC9
331
EFB8
  5
A02F
331
EFB9
  5
A033
331
EFBA
  5
A6F1
331
EFBB
  5
A6F2
331
EFBC
  5
A6F6
331
EFBD
  5
A6F7
331
EFBE
  5
A6F8
331
EFBF
  5
A6F9
331
EFC0
  5
A6FA
331
EFC1
  5
A70F
331
EFC2
  5
A710
331
EFC3
  5
A711
331
EFC4
  5
A712
331
EFC5
  5
A713
331
EFC6
  5
A714
331
EFC7
  5
A715
331
EFC8
  5
A71D
331
EFC9
  5
A71E
331
EFCA
  5
A71F
331
EFCB
  5
A720
331
EFCC
  5
A721
331
EFCD
  5
A722
331
EFCE
  5
A723
331
EFCF
  5
A73C
331
EFD0
  5
A73D
331
EFD1
  5
A73E
331
EFD2
  5
A73F
331
EFD3
  5
A740
331
EFD4
  5
A741
331
EFD5
  5
A742
331
EFD6
  5
A743
331
EFD7
  5
A744
331
EFD8
  5
A745
331
EFD9
  5
A75A
331
EFDA
  5
A75B
331
EFDB
  5
A75C
331
EFDC
  5
A75D
331
EFDD
  5
A75E
331
EFDE
  5
A75F
331
EFDF
  5
A760
331
EFE0
  5
E4AA
331
EFE1
  5
E4AB
331
EFE2
  5
E4AC
331
EFE3
  5
E4AD
331
EFE4
  5
E4AE
331
EFE5
  5
E4AF
331
EFE6
  5
E4B0
331
EFE7
  5
E4C1
331
EFE8
  5
E4C2
331
EFE9
  5
E4C3
331
EFEA
  5
E4C7
331
EFEB
  5
E4C8
331
EFEC
  5
E4C9
331
EFED
  5
E4D0
331
EFEE
  5
E4D1
331
EFEF
  5
E4D2
  0
MATERIAL
  5
A39F
102
{ACAD_REACTORS
330
658F
102
}
102
{ACAD_XDICTIONARY
360
F18E
102
}
330
658F
100
AcDbMaterial
  1
BYBLOCK
 72
     0
 73
     2
 43
0.0208333333333333
 43
0.0
 43
0.0
 43
0.0
 43
0.0
 43
0.0208333333333333
 43
0.0
 43
0.0
 43
0.0
 43
0.0
 43
1.0
 43
0.0
 43
0.0
 43
0.0
 43
0.0
 43
1.0
 77
     0
 78
     2
 47
0.0208333333333333
 47
0.0
 47
0.0
 47
0.0
 47
0.0
 47
0.0208333333333333
 47
0.0
 47
0.0
 47
0.0
 47
0.0
 47
1.0
 47
0.0
 47
0.0
 47
0.0
 47
0.0
 47
1.0
171
     0
172
     2
 49
0.0208333333333333
 49
0.0
 49
0.0
 49
0.0
 49
0.0
 49
0.0208333333333333
 49
0.0
 49
0.0
 49
0.0
 49
0.0
 49
1.0
 49
0.0
 49
0.0
 49
0.0
 49
0.0
 49
1.0
175
     0
176
     2
142
0.0208333333333333
142
0.0
142
0.0
142
0.0
142
0.0
142
0.0208333333333333
142
0.0
142
0.0
142
0.0
142
0.0
142
1.0
142
0.0
142
0.0
142
0.0
142
0.0
142
1.0
179
     0
270
     2
144
0.0208333333333333
144
0.0
144
0.0
144
0.0
144
0.0
144
0.0208333333333333
144
0.0
144
0.0
144
0.0
144
0.0
144
1.0
144
0.0
144
0.0
144
0.0
144
0.0
144
1.0
274
     2
147
0.0208333333333333
147
0.0
147
0.0
147
0.0
147
0.0
147
0.0208333333333333
147
0.0
147
0.0
147
0.0
147
0.0
147
1.0
147
0.0
147
0.0
147
0.0
147
0.0
147
1.0
  0
MATERIAL
  5
A397
102
{ACAD_REACTORS
330
658F
102
}
102
{ACAD_XDICTIONARY
360
F190
102
}
330
658F
100
AcDbMaterial
  1
BYLAYER
 72
     0
 73
     2
 43
0.0208333333333333
 43
0.0
 43
0.0
 43
0.0
 43
0.0
 43
0.0208333333333333
 43
0.0
 43
0.0
 43
0.0
 43
0.0
 43
1.0
 43
0.0
 43
0.0
 43
0.0
 43
0.0
 43
1.0
 77
     0
 78
     2
 47
0.0208333333333333
 47
0.0
 47
0.0
 47
0.0
 47
0.0
 47
0.0208333333333333
 47
0.0
 47
0.0
 47
0.0
 47
0.0
 47
1.0
 47
0.0
 47
0.0
 47
0.0
 47
0.0
 47
1.0
171
     0
172
     2
 49
0.0208333333333333
 49
0.0
 49
0.0
 49
0.0
 49
0.0
 49
0.0208333333333333
 49
0.0
 49
0.0
 49
0.0
 49
0.0
 49
1.0
 49
0.0
 49
0.0
 49
0.0
 49
0.0
 49
1.0
175
     0
176
     2
142
0.0208333333333333
142
0.0
142
0.0
142
0.0
142
0.0
142
0.0208333333333333
142
0.0
142
0.0
142
0.0
142
0.0
142
1.0
142
0.0
142
0.0
142
0.0
142
0.0
142
1.0
179
     0
270
     2
144
0.0208333333333333
144
0.0
144
0.0
144
0.0
144
0.0
144
0.0208333333333333
144
0.0
144
0.0
144
0.0
144
0.0
144
1.0
144
0.0
144
0.0
144
0.0
144
0.0
144
1.0
274
     2
147
0.0208333333333333
147
0.0
147
0.0
147
0.0
147
0.0
147
0.0208333333333333
147
0.0
147
0.0
147
0.0
147
0.0
147
1.0
147
0.0
147
0.0
147
0.0
147
0.0
147
1.0
  0
MATERIAL
  5
9DA0
102
{ACAD_REACTORS
330
658F
102
}
102
{ACAD_XDICTIONARY
360
F192
102
}
330
658F
100
AcDbMaterial
  1
GLOBAL
 72
     0
 73
     2
 43
0.0208333333333333
 43
0.0
 43
0.0
 43
0.0
 43
0.0
 43
0.0208333333333333
 43
0.0
 43
0.0
 43
0.0
 43
0.0
 43
1.0
 43
0.0
 43
0.0
 43
0.0
 43
0.0
 43
1.0
 77
     0
 78
     2
 47
0.0208333333333333
 47
0.0
 47
0.0
 47
0.0
 47
0.0
 47
0.0208333333333333
 47
0.0
 47
0.0
 47
0.0
 47
0.0
 47
1.0
 47
0.0
 47
0.0
 47
0.0
 47
0.0
 47
1.0
171
     0
172
     2
 49
0.0208333333333333
 49
0.0
 49
0.0
 49
0.0
 49
0.0
 49
0.0208333333333333
 49
0.0
 49
0.0
 49
0.0
 49
0.0
 49
1.0
 49
0.0
 49
0.0
 49
0.0
 49
0.0
 49
1.0
175
     0
176
     2
142
0.0208333333333333
142
0.0
142
0.0
142
0.0
142
0.0
142
0.0208333333333333
142
0.0
142
0.0
142
0.0
142
0.0
142
1.0
142
0.0
142
0.0
142
0.0
142
0.0
142
1.0
179
     0
270
     2
144
0.0208333333333333
144
0.0
144
0.0
144
0.0
144
0.0
144
0.0208333333333333
144
0.0
144
0.0
144
0.0
144
0.0
144
1.0
144
0.0
144
0.0
144
0.0
144
0.0
144
1.0
274
     2
147
0.0208333333333333
147
0.0
147
0.0
147
0.0
147
0.0
147
0.0208333333333333
147
0.0
147
0.0
147
0.0
147
0.0
147
1.0
147
0.0
147
0.0
147
0.0
147
0.0
147
1.0
  0
ACAD_PROXY_OBJECT
  5
A3DB
102
{ACAD_REACTORS
330
A3DA
102
}
330
A3DA
100
AcDbZombieObject
 90
      499
 91
      513
 93
      610
310
40901902A4063FBFFFFFE000000000000002040AD7A3703D0AD73F4214DD185B99185C990000000000000104090141901A00000000000004100000000000000041025764000000000000300FC0
340
12
340
0
340
F
340
0
 94
        0
1001
ACAD_MLEADERVER
1070
     2
  0
MLINESTYLE
  5
1C
102
{ACAD_REACTORS
330
1B
102
}
330
1B
100
AcDbMlineStyle
  2
STANDARD
 70
     0
  3

 62
   256
 51
90.0
 52
90.0
 71
     2
 49
0.5
 62
   256
  6
BYLAYER
 49
-0.5
 62
   256
  6
BYLAYER
  0
ACAD_PROXY_OBJECT
  5
A3B9
102
{ACAD_REACTORS
330
A3B8
102
}
330
A3B8
100
AcDbZombieObject
 90
      499
 91
      512
 93
       41
310
903313A31580
  0
ACAD_PROXY_OBJECT
  5
A3BA
102
{ACAD_REACTORS
330
A3B8
102
}
330
A3B8
100
AcDbZombieObject
 90
      499
 91
      512
 93
      105
310
903313A324000000000000004000
  0
ACAD_PROXY_OBJECT
  5
A3BB
102
{ACAD_REACTORS
330
A3B8
102
}
330
A3B8
100
AcDbZombieObject
 90
      499
 91
      512
 93
      105
310
903313A344000000000000104000
  0
ACAD_PROXY_OBJECT
  5
A3BC
102
{ACAD_REACTORS
330
A3B8
102
}
330
A3B8
100
AcDbZombieObject
 90
      499
 91
      512
 93
      105
310
903313A354000000000000144000
  0
ACAD_PROXY_OBJECT
  5
A3BD
102
{ACAD_REACTORS
330
A3B8
102
}
330
A3B8
100
AcDbZombieObject
 90
      499
 91
      512
 93
      105
310
903313A384000000000000204000
  0
ACAD_PROXY_OBJECT
  5
A3BE
102
{ACAD_REACTORS
330
A3B8
102
}
330
A3B8
100
AcDbZombieObject
 90
      499
 91
      512
 93
      113
310
904313A31304000000000000244000
  0
ACAD_PROXY_OBJECT
  5
A3BF
102
{ACAD_REACTORS
330
A3B8
102
}
330
A3B8
100
AcDbZombieObject
 90
      499
 91
      512
 93
      113
310
904313A31364000000000000304000
  0
ACAD_PROXY_OBJECT
  5
A3C0
102
{ACAD_REACTORS
330
A3B8
102
}
330
A3B8
100
AcDbZombieObject
 90
      499
 91
      512
 93
      113
310
904313A32304000000000000344000
  0
ACAD_PROXY_OBJECT
  5
A3C1
102
{ACAD_REACTORS
330
A3B8
102
}
330
A3B8
100
AcDbZombieObject
 90
      499
 91
      512
 93
      113
310
904313A333040000000000003E4000
  0
ACAD_PROXY_OBJECT
  5
A3C2
102
{ACAD_REACTORS
330
A3B8
102
}
330
A3B8
100
AcDbZombieObject
 90
      499
 91
      512
 93
      113
310
904313A34304000000000000444000
  0
ACAD_PROXY_OBJECT
  5
A3C3
102
{ACAD_REACTORS
330
A3B8
102
}
330
A3B8
100
AcDbZombieObject
 90
      499
 91
      512
 93
      113
310
904313A35304000000000000494000
  0
ACAD_PROXY_OBJECT
  5
A3C4
102
{ACAD_REACTORS
330
A3B8
102
}
330
A3B8
100
AcDbZombieObject
 90
      499
 91
      512
 93
      121
310
905313A3130304000000000000594000
  0
ACAD_PROXY_OBJECT
  5
A3C5
102
{ACAD_REACTORS
330
A3B8
102
}
330
A3B8
100
AcDbZombieObject
 90
      499
 91
      512
 93
      105
310
903323A310000000000000010100
  0
ACAD_PROXY_OBJECT
  5
A3C6
102
{ACAD_REACTORS
330
A3B8
102
}
330
A3B8
100
AcDbZombieObject
 90
      499
 91
      512
 93
      105
310
903343A310000000000000410100
  0
ACAD_PROXY_OBJECT
  5
A3C7
102
{ACAD_REACTORS
330
A3B8
102
}
330
A3B8
100
AcDbZombieObject
 90
      499
 91
      512
 93
      105
310
903383A310000000000000810100
  0
ACAD_PROXY_OBJECT
  5
A3C8
102
{ACAD_REACTORS
330
A3B8
102
}
330
A3B8
100
AcDbZombieObject
 90
      499
 91
      512
 93
      113
310
90431303A310000000000000910100
  0
ACAD_PROXY_OBJECT
  5
A3C9
102
{ACAD_REACTORS
330
A3B8
102
}
330
A3B8
100
AcDbZombieObject
 90
      499
 91
      512
 93
      121
310
9053130303A310000000000001650100
  0
ACAD_PROXY_OBJECT
  5
A3CA
102
{ACAD_REACTORS
330
A3B8
102
}
330
A3B8
100
AcDbZombieObject
 90
      499
 91
      512
 93
      257
310
90E312F31323822203D2031272D3022000000000000200FC000000000000284000
  0
ACAD_PROXY_OBJECT
  5
A3CB
102
{ACAD_REACTORS
330
A3B8
102
}
330
A3B8
100
AcDbZombieObject
 90
      499
 91
      512
 93
      249
310
90D312F363422203D2031272D3022000000000000240FC000000000000284000
  0
ACAD_PROXY_OBJECT
  5
A3CC
102
{ACAD_REACTORS
330
A3B8
102
}
330
A3B8
100
AcDbZombieObject
 90
      499
 91
      512
 93
      249
310
90D312F333222203D2031272D3022000000000000280FC000000000000284000
  0
ACAD_PROXY_OBJECT
  5
A3CD
102
{ACAD_REACTORS
330
A3B8
102
}
330
A3B8
100
AcDbZombieObject
 90
      499
 91
      512
 93
      249
310
90D312F313622203D2031272D30220000000000002C0FC000000000000284000
  0
ACAD_PROXY_OBJECT
  5
A3CE
102
{ACAD_REACTORS
330
A3B8
102
}
330
A3B8
100
AcDbZombieObject
 90
      499
 91
      512
 93
      249
310
90D332F333222203D2031272D30220000000000002E0FC000000000000284000
  0
ACAD_PROXY_OBJECT
  5
A3CF
102
{ACAD_REACTORS
330
A3B8
102
}
330
A3B8
100
AcDbZombieObject
 90
      499
 91
      512
 93
      241
310
90C312F3822203D2031272D3022000000000000300FC000000000000284000
  0
ACAD_PROXY_OBJECT
  5
A3D0
102
{ACAD_REACTORS
330
A3B8
102
}
330
A3B8
100
AcDbZombieObject
 90
      499
 91
      512
 93
      249
310
90D332F313622203D2031272D3022000000000000320FC000000000000284000
  0
ACAD_PROXY_OBJECT
  5
A3D1
102
{ACAD_REACTORS
330
A3B8
102
}
330
A3B8
100
AcDbZombieObject
 90
      499
 91
      512
 93
      241
310
90C312F3422203D2031272D3022000000000000340FC000000000000284000
  0
ACAD_PROXY_OBJECT
  5
A3D2
102
{ACAD_REACTORS
330
A3B8
102
}
330
A3B8
100
AcDbZombieObject
 90
      499
 91
      512
 93
      241
310
90C332F3822203D2031272D3022000000000000360FC000000000000284000
  0
ACAD_PROXY_OBJECT
  5
A3D3
102
{ACAD_REACTORS
330
A3B8
102
}
330
A3B8
100
AcDbZombieObject
 90
      499
 91
      512
 93
      241
310
90C312F3222203D2031272D3022000000000000380FC000000000000284000
  0
ACAD_PROXY_OBJECT
  5
A3D4
102
{ACAD_REACTORS
330
A3B8
102
}
330
A3B8
100
AcDbZombieObject
 90
      499
 91
      512
 93
      241
310
90C332F3422203D2031272D30220000000000003A0FC000000000000284000
  0
ACAD_PROXY_OBJECT
  5
A3D5
102
{ACAD_REACTORS
330
A3B8
102
}
330
A3B8
100
AcDbZombieObject
 90
      499
 91
      512
 93
      161
310
90A3122203D2031272D30224000000000000284000
  0
ACAD_PROXY_OBJECT
  5
A3D6
102
{ACAD_REACTORS
330
A3B8
102
}
330
A3B8
100
AcDbZombieObject
 90
      499
 91
      512
 93
      257
310
90E312D312F3222203D2031272D30220000000000003E0FC000000000000284000
  0
ACAD_PROXY_OBJECT
  5
A3D7
102
{ACAD_REACTORS
330
A3B8
102
}
330
A3B8
100
AcDbZombieObject
 90
      499
 91
      512
 93
      225
310
90A3322203D2031272D302200000000000002100000000000000284000
  0
ACAD_PROXY_OBJECT
  5
A3D8
102
{ACAD_REACTORS
330
A3B8
102
}
330
A3B8
100
AcDbZombieObject
 90
      499
 91
      512
 93
      225
310
90A3622203D2031272D302200000000000006100000000000000284000
  0
ACAD_PROXY_OBJECT
  5
A3D9
102
{ACAD_REACTORS
330
A3B8
102
}
330
A3B8
100
AcDbZombieObject
 90
      499
 91
      512
 93
      249
310
90D31272D3022203D2031272D30220000000000000A100000000000000284000
  0
ACAD_PROXY_OBJECT
  5
A3AD
102
{ACAD_REACTORS
330
A3A7
102
}
330
A3A7
100
AcDbZombieObject
 90
      499
 91
      511
 93
      436
310
42CC9915DA5C99599C985B595049028333333333333E3BF0000000000000FB0107901411070040501600405405064090741402480A0340
1001
ACAD
1000
AcDbSavedByObjectVersion
1070
     0
  0
ACAD_PROXY_OBJECT
  5
A3AF
102
{ACAD_REACTORS
330
A3A7
102
}
330
A3A7
100
AcDbZombieObject
 90
      499
 91
      511
 93
      500
310
424CD108121A5919195B90640502408333333333333E3BF0000000000000FB01079024090700405020000000000001110200405405064090740C02480A0340
1001
ACAD
1000
AcDbSavedByObjectVersion
1070
     0
  0
ACAD_PROXY_OBJECT
  5
A3AE
102
{ACAD_REACTORS
330
A3A7
102
}
330
A3A7
100
AcDbZombieObject
 90
      499
 91
      511
 93
      436
310
42CCD915DA5C99599C985B595059028333333333333E3BF0000000000000FB0107901411070040501600405405064090741402480A0340
1001
ACAD
1000
AcDbSavedByObjectVersion
1070
     0
  0
ACAD_PROXY_OBJECT
  5
A3AC
102
{ACAD_REACTORS
330
A3A7
102
}
330
A3A7
100
AcDbZombieObject
 90
      499
 91
      511
 93
      388
310
4150985CDA58D07406404333333333333E3BF0000000000000FB0107A41107004050150841D405064090741402480A0350
1001
ACAD
1000
AcDbSavedByObjectVersion
1070
     0
  0
ACAD_PROXY_OBJECT
  5
A3B3
102
{ACAD_REACTORS
330
A3A7
102
}
330
A3A7
100
AcDbZombieObject
 90
      499
 91
      511
 93
      428
310
42109C9A59DA1D195B90C409028333333333333E3BF0000000000000FB010790141107004050150841D405064090741402480A029950
1001
ACAD
1000
AcDbSavedByObjectVersion
1070
     0
  0
ACAD_PROXY_OBJECT
  5
A3B7
102
{ACAD_REACTORS
330
A3A7
102
}
330
A3A7
100
AcDbZombieObject
 90
      499
 91
      511
 93
      452
310
42D0DBDB1BDC90DA185B99D95104090240C333333333333E3BF0000000000000FB0108901411070040501508421405064090741402480A0350
1001
ACAD
1000
AcDbSavedByObjectVersion
1070
     0
  0
ACAD_PROXY_OBJECT
  5
A3B0
102
{ACAD_REACTORS
330
A3A7
102
}
330
A3A7
100
AcDbZombieObject
 90
      499
 91
      511
 93
      500
310
4290DBDB98D95C1D1D585B10940D028333333333333E3BF0000000000000FB0107902409070040501000000000000111010841D405064090740C02480A0340
1001
ACAD
1000
AcDbSavedByObjectVersion
1070
     0
  0
ACAD_PROXY_OBJECT
  5
A3B2
102
{ACAD_REACTORS
330
A3A7
102
}
330
A3A7
100
AcDbZombieObject
 90
      499
 91
      511
 93
      412
310
40D11A5B50B409028333333333333E3BF0000000000000FB010790141107004050150841D405064090741402480A02677FFFFFD0
1001
ACAD
1000
AcDbSavedByObjectVersion
1070
     0
  0
ACAD_PROXY_OBJECT
  5
ADB1
102
{ACAD_REACTORS
330
A3A7
102
}
330
A3A7
100
AcDbZombieObject
 90
      499
 91
      511
 93
      452
310
43115919D950DBDB1BDC93D999916409028333333333333E3BF0000000000000FB010790141107004050150841D405064090741402480A0350
1001
ACAD
1000
AcDbSavedByObjectVersion
1070
     0
  0
ACAD_PROXY_OBJECT
  5
A3B6
102
{ACAD_REACTORS
330
A3A7
102
}
330
A3A7
100
AcDbZombieObject
 90
      499
 91
      511
 93
      444
310
42D19858D95C185D1D195C9B90F409028333333333333E3BF0000000000000FB010790141107004050150841D405064090741402480A0350
1001
ACAD
1000
AcDbSavedByObjectVersion
1070
     0
  0
ACAD_PROXY_OBJECT
  5
A3A8
102
{ACAD_REACTORS
330
A3A7
102
}
330
A3A7
100
AcDbZombieObject
 90
      499
 91
      511
 93
      388
310
41119B185D240901404333333333333E3BF0000000000000F9010740A41107004050150841D405064090741402480A1B50
1001
ACAD
1000
AcDbSavedByObjectVersion
1070
     0
  0
ACAD_PROXY_OBJECT
  5
A3A9
102
{ACAD_REACTORS
330
A3A7
102
}
330
A3A7
100
AcDbZombieObject
 90
      499
 91
      511
 93
      476
310
43519B185D15DA5D1A115919D95CD0140901404333333333333E3BF0000000000000F9010740901411070040501600405405064090741402480A1B50
1001
ACAD
1000
AcDbSavedByObjectVersion
1070
     0
  0
ACAD_PROXY_OBJECT
  5
A3AA
102
{ACAD_REACTORS
330
A3A7
102
}
330
A3A7
100
AcDbZombieObject
 90
      499
 91
      511
 93
      412
310
41D1DBDD5C985D5910240902404333333333333E3BF0000000000000F9010740A411070040501641D405064090741402480A1B50
1001
ACAD
1000
AcDbSavedByObjectVersion
1070
     0
  0
ACAD_PROXY_OBJECT
  5
A3AB
102
{ACAD_REACTORS
330
A3A7
102
}
330
A3A7
100
AcDbZombieObject
 90
      499
 91
      511
 93
      500
310
4411DBDD5C985D5915DA5D1A115919D95CD0340902404333333333333E3BF0000000000000F9010740901411070040501600405405064090741402480A1B50
1001
ACAD
1000
AcDbSavedByObjectVersion
1070
     0
  0
ACAD_PROXY_OBJECT
  5
DA43
102
{ACAD_REACTORS
330
A3A7
102
}
330
A3A7
100
AcDbZombieObject
 90
      499
 91
      511
 93
      476
310
41921A5919195B90640502408333333333333E3BF0000000000000FB01079024090700405020000000000001110200405405064090740C02480A0340
1001
ACAD
1000
AcDbSavedByObjectVersion
1070
     0
  0
ACAD_PROXY_OBJECT
  5
ADAF
102
{ACAD_REACTORS
330
A3A7
102
}
330
A3A7
100
AcDbZombieObject
 90
      499
 91
      511
 93
      428
310
42529A5D1D195C93D999914409028333333333333E3BF0000000000000FB010790141107004050150A41D405064090741402480A0350
1001
ACAD
1000
AcDbSavedByObjectVersion
1070
     0
  0
ACAD_PROXY_OBJECT
  5
A3B5
102
{ACAD_REACTORS
330
A3A7
102
}
330
A3A7
100
AcDbZombieObject
 90
      499
 91
      511
 93
      444
310
42D31A5B995C185D1D195C9B90E409028333333333333E3BF0000000000000FB010790141107004050750841D405064090741402483A0350
1001
ACAD
1000
AcDbSavedByObjectVersion
1070
     0
  0
ACAD_PROXY_OBJECT
  5
EE9D
102
{ACAD_REACTORS
330
A3A7
102
}
330
A3A7
100
AcDbZombieObject
 90
      499
 91
      511
 93
      484
310
42135BD9195B1A5B99D0A409038333333333333E33F0000000000000F901074090290700405010000000000201990108421405064090741402480A1B40
1001
ACAD
1000
AcDbSavedByObjectVersion
1070
     0
  0
ACAD_PROXY_OBJECT
  5
ADB0
102
{ACAD_REACTORS
330
A3A7
102
}
330
A3A7
100
AcDbZombieObject
 90
      499
 91
      511
 93
      444
310
42D3DD995C9A185B99D3D999915409028333333333333E3BF0000000000000FB010790141107004050150941D405064090741402480A0350
1001
ACAD
1000
AcDbSavedByObjectVersion
1070
     0
  0
ACAD_PROXY_OBJECT
  5
A3B1
102
{ACAD_REACTORS
330
A3A7
102
}
330
A3A7
100
AcDbZombieObject
 90
      499
 91
      511
 93
      420
310
425499585B1A5CDD1A58D08409028333333333333E3BF0000000000000FB01079019070040501508421405064090741402480A1B40
1001
ACAD
1000
AcDbSavedByObjectVersion
1070
     0
  0
ACAD_PROXY_OBJECT
  5
DA48
102
{ACAD_REACTORS
330
A3A7
102
}
330
A3A7
100
AcDbZombieObject
 90
      499
 91
      511
 93
      420
310
4194DA1859195911B40902404333333333333E3BF0000000000000F9010740A41107004050150800405405064090840C02480A0B40
1001
ACAD
1000
AcDbSavedByObjectVersion
1070
     0
  0
ACAD_PROXY_OBJECT
  5
DA47
102
{ACAD_REACTORS
330
A3A7
102
}
330
A3A7
100
AcDbZombieObject
 90
      499
 91
      511
 93
      516
310
4454DA18591959081DDA5D1A08195919D95CD1A40902404333333333333E3BF0000000000000F901074090142907004050250800405405064090740C02480A0B40
1001
ACAD
1000
AcDbSavedByObjectVersion
1070
     0
  0
ACAD_PROXY_OBJECT
  5
DA44
102
{ACAD_REACTORS
330
A3A7
102
}
330
A3A7
100
AcDbZombieObject
 90
      499
 91
      511
 93
      532
310
4394DA1859195CC81BD98811DC985E5174090240C333333333333E3BF0000000000000FB01079024090741D01000000000000111010841D405064090740C02480A0340
1001
ACAD
1000
AcDbSavedByObjectVersion
1070
     0
  0
ACAD_PROXY_OBJECT
  5
DA45
102
{ACAD_REACTORS
330
A3A7
102
}
330
A3A7
100
AcDbZombieObject
 90
      499
 91
      511
 93
      476
310
41D4DAD95D18DA1E51840502408333333333333E3BF0000000000000FB01079024090741D01000000000000111010B41D405064090741802480A0340
1001
ACAD
1000
AcDbSavedByObjectVersion
1070
     0
  0
ACAD_PROXY_OBJECT
  5
A3B4
102
{ACAD_REACTORS
330
A3A7
102
}
330
A3A7
100
AcDbZombieObject
 90
      499
 91
      511
 93
      412
310
41D51A1A58DAD95B90D409028333333333333E3BF0000000000000FB010790141107004050150C41D405064090741402480A0350
1001
ACAD
1000
AcDbSavedByObjectVersion
1070
     0
  0
ACAD_PROXY_OBJECT
  5
DA42
102
{ACAD_REACTORS
330
A3A7
102
}
330
A3A7
100
AcDbZombieObject
 90
      499
 91
      511
 93
      420
310
4255DA5C99599C985B595059028333333333333E3BF0000000000000FB0107901411070040501600405405064090740C02480A0340
1001
ACAD
1000
AcDbSavedByObjectVersion
1070
     0
  0
ACAD_PROXY_OBJECT
  5
DA46
102
{ACAD_REACTORS
330
A3A7
102
}
330
A3A7
100
AcDbZombieObject
 90
      499
 91
      511
 93
      404
310
41560B54985E51940902404000000000000E03F0000000000000FB010740501907004050150841D405064090740C02480A1B40
1001
ACAD
1000
AcDbSavedByObjectVersion
1070
     0
  0
XRECORD
  5
EFF1
102
{ACAD_REACTORS
330
EFF0
102
}
330
EFF0
100
AcDbXrecord
340
6590
  0
XRECORD
  5
EFF2
102
{ACAD_REACTORS
330
EFF0
102
}
330
EFF0
100
AcDbXrecord
340
658F
  0
DICTIONARYVAR
  5
A4C8
102
{ACAD_REACTORS
330
2739
102
}
330
2739
100
DictionaryVariables
280
     0
  1
1:1
  0
DICTIONARYVAR
  5
A4C7
102
{ACAD_REACTORS
330
2739
102
}
330
2739
100
DictionaryVariables
280
     0
  1
Standard
  0
DICTIONARYVAR
  5
8076
102
{ACAD_REACTORS
330
2739
102
}
330
2739
100
DictionaryVariables
280
     0
  1
Standard
  0
DICTIONARYVAR
  5
3FDC
102
{ACAD_REACTORS
330
2739
102
}
330
2739
100
DictionaryVariables
280
     0
  1
-1
  0
DICTIONARYVAR
  5
7B85
102
{ACAD_REACTORS
330
2739
102
}
330
2739
100
DictionaryVariables
280
     0
  1
2
  0
DICTIONARYVAR
  5
9173
102
{ACAD_REACTORS
330
2739
102
}
330
2739
100
DictionaryVariables
280
     0
  1
1
  0
DICTIONARYVAR
  5
A4C9
102
{ACAD_REACTORS
330
2739
102
}
330
2739
100
DictionaryVariables
280
     0
  1
0
  0
DICTIONARYVAR
  5
9177
102
{ACAD_REACTORS
330
2739
102
}
330
2739
100
DictionaryVariables
280
     0
  1
8
  0
DICTIONARYVAR
  5
9176
102
{ACAD_REACTORS
330
2739
102
}
330
2739
100
DictionaryVariables
280
     0
  1
1
  0
DICTIONARYVAR
  5
EF0E
102
{ACAD_REACTORS
330
2739
102
}
330
2739
100
DictionaryVariables
280
     0
  1
0
  0
DICTIONARYVAR
  5
9174
102
{ACAD_REACTORS
330
2739
102
}
330
2739
100
DictionaryVariables
280
     0
  1
8
  0
DICTIONARYVAR
  5
9175
102
{ACAD_REACTORS
330
2739
102
}
330
2739
100
DictionaryVariables
280
     0
  1
2
  0
DICTIONARYVAR
  5
7B86
102
{ACAD_REACTORS
330
2739
102
}
330
2739
100
DictionaryVariables
280
     0
  1

  0
DICTIONARYVAR
  5
273A
102
{ACAD_REACTORS
330
2739
102
}
330
2739
100
DictionaryVariables
280
     0
  1
96
  0
DICTIONARYVAR
  5
EE9C
102
{ACAD_REACTORS
330
2739
102
}
330
2739
100
DictionaryVariables
280
     0
  1
2
  0
DICTIONARY
  5
F18E
330
A39F
100
AcDbDictionary
  3
ACAD_XREC_ROUNDTRIP
360
F18F
1001
ACAD
1000
TREAT_AS_HARD
1070
     1
  0
DICTIONARY
  5
F190
330
A397
100
AcDbDictionary
  3
ACAD_XREC_ROUNDTRIP
360
F191
1001
ACAD
1000
TREAT_AS_HARD
1070
     1
  0
DICTIONARY
  5
F192
330
9DA0
100
AcDbDictionary
  3
ACAD_XREC_ROUNDTRIP
360
F193
1001
ACAD
1000
TREAT_AS_HARD
1070
     1
  0
XRECORD
  5
F18F
102
{ACAD_REACTORS
330
F18E
102
}
330
F18E
100
AcDbXrecord
102
MATERIAL
148
0.0
149
0.0
149
0.0
 93
        0
 94
      127
282
     0
 72
     0
 77
     0
171
     0
175
     0
179
     0
273
     0
  0
XRECORD
  5
F191
102
{ACAD_REACTORS
330
F190
102
}
330
F190
100
AcDbXrecord
102
MATERIAL
148
0.0
149
0.0
149
0.0
 93
        0
 94
      127
282
     0
 72
     0
 77
     0
171
     0
175
     0
179
     0
273
     0
  0
XRECORD
  5
F193
102
{ACAD_REACTORS
330
F192
102
}
330
F192
100
AcDbXrecord
102
MATERIAL
148
0.0
149
0.0
149
0.0
 93
        0
 94
      127
282
     0
 72
     0
 77
     0
171
     0
175
     0
179
     0
273
     0
  0
ENDSEC
  0
EOF
