  0
SECTION
  2
HEADER
  9
$ACADVER
  1
AC1012
  9
$DWGCODEPAGE
  3
ansi_932
  9
$INSBASE
 10
0.0
 20
0.0
 30
0.0
  9
$EXTMIN
 10
457.0613551893543
 20
-785.7574838637602
 30
-0.0000000000563712
  9
$EXTMAX
 10
795.1999635722733
 20
-599.0742101046737
 30
0.00000000000011
  9
$LIMMIN
 10
0.0
 20
0.0
  9
$LIMMAX
 10
12.0
 20
9.0
  9
$ORTHOMODE
 70
     0
  9
$REGENMODE
 70
     1
  9
$FILLMODE
 70
     1
  9
$QTEXTMODE
 70
     0
  9
$MIRRTEXT
 70
     0
  9
$DRAGMODE
 70
     2
  9
$LTSCALE
 40
0.5
  9
$OSMODE
 70
 16383
  9
$ATTMODE
 70
     1
  9
$TEXTSIZE
 40
4.0
  9
$TRACEWID
 40
0.05
  9
$TEXTSTYLE
  7
STANDARD
  9
$CLAYER
  8
1TEXT
  9
$CELTYPE
  6
BYLAYER
  9
$CECOLOR
 62
   256
  9
$CELTSCALE
 40
1.0
  9
$DELOBJ
 70
     1
  9
$DISPSILH
 70
     0
  9
$DIMSCALE
 40
1.0
  9
$DIMASZ
 40
2.0
  9
$DIMEXO
 40
0.0
  9
$DIMDLI
 40
7.0
  9
$DIMRND
 40
0.0
  9
$DIMDLE
 40
0.0
  9
$DIMEXE
 40
1.0
  9
$DIMTP
 40
0.0
  9
$DIMTM
 40
0.0
  9
$DIMTXT
 40
3.5
  9
$DIMCEN
 40
0.0
  9
$DIMTSZ
 40
0.0
  9
$DIMTOL
 70
     0
  9
$DIMLIM
 70
     0
  9
$DIMTIH
 70
     0
  9
$DIMTOH
 70
     0
  9
$DIMSE1
 70
     0
  9
$DIMSE2
 70
     0
  9
$DIMTAD
 70
     1
  9
$DIMZIN
 70
     8
  9
$DIMBLK
  1

  9
$DIMASO
 70
     1
  9
$DIMSHO
 70
     1
  9
$DIMPOST
  1
 
  9
$DIMAPOST
  1

  9
$DIMALT
 70
     0
  9
$DIMALTD
 70
     2
  9
$DIMALTF
 40
25.4
  9
$DIMLFAC
 40
1.0
  9
$DIMTOFL
 70
     1
  9
$DIMTVP
 40
0.0
  9
$DIMTIX
 70
     0
  9
$DIMSOXD
 70
     0
  9
$DIMSAH
 70
     1
  9
$DIMBLK1
  1
OPEN30
  9
$DIMBLK2
  1
OPEN30
  9
$DIMSTYLE
  2
NEWX10
  9
$DIMCLRD
 70
   256
  9
$DIMCLRE
 70
   256
  9
$DIMCLRT
 70
   201
  9
$DIMTFAC
 40
0.7
  9
$DIMGAP
 40
0.7
  9
$DIMJUST
 70
     0
  9
$DIMSD1
 70
     0
  9
$DIMSD2
 70
     0
  9
$DIMTOLJ
 70
     1
  9
$DIMTZIN
 70
     8
  9
$DIMALTZ
 70
     0
  9
$DIMALTTZ
 70
     0
  9
$DIMFIT
 70
     2
  9
$DIMUPT
 70
     0
  9
$DIMUNIT
 70
     2
  9
$DIMDEC
 70
     2
  9
$DIMTDEC
 70
     4
  9
$DIMALTU
 70
     2
  9
$DIMALTTD
 70
     2
  9
$DIMTXSTY
  7
STANDARD
  9
$DIMAUNIT
 70
     0
  9
$LUNITS
 70
     2
  9
$LUPREC
 70
     4
  9
$SKETCHINC
 40
0.1
  9
$FILLETRAD
 40
0.0
  9
$AUNITS
 70
     0
  9
$AUPREC
 70
     2
  9
$MENU
  1
acad
  9
$ELEVATION
 40
0.0
  9
$PELEVATION
 40
0.0
  9
$THICKNESS
 40
0.0
  9
$LIMCHECK
 70
     0
  9
$CHAMFERA
 40
0.0
  9
$CHAMFERB
 40
0.0
  9
$CHAMFERC
 40
0.0
  9
$CHAMFERD
 40
0.0
  9
$SKPOLY
 70
     0
  9
$TDCREATE
 40
2451024.579593021
  9
$TDUPDATE
 40
2458549.52304941
  9
$TDINDWG
 40
1.1373207639
  9
$TDUSRTIMER
 40
1.1373207639
  9
$USRTIMER
 70
     1
  9
$ANGBASE
 50
0.0
  9
$ANGDIR
 70
     0
  9
$PDMODE
 70
     0
  9
$PDSIZE
 40
0.0
  9
$PLINEWID
 40
0.0
  9
$COORDS
 70
     2
  9
$SPLFRAME
 70
     0
  9
$SPLINETYPE
 70
     6
  9
$SPLINESEGS
 70
     8
  9
$ATTDIA
 70
     0
  9
$ATTREQ
 70
     1
  9
$HANDLING
 70
     1
  9
$HANDSEED
  5
BF4D
  9
$SURFTAB1
 70
     6
  9
$SURFTAB2
 70
     6
  9
$SURFTYPE
 70
     6
  9
$SURFU
 70
     6
  9
$SURFV
 70
     6
  9
$UCSNAME
  2

  9
$UCSORG
 10
0.0
 20
0.0
 30
0.0
  9
$UCSXDIR
 10
1.0
 20
0.0
 30
0.0
  9
$UCSYDIR
 10
0.0
 20
1.0
 30
0.0
  9
$PUCSNAME
  2

  9
$PUCSORG
 10
0.0
 20
0.0
 30
0.0
  9
$PUCSXDIR
 10
1.0
 20
0.0
 30
0.0
  9
$PUCSYDIR
 10
0.0
 20
1.0
 30
0.0
  9
$USERI1
 70
     0
  9
$USERI2
 70
     0
  9
$USERI3
 70
     0
  9
$USERI4
 70
     0
  9
$USERI5
 70
     0
  9
$USERR1
 40
0.0
  9
$USERR2
 40
0.0
  9
$USERR3
 40
0.0
  9
$USERR4
 40
0.0
  9
$USERR5
 40
0.0
  9
$WORLDVIEW
 70
     1
  9
$SHADEDGE
 70
     3
  9
$SHADEDIF
 70
    70
  9
$TILEMODE
 70
     1
  9
$MAXACTVP
 70
    48
  9
$PINSBASE
 10
0.0
 20
0.0
 30
0.0
  9
$PLIMCHECK
 70
     0
  9
$PEXTMIN
 10
1.000000000000000E+20
 20
1.000000000000000E+20
 30
1.000000000000000E+20
  9
$PEXTMAX
 10
-1.000000000000000E+20
 20
-1.000000000000000E+20
 30
-1.000000000000000E+20
  9
$PLIMMIN
 10
0.0
 20
0.0
  9
$PLIMMAX
 10
12.0
 20
9.0
  9
$UNITMODE
 70
     0
  9
$VISRETAIN
 70
     1
  9
$PLINEGEN
 70
     0
  9
$PSLTSCALE
 70
     1
  9
$TREEDEPTH
 70
  3020
  9
$PICKSTYLE
 70
     1
  9
$CMLSTYLE
  2
STANDARD
  9
$CMLJUST
 70
     0
  9
$CMLSCALE
 40
1.0
  9
$SAVEIMAGES
 70
     1
  0
ENDSEC
  0
SECTION
  2
CLASSES
  0
CLASS
  1
IDBUFFER
  2
AcDbIdBuffer
  3
ObjectDBX Classes
 90
    32768
280
     0
281
     0
  0
CLASS
  1
LWPOLYLINE
  2
AcDbPolyline
  3
ObjectDBX Classes
 90
    32768
280
     0
281
     1
  0
CLASS
  1
DICTIONARYVAR
  2
AcDbDictionaryVar
  3
ObjectDBX Classes
 90
        0
280
     0
281
     0
  0
CLASS
  1
HATCH
  2
AcDbHatch
  3
ObjectDBX Classes
 90
    32768
280
     0
281
     1
  0
CLASS
  1
ACDBDICTIONARYWDFLT
  2
AcDbDictionaryWithDefault
  3
ObjectDBX Classes
 90
    32768
280
     0
281
     0
  0
CLASS
  1
ACDBPLACEHOLDER
  2
AcDbPlaceHolder
  3
ObjectDBX Classes
 90
        0
280
     0
281
     0
  0
CLASS
  1
LAYOUT
  2
AcDbLayout
  3
ObjectDBX Classes
 90
        0
280
     0
281
     0
  0
CLASS
  1
TABLESTYLE
  2
AcDbTableStyle
  3
ObjectDBX Classes
 90
     4095
280
     0
281
     0
  0
CLASS
  1
SORTENTSTABLE
  2
AcDbSortentsTable
  3
ObjectDBX Classes
 90
    32768
280
     0
281
     0
  0
CLASS
  1
DIMASSOC
  2
AcDbDimAssoc
  3
"AcDbDimAssoc|Product Desc:     AcDim ARX App For Dimension|Company:          Autodesk, Inc.|WEB Address:      www.autodesk.com"
 90
        0
280
     0
281
     0
  0
CLASS
  1
MATERIAL
  2
AcDbMaterial
  3
ObjectDBX Classes
 90
     1153
280
     0
281
     0
  0
CLASS
  1
VISUALSTYLE
  2
AcDbVisualStyle
  3
ObjectDBX Classes
 90
     4095
280
     0
281
     0
  0
CLASS
  1
SCALE
  2
AcDbScale
  3
ObjectDBX Classes
 90
     1153
280
     0
281
     0
  0
CLASS
  1
MLEADERSTYLE
  2
AcDbMLeaderStyle
  3
ACDB_MLEADERSTYLE_CLASS
 90
     4095
280
     0
281
     0
  0
CLASS
  1
CELLSTYLEMAP
  2
AcDbCellStyleMap
  3
ObjectDBX Classes
 90
     1152
280
     0
281
     0
  0
CLASS
  1
SUN
  2
AcDbSun
  3
SCENEOE
 90
     1153
280
     0
281
     0
  0
CLASS
  1
XRECORD
  2
AcDbXrecord
  3
ObjectDBX Classes
 90
    32768
280
     0
281
     0
  0
ENDSEC
  0
SECTION
  2
TABLES
  0
TABLE
  2
VPORT
  5
8
330
0
100
AcDbSymbolTable
 70
     1
  0
VPORT
  5
9B8E
330
8
100
AcDbSymbolTableRecord
100
AcDbViewportTableRecord
  2
*ACTIVE
 70
     0
 10
0.0
 20
0.0
 11
1.0
 21
1.0
 12
626.1306593808138
 22
-692.415846984217
 13
0.0
 23
0.0
 14
1.0
 24
1.0
 15
0.0
 25
0.0
 16
0.0
 26
0.0
 36
1.0
 17
0.0
 27
0.0
 37
0.0
 40
201.3537370189595
 41
1.803066037735849
 42
50.0
 43
0.0
 44
0.0
 50
0.0
 51
0.0
 71
    16
 72
  1000
 73
     1
 74
     1
 75
     0
 76
     0
 77
     0
 78
     0
1001
ACAD_NAV_VCDISPLAY
1070
     3
  0
ENDTAB
  0
TABLE
  2
LTYPE
  5
5
330
0
100
AcDbSymbolTable
 70
     3
  0
LTYPE
  5
12
330
5
100
AcDbSymbolTableRecord
100
AcDbLinetypeTableRecord
  2
BYBLOCK
 70
     0
  3

 72
    65
 73
     0
 40
0.0
  0
LTYPE
  5
13
330
5
100
AcDbSymbolTableRecord
100
AcDbLinetypeTableRecord
  2
BYLAYER
 70
     0
  3

 72
    65
 73
     0
 40
0.0
  0
LTYPE
  5
14
330
5
100
AcDbSymbolTableRecord
100
AcDbLinetypeTableRecord
  2
CONTINUOUS
 70
     0
  3
Solid line
 72
    65
 73
     0
 40
0.0
  0
LTYPE
  5
1C04
330
5
100
AcDbSymbolTableRecord
100
AcDbLinetypeTableRecord
  2
CENTER2
 70
     0
  3
Center (.5x) ___ _ ___ _ ___ _ ___ _ ___ _ ___
 72
    65
 73
     4
 40
28.575
 49
19.05
 74
     0
 49
-3.175
 74
     0
 49
3.175
 74
     0
 49
-3.175
 74
     0
  0
LTYPE
  5
37C1
330
5
100
AcDbSymbolTableRecord
100
AcDbLinetypeTableRecord
  2
XREF1|CENTER2
 70
    16
  3
Center (.5x) ___ _ ___ _ ___ _ ___ _ ___ _ ___
 72
    65
 73
     4
 40
28.575
 49
19.05
 74
     0
 49
-3.175
 74
     0
 49
3.175
 74
     0
 49
-3.175
 74
     0
  0
ENDTAB
  0
TABLE
  2
LAYER
  5
2
102
{ACAD_XDICTIONARY
360
83EE
102
}
330
0
100
AcDbSymbolTable
 70
     6
  0
LAYER
  5
E
102
{ACAD_XDICTIONARY
360
9BF8
102
}
330
2
100
AcDbSymbolTableRecord
100
AcDbLayerTableRecord
  2
0
 70
     0
 62
     7
  6
CONTINUOUS
  0
LAYER
  5
1C0B
102
{ACAD_XDICTIONARY
360
9BFA
102
}
330
2
100
AcDbSymbolTableRecord
100
AcDbLayerTableRecord
  2
1CENTER
 70
     0
 62
     7
  6
CENTER2
  0
LAYER
  5
1C0C
102
{ACAD_XDICTIONARY
360
9BFC
102
}
330
2
100
AcDbSymbolTableRecord
100
AcDbLayerTableRecord
  2
1DIM
 70
     0
 62
     7
  6
CONTINUOUS
  0
LAYER
  5
1C0E
102
{ACAD_XDICTIONARY
360
9BFE
102
}
330
2
100
AcDbSymbolTableRecord
100
AcDbLayerTableRecord
  2
1TEXT
 70
     0
 62
     7
  6
CONTINUOUS
  0
LAYER
  5
37AE
102
{ACAD_XDICTIONARY
360
9C04
102
}
330
2
100
AcDbSymbolTableRecord
100
AcDbLayerTableRecord
  2
1HATCH
 70
     0
 62
     7
  6
CONTINUOUS
  0
LAYER
  5
93A7
102
{ACAD_XDICTIONARY
360
9C16
102
}
330
2
100
AcDbSymbolTableRecord
100
AcDbLayerTableRecord
  2
01
 70
     0
 62
     1
  6
CONTINUOUS
  0
ENDTAB
  0
TABLE
  2
STYLE
  5
3
330
0
100
AcDbSymbolTable
 70
     1
  0
STYLE
  5
F
330
3
100
AcDbSymbolTableRecord
100
AcDbTextStyleTableRecord
  2
STANDARD
 70
     0
 40
0.0
 41
1.0
 50
0.0
 71
     0
 42
4.0
  3
txt.shx
  4
extfont.shx
  0
ENDTAB
  0
TABLE
  2
VIEW
  5
6
330
0
100
AcDbSymbolTable
 70
     1
  0
VIEW
  5
2071
330
6
100
AcDbSymbolTableRecord
100
AcDbViewTableRecord
  2
A
 70
     0
 40
163.8886542118344
 10
23.75874513620715
 20
-310.5239119589886
 41
232.0683926202114
 11
0.0
 21
0.0
 31
1.0
 12
0.0
 22
0.0
 32
0.0
 42
50.0
 43
0.0
 44
0.0
 50
0.0
 71
     0
  0
ENDTAB
  0
TABLE
  2
UCS
  5
7
330
0
100
AcDbSymbolTable
 70
     0
  0
ENDTAB
  0
TABLE
  2
APPID
  5
9
330
0
100
AcDbSymbolTable
 70
    14
  0
APPID
  5
10
330
9
100
AcDbSymbolTableRecord
100
AcDbRegAppTableRecord
  2
ACAD
 70
     0
  0
APPID
  5
1BDB
330
9
100
AcDbSymbolTableRecord
100
AcDbRegAppTableRecord
  2
CONTENTBLOCKICON
 70
     0
  0
APPID
  5
1BDC
330
9
100
AcDbSymbolTableRecord
100
AcDbRegAppTableRecord
  2
CONTENTBLOCKDESCRIPTION
 70
     0
  0
APPID
  5
1BED
330
9
100
AcDbSymbolTableRecord
100
AcDbRegAppTableRecord
  2
CONTENTTABDATA
 70
     0
  0
APPID
  5
1BEE
330
9
100
AcDbSymbolTableRecord
100
AcDbRegAppTableRecord
  2
CONTENTCURRENTTAB
 70
     0
  0
APPID
  5
37BE
330
9
100
AcDbSymbolTableRecord
100
AcDbRegAppTableRecord
  2
DRAWINGVARIABLESXDATA
 70
     0
  0
APPID
  5
37BF
330
9
100
AcDbSymbolTableRecord
100
AcDbRegAppTableRecord
  2
CONTENTLONGBLOCKNAME
 70
     0
  0
APPID
  5
8492
330
9
100
AcDbSymbolTableRecord
100
AcDbRegAppTableRecord
  2
ACAD_DSTYLE_DIMTEXT_FILL
 70
     0
  0
APPID
  5
91C7
330
9
100
AcDbSymbolTableRecord
100
AcDbRegAppTableRecord
  2
ACAD_PSEXT
 70
     0
  0
APPID
  5
9BF3
330
9
100
AcDbSymbolTableRecord
100
AcDbRegAppTableRecord
  2
ACAD_MLEADERVER
 70
     0
  0
APPID
  5
AE94
330
9
100
AcDbSymbolTableRecord
100
AcDbRegAppTableRecord
  2
ACAD_NAV_VCDISPLAY
 70
     0
  0
APPID
  5
AEEF
330
9
100
AcDbSymbolTableRecord
100
AcDbRegAppTableRecord
  2
ACAD_EXEMPT_FROM_CAD_STAND
 70
     0
  0
APPID
  5
BB56
330
9
100
AcDbSymbolTableRecord
100
AcDbRegAppTableRecord
  2
ACADANNOTATIVE
 70
     0
  0
APPID
  5
BB57
330
9
100
AcDbSymbolTableRecord
100
AcDbRegAppTableRecord
  2
ACDBBLOCKREPETAG
 70
     0
  0
ENDTAB
  0
TABLE
  2
DIMSTYLE
  5
A
330
0
100
AcDbSymbolTable
 70
     2
  0
DIMSTYLE
105
37CD
102
{ACAD_REACTORS
102
}
330
A
100
AcDbSymbolTableRecord
100
AcDbDimStyleTableRecord
  2
NEWX10
 70
     0
  3
 
  4

  5

  6
OPEN30
  7
OPEN30
 40
1.0
 41
2.0
 42
0.0
 43
7.0
 44
1.0
 45
0.0
 46
0.0
 47
0.0
 48
0.0
140
3.5
141
0.0
142
0.0
143
25.4
144
1.0
145
0.0
146
0.7
147
0.7
 71
     0
 72
     0
 73
     0
 74
     0
 75
     0
 76
     0
 77
     1
 78
     8
170
     0
171
     2
172
     1
173
     1
174
     0
175
     0
176
   256
177
   256
178
   201
179
     2
270
     2
271
     2
272
     4
273
     2
274
     2
340
F
275
     0
280
     0
281
     0
282
     0
283
     1
284
     8
285
     0
286
     0
287
     2
288
     0
  0
DIMSTYLE
105
A7E6
330
A
100
AcDbSymbolTableRecord
100
AcDbDimStyleTableRecord
  2
ISO-25
 70
     0
  3

  4

  5

  6

  7

 40
1.0
 41
2.5
 42
0.625
 43
3.75
 44
1.25
 45
0.0
 46
0.0
 47
0.0
 48
0.0
140
2.5
141
2.5
142
0.0
143
0.03937007874016
144
1.0
145
0.0
146
1.0
147
0.625
 71
     0
 72
     0
 73
     0
 74
     0
 75
     0
 76
     0
 77
     1
 78
     8
170
     0
171
     3
172
     1
173
     0
174
     0
175
     0
176
     0
177
     0
178
     0
270
     2
271
     2
272
     2
273
     2
274
     3
340
F
275
     0
280
     0
281
     0
282
     0
283
     0
284
     8
285
     0
286
     0
287
     3
288
     0
  0
ENDTAB
  0
TABLE
  2
BLOCK_RECORD
  5
1
330
0
100
AcDbSymbolTable
 70
     9
  0
BLOCK_RECORD
  5
18
102
{ACAD_XDICTIONARY
360
9CD1
102
}
330
1
100
AcDbSymbolTableRecord
100
AcDbBlockTableRecord
  2
*MODEL_SPACE
  0
BLOCK_RECORD
  5
15
330
1
100
AcDbSymbolTableRecord
100
AcDbBlockTableRecord
  2
*PAPER_SPACE
  0
BLOCK_RECORD
  5
37B6
330
1
100
AcDbSymbolTableRecord
100
AcDbBlockTableRecord
  2
XREF1
  0
BLOCK_RECORD
  5
3853
330
1
100
AcDbSymbolTableRecord
100
AcDbBlockTableRecord
  2
_OPEN30
  0
BLOCK_RECORD
  5
B6FE
330
1
100
AcDbSymbolTableRecord
100
AcDbBlockTableRecord
  2
A3WAKUKAWAJUN2017_HYOUDAI_
  0
BLOCK_RECORD
  5
BDAD
330
1
100
AcDbSymbolTableRecord
100
AcDbBlockTableRecord
  2
*X39
  0
BLOCK_RECORD
  5
BDFB
330
1
100
AcDbSymbolTableRecord
100
AcDbBlockTableRecord
  2
*X40
  0
BLOCK_RECORD
  5
BE4D
330
1
100
AcDbSymbolTableRecord
100
AcDbBlockTableRecord
  2
*X41
  0
BLOCK_RECORD
  5
BE9E
330
1
100
AcDbSymbolTableRecord
100
AcDbBlockTableRecord
  2
*X42
  0
BLOCK_RECORD
  5
BEDB
330
1
100
AcDbSymbolTableRecord
100
AcDbBlockTableRecord
  2
*X43
  0
BLOCK_RECORD
  5
BF1B
330
1
100
AcDbSymbolTableRecord
100
AcDbBlockTableRecord
  2
*X44
  0
ENDTAB
  0
ENDSEC
  0
SECTION
  2
BLOCKS
  0
BLOCK
  5
19
330
18
100
AcDbEntity
  8
0
100
AcDbBlockBegin
  2
*MODEL_SPACE
 70
     0
 10
0.0
 20
0.0
 30
0.0
  3
*MODEL_SPACE
  1

  0
ENDBLK
  5
1A
330
18
100
AcDbEntity
  8
0
100
AcDbBlockEnd
  0
BLOCK
  5
16
330
15
100
AcDbEntity
 67
     1
  8
0
100
AcDbBlockBegin
  2
*PAPER_SPACE
 70
     0
 10
0.0
 20
0.0
 30
0.0
  3
*PAPER_SPACE
  1

  0
ENDBLK
  5
17
330
15
100
AcDbEntity
 67
     1
  8
0
100
AcDbBlockEnd
  0
BLOCK
  5
37B7
330
37B6
100
AcDbEntity
  8
0
100
AcDbBlockBegin
  2
XREF1
 70
     4
 10
0.0
 20
0.0
 30
0.0
  3
XREF1
  1
D:\ACLT\FORMAT\KAWAJUN(9)図面用.dwg
  0
ENDBLK
  5
37B8
330
37B6
100
AcDbEntity
  8
0
100
AcDbBlockEnd
  0
BLOCK
  5
3857
330
3853
100
AcDbEntity
  8
0
100
AcDbBlockBegin
  2
_OPEN30
 70
     0
 10
0.0
 20
0.0
 30
0.0
  3
_OPEN30
  1

  0
LINE
  5
3854
330
3853
100
AcDbEntity
  8
0
  6
BYBLOCK
 62
     0
100
AcDbLine
 10
-1.0
 20
0.26794919
 30
0.0
 11
0.0
 21
0.0
 31
0.0
  0
LINE
  5
3855
330
3853
100
AcDbEntity
  8
0
  6
BYBLOCK
 62
     0
100
AcDbLine
 10
0.0
 20
0.0
 30
0.0
 11
-1.0
 21
-0.26794919
 31
0.0
  0
LINE
  5
3856
330
3853
100
AcDbEntity
  8
0
  6
BYBLOCK
 62
     0
100
AcDbLine
 10
0.0
 20
0.0
 30
0.0
 11
-1.0
 21
0.0
 31
0.0
  0
ENDBLK
  5
3858
330
3853
100
AcDbEntity
  8
0
100
AcDbBlockEnd
  0
BLOCK
  5
B6FF
330
B6FE
100
AcDbEntity
  8
0
100
AcDbBlockBegin
  2
A3WAKUKAWAJUN2017_HYOUDAI_
 70
     0
 10
0.0
 20
0.0
 30
0.0
  3
A3WAKUKAWAJUN2017_HYOUDAI_
  1

  0
LINE
  5
B700
330
B6FE
100
AcDbEntity
  8
0
100
AcDbLine
 10
13.26299999998673
 20
-0.0001000000000317
 30
0.0
 11
9.236999999990758
 21
8.999899999990987
 31
0.0
1001
ACAD
1000
ASC_BOUNDS
1002
{
1070
    19
1005
B741
1002
}
  0
LINE
  5
B701
330
B6FE
100
AcDbEntity
  8
0
100
AcDbLine
 10
5.657999999994331
 20
0.9999999999989768
 30
0.0
 11
9.236999999990758
 21
8.999999999991019
 31
0.0
1001
ACAD
1000
ASC_BOUNDS
1002
{
1070
    19
1005
B741
1002
}
  0
LINE
  5
B702
330
B6FE
100
AcDbEntity
  8
0
100
AcDbLine
 10
18.59199999998134
 20
-0.2368999999997641
 30
0.0
 11
16.46099999998353
 21
5.432899999994561
 31
0.0
1001
ACAD
1000
ASC_BOUNDS
1002
{
1070
    19
1005
B742
1002
}
  0
LINE
  5
B703
330
B6FE
100
AcDbEntity
  8
0
100
AcDbLine
 10
18.59199999998134
 20
-0.2368999999997641
 30
0.0
 11
22.38199999997767
 21
8.763099999991255
 31
0.0
1001
ACAD
1000
ASC_BOUNDS
1002
{
1070
    19
1005
B742
1002
}
  0
LINE
  5
B704
330
B6FE
100
AcDbEntity
  8
0
100
AcDbLine
 10
14.32899999998563
 20
-0.2368999999997641
 30
0.0
 11
16.46099999998353
 21
5.432899999994561
 31
0.0
1001
ACAD
1000
ASC_BOUNDS
1002
{
1070
    19
1005
B742
1002
}
  0
LINE
  5
B705
330
B6FE
100
AcDbEntity
  8
0
100
AcDbLine
 10
14.32899999998563
 20
-0.2368999999997641
 30
0.0
 11
10.53899999998941
 21
8.763099999991255
 31
0.0
1001
ACAD
1000
ASC_BOUNDS
1002
{
1070
    19
1005
B742
1002
}
  0
LINE
  5
B706
330
B6FE
100
AcDbEntity
  8
0
100
AcDbLine
 10
19.53899999998043
 20
-0.0001000000000317
 30
0.0
 11
23.56599999997638
 21
8.999899999990987
 31
0.0
1001
ACAD
1000
ASC_BOUNDS
1002
{
1070
    19
1005
B743
1002
}
  0
LINE
  5
B707
330
B6FE
100
AcDbEntity
  8
0
100
AcDbLine
 10
26.97358892824991
 20
1.383099999991202
 30
0.0
 11
23.56599999997638
 21
8.999899999990987
 31
0.0
1001
ACAD
1000
ASC_BOUNDS
1002
{
1070
    19
1005
B743
1002
}
  0
LINE
  5
B708
330
B6FE
100
AcDbEntity
  8
0
100
AcDbLine
 10
5.657999999994331
 20
0.9999999999989768
 30
0.0
 11
3.181999999996833
 21
4.668599999995308
 31
0.0
1001
ACAD
1000
ASC_BOUNDS
1002
{
1070
    19
1005
B741
1002
}
  0
LINE
  5
B709
330
B6FE
100
AcDbEntity
  8
0
100
AcDbLine
 10
4.617999999995391
 20
-0.0001000000000317
 30
0.0
 11
1.420999999998571
 21
4.736799999995242
 31
0.0
1001
ACAD
1000
ASC_BOUNDS
1002
{
1070
    19
1005
B741
1002
}
  0
LINE
  5
B70A
330
B6FE
100
AcDbEntity
  8
0
100
AcDbLine
 10
1.420999999998571
 20
8.763099999991255
 30
0.0
 11
1.420999999998571
 21
0.0
 31
0.0
1001
ACAD
1000
ASC_BOUNDS
1002
{
1070
    19
1005
B746
1002
}
  0
LINE
  5
B70B
330
B6FE
100
AcDbEntity
  8
0
100
AcDbLine
 10
0.0
 20
8.763099999991255
 30
0.0
 11
0.0
 21
0.0
 31
0.0
1001
ACAD
1000
ASC_BOUNDS
1002
{
1070
    19
1005
B746
1002
}
  0
LINE
  5
B70C
330
B6FE
100
AcDbEntity
  8
0
100
AcDbLine
 10
6.766999999993232
 20
-0.0001000000000317
 30
0.0
 11
7.826999999992154
 21
2.368399999997621
 31
0.0
1001
ACAD
1000
ASC_BOUNDS
1002
{
1070
    19
1005
B741
1002
}
  0
LINE
  5
B70D
330
B6FE
100
AcDbEntity
  8
0
100
AcDbLine
 10
0.0
 20
0.0
 30
0.0
 11
1.420999999998571
 21
0.0
 31
0.0
1001
ACAD
1000
ASC_BOUNDS
1002
{
1070
    19
1005
B746
1002
}
  0
LINE
  5
B70E
330
B6FE
100
AcDbEntity
  8
0
100
AcDbLine
 10
4.617999999995391
 20
0.0
 30
0.0
 11
6.766999999993232
 21
0.0
 31
0.0
1001
ACAD
1000
ASC_BOUNDS
1002
{
1070
    19
1005
B741
1002
}
  0
LINE
  5
B70F
330
B6FE
100
AcDbEntity
  8
0
100
AcDbLine
 10
11.70599999998831
 20
-0.0001000000000317
 30
0.0
 11
10.64699999998936
 21
2.368399999997621
 31
0.0
1001
ACAD
1000
ASC_BOUNDS
1002
{
1070
    19
1005
B741
1002
}
  0
LINE
  5
B710
330
B6FE
100
AcDbEntity
  8
0
100
AcDbLine
 10
7.826999999992154
 20
2.368399999997621
 30
0.0
 11
10.64699999998936
 21
2.368399999997621
 31
0.0
1001
ACAD
1000
ASC_BOUNDS
1002
{
1070
    19
1005
B741
1002
}
  0
LINE
  5
B711
330
B6FE
100
AcDbEntity
  8
0
100
AcDbLine
 10
11.70599999998831
 20
0.0
 30
0.0
 11
13.26299999998673
 21
0.0
 31
0.0
1001
ACAD
1000
ASC_BOUNDS
1002
{
1070
    19
1005
B741
1002
}
  0
LINE
  5
B712
330
B6FE
100
AcDbEntity
  8
0
100
AcDbLine
 10
22.15599999997789
 20
2.368399999997621
 30
0.0
 11
24.97599999997499
 21
2.368399999997621
 31
0.0
1001
ACAD
1000
ASC_BOUNDS
1002
{
1070
    19
1005
B743
1002
}
  0
LINE
  5
B713
330
B6FE
100
AcDbEntity
  8
0
100
AcDbLine
 10
19.53899999998043
 20
0.0
 30
0.0
 11
21.09599999997886
 21
0.0
 31
0.0
1001
ACAD
1000
ASC_BOUNDS
1002
{
1070
    19
1005
B743
1002
}
  0
LINE
  5
B714
330
B6FE
100
AcDbEntity
  8
0
100
AcDbLine
 10
21.09599999997886
 20
-0.0001000000000317
 30
0.0
 11
22.15599999997789
 21
2.368399999997621
 31
0.0
1001
ACAD
1000
ASC_BOUNDS
1002
{
1070
    19
1005
B743
1002
}
  0
LINE
  5
B715
330
B6FE
100
AcDbEntity
  8
0
100
AcDbLine
 10
26.02015566812236
 20
0.0330999999912365
 30
0.0
 11
24.97599999997499
 21
2.368399999997621
 31
0.0
1001
ACAD
1000
ASC_BOUNDS
1002
{
1070
    19
1005
B743
1002
}
  0
LINE
  5
B716
330
B6FE
100
AcDbEntity
  8
0
100
AcDbLine
 10
14.32399999998563
 20
3.315799999996671
 30
0.0
 11
16.46099999998353
 21
8.999899999990987
 31
0.0
1001
ACAD
1000
ASC_BOUNDS
1002
{
1070
    19
1005
B742
1002
}
  0
LINE
  5
B717
330
B6FE
100
AcDbEntity
  8
0
100
AcDbLine
 10
6.432999999993513
 20
8.763099999991255
 30
0.0
 11
3.181999999996833
 21
4.668599999995308
 31
0.0
1001
ACAD
1000
ASC_BOUNDS
1002
{
1070
    19
1005
B741
1002
}
  0
LINE
  5
B718
330
B6FE
100
AcDbEntity
  8
0
100
AcDbLine
 10
4.617999999995391
 20
8.763099999991255
 30
0.0
 11
1.420999999998571
 21
4.736799999995242
 31
0.0
1001
ACAD
1000
ASC_BOUNDS
1002
{
1070
    19
1005
B741
1002
}
  0
LINE
  5
B719
330
B6FE
100
AcDbEntity
  8
0
100
AcDbLine
 10
0.0
 20
8.763099999991255
 30
0.0
 11
1.420999999998571
 21
8.763099999991255
 31
0.0
1001
ACAD
1000
ASC_BOUNDS
1002
{
1070
    19
1005
B746
1002
}
  0
LINE
  5
B71A
330
B6FE
100
AcDbEntity
  8
0
100
AcDbLine
 10
4.617999999995391
 20
8.763099999991255
 30
0.0
 11
6.432999999993513
 21
8.763099999991255
 31
0.0
1001
ACAD
1000
ASC_BOUNDS
1002
{
1070
    19
1005
B741
1002
}
  0
LINE
  5
B71B
330
B6FE
100
AcDbEntity
  8
0
100
AcDbLine
 10
14.32399999998563
 20
3.315799999996671
 30
0.0
 11
12.02999999998792
 21
8.763099999991255
 31
0.0
1001
ACAD
1000
ASC_BOUNDS
1002
{
1070
    19
1005
B742
1002
}
  0
LINE
  5
B71C
330
B6FE
100
AcDbEntity
  8
0
100
AcDbLine
 10
10.06399999998996
 20
3.670999999996297
 30
0.0
 11
9.236999999990758
 21
5.5200999999945
 31
0.0
1001
ACAD
1000
ASC_BOUNDS
1002
{
1070
    19
1005
B741
1002
}
  0
LINE
  5
B71D
330
B6FE
100
AcDbEntity
  8
0
100
AcDbLine
 10
8.409999999991555
 20
3.670999999996297
 30
0.0
 11
9.236999999990758
 21
5.5200999999945
 31
0.0
1001
ACAD
1000
ASC_BOUNDS
1002
{
1070
    19
1005
B741
1002
}
  0
LINE
  5
B71E
330
B6FE
100
AcDbEntity
  8
0
100
AcDbLine
 10
8.409999999991555
 20
3.670999999996297
 30
0.0
 11
10.06399999998996
 21
3.670999999996297
 31
0.0
1001
ACAD
1000
ASC_BOUNDS
1002
{
1070
    19
1005
B741
1002
}
  0
LINE
  5
B71F
330
B6FE
100
AcDbEntity
  8
0
100
AcDbLine
 10
10.53899999998941
 20
8.763099999991255
 30
0.0
 11
12.02999999998792
 21
8.763099999991255
 31
0.0
1001
ACAD
1000
ASC_BOUNDS
1002
{
1070
    19
1005
B742
1002
}
  0
LINE
  5
B720
330
B6FE
100
AcDbEntity
  8
0
100
AcDbLine
 10
22.7389999999773
 20
3.670999999996297
 30
0.0
 11
23.56599999997638
 21
5.5200999999945
 31
0.0
1001
ACAD
1000
ASC_BOUNDS
1002
{
1070
    19
1005
B743
1002
}
  0
LINE
  5
B721
330
B6FE
100
AcDbEntity
  8
0
100
AcDbLine
 10
22.7389999999773
 20
3.670999999996297
 30
0.0
 11
24.39299999997559
 21
3.670999999996297
 31
0.0
1001
ACAD
1000
ASC_BOUNDS
1002
{
1070
    19
1005
B743
1002
}
  0
LINE
  5
B722
330
B6FE
100
AcDbEntity
  8
0
100
AcDbLine
 10
18.59799999998143
 20
3.315799999996671
 30
0.0
 11
20.89099999997916
 21
8.763099999991255
 31
0.0
1001
ACAD
1000
ASC_BOUNDS
1002
{
1070
    19
1005
B742
1002
}
  0
LINE
  5
B723
330
B6FE
100
AcDbEntity
  8
0
100
AcDbLine
 10
18.59799999998143
 20
3.315799999996671
 30
0.0
 11
16.46099999998353
 21
8.999899999990987
 31
0.0
1001
ACAD
1000
ASC_BOUNDS
1002
{
1070
    19
1005
B742
1002
}
  0
LINE
  5
B724
330
B6FE
100
AcDbEntity
  8
0
100
AcDbLine
 10
20.89099999997916
 20
8.763099999991255
 30
0.0
 11
22.38199999997767
 21
8.763099999991255
 31
0.0
1001
ACAD
1000
ASC_BOUNDS
1002
{
1070
    19
1005
B742
1002
}
  0
LINE
  5
B725
330
B6FE
100
AcDbEntity
  8
0
100
AcDbLine
 10
24.39299999997559
 20
3.670999999996297
 30
0.0
 11
23.56599999997638
 21
5.5200999999945
 31
0.0
1001
ACAD
1000
ASC_BOUNDS
1002
{
1070
    19
1005
B743
1002
}
  0
LINE
  5
B726
330
B6FE
100
AcDbEntity
  8
0
100
AcDbLine
 10
44.99999999995498
 20
-0.2368999999997641
 30
0.0
 11
40.02599999995994
 21
5.341799999994635
 31
0.0
1001
ACAD
1000
ASC_BOUNDS
1002
{
1070
    19
1005
B745
1002
}
  0
LINE
  5
B727
330
B6FE
100
AcDbEntity
  8
0
100
AcDbLine
 10
40.02599999995994
 20
5.341799999994635
 30
0.0
 11
40.02599999995994
 21
0.0
 31
0.0
1001
ACAD
1000
ASC_BOUNDS
1002
{
1070
    19
1005
B745
1002
}
  0
LINE
  5
B728
330
B6FE
100
AcDbEntity
  8
0
100
AcDbLine
 10
38.60499999996136
 20
8.999999999991019
 30
0.0
 11
38.60499999996136
 21
0.0
 31
0.0
1001
ACAD
1000
ASC_BOUNDS
1002
{
1070
    19
1005
B745
1002
}
  0
LINE
  5
B729
330
B6FE
100
AcDbEntity
  8
0
100
AcDbLine
 10
44.99999999995498
 20
8.763099999991255
 30
0.0
 11
44.99999999995498
 21
-0.2368999999997641
 31
0.0
1001
ACAD
1000
ASC_BOUNDS
1002
{
1070
    19
1005
B745
1002
}
  0
LINE
  5
B72A
330
B6FE
100
AcDbEntity
  8
0
100
AcDbLine
 10
38.60499999996136
 20
0.0
 30
0.0
 11
40.02599999995994
 21
0.0
 31
0.0
1001
ACAD
1000
ASC_BOUNDS
1002
{
1070
    19
1005
B745
1002
}
  0
LINE
  5
B72B
330
B6FE
100
AcDbEntity
  8
0
100
AcDbLine
 10
43.57899999995641
 20
3.421199999996588
 30
0.0
 11
38.60499999996136
 21
8.999899999990987
 31
0.0
1001
ACAD
1000
ASC_BOUNDS
1002
{
1070
    19
1005
B745
1002
}
  0
LINE
  5
B72C
330
B6FE
100
AcDbEntity
  8
0
100
AcDbLine
 10
43.57899999995641
 20
8.763099999991255
 30
0.0
 11
43.57899999995641
 21
3.421199999996588
 31
0.0
1001
ACAD
1000
ASC_BOUNDS
1002
{
1070
    19
1005
B745
1002
}
  0
LINE
  5
B72D
330
B6FE
100
AcDbEntity
  8
0
100
AcDbLine
 10
43.57899999995641
 20
8.763099999991255
 30
0.0
 11
44.99999999995498
 21
8.763099999991255
 31
0.0
1001
ACAD
1000
ASC_BOUNDS
1002
{
1070
    19
1005
B745
1002
}
  0
LINE
  5
B72E
330
B6FE
100
AcDbEntity
  8
0
100
AcDbLine
 10
37.67199999996831
 20
8.763099999991255
 30
0.0
 11
36.23199999996837
 21
8.763099999991255
 31
0.0
  0
LINE
  5
B72F
330
B6FE
100
AcDbEntity
  8
0
100
AcDbLine
 10
31.64199999996833
 20
8.763099999991255
 30
0.0
 11
31.64199999996833
 21
2.481619422925121
 31
0.0
  0
LINE
  5
B730
330
B6FE
100
AcDbEntity
  8
0
100
AcDbLine
 10
37.67199999996831
 20
8.763099999991255
 30
0.0
 11
37.67199999996831
 21
2.481619422925121
 31
0.0
  0
LINE
  5
B731
330
B6FE
100
AcDbEntity
  8
0
100
AcDbLine
 10
36.23199999996837
 20
8.763099999991255
 30
0.0
 11
36.23199999996837
 21
2.481619422925064
 31
0.0
  0
LINE
  5
B732
330
B6FE
100
AcDbEntity
  8
0
100
AcDbLine
 10
33.08199999996839
 20
8.763099999991255
 30
0.0
 11
33.08199999996839
 21
2.481619422925121
 31
0.0
  0
ARC
  5
B733
330
B6FE
100
AcDbEntity
  8
0
100
AcDbCircle
 10
34.65699999996832
 20
3.183099999991214
 30
0.0
 40
3.420000000000007
100
AcDbArc
 50
240.0000000000255
 51
299.9999999999766
  0
ARC
  5
B734
330
B6FE
100
AcDbEntity
  8
0
100
AcDbCircle
 10
34.65699999996832
 20
3.183099999991214
 30
0.0
 40
1.97999999999999
100
AcDbArc
 50
240.000000000026
 51
299.9999999999703
  0
LINE
  5
B735
330
B6FE
100
AcDbEntity
  8
0
100
AcDbLine
 10
33.08199999996828
 20
8.763099999991255
 30
0.0
 11
31.64199999996833
 21
8.763099999991255
 31
0.0
  0
ARC
  5
B736
330
B6FE
100
AcDbEntity
  8
0
100
AcDbCircle
 10
35.06199999996829
 20
2.481619422925064
 30
0.0
 40
1.17
100
AcDbArc
 50
299.9999999999699
 51
0.0
  0
ARC
  5
B737
330
B6FE
100
AcDbEntity
  8
0
100
AcDbCircle
 10
34.25199999996835
 20
2.481619422925121
 30
0.0
 40
1.17
100
AcDbArc
 50
180.0
 51
240.0000000000238
  0
ARC
  5
B738
330
B6FE
100
AcDbEntity
  8
0
100
AcDbCircle
 10
35.06199999996841
 20
2.481619422925121
 30
0.0
 40
2.61
100
AcDbArc
 50
299.9999999999756
 51
0.0
  0
ARC
  5
B739
330
B6FE
100
AcDbEntity
  8
0
100
AcDbCircle
 10
34.25199999996835
 20
2.481619422925121
 30
0.0
 40
2.61
100
AcDbArc
 50
180.0
 51
240.0000000000244
  0
LINE
  5
B73A
330
B6FE
100
AcDbEntity
  8
0
100
AcDbLine
 10
29.30199999996933
 20
8.763099999991255
 30
0.0
 11
30.74199999996927
 21
8.763099999991255
 31
0.0
1001
ACAD
1000
ASC_BOUNDS
1002
{
1070
    19
1005
B743
1002
}
  0
LINE
  5
B73B
330
B6FE
100
AcDbEntity
  8
0
100
AcDbLine
 10
30.74199999996927
 20
8.763099999991255
 30
0.0
 11
30.74199999996927
 21
2.373099999991211
 31
0.0
1001
ACAD
1000
ASC_BOUNDS
1002
{
1070
    19
1005
B743
1002
}
  0
LINE
  5
B73C
330
B6FE
100
AcDbEntity
  8
0
100
AcDbLine
 10
26.02015566812236
 20
0.0330999999912365
 30
0.0
 11
28.40199999996923
 21
0.0330999999912365
 31
0.0
1001
ACAD
1000
ASC_BOUNDS
1002
{
1070
    19
1005
B743
1002
}
  0
LINE
  5
B73D
330
B6FE
100
AcDbEntity
  8
0
100
AcDbLine
 10
29.30199999996933
 20
8.763099999991255
 30
0.0
 11
29.30199999996933
 21
2.283099999991236
 31
0.0
1001
ACAD
1000
ASC_BOUNDS
1002
{
1070
    19
1005
B743
1002
}
  0
LINE
  5
B73E
330
B6FE
100
AcDbEntity
  8
0
100
AcDbLine
 10
26.97358892824991
 20
1.383099999991202
 30
0.0
 11
28.40199999996923
 21
1.383099999991202
 31
0.0
1001
ACAD
1000
ASC_BOUNDS
1002
{
1070
    19
1005
B743
1002
}
  0
ARC
  5
B73F
330
B6FE
100
AcDbEntity
  8
0
100
AcDbCircle
 10
28.40199999996923
 20
2.283099999991236
 30
0.0
 40
0.9
100
AcDbArc
 50
270.0
 51
0.0
1001
ACAD
1000
ASC_BOUNDS
1002
{
1070
    19
1005
B743
1002
}
  0
ARC
  5
B740
330
B6FE
100
AcDbEntity
  8
0
100
AcDbCircle
 10
28.40199999996923
 20
2.373099999991211
 30
0.0
 40
2.34
100
AcDbArc
 50
270.0
 51
0.0
1001
ACAD
1000
ASC_BOUNDS
1002
{
1070
    19
1005
B743
1002
}
  0
INSERT
  5
B741
330
B6FE
100
AcDbEntity
  8
0
100
AcDbBlockReference
  2
*X39
 10
0.0
 20
0.0
 30
0.0
1001
ACAD
1000
HATCH
1002
{
1070
    19
1000
ANSI37
1040
0.15
1040
0.0
1000
ASC_BOUNDS
1070
     2
1070
     2
1070
    12
1005
B700
1005
B701
1005
B708
1005
B717
1005
B71A
1005
B718
1005
B709
1005
B70E
1005
B70C
1005
B710
1005
B70F
1005
B711
1070
     2
1070
     3
1005
B71C
1005
B71E
1005
B71D
1000
ASC_SEEDPOINT
1011
3.614004224891801
1021
2.996669441146025
1031
0.0
1000
R14_HATCH_DATA
1000
B741
1011
1.0
1021
0.0
1031
0.0
1011
0.0
1021
1.0
1031
0.0
1011
0.0
1021
0.0
1031
1.0
1040
0.0
1010
0.0
1020
0.0
1030
1.0
1000
ANSI37
1070
     0
1070
     1
1071
        2
1071
        7
1070
     0
1070
     1
1071
       17
1040
13.26299999998673
1040
-0.0001000000000317
1040
9.236999999990758
1040
8.999899999990987
1040
9.236999999990758
1040
8.999999999991019
1040
5.657999999994331
1040
0.9999999999989768
1040
3.181999999996833
1040
4.668599999995308
1040
6.432999999993513
1040
8.763099999991255
1040
4.617999999995391
1040
8.763099999991255
1040
1.420999999998571
1040
4.736799999995242
1040
4.617999999995391
1040
-0.0001000000000317
1040
4.617999999995391
1040
0.0
1040
6.766999999993232
1040
0.0
1040
6.766999999993232
1040
-0.0001000000000317
1040
7.826999999992154
1040
2.368399999997621
1040
10.64699999998936
1040
2.368399999997621
1040
11.70599999998831
1040
-0.0001000000000317
1040
11.70599999998831
1040
0.0
1040
13.26299999998673
1040
0.0
1071
       12
1005
B700
1005
B701
1005
B708
1005
B717
1005
B71A
1005
B718
1005
B709
1005
B70E
1005
B70C
1005
B710
1005
B70F
1005
B711
1071
       22
1070
     0
1070
     1
1071
        3
1040
9.236999999990758
1040
5.5200999999945
1040
10.06399999998996
1040
3.670999999996297
1040
8.409999999991555
1040
3.670999999996297
1071
        3
1005
B71C
1005
B71E
1005
B71D
1070
     0
1070
     1
1040
0.0
1040
0.15
1070
     0
1070
     2
1040
0.7853981633974483
1040
49.29960901727088
1040
-10.17736998311392
1040
-0.3367596045400932
1040
0.3367596045400932
1070
     0
1040
2.356194490192345
1040
49.29960901727088
1040
-10.17736998311392
1040
-0.3367596045400932
1040
-0.3367596045400932
1070
     0
1040
0.0110235143455945
1071
        2
1040
3.614004224891801
1040
2.996669441146025
1040
0.0
1040
3.614004224891801
1040
2.996669441146025
1040
0.0
1002
}
  0
INSERT
  5
B742
330
B6FE
100
AcDbEntity
  8
0
100
AcDbBlockReference
  2
*X40
 10
0.0
 20
0.0
 30
0.0
1001
ACAD
1000
HATCH
1002
{
1070
    19
1000
ANSI37
1040
0.15
1040
0.0
1000
ASC_BOUNDS
1070
     1
1070
     2
1070
    10
1005
B702
1005
B703
1005
B724
1005
B722
1005
B723
1005
B716
1005
B71B
1005
B71F
1005
B705
1005
B704
1000
ASC_SEEDPOINT
1011
14.73245321214324
1021
2.798246178283421
1031
0.0
1000
R14_HATCH_DATA
1000
B742
1011
1.0
1021
0.0
1031
0.0
1011
0.0
1021
1.0
1031
0.0
1011
0.0
1021
0.0
1031
1.0
1040
0.0
1010
0.0
1020
0.0
1030
1.0
1000
ANSI37
1070
     0
1070
     1
1071
        1
1071
        7
1070
     0
1070
     1
1071
       10
1040
16.46099999998353
1040
5.432899999994561
1040
18.59199999998134
1040
-0.2368999999997641
1040
22.38199999997767
1040
8.763099999991255
1040
20.89099999997916
1040
8.763099999991255
1040
18.59799999998143
1040
3.315799999996671
1040
16.46099999998353
1040
8.999899999990987
1040
14.32399999998563
1040
3.315799999996671
1040
12.02999999998792
1040
8.763099999991255
1040
10.53899999998941
1040
8.763099999991255
1040
14.32899999998563
1040
-0.2368999999997641
1071
       10
1005
B702
1005
B703
1005
B724
1005
B722
1005
B723
1005
B716
1005
B71B
1005
B71F
1005
B705
1005
B704
1070
     0
1070
     1
1040
0.0
1040
0.15
1070
     0
1070
     2
1040
0.7853981633974483
1040
49.29960901727088
1040
-10.17736998311392
1040
-0.3367596045400932
1040
0.3367596045400932
1070
     0
1040
2.356194490192345
1040
49.29960901727088
1040
-10.17736998311392
1040
-0.3367596045400932
1040
-0.3367596045400932
1070
     0
1040
0.0110235143455945
1071
        1
1040
14.73245321214324
1040
2.798246178283421
1040
0.0
1002
}
  0
INSERT
  5
B743
330
B6FE
100
AcDbEntity
  8
0
100
AcDbBlockReference
  2
*X41
 10
0.0
 20
0.0
 30
0.0
1001
ACAD
1000
HATCH
1002
{
1070
    19
1000
ANSI37
1040
0.15
1040
0.0
1000
ASC_BOUNDS
1070
     2
1070
     2
1070
    13
1005
B706
1005
B713
1005
B714
1005
B712
1005
B715
1005
B73C
1005
B740
1005
B73B
1005
B73A
1005
B73D
1005
B73F
1005
B73E
1005
B707
1070
     2
1070
     3
1005
B720
1005
B725
1005
B721
1000
ASC_SEEDPOINT
1011
21.97929957367762
1021
3.294304244259308
1031
0.0
1000
R14_HATCH_DATA
1000
B743
1011
1.0
1021
0.0
1031
0.0
1011
0.0
1021
1.0
1031
0.0
1011
0.0
1021
0.0
1031
1.0
1040
0.0
1010
0.0
1020
0.0
1030
1.0
1000
ANSI37
1070
     0
1070
     1
1071
        2
1071
        7
1070
     1
1070
     1
1071
       15
1040
23.56599999997638
1040
8.999899999990987
1040
0.0
1040
19.53899999998043
1040
-0.0001000000000317
1040
0.0
1040
19.53899999998043
1040
0.0
1040
0.0
1040
21.09599999997886
1040
0.0
1040
0.0
1040
21.09599999997886
1040
-0.0001000000000317
1040
0.0
1040
22.15599999997789
1040
2.368399999997621
1040
0.0
1040
24.97599999997499
1040
2.368399999997621
1040
0.0
1040
26.02015566812236
1040
0.0330999999912365
1040
0.0
1040
28.40199999996923
1040
0.0330999999912365
1040
0.414213562373095
1040
30.74199999996923
1040
2.373099999991211
1040
0.0
1040
30.74199999996927
1040
8.763099999991255
1040
0.0
1040
29.30199999996933
1040
8.763099999991255
1040
0.0
1040
29.30199999996933
1040
2.283099999991236
1040
-0.414213562373095
1040
28.40199999996923
1040
1.383099999991237
1040
0.0
1040
26.97358892824991
1040
1.383099999991202
1040
0.0
1071
       13
1005
B706
1005
B713
1005
B714
1005
B712
1005
B715
1005
B73C
1005
B740
1005
B73B
1005
B73A
1005
B73D
1005
B73F
1005
B73E
1005
B707
1071
       22
1070
     0
1070
     1
1071
        3
1040
22.7389999999773
1040
3.670999999996297
1040
23.56599999997638
1040
5.5200999999945
1040
24.39299999997559
1040
3.670999999996297
1071
        3
1005
B720
1005
B725
1005
B721
1070
     0
1070
     1
1040
0.0
1040
0.15
1070
     0
1070
     2
1040
0.7853981633974483
1040
49.29960901727088
1040
-10.17736998311392
1040
-0.3367596045400932
1040
0.3367596045400932
1070
     0
1040
2.356194490192345
1040
49.29960901727088
1040
-10.17736998311392
1040
-0.3367596045400932
1040
-0.3367596045400932
1070
     0
1040
0.0110235143455945
1071
        2
1040
21.97929957367762
1040
3.294304244259308
1040
0.0
1040
21.97929957367762
1040
3.294304244259308
1040
0.0
1002
}
  0
INSERT
  5
B744
330
B6FE
100
AcDbEntity
  8
0
100
AcDbBlockReference
  2
*X42
 10
0.0
 20
0.0
 30
0.0
1001
ACAD
1000
HATCH
1002
{
1070
    19
1000
ANSI37
1040
0.15
1040
0.0
1000
R14_HATCH_DATA
1000
B744
1011
1.0
1021
0.0
1031
0.0
1011
0.0
1021
1.0
1031
0.0
1011
0.0
1021
0.0
1031
1.0
1040
0.0
1010
0.0
1020
0.0
1030
1.0
1000
ANSI37
1070
     0
1070
     1
1071
        1
1071
        7
1070
     1
1070
     1
1071
       12
1040
31.64199999996833
1040
2.481619422925121
1040
0.2679491924310942
1040
32.94699999997067
1040
0.2212931190493919
1040
0.2679491924301353
1040
36.36699999995983
1040
0.2212931190459813
1040
0.2679491924321411
1040
37.67199999996831
1040
2.481619422928361
1040
0.0
1040
37.67199999996831
1040
8.763099999991255
1040
0.0
1040
36.23199999996837
1040
8.763099999991255
1040
0.0
1040
36.23199999996837
1040
2.481619422925064
1040
-0.2679491924310291
1040
35.64699999996708
1040
1.468369700498386
1040
-0.267949192430519
1040
33.66699999997093
1040
1.468369700497703
1040
-0.267949192431809
1040
33.08199999996839
1040
2.481619422926997
1040
0.0
1040
33.08199999996839
1040
8.763099999991255
1040
0.0
1040
31.64199999996833
1040
8.763099999991255
1040
0.0
1071
        0
1070
     0
1070
     1
1040
0.0
1040
0.15
1070
     0
1070
     2
1040
0.7853981633974483
1040
49.29960901727088
1040
-10.17736998311392
1040
-0.3367596045400932
1040
0.3367596045400932
1070
     0
1040
2.356194490192345
1040
49.29960901727088
1040
-10.17736998311392
1040
-0.3367596045400932
1040
-0.3367596045400932
1070
     0
1040
0.0110235143455945
1071
        1
1040
32.30357378967278
1040
3.988785755459219
1040
0.0
1002
}
  0
INSERT
  5
B745
330
B6FE
100
AcDbEntity
  8
0
100
AcDbBlockReference
  2
*X43
 10
0.0
 20
0.0
 30
0.0
1001
ACAD
1000
HATCH
1002
{
1070
    19
1000
ANSI37
1040
0.15
1040
0.0
1000
ASC_BOUNDS
1070
     1
1070
     2
1070
     8
1005
B726
1005
B729
1005
B72D
1005
B72C
1005
B72B
1005
B728
1005
B72A
1005
B727
1000
ASC_SEEDPOINT
1011
39.74896370716704
1021
4.484843821435049
1031
0.0
1000
R14_HATCH_DATA
1000
B745
1011
1.0
1021
0.0
1031
0.0
1011
0.0
1021
1.0
1031
0.0
1011
0.0
1021
0.0
1031
1.0
1040
0.0
1010
0.0
1020
0.0
1030
1.0
1000
ANSI37
1070
     0
1070
     1
1071
        1
1071
        7
1070
     0
1070
     1
1071
        9
1040
40.02599999995994
1040
5.341799999994635
1040
44.99999999995498
1040
-0.2368999999997641
1040
44.99999999995498
1040
8.763099999991255
1040
43.57899999995641
1040
8.763099999991255
1040
43.57899999995641
1040
3.421199999996588
1040
38.60499999996136
1040
8.999899999990987
1040
38.60499999996136
1040
8.999999999991019
1040
38.60499999996136
1040
0.0
1040
40.02599999995994
1040
0.0
1071
        8
1005
B726
1005
B729
1005
B72D
1005
B72C
1005
B72B
1005
B728
1005
B72A
1005
B727
1070
     0
1070
     1
1040
0.0
1040
0.15
1070
     0
1070
     2
1040
0.7853981633974483
1040
49.29960901727088
1040
-10.17736998311392
1040
-0.3367596045400932
1040
0.3367596045400932
1070
     0
1040
2.356194490192345
1040
49.29960901727088
1040
-10.17736998311392
1040
-0.3367596045400932
1040
-0.3367596045400932
1070
     0
1040
0.0110235143455945
1071
        1
1040
39.74896370716704
1040
4.484843821435049
1040
0.0
1002
}
  0
INSERT
  5
B746
330
B6FE
100
AcDbEntity
  8
0
100
AcDbBlockReference
  2
*X44
 10
0.0
 20
0.0
 30
0.0
1001
ACAD
1000
HATCH
1002
{
1070
    19
1000
ANSI37
1040
0.15
1040
0.0
1000
ASC_BOUNDS
1070
     1
1070
     2
1070
     4
1005
B70A
1005
B719
1005
B70B
1005
B70D
1000
ASC_SEEDPOINT
1011
1.079051535452663
1021
4.148538732891836
1031
0.0
1000
R14_HATCH_DATA
1000
B746
1011
1.0
1021
0.0
1031
0.0
1011
0.0
1021
1.0
1031
0.0
1011
0.0
1021
0.0
1031
1.0
1040
0.0
1010
0.0
1020
0.0
1030
1.0
1000
ANSI37
1070
     0
1070
     1
1071
        1
1071
        7
1070
     0
1070
     1
1071
        4
1040
1.420999999998571
1040
0.0
1040
1.420999999998571
1040
8.763099999991255
1040
0.0
1040
8.763099999991255
1040
0.0
1040
0.0
1071
        4
1005
B70A
1005
B719
1005
B70B
1005
B70D
1070
     0
1070
     1
1040
0.0
1040
0.15
1070
     0
1070
     2
1040
0.7853981633974483
1040
49.29960901727088
1040
-10.17736998311392
1040
-0.3367596045400932
1040
0.3367596045400932
1070
     0
1040
2.356194490192345
1040
49.29960901727088
1040
-10.17736998311392
1040
-0.3367596045400932
1040
-0.3367596045400932
1070
     0
1040
0.0053004257112761
1071
        1
1040
1.079051535452663
1040
4.148538732891836
1040
0.0
1002
}
  0
ENDBLK
  5
B747
330
B6FE
100
AcDbEntity
  8
0
100
AcDbBlockEnd
  0
BLOCK
  5
BF3B
330
BDAD
100
AcDbEntity
  8
0
100
AcDbBlockBegin
  2
*X39
 70
     1
 10
0.0
 20
0.0
 30
0.0
  3
*X39
  1

  0
LINE
  5
BDAE
330
BDAD
100
AcDbEntity
  8
0
  6
CONTINUOUS
100
AcDbLine
 10
3.418023043697893
 20
7.251849696850613
 30
0.0
 11
4.929273346838536
 21
8.763099999991255
 31
0.0
  0
LINE
  5
BDAF
330
BDAD
100
AcDbEntity
  8
0
  6
CONTINUOUS
100
AcDbLine
 10
1.483656411257782
 20
4.643963855330318
 30
0.0
 11
5.60279255591872
 21
8.763099999991255
 31
0.0
  0
LINE
  5
BDB0
330
BDAD
100
AcDbEntity
  8
0
  6
CONTINUOUS
100
AcDbLine
 10
1.755053947328235
 20
4.241842182320584
 30
0.0
 11
6.276311764998907
 21
8.763099999991255
 31
0.0
  0
LINE
  5
BDB1
330
BDAD
100
AcDbEntity
  8
0
  6
CONTINUOUS
100
AcDbLine
 10
2.026451483398688
 20
3.839720509310849
 30
0.0
 11
4.441040904851878
 21
6.254309930764039
 31
0.0
  0
LINE
  5
BDB2
330
BDAD
100
AcDbEntity
  8
0
  6
CONTINUOUS
100
AcDbLine
 10
2.297849019469139
 20
3.437598836301114
 30
0.0
 11
3.321765168359338
 21
4.461514985191313
 31
0.0
  0
LINE
  5
BDB3
330
BDAD
100
AcDbEntity
  8
0
  6
CONTINUOUS
100
AcDbLine
 10
2.569246555539591
 20
3.03547716329138
 30
0.0
 11
3.593163397972743
 21
4.059394005724531
 31
0.0
  0
LINE
  5
BDB4
330
BDAD
100
AcDbEntity
  8
0
  6
CONTINUOUS
100
AcDbLine
 10
2.840644091610043
 20
2.633355490281646
 30
0.0
 11
3.864561627586149
 21
3.657273026257751
 31
0.0
  0
LINE
  5
BDB5
330
BDAD
100
AcDbEntity
  8
0
  6
CONTINUOUS
100
AcDbLine
 10
3.112041627680496
 20
2.231233817271911
 30
0.0
 11
4.135959857199554
 21
3.25515204679097
 31
0.0
  0
LINE
  5
BDB6
330
BDAD
100
AcDbEntity
  8
0
  6
CONTINUOUS
100
AcDbLine
 10
3.383439163750948
 20
1.829112144262177
 30
0.0
 11
4.40735808681296
 21
2.853031067324189
 31
0.0
  0
LINE
  5
BDB7
330
BDAD
100
AcDbEntity
  8
0
  6
CONTINUOUS
100
AcDbLine
 10
3.654836699821399
 20
1.426990471252442
 30
0.0
 11
4.678756316426365
 21
2.450910087857407
 31
0.0
  0
LINE
  5
BDB8
330
BDAD
100
AcDbEntity
  8
0
  6
CONTINUOUS
100
AcDbLine
 10
3.926234235891853
 20
1.024868798242709
 30
0.0
 11
4.95015454603977
 21
2.048789108390626
 31
0.0
  0
LINE
  5
BDB9
330
BDAD
100
AcDbEntity
  8
0
  6
CONTINUOUS
100
AcDbLine
 10
4.197631771962304
 20
0.6227471252329737
 30
0.0
 11
5.221552775653176
 21
1.646668128923846
 31
0.0
  0
LINE
  5
BDBA
330
BDAD
100
AcDbEntity
  8
0
  6
CONTINUOUS
100
AcDbLine
 10
8.715877546767851
 20
7.835069736359266
 30
0.0
 11
9.435953450375058
 21
8.555145639966472
 31
0.0
  0
LINE
  5
BDBB
330
BDAD
100
AcDbEntity
  8
0
  6
CONTINUOUS
100
AcDbLine
 10
8.170620868422267
 20
6.616293848933497
 30
0.0
 11
9.644120833743461
 21
8.08979381425469
 31
0.0
  0
LINE
  5
BDBC
330
BDAD
100
AcDbEntity
  8
0
  6
CONTINUOUS
100
AcDbLine
 10
7.625364190076684
 20
5.397517961507727
 30
0.0
 11
9.852288217111864
 21
7.624441988542907
 31
0.0
  0
LINE
  5
BDBD
330
BDAD
100
AcDbEntity
  8
0
  6
CONTINUOUS
100
AcDbLine
 10
7.080107511731101
 20
4.178742074081957
 30
0.0
 11
10.06045560048027
 21
7.159090162831124
 31
0.0
  0
LINE
  5
BDBE
330
BDAD
100
AcDbEntity
  8
0
  6
CONTINUOUS
100
AcDbLine
 10
6.534850833385518
 20
2.959966186656187
 30
0.0
 11
10.26862298384867
 21
6.693738337119342
 31
0.0
  0
LINE
  5
BDBF
330
BDAD
100
AcDbEntity
  8
0
  6
CONTINUOUS
100
AcDbLine
 10
4.469029308032756
 20
0.2206254522232385
 30
0.0
 11
5.492951005266582
 21
1.244547149457064
 31
0.0
  0
LINE
  5
BDC0
330
BDAD
100
AcDbEntity
  8
0
  6
CONTINUOUS
100
AcDbLine
 10
5.989594155039935
 20
1.741190299230417
 30
0.0
 11
8.806950407233131
 21
4.558546551423613
 31
0.0
  0
LINE
  5
BDC1
330
BDAD
100
AcDbEntity
  8
0
  6
CONTINUOUS
100
AcDbLine
 10
9.401251593263643
 20
5.152847737454126
 30
0.0
 11
10.47679036721708
 21
6.228386511407559
 31
0.0
  0
LINE
  5
BDC2
330
BDAD
100
AcDbEntity
  8
0
  6
CONTINUOUS
100
AcDbLine
 10
4.921837203428691
 20
-0.0000858614610131
 30
0.0
 11
8.592923064886001
 21
3.670999999996297
 31
0.0
  0
LINE
  5
BDC3
330
BDAD
100
AcDbEntity
  8
0
  6
CONTINUOUS
100
AcDbLine
 10
9.609390446785305
 20
4.6874673818956
 30
0.0
 11
10.68495775058548
 21
5.763034685695775
 31
0.0
  0
LINE
  5
BDC4
330
BDAD
100
AcDbEntity
  8
0
  6
CONTINUOUS
100
AcDbLine
 10
5.595387755019432
 20
-0.0000545189504582
 30
0.0
 11
7.716137258923768
 21
2.120694984953879
 31
0.0
  0
LINE
  5
BDC5
330
BDAD
100
AcDbEntity
  8
0
  6
CONTINUOUS
100
AcDbLine
 10
6.268938306610172
 20
-0.000023176439905
 30
0.0
 11
7.170485805526503
 21
0.9015243224764267
 31
0.0
  0
LINE
  5
BDC6
330
BDAD
100
AcDbEntity
  8
0
  6
CONTINUOUS
100
AcDbLine
 10
7.963842273967511
 20
2.368399999997621
 30
0.0
 11
9.266442273966188
 21
3.670999999996297
 31
0.0
  0
LINE
  5
BDC7
330
BDAD
100
AcDbEntity
  8
0
  6
CONTINUOUS
100
AcDbLine
 10
8.637361483047696
 20
2.368399999997621
 30
0.0
 11
9.939961483046375
 21
3.670999999996297
 31
0.0
  0
LINE
  5
BDC8
330
BDAD
100
AcDbEntity
  8
0
  6
CONTINUOUS
100
AcDbLine
 10
9.817529300306965
 20
4.222087026337075
 30
0.0
 11
10.89312513395388
 21
5.297682859983993
 31
0.0
  0
LINE
  5
BDC9
330
BDAD
100
AcDbEntity
  8
0
  6
CONTINUOUS
100
AcDbLine
 10
10.02566815382863
 20
3.756706670778549
 30
0.0
 11
11.10129251732229
 21
4.832331034272211
 31
0.0
  0
LINE
  5
BDCA
330
BDAD
100
AcDbEntity
  8
0
  6
CONTINUOUS
100
AcDbLine
 10
9.310880692127883
 20
2.368399999997621
 30
0.0
 11
11.30945990069069
 21
4.366979208560428
 31
0.0
  0
LINE
  5
BDCB
330
BDAD
100
AcDbEntity
  8
0
  6
CONTINUOUS
100
AcDbLine
 10
9.98439990120807
 20
2.36839999999762
 30
0.0
 11
11.5176272840591
 21
3.901627382848645
 31
0.0
  0
LINE
  5
BDCC
330
BDAD
100
AcDbEntity
  8
0
  6
CONTINUOUS
100
AcDbLine
 10
10.65037369446246
 20
2.36085458417182
 30
0.0
 11
11.7257946674275
 21
3.436275557136862
 31
0.0
  0
LINE
  5
BDCD
330
BDAD
100
AcDbEntity
  8
0
  6
CONTINUOUS
100
AcDbLine
 10
10.85847197087848
 20
1.895433651507656
 30
0.0
 11
11.9339620507959
 21
2.97092373142508
 31
0.0
  0
LINE
  5
BDCE
330
BDAD
100
AcDbEntity
  8
0
  6
CONTINUOUS
100
AcDbLine
 10
11.0665702472945
 20
1.430012718843491
 30
0.0
 11
12.14212943416431
 21
2.505571905713296
 31
0.0
  0
LINE
  5
BDCF
330
BDAD
100
AcDbEntity
  8
0
  6
CONTINUOUS
100
AcDbLine
 10
11.27466852371052
 20
0.9645917861793256
 30
0.0
 11
12.35029681753271
 21
2.040220080001513
 31
0.0
  0
LINE
  5
BDD0
330
BDAD
100
AcDbEntity
  8
0
  6
CONTINUOUS
100
AcDbLine
 10
11.48276680012654
 20
0.4991708535151611
 30
0.0
 11
12.55846420090111
 21
1.57486825428973
 31
0.0
  0
LINE
  5
BDD1
330
BDAD
100
AcDbEntity
  8
0
  6
CONTINUOUS
100
AcDbLine
 10
11.69086507654257
 20
0.0337499208509957
 30
0.0
 11
12.76663158426952
 21
1.109516428577947
 31
0.0
  0
LINE
  5
BDD2
330
BDAD
100
AcDbEntity
  8
0
  6
CONTINUOUS
100
AcDbLine
 10
12.33057447873954
 20
-0.0000598860322123
 30
0.0
 11
12.97479896763792
 21
0.6441646028661663
 31
0.0
  0
LINE
  5
BDD3
330
BDAD
100
AcDbEntity
  8
0
  6
CONTINUOUS
100
AcDbLine
 10
13.00413694809395
 20
-0.0000166257579952
 30
0.0
 11
13.18296635100632
 21
0.1788127771543824
 31
0.0
  0
LINE
  5
BDD4
330
BDAD
100
AcDbEntity
  8
0
  6
CONTINUOUS
100
AcDbLine
 10
4.772852165289667
 20
-0.000092794222212
 30
0.0
 11
4.296495091028902
 21
0.4762642800385528
 31
0.0
  0
LINE
  5
BDD5
330
BDAD
100
AcDbEntity
  8
0
  6
CONTINUOUS
100
AcDbLine
 10
5.446340034776103
 20
-0.0000614546284616
 30
0.0
 11
2.898195908335625
 21
2.548082671812017
 31
0.0
  0
LINE
  5
BDD6
330
BDAD
100
AcDbEntity
  8
0
  6
CONTINUOUS
100
AcDbLine
 10
6.119827904262539
 20
-0.0000301150347113
 30
0.0
 11
1.499896725642348
 21
4.61990106358548
 31
0.0
  0
LINE
  5
BDD7
330
BDAD
100
AcDbEntity
  8
0
  6
CONTINUOUS
100
AcDbLine
 10
6.775136745476159
 20
0.0181802528318542
 30
0.0
 11
5.699826040202669
 21
1.093490958105344
 31
0.0
  0
LINE
  5
BDD8
330
BDAD
100
AcDbEntity
  8
0
  6
CONTINUOUS
100
AcDbLine
 10
6.983376846288489
 20
0.4834593610997118
 30
0.0
 11
5.908008617934405
 21
1.558827589453796
 31
0.0
  0
LINE
  5
BDD9
330
BDAD
100
AcDbEntity
  8
0
  6
CONTINUOUS
100
AcDbLine
 10
5.377063484962296
 20
1.416253513345719
 30
0.0
 11
1.702276957014131
 21
5.091040041293883
 31
0.0
  0
LINE
  5
BDDA
330
BDAD
100
AcDbEntity
  8
0
  6
CONTINUOUS
100
AcDbLine
 10
3.978745891735324
 20
3.488090315652877
 30
0.0
 11
2.000373521109399
 21
5.466462686278803
 31
0.0
  0
LINE
  5
BDDB
330
BDAD
100
AcDbEntity
  8
0
  6
CONTINUOUS
100
AcDbLine
 10
7.191616947100819
 20
0.948738469367568
 30
0.0
 11
6.11619119566614
 21
2.024164220802247
 31
0.0
  0
LINE
  5
BDDC
330
BDAD
100
AcDbEntity
  8
0
  6
CONTINUOUS
100
AcDbLine
 10
7.399857047913149
 20
1.414017577635424
 30
0.0
 11
6.324373773397875
 21
2.489500852150698
 31
0.0
  0
LINE
  5
BDDD
330
BDAD
100
AcDbEntity
  8
0
  6
CONTINUOUS
100
AcDbLine
 10
7.608097148725479
 20
1.879296685903281
 30
0.0
 11
6.53255635112961
 21
2.95483748349915
 31
0.0
  0
LINE
  5
BDDE
330
BDAD
100
AcDbEntity
  8
0
  6
CONTINUOUS
100
AcDbLine
 10
7.816337249537808
 20
2.344575794171138
 30
0.0
 11
6.740738928861345
 21
3.420174114847601
 31
0.0
  0
LINE
  5
BDDF
330
BDAD
100
AcDbEntity
  8
0
  6
CONTINUOUS
100
AcDbLine
 10
3.310241080789734
 20
4.830114335678653
 30
0.0
 11
2.298470085204666
 21
5.84188533126372
 31
0.0
  0
LINE
  5
BDE0
330
BDAD
100
AcDbEntity
  8
0
  6
CONTINUOUS
100
AcDbLine
 10
3.60832983563551
 20
5.205544789913063
 30
0.0
 11
2.596566649299935
 21
6.217307976248638
 31
0.0
  0
LINE
  5
BDE1
330
BDAD
100
AcDbEntity
  8
0
  6
CONTINUOUS
100
AcDbLine
 10
3.906418590481286
 20
5.580975244147473
 30
0.0
 11
2.894663213395203
 21
6.592730621233557
 31
0.0
  0
LINE
  5
BDE2
330
BDAD
100
AcDbEntity
  8
0
  6
CONTINUOUS
100
AcDbLine
 10
4.204507345327062
 20
5.956405698381884
 30
0.0
 11
3.192759777490472
 21
6.968153266218474
 31
0.0
  0
LINE
  5
BDE3
330
BDAD
100
AcDbEntity
  8
0
  6
CONTINUOUS
100
AcDbLine
 10
8.466032252791512
 20
2.368399999997621
 30
0.0
 11
6.948921506593081
 21
3.885510746196053
 31
0.0
  0
LINE
  5
BDE4
330
BDAD
100
AcDbEntity
  8
0
  6
CONTINUOUS
100
AcDbLine
 10
9.139551461871699
 20
2.36839999999762
 30
0.0
 11
7.157104084324816
 21
4.350847377544504
 31
0.0
  0
LINE
  5
BDE5
330
BDAD
100
AcDbEntity
  8
0
  6
CONTINUOUS
100
AcDbLine
 10
4.502596100172839
 20
6.331836152616295
 30
0.0
 11
3.49085634158574
 21
7.343575911203393
 31
0.0
  0
LINE
  5
BDE6
330
BDAD
100
AcDbEntity
  8
0
  6
CONTINUOUS
100
AcDbLine
 10
4.800684855018615
 20
6.707266606850705
 30
0.0
 11
3.788952905681008
 21
7.718998556188312
 31
0.0
  0
LINE
  5
BDE7
330
BDAD
100
AcDbEntity
  8
0
  6
CONTINUOUS
100
AcDbLine
 10
12.18154012887317
 20
-0.0000694579236642
 30
0.0
 11
11.32140332908496
 21
0.8600673418645499
 31
0.0
  0
LINE
  5
BDE8
330
BDAD
100
AcDbEntity
  8
0
  6
CONTINUOUS
100
AcDbLine
 10
12.85501608323566
 20
-0.0000262032059659
 30
0.0
 11
10.77672456435345
 21
2.078265315676246
 31
0.0
  0
LINE
  5
BDE9
330
BDAD
100
AcDbEntity
  8
0
  6
CONTINUOUS
100
AcDbLine
 10
9.813070670951886
 20
2.36839999999762
 30
0.0
 11
8.51047067095321
 21
3.670999999996297
 31
0.0
  0
LINE
  5
BDEA
330
BDAD
100
AcDbEntity
  8
0
  6
CONTINUOUS
100
AcDbLine
 10
10.48658988003207
 20
2.36839999999762
 30
0.0
 11
9.183989880033396
 21
3.670999999996297
 31
0.0
  0
LINE
  5
BDEB
330
BDAD
100
AcDbEntity
  8
0
  6
CONTINUOUS
100
AcDbLine
 10
8.441048632286794
 20
3.740422038662712
 30
0.0
 11
7.365286662056551
 21
4.816184008892956
 31
0.0
  0
LINE
  5
BDEC
330
BDAD
100
AcDbEntity
  8
0
  6
CONTINUOUS
100
AcDbLine
 10
8.649187485808454
 20
4.205802394221237
 30
0.0
 11
7.573469239788285
 21
5.281520640241407
 31
0.0
  0
LINE
  5
BDED
330
BDAD
100
AcDbEntity
  8
0
  6
CONTINUOUS
100
AcDbLine
 10
5.098773609864391
 20
7.082697061085115
 30
0.0
 11
4.087049469776277
 21
8.09442120117323
 31
0.0
  0
LINE
  5
BDEE
330
BDAD
100
AcDbEntity
  8
0
  6
CONTINUOUS
100
AcDbLine
 10
5.396862364710167
 20
7.458127515319526
 30
0.0
 11
4.385146033871544
 21
8.469843846158149
 31
0.0
  0
LINE
  5
BDEF
330
BDAD
100
AcDbEntity
  8
0
  6
CONTINUOUS
100
AcDbLine
 10
13.04801363231285
 20
0.4804954567970334
 30
0.0
 11
9.85750908911358
 21
3.670999999996297
 31
0.0
  0
LINE
  5
BDF0
330
BDAD
100
AcDbEntity
  8
0
  6
CONTINUOUS
100
AcDbLine
 10
8.857326339330116
 20
4.671182749779763
 30
0.0
 11
7.781651817520021
 21
5.746857271589858
 31
0.0
  0
LINE
  5
BDF1
330
BDAD
100
AcDbEntity
  8
0
  6
CONTINUOUS
100
AcDbLine
 10
5.694951119555943
 20
7.833557969553937
 30
0.0
 11
4.765409089118624
 21
8.763099999991255
 31
0.0
  0
LINE
  5
BDF2
330
BDAD
100
AcDbEntity
  8
0
  6
CONTINUOUS
100
AcDbLine
 10
12.50286117236978
 20
1.699167125820288
 30
0.0
 11
9.68611877250287
 21
4.515909525687196
 31
0.0
  0
LINE
  5
BDF3
330
BDAD
100
AcDbEntity
  8
0
  6
CONTINUOUS
100
AcDbLine
 10
9.065465192851777
 20
5.136563105338288
 30
0.0
 11
7.989834395251757
 21
6.21219390293831
 31
0.0
  0
LINE
  5
BDF4
330
BDAD
100
AcDbEntity
  8
0
  6
CONTINUOUS
100
AcDbLine
 10
5.993039874401719
 20
8.208988423788346
 30
0.0
 11
5.43892829819881
 21
8.763099999991255
 31
0.0
  0
LINE
  5
BDF5
330
BDAD
100
AcDbEntity
  8
0
  6
CONTINUOUS
100
AcDbLine
 10
11.95770871242671
 20
2.917838794843543
 30
0.0
 11
8.19801697298349
 21
6.677530534286761
 31
0.0
  0
LINE
  5
BDF6
330
BDAD
100
AcDbEntity
  8
0
  6
CONTINUOUS
100
AcDbLine
 10
6.291128629247495
 20
8.584418878022756
 30
0.0
 11
6.112447507278997
 21
8.763099999991255
 31
0.0
  0
LINE
  5
BDF7
330
BDAD
100
AcDbEntity
  8
0
  6
CONTINUOUS
100
AcDbLine
 10
11.41255625248364
 20
4.136510463866797
 30
0.0
 11
8.406199550715227
 21
7.142867165635211
 31
0.0
  0
LINE
  5
BDF8
330
BDAD
100
AcDbEntity
  8
0
  6
CONTINUOUS
100
AcDbLine
 10
10.86740379254057
 20
5.355182132890051
 30
0.0
 11
8.614382128446962
 21
7.608203796983664
 31
0.0
  0
LINE
  5
BDF9
330
BDAD
100
AcDbEntity
  8
0
  6
CONTINUOUS
100
AcDbLine
 10
10.3222513325975
 20
6.573853801913305
 30
0.0
 11
8.822564706178696
 21
8.073540428332114
 31
0.0
  0
LINE
  5
BDFA
330
BDAD
100
AcDbEntity
  8
0
  6
CONTINUOUS
100
AcDbLine
 10
9.777098872654436
 20
7.792525470936562
 30
0.0
 11
9.030747283910433
 21
8.538877059680566
 31
0.0
  0
ENDBLK
  5
BF3C
330
BDAD
100
AcDbEntity
  8
0
100
AcDbBlockEnd
  0
BLOCK
  5
BF3D
330
BDFB
100
AcDbEntity
  8
0
100
AcDbBlockBegin
  2
*X40
 70
     1
 10
0.0
 20
0.0
 30
0.0
  3
*X40
  1

  0
LINE
  5
BDFC
330
BDFB
100
AcDbEntity
  8
0
  6
CONTINUOUS
100
AcDbLine
 10
10.67292308101235
 20
8.445076852443387
 30
0.0
 11
10.99094622856022
 21
8.763099999991255
 31
0.0
  0
LINE
  5
BDFD
330
BDFB
100
AcDbEntity
  8
0
  6
CONTINUOUS
100
AcDbLine
 10
10.87250383178748
 20
7.971138394138331
 30
0.0
 11
11.6644654376404
 21
8.763099999991255
 31
0.0
  0
LINE
  5
BDFE
330
BDFB
100
AcDbEntity
  8
0
  6
CONTINUOUS
100
AcDbLine
 10
11.07208458256261
 20
7.497199935833273
 30
0.0
 11
12.12126590876355
 21
8.546381262034211
 31
0.0
  0
LINE
  5
BDFF
330
BDFB
100
AcDbEntity
  8
0
  6
CONTINUOUS
100
AcDbLine
 10
11.27166533333774
 20
7.023261477528216
 30
0.0
 11
12.32085164573666
 21
8.072447789927136
 31
0.0
  0
LINE
  5
BE00
330
BDFB
100
AcDbEntity
  8
0
  6
CONTINUOUS
100
AcDbLine
 10
11.47124608411287
 20
6.549323019223158
 30
0.0
 11
12.52043738270977
 21
7.59851431782006
 31
0.0
  0
LINE
  5
BE01
330
BDFB
100
AcDbEntity
  8
0
  6
CONTINUOUS
100
AcDbLine
 10
11.670826834888
 20
6.075384560918101
 30
0.0
 11
12.72002311968288
 21
7.124580845712984
 31
0.0
  0
LINE
  5
BE02
330
BDFB
100
AcDbEntity
  8
0
  6
CONTINUOUS
100
AcDbLine
 10
11.87040758566313
 20
5.601446102613043
 30
0.0
 11
12.91960885665599
 21
6.650647373605907
 31
0.0
  0
LINE
  5
BE03
330
BDFB
100
AcDbEntity
  8
0
  6
CONTINUOUS
100
AcDbLine
 10
12.06998833643825
 20
5.127507644307986
 30
0.0
 11
13.1191945936291
 21
6.176713901498832
 31
0.0
  0
LINE
  5
BE04
330
BDFB
100
AcDbEntity
  8
0
  6
CONTINUOUS
100
AcDbLine
 10
12.26956908721338
 20
4.65356918600293
 30
0.0
 11
13.31878033060221
 21
5.702780429391757
 31
0.0
  0
LINE
  5
BE05
330
BDFB
100
AcDbEntity
  8
0
  6
CONTINUOUS
100
AcDbLine
 10
12.46914983798851
 20
4.179630727697873
 30
0.0
 11
13.51836606757532
 21
5.228846957284683
 31
0.0
  0
LINE
  5
BE06
330
BDFB
100
AcDbEntity
  8
0
  6
CONTINUOUS
100
AcDbLine
 10
12.66873058876364
 20
3.705692269392816
 30
0.0
 11
13.71795180454843
 21
4.754913485177607
 31
0.0
  0
LINE
  5
BE07
330
BDFB
100
AcDbEntity
  8
0
  6
CONTINUOUS
100
AcDbLine
 10
12.86831133953877
 20
3.231753811087759
 30
0.0
 11
13.91753754152154
 21
4.280980013070531
 31
0.0
  0
LINE
  5
BE08
330
BDFB
100
AcDbEntity
  8
0
  6
CONTINUOUS
100
AcDbLine
 10
13.0678920903139
 20
2.757815352782702
 30
0.0
 11
14.11712327849465
 21
3.807046540963456
 31
0.0
  0
LINE
  5
BE09
330
BDFB
100
AcDbEntity
  8
0
  6
CONTINUOUS
100
AcDbLine
 10
13.26747284108903
 20
2.283876894477644
 30
0.0
 11
14.31670901546777
 21
3.333113068856379
 31
0.0
  0
LINE
  5
BE0A
330
BDFB
100
AcDbEntity
  8
0
  6
CONTINUOUS
100
AcDbLine
 10
16.36767838827179
 20
8.751678487061342
 30
0.0
 11
16.50332410898388
 21
8.887324207773432
 31
0.0
  0
LINE
  5
BE0B
330
BDFB
100
AcDbEntity
  8
0
  6
CONTINUOUS
100
AcDbLine
 10
15.96190732182191
 20
7.67238821153127
 30
0.0
 11
16.68735328004734
 21
8.397834169756699
 31
0.0
  0
LINE
  5
BE0C
330
BDFB
100
AcDbEntity
  8
0
  6
CONTINUOUS
100
AcDbLine
 10
15.55613625537202
 20
6.593097936001196
 30
0.0
 11
16.87138245111079
 21
7.908344131739965
 31
0.0
  0
LINE
  5
BE0D
330
BDFB
100
AcDbEntity
  8
0
  6
CONTINUOUS
100
AcDbLine
 10
15.15036518892213
 20
5.513807660471122
 30
0.0
 11
17.05541162217424
 21
7.418854093723231
 31
0.0
  0
LINE
  5
BE0E
330
BDFB
100
AcDbEntity
  8
0
  6
CONTINUOUS
100
AcDbLine
 10
14.74459412247225
 20
4.434517384941048
 30
0.0
 11
17.2394407932377
 21
6.929364055706499
 31
0.0
  0
LINE
  5
BE0F
330
BDFB
100
AcDbEntity
  8
0
  6
CONTINUOUS
100
AcDbLine
 10
14.33882305602236
 20
3.355227109410975
 30
0.0
 11
17.42346996430115
 21
6.439874017689766
 31
0.0
  0
LINE
  5
BE10
330
BDFB
100
AcDbEntity
  8
0
  6
CONTINUOUS
100
AcDbLine
 10
13.46705359186416
 20
1.809938436172586
 30
0.0
 11
16.0819338255367
 21
4.424818669845129
 31
0.0
  0
LINE
  5
BE11
330
BDFB
100
AcDbEntity
  8
0
  6
CONTINUOUS
100
AcDbLine
 10
16.63283254238972
 20
4.975717386698149
 30
0.0
 11
17.60749913536461
 21
5.950383979673033
 31
0.0
  0
LINE
  5
BE12
330
BDFB
100
AcDbEntity
  8
0
  6
CONTINUOUS
100
AcDbLine
 10
13.66663434263929
 20
1.335999977867529
 30
0.0
 11
15.67604797733754
 21
3.345413612565779
 31
0.0
  0
LINE
  5
BE13
330
BDFB
100
AcDbEntity
  8
0
  6
CONTINUOUS
100
AcDbLine
 10
13.86621509341442
 20
0.8620615195624723
 30
0.0
 11
15.27016212913838
 21
2.26600855528643
 31
0.0
  0
LINE
  5
BE14
330
BDFB
100
AcDbEntity
  8
0
  6
CONTINUOUS
100
AcDbLine
 10
16.81682257348267
 20
4.486188208710908
 30
0.0
 11
17.79152830642806
 21
5.460893941656299
 31
0.0
  0
LINE
  5
BE15
330
BDFB
100
AcDbEntity
  8
0
  6
CONTINUOUS
100
AcDbLine
 10
17.00081260457561
 20
3.996659030723667
 30
0.0
 11
17.97555747749151
 21
4.971403903639565
 31
0.0
  0
LINE
  5
BE16
330
BDFB
100
AcDbEntity
  8
0
  6
CONTINUOUS
100
AcDbLine
 10
20.74362343514722
 20
8.412989070375462
 30
0.0
 11
21.09373436476302
 21
8.763099999991256
 31
0.0
  0
LINE
  5
BE17
330
BDFB
100
AcDbEntity
  8
0
  6
CONTINUOUS
100
AcDbLine
 10
20.25401257174777
 20
7.249858997895826
 30
0.0
 11
21.7672535738432
 21
8.763099999991255
 31
0.0
  0
LINE
  5
BE18
330
BDFB
100
AcDbEntity
  8
0
  6
CONTINUOUS
100
AcDbLine
 10
14.06579584418955
 20
0.3881230612574149
 30
0.0
 11
14.86427628093921
 21
1.186603498007082
 31
0.0
  0
LINE
  5
BE19
330
BDFB
100
AcDbEntity
  8
0
  6
CONTINUOUS
100
AcDbLine
 10
14.26537659496467
 20
-0.0858153970476412
 30
0.0
 11
14.45839043274005
 21
0.1071984407277329
 31
0.0
  0
LINE
  5
BE1A
330
BDFB
100
AcDbEntity
  8
0
  6
CONTINUOUS
100
AcDbLine
 10
17.18480263566856
 20
3.507129852736426
 30
0.0
 11
18.15958664855496
 21
4.481913865622833
 31
0.0
  0
LINE
  5
BE1B
330
BDFB
100
AcDbEntity
  8
0
  6
CONTINUOUS
100
AcDbLine
 10
17.3687926667615
 20
3.017600674749186
 30
0.0
 11
18.34361581961842
 21
3.9924238276061
 31
0.0
  0
LINE
  5
BE1C
330
BDFB
100
AcDbEntity
  8
0
  6
CONTINUOUS
100
AcDbLine
 10
19.76440170834832
 20
6.086728925416191
 30
0.0
 11
22.33924590259489
 21
8.661573119662755
 31
0.0
  0
LINE
  5
BE1D
330
BDFB
100
AcDbEntity
  8
0
  6
CONTINUOUS
100
AcDbLine
 10
19.27479084494887
 20
4.923598852936555
 30
0.0
 11
21.84929622842713
 21
7.498104236414807
 31
0.0
  0
LINE
  5
BE1E
330
BDFB
100
AcDbEntity
  8
0
  6
CONTINUOUS
100
AcDbLine
 10
17.55278269785445
 20
2.528071496761945
 30
0.0
 11
18.52764499068187
 21
3.502933789589366
 31
0.0
  0
LINE
  5
BE1F
330
BDFB
100
AcDbEntity
  8
0
  6
CONTINUOUS
100
AcDbLine
 10
18.78517998154942
 20
3.760468780456919
 30
0.0
 11
21.35934655425936
 21
6.33463535316686
 31
0.0
  0
LINE
  5
BE20
330
BDFB
100
AcDbEntity
  8
0
  6
CONTINUOUS
100
AcDbLine
 10
17.73677272894739
 20
2.038542318774704
 30
0.0
 11
20.8693968800916
 21
5.171166469918914
 31
0.0
  0
LINE
  5
BE21
330
BDFB
100
AcDbEntity
  8
0
  6
CONTINUOUS
100
AcDbLine
 10
17.92076276004034
 20
1.549013140787464
 30
0.0
 11
20.37944720592384
 21
4.007697586670968
 31
0.0
  0
LINE
  5
BE22
330
BDFB
100
AcDbEntity
  8
0
  6
CONTINUOUS
100
AcDbLine
 10
18.10475279113329
 20
1.059483962800223
 30
0.0
 11
19.88949753175608
 21
2.84422870342302
 31
0.0
  0
LINE
  5
BE23
330
BDFB
100
AcDbEntity
  8
0
  6
CONTINUOUS
100
AcDbLine
 10
18.28874282222623
 20
0.5699547848129822
 30
0.0
 11
19.39954785758832
 21
1.680759820175074
 31
0.0
  0
LINE
  5
BE24
330
BDFB
100
AcDbEntity
  8
0
  6
CONTINUOUS
100
AcDbLine
 10
18.47273285331918
 20
0.0804256068257416
 30
0.0
 11
18.90959818342056
 21
0.517290936927127
 31
0.0
  0
LINE
  5
BE25
330
BDFB
100
AcDbEntity
  8
0
  6
CONTINUOUS
100
AcDbLine
 10
14.3590401358224
 20
-0.1570118376323384
 30
0.0
 11
14.24903296539946
 21
-0.0470046672093929
 31
0.0
  0
LINE
  5
BE26
330
BDFB
100
AcDbEntity
  8
0
  6
CONTINUOUS
100
AcDbLine
 10
14.54309291258661
 20
0.332454594683643
 30
0.0
 11
13.75908329123172
 21
1.116464216038529
 31
0.0
  0
LINE
  5
BE27
330
BDFB
100
AcDbEntity
  8
0
  6
CONTINUOUS
100
AcDbLine
 10
14.72714568935081
 20
0.8219210269996244
 30
0.0
 11
13.26913361706399
 21
2.27993309928645
 31
0.0
  0
LINE
  5
BE28
330
BDFB
100
AcDbEntity
  8
0
  6
CONTINUOUS
100
AcDbLine
 10
14.91119846611502
 20
1.311387459315606
 30
0.0
 11
12.77918394289625
 21
3.443401982534371
 31
0.0
  0
LINE
  5
BE29
330
BDFB
100
AcDbEntity
  8
0
  6
CONTINUOUS
100
AcDbLine
 10
15.09525124287922
 20
1.800853891631587
 30
0.0
 11
12.28923426872852
 21
4.606870865782293
 31
0.0
  0
LINE
  5
BE2A
330
BDFB
100
AcDbEntity
  8
0
  6
CONTINUOUS
100
AcDbLine
 10
15.27930401964343
 20
2.290320323947569
 30
0.0
 11
11.79928459456078
 21
5.770339749030213
 31
0.0
  0
LINE
  5
BE2B
330
BDFB
100
AcDbEntity
  8
0
  6
CONTINUOUS
100
AcDbLine
 10
15.46335679640763
 20
2.77978675626355
 30
0.0
 11
14.48885470994921
 21
3.754288842721972
 31
0.0
  0
LINE
  5
BE2C
330
BDFB
100
AcDbEntity
  8
0
  6
CONTINUOUS
100
AcDbLine
 10
13.88507249233704
 20
4.358071060334137
 30
0.0
 11
11.30933492039305
 21
6.933808632278135
 31
0.0
  0
LINE
  5
BE2D
330
BDFB
100
AcDbEntity
  8
0
  6
CONTINUOUS
100
AcDbLine
 10
18.75840522805855
 20
0.1582575336928151
 30
0.0
 11
18.25383727664818
 21
0.6628254851031863
 31
0.0
  0
LINE
  5
BE2E
330
BDFB
100
AcDbEntity
  8
0
  6
CONTINUOUS
100
AcDbLine
 10
15.64740957317184
 20
3.269253188579531
 30
0.0
 11
14.67288388101266
 21
4.243778880738705
 31
0.0
  0
LINE
  5
BE2F
330
BDFB
100
AcDbEntity
  8
0
  6
CONTINUOUS
100
AcDbLine
 10
13.39509276772158
 20
5.521569994029786
 30
0.0
 11
10.81938524622531
 21
8.097277515526056
 31
0.0
  0
LINE
  5
BE30
330
BDFB
100
AcDbEntity
  8
0
  6
CONTINUOUS
100
AcDbLine
 10
18.95798597883369
 20
0.6321959919978686
 30
0.0
 11
17.84825644852853
 21
1.741925522303024
 31
0.0
  0
LINE
  5
BE31
330
BDFB
100
AcDbEntity
  8
0
  6
CONTINUOUS
100
AcDbLine
 10
19.15756672960882
 20
1.106134450302922
 30
0.0
 11
17.44267562040888
 21
2.821025559502861
 31
0.0
  0
LINE
  5
BE32
330
BDFB
100
AcDbEntity
  8
0
  6
CONTINUOUS
100
AcDbLine
 10
15.83146234993604
 20
3.758719620895513
 30
0.0
 11
14.85691305207612
 21
4.733268918755439
 31
0.0
  0
LINE
  5
BE33
330
BDFB
100
AcDbEntity
  8
0
  6
CONTINUOUS
100
AcDbLine
 10
16.01551512670025
 20
4.248186053211494
 30
0.0
 11
15.04094222313957
 21
5.222758956772172
 31
0.0
  0
LINE
  5
BE34
330
BDFB
100
AcDbEntity
  8
0
  6
CONTINUOUS
100
AcDbLine
 10
12.90511304310612
 20
6.685068927725435
 30
0.0
 11
10.8270819708403
 21
8.763099999991255
 31
0.0
  0
LINE
  5
BE35
330
BDFB
100
AcDbEntity
  8
0
  6
CONTINUOUS
100
AcDbLine
 10
12.41513331849066
 20
7.848567861421083
 30
0.0
 11
11.50060117992049
 21
8.763099999991255
 31
0.0
  0
LINE
  5
BE36
330
BDFB
100
AcDbEntity
  8
0
  6
CONTINUOUS
100
AcDbLine
 10
19.35714748038395
 20
1.580072908607975
 30
0.0
 11
17.03709479228923
 21
3.900125596702697
 31
0.0
  0
LINE
  5
BE37
330
BDFB
100
AcDbEntity
  8
0
  6
CONTINUOUS
100
AcDbLine
 10
19.55672823115909
 20
2.054011366913028
 30
0.0
 11
16.63151396416958
 21
4.979225633902534
 31
0.0
  0
LINE
  5
BE38
330
BDFB
100
AcDbEntity
  8
0
  6
CONTINUOUS
100
AcDbLine
 10
16.19956790346445
 20
4.737652485527476
 30
0.0
 11
15.22497139420302
 21
5.712248994788904
 31
0.0
  0
LINE
  5
BE39
330
BDFB
100
AcDbEntity
  8
0
  6
CONTINUOUS
100
AcDbLine
 10
16.38362068022866
 20
5.227118917843457
 30
0.0
 11
15.40900056526648
 21
6.201739032805637
 31
0.0
  0
LINE
  5
BE3A
330
BDFB
100
AcDbEntity
  8
0
  6
CONTINUOUS
100
AcDbLine
 10
19.75630898193422
 20
2.527949825218081
 30
0.0
 11
18.70774536448286
 21
3.576513442669441
 31
0.0
  0
LINE
  5
BE3B
330
BDFB
100
AcDbEntity
  8
0
  6
CONTINUOUS
100
AcDbLine
 10
19.95588973270936
 20
3.001888283523134
 30
0.0
 11
18.90726987211446
 21
4.050508144118028
 31
0.0
  0
LINE
  5
BE3C
330
BDFB
100
AcDbEntity
  8
0
  6
CONTINUOUS
100
AcDbLine
 10
20.15547048348449
 20
3.475826741828186
 30
0.0
 11
19.10679437974606
 21
4.524502845566614
 31
0.0
  0
LINE
  5
BE3D
330
BDFB
100
AcDbEntity
  8
0
  6
CONTINUOUS
100
AcDbLine
 10
20.35505123425962
 20
3.94976520013324
 30
0.0
 11
19.30631888737766
 21
4.998497547015201
 31
0.0
  0
LINE
  5
BE3E
330
BDFB
100
AcDbEntity
  8
0
  6
CONTINUOUS
100
AcDbLine
 10
20.55463198503475
 20
4.423703658438292
 30
0.0
 11
19.50584339500926
 21
5.472492248463787
 31
0.0
  0
LINE
  5
BE3F
330
BDFB
100
AcDbEntity
  8
0
  6
CONTINUOUS
100
AcDbLine
 10
18.37481191085755
 20
3.909446896294752
 30
0.0
 11
15.59302973632993
 21
6.691229070822371
 31
0.0
  0
LINE
  5
BE40
330
BDFB
100
AcDbEntity
  8
0
  6
CONTINUOUS
100
AcDbLine
 10
17.96904084440766
 20
4.988737171824825
 30
0.0
 11
15.77705890739338
 21
7.180719108839104
 31
0.0
  0
LINE
  5
BE41
330
BDFB
100
AcDbEntity
  8
0
  6
CONTINUOUS
100
AcDbLine
 10
17.56326977795777
 20
6.068027447354899
 30
0.0
 11
15.96108807845684
 21
7.670209146855838
 31
0.0
  0
LINE
  5
BE42
330
BDFB
100
AcDbEntity
  8
0
  6
CONTINUOUS
100
AcDbLine
 10
17.15749871150789
 20
7.147317722884972
 30
0.0
 11
16.14511724952029
 21
8.15969918487257
 31
0.0
  0
LINE
  5
BE43
330
BDFB
100
AcDbEntity
  8
0
  6
CONTINUOUS
100
AcDbLine
 10
16.751727645058
 20
8.226607998415046
 30
0.0
 11
16.32914642058374
 21
8.649189222889303
 31
0.0
  0
LINE
  5
BE44
330
BDFB
100
AcDbEntity
  8
0
  6
CONTINUOUS
100
AcDbLine
 10
20.75421273580989
 20
4.897642116743345
 30
0.0
 11
19.70536790264086
 21
5.946486949912374
 31
0.0
  0
LINE
  5
BE45
330
BDFB
100
AcDbEntity
  8
0
  6
CONTINUOUS
100
AcDbLine
 10
20.95379348658502
 20
5.371580575048398
 30
0.0
 11
19.90489241027246
 21
6.42048165136096
 31
0.0
  0
LINE
  5
BE46
330
BDFB
100
AcDbEntity
  8
0
  6
CONTINUOUS
100
AcDbLine
 10
21.15337423736015
 20
5.845519033353452
 30
0.0
 11
20.10441691790406
 21
6.894476352809547
 31
0.0
  0
LINE
  5
BE47
330
BDFB
100
AcDbEntity
  8
0
  6
CONTINUOUS
100
AcDbLine
 10
21.35295498813529
 20
6.319457491658505
 30
0.0
 11
20.30394142553566
 21
7.368471054258134
 31
0.0
  0
LINE
  5
BE48
330
BDFB
100
AcDbEntity
  8
0
  6
CONTINUOUS
100
AcDbLine
 10
21.55253573891042
 20
6.793395949963558
 30
0.0
 11
20.50346593316726
 21
7.842465755706721
 31
0.0
  0
LINE
  5
BE49
330
BDFB
100
AcDbEntity
  8
0
  6
CONTINUOUS
100
AcDbLine
 10
21.75211648968556
 20
7.267334408268612
 30
0.0
 11
20.70299044079886
 21
8.316460457155308
 31
0.0
  0
LINE
  5
BE4A
330
BDFB
100
AcDbEntity
  8
0
  6
CONTINUOUS
100
AcDbLine
 10
21.95169724046069
 20
7.741272866573663
 30
0.0
 11
20.9298701070431
 21
8.763099999991256
 31
0.0
  0
LINE
  5
BE4B
330
BDFB
100
AcDbEntity
  8
0
  6
CONTINUOUS
100
AcDbLine
 10
22.15127799123582
 20
8.215211324878716
 30
0.0
 11
21.60338931612328
 21
8.763099999991256
 31
0.0
  0
LINE
  5
BE4C
330
BDFB
100
AcDbEntity
  8
0
  6
CONTINUOUS
100
AcDbLine
 10
22.35085874201096
 20
8.689149783183769
 30
0.0
 11
22.27690852520347
 21
8.763099999991255
 31
0.0
  0
ENDBLK
  5
BF3E
330
BDFB
100
AcDbEntity
  8
0
100
AcDbBlockEnd
  0
BLOCK
  5
BF3F
330
BE4D
100
AcDbEntity
  8
0
100
AcDbBlockBegin
  2
*X41
 70
     1
 10
0.0
 20
0.0
 30
0.0
  3
*X41
  1

  0
LINE
  5
BE4E
330
BE4D
100
AcDbEntity
  8
0
  6
CONTINUOUS
100
AcDbLine
 10
23.19462913593892
 20
8.169917934846424
 30
0.0
 11
23.70775465517246
 21
8.683043454079957
 31
0.0
  0
LINE
  5
BE4F
330
BE4D
100
AcDbEntity
  8
0
  6
CONTINUOUS
100
AcDbLine
 10
22.64923161835078
 20
6.951001208178088
 30
0.0
 11
23.9159364069932
 21
8.217705996820516
 31
0.0
  0
LINE
  5
BE50
330
BE4D
100
AcDbEntity
  8
0
  6
CONTINUOUS
100
AcDbLine
 10
22.10383410076263
 20
5.732084481509751
 30
0.0
 11
24.12411815881395
 21
7.752368539561078
 31
0.0
  0
LINE
  5
BE51
330
BE4D
100
AcDbEntity
  8
0
  6
CONTINUOUS
100
AcDbLine
 10
21.55843658317447
 20
4.513167754841414
 30
0.0
 11
24.3322999106347
 21
7.287031082301639
 31
0.0
  0
LINE
  5
BE52
330
BE4D
100
AcDbEntity
  8
0
  6
CONTINUOUS
100
AcDbLine
 10
21.01303906558632
 20
3.294251028173077
 30
0.0
 11
24.54048166245544
 21
6.821693625042199
 31
0.0
  0
LINE
  5
BE53
330
BE4D
100
AcDbEntity
  8
0
  6
CONTINUOUS
100
AcDbLine
 10
20.46764154799817
 20
2.075334301504738
 30
0.0
 11
23.28571549467848
 21
4.89340824818505
 31
0.0
  0
LINE
  5
BE54
330
BE4D
100
AcDbEntity
  8
0
  6
CONTINUOUS
100
AcDbLine
 10
19.92224403041002
 20
0.8564175748364002
 30
0.0
 11
22.74075865492779
 21
3.674932199354171
 31
0.0
  0
LINE
  5
BE55
330
BE4D
100
AcDbEntity
  8
0
  6
CONTINUOUS
100
AcDbLine
 10
23.67305085490148
 20
5.280743608408048
 30
0.0
 11
24.74866341427619
 21
6.356356167782759
 31
0.0
  0
LINE
  5
BE56
330
BE4D
100
AcDbEntity
  8
0
  6
CONTINUOUS
100
AcDbLine
 10
23.88118970842314
 20
4.815363252849522
 30
0.0
 11
24.95684516609694
 21
5.89101871052332
 31
0.0
  0
LINE
  5
BE57
330
BE4D
100
AcDbEntity
  8
0
  6
CONTINUOUS
100
AcDbLine
 10
19.73925852647308
 20
-0.0000871381807288
 30
0.0
 11
23.4103456646501
 21
3.670999999996297
 31
0.0
  0
LINE
  5
BE58
330
BE4D
100
AcDbEntity
  8
0
  6
CONTINUOUS
100
AcDbLine
 10
24.0893285619448
 20
4.349982897290997
 30
0.0
 11
25.16502691791769
 21
5.42568125326388
 31
0.0
  0
LINE
  5
BE59
330
BE4D
100
AcDbEntity
  8
0
  6
CONTINUOUS
100
AcDbLine
 10
20.41282099582748
 20
-0.0000438779065108
 30
0.0
 11
21.64944178675636
 21
1.236576913022366
 31
0.0
  0
LINE
  5
BE5A
330
BE4D
100
AcDbEntity
  8
0
  6
CONTINUOUS
100
AcDbLine
 10
22.78126487373161
 20
2.36839999999762
 30
0.0
 11
24.08386487373029
 21
3.670999999996297
 31
0.0
  0
LINE
  5
BE5B
330
BE4D
100
AcDbEntity
  8
0
  6
CONTINUOUS
100
AcDbLine
 10
24.29746741546646
 20
3.884602541732471
 30
0.0
 11
25.37320866973843
 21
4.960343796004441
 31
0.0
  0
LINE
  5
BE5C
330
BE4D
100
AcDbEntity
  8
0
  6
CONTINUOUS
100
AcDbLine
 10
21.08638346518189
 20
-0.0000006176322938
 30
0.0
 11
21.10379033335899
 21
0.0174062505448083
 31
0.0
  0
LINE
  5
BE5D
330
BE4D
100
AcDbEntity
  8
0
  6
CONTINUOUS
100
AcDbLine
 10
23.4547840828118
 20
2.36839999999762
 30
0.0
 11
25.58139042155918
 21
4.495006338745002
 31
0.0
  0
LINE
  5
BE5E
330
BE4D
100
AcDbEntity
  8
0
  6
CONTINUOUS
100
AcDbLine
 10
29.30199999996933
 20
8.215615917155148
 30
0.0
 11
29.84948408280543
 21
8.763099999991255
 31
0.0
  0
LINE
  5
BE5F
330
BE4D
100
AcDbEntity
  8
0
  6
CONTINUOUS
100
AcDbLine
 10
24.12830329189199
 20
2.36839999999762
 30
0.0
 11
25.78957217337993
 21
4.029668881485562
 31
0.0
  0
LINE
  5
BE60
330
BE4D
100
AcDbEntity
  8
0
  6
CONTINUOUS
100
AcDbLine
 10
29.30199999996933
 20
7.54209670807496
 30
0.0
 11
30.52300329188562
 21
8.763099999991255
 31
0.0
  0
LINE
  5
BE61
330
BE4D
100
AcDbEntity
  8
0
  6
CONTINUOUS
100
AcDbLine
 10
24.80182250097217
 20
2.36839999999762
 30
0.0
 11
25.99775392520067
 21
3.564331424226122
 31
0.0
  0
LINE
  5
BE62
330
BE4D
100
AcDbEntity
  8
0
  6
CONTINUOUS
100
AcDbLine
 10
29.30199999996933
 20
6.868577498994774
 30
0.0
 11
30.74199999996926
 21
8.308577498994712
 31
0.0
  0
LINE
  5
BE63
330
BE4D
100
AcDbEntity
  8
0
  6
CONTINUOUS
100
AcDbLine
 10
25.13028238392013
 20
2.023340673865392
 30
0.0
 11
26.20593567702142
 21
3.098993966966683
 31
0.0
  0
LINE
  5
BE64
330
BE4D
100
AcDbEntity
  8
0
  6
CONTINUOUS
100
AcDbLine
 10
25.33838066033617
 20
1.557919741201244
 30
0.0
 11
26.41411742884217
 21
2.633656509707244
 31
0.0
  0
LINE
  5
BE65
330
BE4D
100
AcDbEntity
  8
0
  6
CONTINUOUS
100
AcDbLine
 10
25.54647893675221
 20
1.092498808537098
 30
0.0
 11
26.62229918066291
 21
2.168319052447804
 31
0.0
  0
LINE
  5
BE66
330
BE4D
100
AcDbEntity
  8
0
  6
CONTINUOUS
100
AcDbLine
 10
25.75457721316825
 20
0.62707787587295
 30
0.0
 11
26.83048093248366
 21
1.702981595188365
 31
0.0
  0
LINE
  5
BE67
330
BE4D
100
AcDbEntity
  8
0
  6
CONTINUOUS
100
AcDbLine
 10
29.30199999996933
 20
6.195058289914587
 30
0.0
 11
30.74199999996926
 21
7.635058289914522
 31
0.0
  0
LINE
  5
BE68
330
BE4D
100
AcDbEntity
  8
0
  6
CONTINUOUS
100
AcDbLine
 10
29.30199999996933
 20
5.521539080834401
 30
0.0
 11
30.74199999996926
 21
6.961539080834331
 31
0.0
  0
LINE
  5
BE69
330
BE4D
100
AcDbEntity
  8
0
  6
CONTINUOUS
100
AcDbLine
 10
29.30199999996933
 20
4.848019871754214
 30
0.0
 11
30.74199999996925
 21
6.288019871754143
 31
0.0
  0
LINE
  5
BE6A
330
BE4D
100
AcDbEntity
  8
0
  6
CONTINUOUS
100
AcDbLine
 10
29.30199999996933
 20
4.174500662674028
 30
0.0
 11
30.74199999996925
 21
5.614500662673953
 31
0.0
  0
LINE
  5
BE6B
330
BE4D
100
AcDbEntity
  8
0
  6
CONTINUOUS
100
AcDbLine
 10
25.96267548958429
 20
0.1616569432088024
 30
0.0
 11
27.18411854636669
 21
1.383099999991207
 31
0.0
  0
LINE
  5
BE6C
330
BE4D
100
AcDbEntity
  8
0
  6
CONTINUOUS
100
AcDbLine
 10
29.30199999996933
 20
3.500981453593841
 30
0.0
 11
30.74199999996925
 21
4.940981453593762
 31
0.0
  0
LINE
  5
BE6D
330
BE4D
100
AcDbEntity
  8
0
  6
CONTINUOUS
100
AcDbLine
 10
26.50763775544691
 20
0.0330999999912356
 30
0.0
 11
27.85763775544689
 21
1.383099999991223
 31
0.0
  0
LINE
  5
BE6E
330
BE4D
100
AcDbEntity
  8
0
  6
CONTINUOUS
100
AcDbLine
 10
29.30199999996933
 20
2.827462244513656
 30
0.0
 11
30.74199999996925
 21
4.267462244513574
 31
0.0
  0
LINE
  5
BE6F
330
BE4D
100
AcDbEntity
  8
0
  6
CONTINUOUS
100
AcDbLine
 10
27.18115696452709
 20
0.0330999999912356
 30
0.0
 11
28.55073879889363
 21
1.402681834357775
 31
0.0
  0
LINE
  5
BE70
330
BE4D
100
AcDbEntity
  8
0
  6
CONTINUOUS
100
AcDbLine
 10
29.28241816560272
 20
2.134361201066866
 30
0.0
 11
30.74199999996924
 21
3.593943035433383
 31
0.0
  0
LINE
  5
BE71
330
BE4D
100
AcDbEntity
  8
0
  6
CONTINUOUS
100
AcDbLine
 10
27.85467617360728
 20
0.0330999999912356
 30
0.0
 11
30.74199999996924
 21
2.920423826353195
 31
0.0
  0
LINE
  5
BE72
330
BE4D
100
AcDbEntity
  8
0
  6
CONTINUOUS
100
AcDbLine
 10
28.53897559587887
 20
0.0438802131826428
 30
0.0
 11
30.73121978677781
 21
2.236124404081585
 31
0.0
  0
LINE
  5
BE73
330
BE4D
100
AcDbEntity
  8
0
  6
CONTINUOUS
100
AcDbLine
 10
29.45140055588722
 20
0.2827859641107988
 30
0.0
 11
30.49231403584965
 21
1.323699444073236
 31
0.0
  0
LINE
  5
BE74
330
BE4D
100
AcDbEntity
  8
0
  6
CONTINUOUS
100
AcDbLine
 10
19.59027867740337
 20
-0.0000967065718083
 30
0.0
 11
19.55485265190471
 21
0.035329318926844
 31
0.0
  0
LINE
  5
BE75
330
BE4D
100
AcDbEntity
  8
0
  6
CONTINUOUS
100
AcDbLine
 10
20.26375463176586
 20
-0.0000534518541091
 30
0.0
 11
19.76305575737534
 21
0.5006454225364014
 31
0.0
  0
LINE
  5
BE76
330
BE4D
100
AcDbEntity
  8
0
  6
CONTINUOUS
100
AcDbLine
 10
20.93723058612834
 20
-0.0000101971364099
 30
0.0
 11
19.97125886284597
 21
0.965961526145958
 31
0.0
  0
LINE
  5
BE77
330
BE4D
100
AcDbEntity
  8
0
  6
CONTINUOUS
100
AcDbLine
 10
21.25514828313686
 20
0.355591314935257
 30
0.0
 11
20.1794619683166
 21
1.431277629755512
 31
0.0
  0
LINE
  5
BE78
330
BE4D
100
AcDbEntity
  8
0
  6
CONTINUOUS
100
AcDbLine
 10
21.46338838394921
 20
0.8208704232030986
 30
0.0
 11
20.38766507378723
 21
1.896593733365069
 31
0.0
  0
LINE
  5
BE79
330
BE4D
100
AcDbEntity
  8
0
  6
CONTINUOUS
100
AcDbLine
 10
21.67162848476155
 20
1.28614953147094
 30
0.0
 11
20.59586817925786
 21
2.361909836974626
 31
0.0
  0
LINE
  5
BE7A
330
BE4D
100
AcDbEntity
  8
0
  6
CONTINUOUS
100
AcDbLine
 10
21.8798685855739
 20
1.751428639738782
 30
0.0
 11
20.80407128472849
 21
2.827225940584183
 31
0.0
  0
LINE
  5
BE7B
330
BE4D
100
AcDbEntity
  8
0
  6
CONTINUOUS
100
AcDbLine
 10
22.08810868638624
 20
2.216707748006623
 30
0.0
 11
21.01227439019912
 21
3.292542044193739
 31
0.0
  0
LINE
  5
BE7C
330
BE4D
100
AcDbEntity
  8
0
  6
CONTINUOUS
100
AcDbLine
 10
22.60993564347543
 20
2.36839999999762
 30
0.0
 11
21.22047749566975
 21
3.757858147803296
 31
0.0
  0
LINE
  5
BE7D
330
BE4D
100
AcDbEntity
  8
0
  6
CONTINUOUS
100
AcDbLine
 10
23.28345485255561
 20
2.36839999999762
 30
0.0
 11
21.42868060114038
 21
4.223174251412853
 31
0.0
  0
LINE
  5
BE7E
330
BE4D
100
AcDbEntity
  8
0
  6
CONTINUOUS
100
AcDbLine
 10
26.29227406164219
 20
0.0330999999912356
 30
0.0
 11
25.80009199592872
 21
0.5252820657046957
 31
0.0
  0
LINE
  5
BE7F
330
BE4D
100
AcDbEntity
  8
0
  6
CONTINUOUS
100
AcDbLine
 10
23.9569740616358
 20
2.36839999999762
 30
0.0
 11
21.63688370661101
 21
4.688490355022409
 31
0.0
  0
LINE
  5
BE80
330
BE4D
100
AcDbEntity
  8
0
  6
CONTINUOUS
100
AcDbLine
 10
26.96579327072237
 20
0.0330999999912356
 30
0.0
 11
25.2554132311971
 21
1.743480039516508
 31
0.0
  0
LINE
  5
BE81
330
BE4D
100
AcDbEntity
  8
0
  6
CONTINUOUS
100
AcDbLine
 10
24.63049327071599
 20
2.36839999999762
 30
0.0
 11
23.32789327071731
 21
3.670999999996297
 31
0.0
  0
LINE
  5
BE82
330
BE4D
100
AcDbEntity
  8
0
  6
CONTINUOUS
100
AcDbLine
 10
22.92098674744635
 20
4.077906523267254
 30
0.0
 11
21.84508681208164
 21
5.153806458631966
 31
0.0
  0
LINE
  5
BE83
330
BE4D
100
AcDbEntity
  8
0
  6
CONTINUOUS
100
AcDbLine
 10
27.63931247980256
 20
0.0330999999912356
 30
0.0
 11
24.0014124797975
 21
3.670999999996297
 31
0.0
  0
LINE
  5
BE84
330
BE4D
100
AcDbEntity
  8
0
  6
CONTINUOUS
100
AcDbLine
 10
23.129125600968
 20
4.5432868788258
 30
0.0
 11
22.05328991755227
 21
5.619122562241522
 31
0.0
  0
LINE
  5
BE85
330
BE4D
100
AcDbEntity
  8
0
  6
CONTINUOUS
100
AcDbLine
 10
28.31283168888275
 20
0.0330999999912356
 30
0.0
 11
24.16488385994816
 21
4.181047828925828
 31
0.0
  0
LINE
  5
BE86
330
BE4D
100
AcDbEntity
  8
0
  6
CONTINUOUS
100
AcDbLine
 10
23.33726445448964
 20
5.008667234384345
 30
0.0
 11
22.2614930230229
 21
6.084438665851079
 31
0.0
  0
LINE
  5
BE87
330
BE4D
100
AcDbEntity
  8
0
  6
CONTINUOUS
100
AcDbLine
 10
28.92085740005492
 20
0.0985934978992438
 30
0.0
 11
27.63635089796295
 21
1.383099999991217
 31
0.0
  0
LINE
  5
BE88
330
BE4D
100
AcDbEntity
  8
0
  6
CONTINUOUS
100
AcDbLine
 10
26.43704649509776
 20
2.582404402856405
 30
0.0
 11
23.61992702019732
 21
5.399523877756844
 31
0.0
  0
LINE
  5
BE89
330
BE4D
100
AcDbEntity
  8
0
  6
CONTINUOUS
100
AcDbLine
 10
23.54540330801128
 20
5.47404758994289
 30
0.0
 11
22.46969612849353
 21
6.549754769460635
 31
0.0
  0
LINE
  5
BE8A
330
BE4D
100
AcDbEntity
  8
0
  6
CONTINUOUS
100
AcDbLine
 10
29.42225615078443
 20
0.2707139562499279
 30
0.0
 11
28.30987010704312
 21
1.383099999991234
 31
0.0
  0
LINE
  5
BE8B
330
BE4D
100
AcDbEntity
  8
0
  6
CONTINUOUS
100
AcDbLine
 10
25.89179548232307
 20
3.801174624711282
 30
0.0
 11
22.67789923396416
 21
7.015070873070191
 31
0.0
  0
LINE
  5
BE8C
330
BE4D
100
AcDbEntity
  8
0
  6
CONTINUOUS
100
AcDbLine
 10
29.83624534690007
 20
0.5302439692144705
 30
0.0
 11
28.85811781497101
 21
1.508371501143527
 31
0.0
  0
LINE
  5
BE8D
330
BE4D
100
AcDbEntity
  8
0
  6
CONTINUOUS
100
AcDbLine
 10
25.34654446954838
 20
5.01994484656616
 30
0.0
 11
22.88610233943479
 21
7.480386976679748
 31
0.0
  0
LINE
  5
BE8E
330
BE4D
100
AcDbEntity
  8
0
  6
CONTINUOUS
100
AcDbLine
 10
30.17865975401872
 20
0.8613487711760022
 30
0.0
 11
29.18888744090175
 21
1.851121084292977
 31
0.0
  0
LINE
  5
BE8F
330
BE4D
100
AcDbEntity
  8
0
  6
CONTINUOUS
100
AcDbLine
 10
24.80129345677369
 20
6.238715068421037
 30
0.0
 11
23.09430544490542
 21
7.945703080289305
 31
0.0
  0
LINE
  5
BE90
330
BE4D
100
AcDbEntity
  8
0
  6
CONTINUOUS
100
AcDbLine
 10
30.45496647202376
 20
1.258561262251155
 30
0.0
 11
29.30199999996933
 21
2.411527734305588
 31
0.0
  0
LINE
  5
BE91
330
BE4D
100
AcDbEntity
  8
0
  6
CONTINUOUS
100
AcDbLine
 10
24.256042443999
 20
7.457485290275915
 30
0.0
 11
23.30250855037605
 21
8.411019183898862
 31
0.0
  0
LINE
  5
BE92
330
BE4D
100
AcDbEntity
  8
0
  6
CONTINUOUS
100
AcDbLine
 10
30.64868582078271
 20
1.738361122572387
 30
0.0
 11
29.30199999996933
 21
3.085046943385775
 31
0.0
  0
LINE
  5
BE93
330
BE4D
100
AcDbEntity
  8
0
  6
CONTINUOUS
100
AcDbLine
 10
23.71079143122431
 20
8.676255512130794
 30
0.0
 11
23.51071165584668
 21
8.876335287508416
 31
0.0
  0
LINE
  5
BE94
330
BE4D
100
AcDbEntity
  8
0
  6
CONTINUOUS
100
AcDbLine
 10
30.73802122914428
 20
2.322544923291007
 30
0.0
 11
29.30199999996933
 21
3.758566152465961
 31
0.0
  0
LINE
  5
BE95
330
BE4D
100
AcDbEntity
  8
0
  6
CONTINUOUS
100
AcDbLine
 10
30.74199999996924
 20
2.992085361546236
 30
0.0
 11
29.30199999996933
 21
4.432085361546148
 31
0.0
  0
LINE
  5
BE96
330
BE4D
100
AcDbEntity
  8
0
  6
CONTINUOUS
100
AcDbLine
 10
30.74199999996924
 20
3.665604570626419
 30
0.0
 11
29.30199999996933
 21
5.105604570626333
 31
0.0
  0
LINE
  5
BE97
330
BE4D
100
AcDbEntity
  8
0
  6
CONTINUOUS
100
AcDbLine
 10
30.74199999996925
 20
4.339123779706602
 30
0.0
 11
29.30199999996933
 21
5.77912377970652
 31
0.0
  0
LINE
  5
BE98
330
BE4D
100
AcDbEntity
  8
0
  6
CONTINUOUS
100
AcDbLine
 10
30.74199999996925
 20
5.012642988786785
 30
0.0
 11
29.30199999996933
 21
6.452642988786707
 31
0.0
  0
LINE
  5
BE99
330
BE4D
100
AcDbEntity
  8
0
  6
CONTINUOUS
100
AcDbLine
 10
30.74199999996925
 20
5.68616219786697
 30
0.0
 11
29.30199999996933
 21
7.126162197866894
 31
0.0
  0
LINE
  5
BE9A
330
BE4D
100
AcDbEntity
  8
0
  6
CONTINUOUS
100
AcDbLine
 10
30.74199999996925
 20
6.359681406947153
 30
0.0
 11
29.30199999996933
 21
7.799681406947081
 31
0.0
  0
LINE
  5
BE9B
330
BE4D
100
AcDbEntity
  8
0
  6
CONTINUOUS
100
AcDbLine
 10
30.74199999996926
 20
7.033200616027337
 30
0.0
 11
29.30199999996933
 21
8.473200616027269
 31
0.0
  0
LINE
  5
BE9C
330
BE4D
100
AcDbEntity
  8
0
  6
CONTINUOUS
100
AcDbLine
 10
30.74199999996926
 20
7.706719825107518
 30
0.0
 11
29.68561982508552
 21
8.763099999991255
 31
0.0
  0
LINE
  5
BE9D
330
BE4D
100
AcDbEntity
  8
0
  6
CONTINUOUS
100
AcDbLine
 10
30.74199999996926
 20
8.380239034187703
 30
0.0
 11
30.35913903416571
 21
8.763099999991255
 31
0.0
  0
ENDBLK
  5
BF40
330
BE4D
100
AcDbEntity
  8
0
100
AcDbBlockEnd
  0
BLOCK
  5
BF41
330
BE9E
100
AcDbEntity
  8
0
100
AcDbBlockBegin
  2
*X42
 70
     1
 10
0.0
 20
0.0
 30
0.0
  3
*X42
  1

  0
LINE
  5
BE9F
330
BE9E
100
AcDbEntity
  8
0
  6
CONTINUOUS
100
AcDbLine
 10
31.64199999996833
 20
8.535058289913598
 30
0.0
 11
31.87004171004599
 21
8.763099999991255
 31
0.0
  0
LINE
  5
BEA0
330
BE9E
100
AcDbEntity
  8
0
  6
CONTINUOUS
100
AcDbLine
 10
31.64199999996833
 20
7.861539080833412
 30
0.0
 11
32.54356091912618
 21
8.763099999991255
 31
0.0
  0
LINE
  5
BEA1
330
BE9E
100
AcDbEntity
  8
0
  6
CONTINUOUS
100
AcDbLine
 10
31.64199999996833
 20
7.188019871753226
 30
0.0
 11
33.08199999996839
 21
8.628019871753281
 31
0.0
  0
LINE
  5
BEA2
330
BE9E
100
AcDbEntity
  8
0
  6
CONTINUOUS
100
AcDbLine
 10
31.64199999996833
 20
6.51450066267304
 30
0.0
 11
33.08199999996839
 21
7.954500662673095
 31
0.0
  0
LINE
  5
BEA3
330
BE9E
100
AcDbEntity
  8
0
  6
CONTINUOUS
100
AcDbLine
 10
31.64199999996833
 20
5.840981453592853
 30
0.0
 11
33.08199999996839
 21
7.280981453592908
 31
0.0
  0
LINE
  5
BEA4
330
BE9E
100
AcDbEntity
  8
0
  6
CONTINUOUS
100
AcDbLine
 10
31.64199999996833
 20
5.167462244512667
 30
0.0
 11
33.08199999996839
 21
6.607462244512721
 31
0.0
  0
LINE
  5
BEA5
330
BE9E
100
AcDbEntity
  8
0
  6
CONTINUOUS
100
AcDbLine
 10
31.64199999996833
 20
4.493943035432481
 30
0.0
 11
33.08199999996839
 21
5.933943035432535
 31
0.0
  0
LINE
  5
BEA6
330
BE9E
100
AcDbEntity
  8
0
  6
CONTINUOUS
100
AcDbLine
 10
31.64199999996833
 20
3.820423826352293
 30
0.0
 11
33.08199999996839
 21
5.260423826352348
 31
0.0
  0
LINE
  5
BEA7
330
BE9E
100
AcDbEntity
  8
0
  6
CONTINUOUS
100
AcDbLine
 10
31.64199999996833
 20
3.146904617272106
 30
0.0
 11
33.08199999996839
 21
4.586904617272161
 31
0.0
  0
LINE
  5
BEA8
330
BE9E
100
AcDbEntity
  8
0
  6
CONTINUOUS
100
AcDbLine
 10
36.23199999996837
 20
8.410423826352325
 30
0.0
 11
36.5846761736073
 21
8.763099999991255
 31
0.0
  0
LINE
  5
BEA9
330
BE9E
100
AcDbEntity
  8
0
  6
CONTINUOUS
100
AcDbLine
 10
36.23199999996837
 20
7.73690461727214
 30
0.0
 11
37.25819538268748
 21
8.763099999991255
 31
0.0
  0
LINE
  5
BEAA
330
BE9E
100
AcDbEntity
  8
0
  6
CONTINUOUS
100
AcDbLine
 10
31.64257403601376
 20
2.473959444237348
 30
0.0
 11
33.08199999996839
 21
3.913385408191974
 31
0.0
  0
LINE
  5
BEAB
330
BE9E
100
AcDbEntity
  8
0
  6
CONTINUOUS
100
AcDbLine
 10
36.23199999996837
 20
7.063385408191953
 30
0.0
 11
37.67199999996831
 21
8.503385408191894
 31
0.0
  0
LINE
  5
BEAC
330
BE9E
100
AcDbEntity
  8
0
  6
CONTINUOUS
100
AcDbLine
 10
31.72013636841932
 20
1.87800256756272
 30
0.0
 11
33.08199999996839
 21
3.239866199111788
 31
0.0
  0
LINE
  5
BEAD
330
BE9E
100
AcDbEntity
  8
0
  6
CONTINUOUS
100
AcDbLine
 10
36.23199999996837
 20
6.389866199111767
 30
0.0
 11
37.67199999996831
 21
7.829866199111708
 31
0.0
  0
LINE
  5
BEAE
330
BE9E
100
AcDbEntity
  8
0
  6
CONTINUOUS
100
AcDbLine
 10
31.89042734314753
 20
1.374774333210744
 30
0.0
 11
33.08199999996839
 21
2.566346990031601
 31
0.0
  0
LINE
  5
BEAF
330
BE9E
100
AcDbEntity
  8
0
  6
CONTINUOUS
100
AcDbLine
 10
36.23199999996837
 20
5.71634699003158
 30
0.0
 11
37.67199999996831
 21
7.156346990031521
 31
0.0
  0
LINE
  5
BEB0
330
BE9E
100
AcDbEntity
  8
0
  6
CONTINUOUS
100
AcDbLine
 10
32.14210568064475
 20
0.952933461627778
 30
0.0
 11
33.18745552475986
 21
1.998283305742888
 31
0.0
  0
LINE
  5
BEB1
330
BE9E
100
AcDbEntity
  8
0
  6
CONTINUOUS
100
AcDbLine
 10
36.23199999996837
 20
5.042827780951393
 30
0.0
 11
37.67199999996831
 21
6.482827780951334
 31
0.0
  0
LINE
  5
BEB2
330
BE9E
100
AcDbEntity
  8
0
  6
CONTINUOUS
100
AcDbLine
 10
32.45820639400955
 20
0.5955149659123915
 30
0.0
 11
33.47242681921943
 21
1.60973539112227
 31
0.0
  0
LINE
  5
BEB3
330
BE9E
100
AcDbEntity
  8
0
  6
CONTINUOUS
100
AcDbLine
 10
36.23199999996837
 20
4.369308571871207
 30
0.0
 11
37.67199999996831
 21
5.809308571871147
 31
0.0
  0
LINE
  5
BEB4
330
BE9E
100
AcDbEntity
  8
0
  6
CONTINUOUS
100
AcDbLine
 10
32.83432456621412
 20
0.2981139290367771
 30
0.0
 11
33.89722476612215
 21
1.361014128944803
 31
0.0
  0
LINE
  5
BEB5
330
BE9E
100
AcDbEntity
  8
0
  6
CONTINUOUS
100
AcDbLine
 10
36.23199999996837
 20
3.69578936279102
 30
0.0
 11
37.67199999996831
 21
5.135789362790962
 31
0.0
  0
LINE
  5
BEB6
330
BE9E
100
AcDbEntity
  8
0
  6
CONTINUOUS
100
AcDbLine
 10
33.2711633111245
 20
0.0614334648669672
 30
0.0
 11
34.43247338014423
 21
1.222743533886696
 31
0.0
  0
LINE
  5
BEB7
330
BE9E
100
AcDbEntity
  8
0
  6
CONTINUOUS
100
AcDbLine
 10
36.23199999996837
 20
3.022270153710834
 30
0.0
 11
37.67199999996831
 21
4.462270153710775
 31
0.0
  0
LINE
  5
BEB8
330
BE9E
100
AcDbEntity
  8
0
  6
CONTINUOUS
100
AcDbLine
 10
33.76515245874577
 20
-0.1180965965919523
 30
0.0
 11
35.1587445516215
 21
1.27549549628378
 31
0.0
  0
LINE
  5
BEB9
330
BE9E
100
AcDbEntity
  8
0
  6
CONTINUOUS
100
AcDbLine
 10
36.21639478609585
 20
2.333145730758136
 30
0.0
 11
37.67199999996831
 21
3.788750944630588
 31
0.0
  0
LINE
  5
BEBA
330
BE9E
100
AcDbEntity
  8
0
  6
CONTINUOUS
100
AcDbLine
 10
34.34060583368432
 20
-0.2161624307335863
 30
0.0
 11
37.67199999996831
 21
3.115231735550401
 31
0.0
  0
LINE
  5
BEBB
330
BE9E
100
AcDbEntity
  8
0
  6
CONTINUOUS
100
AcDbLine
 10
35.01698193613905
 20
-0.2133055373590427
 30
0.0
 11
37.66876712070525
 21
2.438479647207154
 31
0.0
  0
LINE
  5
BEBC
330
BE9E
100
AcDbEntity
  8
0
  6
CONTINUOUS
100
AcDbLine
 10
35.90743367693304
 20
0.0036269943547609
 30
0.0
 11
37.51723902192366
 21
1.613432339345381
 31
0.0
  0
LINE
  5
BEBD
330
BE9E
100
AcDbEntity
  8
0
  6
CONTINUOUS
100
AcDbLine
 10
32.55309425579761
 20
0.5074718966376706
 30
0.0
 11
32.27784730925847
 21
0.7827188431768102
 31
0.0
  0
LINE
  5
BEBE
330
BE9E
100
AcDbEntity
  8
0
  6
CONTINUOUS
100
AcDbLine
 10
33.87496468909684
 20
-0.1408793275813673
 30
0.0
 11
31.67993083278052
 21
2.054154528734943
 31
0.0
  0
LINE
  5
BEBF
330
BE9E
100
AcDbEntity
  8
0
  6
CONTINUOUS
100
AcDbLine
 10
34.64362813207632
 20
-0.2360235614806649
 30
0.0
 11
31.64199999996833
 21
2.765604570627322
 31
0.0
  0
LINE
  5
BEC0
330
BE9E
100
AcDbEntity
  8
0
  6
CONTINUOUS
100
AcDbLine
 10
35.25801106796118
 20
-0.1768872882853429
 30
0.0
 11
31.64199999996833
 21
3.439123779707508
 31
0.0
  0
LINE
  5
BEC1
330
BE9E
100
AcDbEntity
  8
0
  6
CONTINUOUS
100
AcDbLine
 10
35.79065650332146
 20
-0.0360135145654361
 30
0.0
 11
34.54143210838231
 21
1.213210880373721
 31
0.0
  0
LINE
  5
BEC2
330
BE9E
100
AcDbEntity
  8
0
  6
CONTINUOUS
100
AcDbLine
 10
33.08199999996839
 20
2.67264298878764
 30
0.0
 11
31.64199999996833
 21
4.112642988787695
 31
0.0
  0
LINE
  5
BEC3
330
BE9E
100
AcDbEntity
  8
0
  6
CONTINUOUS
100
AcDbLine
 10
36.25975597779143
 20
0.1684062200447833
 30
0.0
 11
35.15395110240023
 21
1.274211095435983
 31
0.0
  0
LINE
  5
BEC4
330
BE9E
100
AcDbEntity
  8
0
  6
CONTINUOUS
100
AcDbLine
 10
33.08199999996839
 20
3.346162197867826
 30
0.0
 11
31.64199999996833
 21
4.786162197867881
 31
0.0
  0
LINE
  5
BEC5
330
BE9E
100
AcDbEntity
  8
0
  6
CONTINUOUS
100
AcDbLine
 10
36.67226329638774
 20
0.4294181105286579
 30
0.0
 11
35.63766478748767
 21
1.464016619428737
 31
0.0
  0
LINE
  5
BEC6
330
BE9E
100
AcDbEntity
  8
0
  6
CONTINUOUS
100
AcDbLine
 10
33.08199999996839
 20
4.019681406948012
 30
0.0
 11
31.64199999996833
 21
5.459681406948068
 31
0.0
  0
LINE
  5
BEC7
330
BE9E
100
AcDbEntity
  8
0
  6
CONTINUOUS
100
AcDbLine
 10
37.01677749710036
 20
0.7584231188962329
 30
0.0
 11
35.99563422741351
 21
1.779566388583076
 31
0.0
  0
LINE
  5
BEC8
330
BE9E
100
AcDbEntity
  8
0
  6
CONTINUOUS
100
AcDbLine
 10
33.08199999996839
 20
4.693200616028199
 30
0.0
 11
31.64199999996833
 21
6.133200616028255
 31
0.0
  0
LINE
  5
BEC9
330
BE9E
100
AcDbEntity
  8
0
  6
CONTINUOUS
100
AcDbLine
 10
37.29859977568887
 20
1.1501200493879
 30
0.0
 11
36.20680593341555
 21
2.241913891661226
 31
0.0
  0
LINE
  5
BECA
330
BE9E
100
AcDbEntity
  8
0
  6
CONTINUOUS
100
AcDbLine
 10
33.08199999996839
 20
5.366719825108386
 30
0.0
 11
31.64199999996833
 21
6.80671982510844
 31
0.0
  0
LINE
  5
BECB
330
BE9E
100
AcDbEntity
  8
0
  6
CONTINUOUS
100
AcDbLine
 10
37.5148623517228
 20
1.607376682434161
 30
0.0
 11
36.23199999996837
 21
2.890239034188594
 31
0.0
  0
LINE
  5
BECC
330
BE9E
100
AcDbEntity
  8
0
  6
CONTINUOUS
100
AcDbLine
 10
33.08199999996839
 20
6.040239034188573
 30
0.0
 11
31.64199999996833
 21
7.480239034188627
 31
0.0
  0
LINE
  5
BECD
330
BE9E
100
AcDbEntity
  8
0
  6
CONTINUOUS
100
AcDbLine
 10
37.64705163358367
 20
2.148706609653477
 30
0.0
 11
36.23199999996837
 21
3.56375824326878
 31
0.0
  0
LINE
  5
BECE
330
BE9E
100
AcDbEntity
  8
0
  6
CONTINUOUS
100
AcDbLine
 10
33.08199999996839
 20
6.713758243268758
 30
0.0
 11
31.64199999996833
 21
8.153758243268815
 31
0.0
  0
LINE
  5
BECF
330
BE9E
100
AcDbEntity
  8
0
  6
CONTINUOUS
100
AcDbLine
 10
37.67199999996831
 20
2.797277452349026
 30
0.0
 11
36.23199999996837
 21
4.237277452348967
 31
0.0
  0
LINE
  5
BED0
330
BE9E
100
AcDbEntity
  8
0
  6
CONTINUOUS
100
AcDbLine
 10
37.67199999996831
 20
3.470796661429213
 30
0.0
 11
36.23199999996837
 21
4.910796661429154
 31
0.0
  0
LINE
  5
BED1
330
BE9E
100
AcDbEntity
  8
0
  6
CONTINUOUS
100
AcDbLine
 10
37.67199999996831
 20
4.144315870509399
 30
0.0
 11
36.23199999996837
 21
5.58431587050934
 31
0.0
  0
LINE
  5
BED2
330
BE9E
100
AcDbEntity
  8
0
  6
CONTINUOUS
100
AcDbLine
 10
33.08199999996839
 20
7.387277452348945
 30
0.0
 11
31.70617745232608
 21
8.763099999991255
 31
0.0
  0
LINE
  5
BED3
330
BE9E
100
AcDbEntity
  8
0
  6
CONTINUOUS
100
AcDbLine
 10
33.08199999996839
 20
8.060796661429132
 30
0.0
 11
32.37969666140626
 21
8.763099999991255
 31
0.0
  0
LINE
  5
BED4
330
BE9E
100
AcDbEntity
  8
0
  6
CONTINUOUS
100
AcDbLine
 10
33.08199999996839
 20
8.734315870509318
 30
0.0
 11
33.05321587048645
 21
8.763099999991255
 31
0.0
  0
LINE
  5
BED5
330
BE9E
100
AcDbEntity
  8
0
  6
CONTINUOUS
100
AcDbLine
 10
37.67199999996831
 20
4.817835079589585
 30
0.0
 11
36.23199999996837
 21
6.257835079589526
 31
0.0
  0
LINE
  5
BED6
330
BE9E
100
AcDbEntity
  8
0
  6
CONTINUOUS
100
AcDbLine
 10
37.67199999996831
 20
5.491354288669771
 30
0.0
 11
36.23199999996837
 21
6.931354288669713
 31
0.0
  0
LINE
  5
BED7
330
BE9E
100
AcDbEntity
  8
0
  6
CONTINUOUS
100
AcDbLine
 10
37.67199999996831
 20
6.164873497749958
 30
0.0
 11
36.23199999996837
 21
7.6048734977499
 31
0.0
  0
LINE
  5
BED8
330
BE9E
100
AcDbEntity
  8
0
  6
CONTINUOUS
100
AcDbLine
 10
37.67199999996831
 20
6.838392706830144
 30
0.0
 11
36.23199999996837
 21
8.278392706830086
 31
0.0
  0
LINE
  5
BED9
330
BE9E
100
AcDbEntity
  8
0
  6
CONTINUOUS
100
AcDbLine
 10
37.67199999996831
 20
7.511911915910332
 30
0.0
 11
36.42081191588738
 21
8.763099999991255
 31
0.0
  0
LINE
  5
BEDA
330
BE9E
100
AcDbEntity
  8
0
  6
CONTINUOUS
100
AcDbLine
 10
37.67199999996831
 20
8.185431124990519
 30
0.0
 11
37.09433112496757
 21
8.763099999991255
 31
0.0
  0
ENDBLK
  5
BF42
330
BE9E
100
AcDbEntity
  8
0
100
AcDbBlockEnd
  0
BLOCK
  5
BF43
330
BEDB
100
AcDbEntity
  8
0
100
AcDbBlockBegin
  2
*X43
 70
     1
 10
0.0
 20
0.0
 30
0.0
  3
*X43
  1

  0
LINE
  5
BEDC
330
BEDB
100
AcDbEntity
  8
0
  6
CONTINUOUS
100
AcDbLine
 10
38.60499999996136
 20
8.762866199104765
 30
0.0
 11
38.71672554182345
 21
8.874591740966855
 31
0.0
  0
LINE
  5
BEDD
330
BEDB
100
AcDbEntity
  8
0
  6
CONTINUOUS
100
AcDbLine
 10
38.60499999996136
 20
8.089346990024577
 30
0.0
 11
39.03418785440363
 21
8.518534844466847
 31
0.0
  0
LINE
  5
BEDE
330
BEDB
100
AcDbEntity
  8
0
  6
CONTINUOUS
100
AcDbLine
 10
38.60499999996136
 20
7.41582778094439
 30
0.0
 11
39.35165016698382
 21
8.16247794796684
 31
0.0
  0
LINE
  5
BEDF
330
BEDB
100
AcDbEntity
  8
0
  6
CONTINUOUS
100
AcDbLine
 10
38.60499999996136
 20
6.742308571864204
 30
0.0
 11
39.66911247956399
 21
7.806421051466834
 31
0.0
  0
LINE
  5
BEE0
330
BEDB
100
AcDbEntity
  8
0
  6
CONTINUOUS
100
AcDbLine
 10
38.60499999996136
 20
6.068789362784018
 30
0.0
 11
39.98657479214418
 21
7.450364154966827
 31
0.0
  0
LINE
  5
BEE1
330
BEDB
100
AcDbEntity
  8
0
  6
CONTINUOUS
100
AcDbLine
 10
38.60499999996136
 20
5.395270153703832
 30
0.0
 11
40.30403710472435
 21
7.09430725846682
 31
0.0
  0
LINE
  5
BEE2
330
BEDB
100
AcDbEntity
  8
0
  6
CONTINUOUS
100
AcDbLine
 10
38.60499999996136
 20
4.721750944623645
 30
0.0
 11
40.62149941730453
 21
6.738250361966813
 31
0.0
  0
LINE
  5
BEE3
330
BEDB
100
AcDbEntity
  8
0
  6
CONTINUOUS
100
AcDbLine
 10
38.60499999996136
 20
4.048231735543458
 30
0.0
 11
40.93896172988471
 21
6.382193465466806
 31
0.0
  0
LINE
  5
BEE4
330
BEDB
100
AcDbEntity
  8
0
  6
CONTINUOUS
100
AcDbLine
 10
38.60499999996136
 20
3.374712526463272
 30
0.0
 11
40.02599999995994
 21
4.795712526461843
 31
0.0
  0
LINE
  5
BEE5
330
BEDB
100
AcDbEntity
  8
0
  6
CONTINUOUS
100
AcDbLine
 10
38.60499999996136
 20
2.701193317383085
 30
0.0
 11
40.02599999995994
 21
4.122193317381657
 31
0.0
  0
LINE
  5
BEE6
330
BEDB
100
AcDbEntity
  8
0
  6
CONTINUOUS
100
AcDbLine
 10
40.28339754687704
 20
5.053110073378947
 30
0.0
 11
41.25642404246489
 21
6.026136568966799
 31
0.0
  0
LINE
  5
BEE7
330
BEDB
100
AcDbEntity
  8
0
  6
CONTINUOUS
100
AcDbLine
 10
40.60085985945722
 20
4.697053176878939
 30
0.0
 11
41.57388635504507
 21
5.670079672466793
 31
0.0
  0
LINE
  5
BEE8
330
BEDB
100
AcDbEntity
  8
0
  6
CONTINUOUS
100
AcDbLine
 10
43.57899999995641
 20
8.348712526458318
 30
0.0
 11
43.99338747348935
 21
8.763099999991255
 31
0.0
  0
LINE
  5
BEE9
330
BEDB
100
AcDbEntity
  8
0
  6
CONTINUOUS
100
AcDbLine
 10
43.57899999995641
 20
7.675193317378131
 30
0.0
 11
44.66690668256953
 21
8.763099999991255
 31
0.0
  0
LINE
  5
BEEA
330
BEDB
100
AcDbEntity
  8
0
  6
CONTINUOUS
100
AcDbLine
 10
38.60499999996136
 20
2.027674108302898
 30
0.0
 11
40.02599999995994
 21
3.44867410830147
 31
0.0
  0
LINE
  5
BEEB
330
BEDB
100
AcDbEntity
  8
0
  6
CONTINUOUS
100
AcDbLine
 10
38.60499999996136
 20
1.354154899222712
 30
0.0
 11
40.02599999995994
 21
2.775154899221284
 31
0.0
  0
LINE
  5
BEEC
330
BEDB
100
AcDbEntity
  8
0
  6
CONTINUOUS
100
AcDbLine
 10
38.60499999996136
 20
0.6806356901425255
 30
0.0
 11
40.02599999995994
 21
2.101635690141098
 31
0.0
  0
LINE
  5
BEED
330
BEDB
100
AcDbEntity
  8
0
  6
CONTINUOUS
100
AcDbLine
 10
38.60499999996136
 20
0.0071164810623383
 30
0.0
 11
40.02599999995994
 21
1.428116481060911
 31
0.0
  0
LINE
  5
BEEE
330
BEDB
100
AcDbEntity
  8
0
  6
CONTINUOUS
100
AcDbLine
 10
40.9183221720374
 20
4.340996280378933
 30
0.0
 11
41.89134866762525
 21
5.314022775966786
 31
0.0
  0
LINE
  5
BEEF
330
BEDB
100
AcDbEntity
  8
0
  6
CONTINUOUS
100
AcDbLine
 10
41.23578448461758
 20
3.984939383878926
 30
0.0
 11
42.20881098020543
 21
4.957965879466778
 31
0.0
  0
LINE
  5
BEF0
330
BEDB
100
AcDbEntity
  8
0
  6
CONTINUOUS
100
AcDbLine
 10
41.55324679719776
 20
3.628882487378919
 30
0.0
 11
42.52627329278561
 21
4.601908982966772
 31
0.0
  0
LINE
  5
BEF1
330
BEDB
100
AcDbEntity
  8
0
  6
CONTINUOUS
100
AcDbLine
 10
41.87070910977793
 20
3.272825590878912
 30
0.0
 11
42.84373560536579
 21
4.245852086466765
 31
0.0
  0
LINE
  5
BEF2
330
BEDB
100
AcDbEntity
  8
0
  6
CONTINUOUS
100
AcDbLine
 10
43.57899999995641
 20
7.001674108297943
 30
0.0
 11
44.99999999995498
 21
8.422674108296516
 31
0.0
  0
LINE
  5
BEF3
330
BEDB
100
AcDbEntity
  8
0
  6
CONTINUOUS
100
AcDbLine
 10
43.57899999995641
 20
6.328154899217758
 30
0.0
 11
44.99999999995498
 21
7.749154899216329
 31
0.0
  0
LINE
  5
BEF4
330
BEDB
100
AcDbEntity
  8
0
  6
CONTINUOUS
100
AcDbLine
 10
43.57899999995641
 20
5.654635690137571
 30
0.0
 11
44.99999999995498
 21
7.075635690136142
 31
0.0
  0
LINE
  5
BEF5
330
BEDB
100
AcDbEntity
  8
0
  6
CONTINUOUS
100
AcDbLine
 10
43.57899999995641
 20
4.981116481057384
 30
0.0
 11
44.99999999995498
 21
6.402116481055955
 31
0.0
  0
LINE
  5
BEF6
330
BEDB
100
AcDbEntity
  8
0
  6
CONTINUOUS
100
AcDbLine
 10
39.27140272797921
 20
-0.0000000000000009
 30
0.0
 11
40.02599999995994
 21
0.7545972719807246
 31
0.0
  0
LINE
  5
BEF7
330
BEDB
100
AcDbEntity
  8
0
  6
CONTINUOUS
100
AcDbLine
 10
39.9449219370594
 20
-0.0000000000000009
 30
0.0
 11
40.02599999995994
 21
0.0810780629005379
 31
0.0
  0
LINE
  5
BEF8
330
BEDB
100
AcDbEntity
  8
0
  6
CONTINUOUS
100
AcDbLine
 10
42.18817142235812
 20
2.916768694378905
 30
0.0
 11
43.16119791794597
 21
3.889795189966758
 31
0.0
  0
LINE
  5
BEF9
330
BEDB
100
AcDbEntity
  8
0
  6
CONTINUOUS
100
AcDbLine
 10
42.50563373493829
 20
2.560711797878898
 30
0.0
 11
43.47866023052615
 21
3.533738293466751
 31
0.0
  0
LINE
  5
BEFA
330
BEDB
100
AcDbEntity
  8
0
  6
CONTINUOUS
100
AcDbLine
 10
43.57899999995641
 20
4.307597271977198
 30
0.0
 11
44.99999999995498
 21
5.728597271975769
 31
0.0
  0
LINE
  5
BEFB
330
BEDB
100
AcDbEntity
  8
0
  6
CONTINUOUS
100
AcDbLine
 10
43.57899999995641
 20
3.634078062897011
 30
0.0
 11
44.99999999995498
 21
5.055078062895582
 31
0.0
  0
LINE
  5
BEFC
330
BEDB
100
AcDbEntity
  8
0
  6
CONTINUOUS
100
AcDbLine
 10
42.82309604751848
 20
2.204654901378891
 30
0.0
 11
44.99999999995498
 21
4.381558853815395
 31
0.0
  0
LINE
  5
BEFD
330
BEDB
100
AcDbEntity
  8
0
  6
CONTINUOUS
100
AcDbLine
 10
43.14055836009865
 20
1.848598004878885
 30
0.0
 11
44.99999999995498
 21
3.70803964473521
 31
0.0
  0
LINE
  5
BEFE
330
BEDB
100
AcDbEntity
  8
0
  6
CONTINUOUS
100
AcDbLine
 10
43.45802067267883
 20
1.492541108378878
 30
0.0
 11
44.99999999995498
 21
3.034520435655023
 31
0.0
  0
LINE
  5
BEFF
330
BEDB
100
AcDbEntity
  8
0
  6
CONTINUOUS
100
AcDbLine
 10
43.77548298525902
 20
1.136484211878871
 30
0.0
 11
44.99999999995498
 21
2.361001226574837
 31
0.0
  0
LINE
  5
BF00
330
BEDB
100
AcDbEntity
  8
0
  6
CONTINUOUS
100
AcDbLine
 10
44.09294529783919
 20
0.7804273153788639
 30
0.0
 11
44.99999999995498
 21
1.687482017494649
 31
0.0
  0
LINE
  5
BF01
330
BEDB
100
AcDbEntity
  8
0
  6
CONTINUOUS
100
AcDbLine
 10
44.41040761041938
 20
0.4243704188788566
 30
0.0
 11
44.99999999995498
 21
1.013962808414463
 31
0.0
  0
LINE
  5
BF02
330
BEDB
100
AcDbEntity
  8
0
  6
CONTINUOUS
100
AcDbLine
 10
44.72786992299955
 20
0.0683135223788494
 30
0.0
 11
44.99999999995498
 21
0.340443599334276
 31
0.0
  0
LINE
  5
BF03
330
BEDB
100
AcDbEntity
  8
0
  6
CONTINUOUS
100
AcDbLine
 10
39.12223903415696
 20
-0.0000000000000009
 30
0.0
 11
38.60499999996136
 21
0.5172390341955961
 31
0.0
  0
LINE
  5
BF04
330
BEDB
100
AcDbEntity
  8
0
  6
CONTINUOUS
100
AcDbLine
 10
39.79575824323715
 20
-0.0000000000000009
 30
0.0
 11
38.60499999996136
 21
1.190758243275783
 31
0.0
  0
LINE
  5
BF05
330
BEDB
100
AcDbEntity
  8
0
  6
CONTINUOUS
100
AcDbLine
 10
40.02599999995994
 20
0.443277452357397
 30
0.0
 11
38.60499999996136
 21
1.864277452355969
 31
0.0
  0
LINE
  5
BF06
330
BEDB
100
AcDbEntity
  8
0
  6
CONTINUOUS
100
AcDbLine
 10
40.02599999995994
 20
1.116796661437583
 30
0.0
 11
38.60499999996136
 21
2.537796661436155
 31
0.0
  0
LINE
  5
BF07
330
BEDB
100
AcDbEntity
  8
0
  6
CONTINUOUS
100
AcDbLine
 10
40.02599999995994
 20
1.79031587051777
 30
0.0
 11
38.60499999996136
 21
3.211315870516341
 31
0.0
  0
LINE
  5
BF08
330
BEDB
100
AcDbEntity
  8
0
  6
CONTINUOUS
100
AcDbLine
 10
40.02599999995994
 20
2.463835079597956
 30
0.0
 11
38.60499999996136
 21
3.884835079596527
 31
0.0
  0
LINE
  5
BF09
330
BEDB
100
AcDbEntity
  8
0
  6
CONTINUOUS
100
AcDbLine
 10
40.02599999995994
 20
3.137354288678143
 30
0.0
 11
38.60499999996136
 21
4.558354288676714
 31
0.0
  0
LINE
  5
BF0A
330
BEDB
100
AcDbEntity
  8
0
  6
CONTINUOUS
100
AcDbLine
 10
40.02599999995994
 20
3.810873497758329
 30
0.0
 11
38.60499999996136
 21
5.2318734977569
 31
0.0
  0
LINE
  5
BF0B
330
BEDB
100
AcDbEntity
  8
0
  6
CONTINUOUS
100
AcDbLine
 10
40.02599999995994
 20
4.484392706838515
 30
0.0
 11
38.60499999996136
 21
5.905392706837086
 31
0.0
  0
LINE
  5
BF0C
330
BEDB
100
AcDbEntity
  8
0
  6
CONTINUOUS
100
AcDbLine
 10
44.99999999995498
 20
0.183911915923658
 30
0.0
 11
41.53858364506288
 21
3.64532827081576
 31
0.0
  0
LINE
  5
BF0D
330
BEDB
100
AcDbEntity
  8
0
  6
CONTINUOUS
100
AcDbLine
 10
40.02599999995994
 20
5.157911915918703
 30
0.0
 11
38.60499999996136
 21
6.578911915917274
 31
0.0
  0
LINE
  5
BF0E
330
BEDB
100
AcDbEntity
  8
0
  6
CONTINUOUS
100
AcDbLine
 10
44.99999999995498
 20
0.8574311250038447
 30
0.0
 11
38.60499999996136
 21
7.25243112499746
 31
0.0
  0
LINE
  5
BF0F
330
BEDB
100
AcDbEntity
  8
0
  6
CONTINUOUS
100
AcDbLine
 10
44.99999999995498
 20
1.530950334084031
 30
0.0
 11
38.60499999996136
 21
7.925950334077647
 31
0.0
  0
LINE
  5
BF10
330
BEDB
100
AcDbEntity
  8
0
  6
CONTINUOUS
100
AcDbLine
 10
44.99999999995498
 20
2.204469543164218
 30
0.0
 11
43.57899999995641
 21
3.625469543162789
 31
0.0
  0
LINE
  5
BF11
330
BEDB
100
AcDbEntity
  8
0
  6
CONTINUOUS
100
AcDbLine
 10
41.89876730984767
 20
5.305702233271528
 30
0.0
 11
38.60499999996136
 21
8.599469543157834
 31
0.0
  0
LINE
  5
BF12
330
BEDB
100
AcDbEntity
  8
0
  6
CONTINUOUS
100
AcDbLine
 10
44.99999999995498
 20
2.877988752244405
 30
0.0
 11
43.57899999995641
 21
4.298988752242975
 31
0.0
  0
LINE
  5
BF13
330
BEDB
100
AcDbEntity
  8
0
  6
CONTINUOUS
100
AcDbLine
 10
44.99999999995498
 20
3.551507961324591
 30
0.0
 11
43.57899999995641
 21
4.972507961323163
 31
0.0
  0
LINE
  5
BF14
330
BEDB
100
AcDbEntity
  8
0
  6
CONTINUOUS
100
AcDbLine
 10
44.99999999995498
 20
4.225027170404777
 30
0.0
 11
43.57899999995641
 21
5.646027170403348
 31
0.0
  0
LINE
  5
BF15
330
BEDB
100
AcDbEntity
  8
0
  6
CONTINUOUS
100
AcDbLine
 10
44.99999999995498
 20
4.898546379484964
 30
0.0
 11
43.57899999995641
 21
6.319546379483535
 31
0.0
  0
LINE
  5
BF16
330
BEDB
100
AcDbEntity
  8
0
  6
CONTINUOUS
100
AcDbLine
 10
44.99999999995498
 20
5.572065588565151
 30
0.0
 11
43.57899999995641
 21
6.993065588563722
 31
0.0
  0
LINE
  5
BF17
330
BEDB
100
AcDbEntity
  8
0
  6
CONTINUOUS
100
AcDbLine
 10
44.99999999995498
 20
6.245584797645336
 30
0.0
 11
43.57899999995641
 21
7.666584797643908
 31
0.0
  0
LINE
  5
BF18
330
BEDB
100
AcDbEntity
  8
0
  6
CONTINUOUS
100
AcDbLine
 10
44.99999999995498
 20
6.919104006725522
 30
0.0
 11
43.57899999995641
 21
8.340104006724093
 31
0.0
  0
LINE
  5
BF19
330
BEDB
100
AcDbEntity
  8
0
  6
CONTINUOUS
100
AcDbLine
 10
44.99999999995498
 20
7.592623215805709
 30
0.0
 11
43.82952321576943
 21
8.763099999991255
 31
0.0
  0
LINE
  5
BF1A
330
BEDB
100
AcDbEntity
  8
0
  6
CONTINUOUS
100
AcDbLine
 10
44.99999999995498
 20
8.266142424885896
 30
0.0
 11
44.50304242484962
 21
8.763099999991255
 31
0.0
  0
ENDBLK
  5
BF44
330
BEDB
100
AcDbEntity
  8
0
100
AcDbBlockEnd
  0
BLOCK
  5
BF45
330
BF1B
100
AcDbEntity
  8
0
100
AcDbBlockBegin
  2
*X44
 70
     1
 10
0.0
 20
0.0
 30
0.0
  3
*X44
  1

  0
LINE
  5
BF1C
330
BF1B
100
AcDbEntity
  8
0
  6
CONTINUOUS
100
AcDbLine
 10
0.0
 20
8.548461116714023
 30
0.0
 11
0.2146388832772324
 21
8.763099999991255
 31
0.0
  0
LINE
  5
BF1D
330
BF1B
100
AcDbEntity
  8
0
  6
CONTINUOUS
100
AcDbLine
 10
-0.0000000000000002
 20
7.874941907633837
 30
0.0
 11
0.8881580923574184
 21
8.763099999991255
 31
0.0
  0
LINE
  5
BF1E
330
BF1B
100
AcDbEntity
  8
0
  6
CONTINUOUS
100
AcDbLine
 10
0.0
 20
7.20142269855365
 30
0.0
 11
1.420999999998572
 21
8.622422698552223
 31
0.0
  0
LINE
  5
BF1F
330
BF1B
100
AcDbEntity
  8
0
  6
CONTINUOUS
100
AcDbLine
 10
-0.0000000000000001
 20
6.527903489473465
 30
0.0
 11
1.420999999998571
 21
7.948903489472036
 31
0.0
  0
LINE
  5
BF20
330
BF1B
100
AcDbEntity
  8
0
  6
CONTINUOUS
100
AcDbLine
 10
-0.0000000000000002
 20
5.854384280393278
 30
0.0
 11
1.420999999998571
 21
7.275384280391849
 31
0.0
  0
LINE
  5
BF21
330
BF1B
100
AcDbEntity
  8
0
  6
CONTINUOUS
100
AcDbLine
 10
-0.0000000000000002
 20
5.180865071313091
 30
0.0
 11
1.420999999998571
 21
6.601865071311663
 31
0.0
  0
LINE
  5
BF22
330
BF1B
100
AcDbEntity
  8
0
  6
CONTINUOUS
100
AcDbLine
 10
0.0
 20
4.507345862232905
 30
0.0
 11
1.420999999998571
 21
5.928345862231477
 31
0.0
  0
LINE
  5
BF23
330
BF1B
100
AcDbEntity
  8
0
  6
CONTINUOUS
100
AcDbLine
 10
-0.0000000000000003
 20
3.833826653152718
 30
0.0
 11
1.420999999998571
 21
5.25482665315129
 31
0.0
  0
LINE
  5
BF24
330
BF1B
100
AcDbEntity
  8
0
  6
CONTINUOUS
100
AcDbLine
 10
-0.0000000000000002
 20
3.160307444072532
 30
0.0
 11
1.420999999998571
 21
4.581307444071103
 31
0.0
  0
LINE
  5
BF25
330
BF1B
100
AcDbEntity
  8
0
  6
CONTINUOUS
100
AcDbLine
 10
-0.0000000000000001
 20
2.486788234992345
 30
0.0
 11
1.420999999998571
 21
3.907788234990917
 31
0.0
  0
LINE
  5
BF26
330
BF1B
100
AcDbEntity
  8
0
  6
CONTINUOUS
100
AcDbLine
 10
-0.0000000000000006
 20
1.813269025912159
 30
0.0
 11
1.420999999998571
 21
3.234269025910731
 31
0.0
  0
LINE
  5
BF27
330
BF1B
100
AcDbEntity
  8
0
  6
CONTINUOUS
100
AcDbLine
 10
0.0
 20
1.139749816831973
 30
0.0
 11
1.420999999998571
 21
2.560749816830544
 31
0.0
  0
LINE
  5
BF28
330
BF1B
100
AcDbEntity
  8
0
  6
CONTINUOUS
100
AcDbLine
 10
0.0000000000000002
 20
0.466230607751787
 30
0.0
 11
1.420999999998571
 21
1.887230607750358
 31
0.0
  0
LINE
  5
BF29
330
BF1B
100
AcDbEntity
  8
0
  6
CONTINUOUS
100
AcDbLine
 10
0.2072886013284003
 20
-0.0000000000000009
 30
0.0
 11
1.420999999998571
 21
1.213711398670171
 31
0.0
  0
LINE
  5
BF2A
330
BF1B
100
AcDbEntity
  8
0
  6
CONTINUOUS
100
AcDbLine
 10
0.8808078104085864
 20
-0.0000000000000009
 30
0.0
 11
1.420999999998571
 21
0.5401921895899839
 31
0.0
  0
LINE
  5
BF2B
330
BF1B
100
AcDbEntity
  8
0
  6
CONTINUOUS
100
AcDbLine
 10
0.0581249075061505
 20
-0.0000000000000009
 30
0.0
 11
-0.0000000000000002
 21
0.0581249075061496
 31
0.0
  0
LINE
  5
BF2C
330
BF1B
100
AcDbEntity
  8
0
  6
CONTINUOUS
100
AcDbLine
 10
0.7316441165863372
 20
-0.0000000000000009
 30
0.0
 11
-0.0000000000000002
 21
0.7316441165863363
 31
0.0
  0
LINE
  5
BF2D
330
BF1B
100
AcDbEntity
  8
0
  6
CONTINUOUS
100
AcDbLine
 10
1.405163325666523
 20
-0.0000000000000009
 30
0.0
 11
-0.0000000000000002
 21
1.405163325666523
 31
0.0
  0
LINE
  5
BF2E
330
BF1B
100
AcDbEntity
  8
0
  6
CONTINUOUS
100
AcDbLine
 10
1.420999999998572
 20
0.6576825347481381
 30
0.0
 11
-0.0000000000000001
 21
2.07868253474671
 31
0.0
  0
LINE
  5
BF2F
330
BF1B
100
AcDbEntity
  8
0
  6
CONTINUOUS
100
AcDbLine
 10
1.420999999998571
 20
1.331201743828324
 30
0.0
 11
-0.0000000000000001
 21
2.752201743826896
 31
0.0
  0
LINE
  5
BF30
330
BF1B
100
AcDbEntity
  8
0
  6
CONTINUOUS
100
AcDbLine
 10
1.420999999998571
 20
2.004720952908511
 30
0.0
 11
-0.0000000000000002
 21
3.425720952907082
 31
0.0
  0
LINE
  5
BF31
330
BF1B
100
AcDbEntity
  8
0
  6
CONTINUOUS
100
AcDbLine
 10
1.420999999998571
 20
2.678240161988697
 30
0.0
 11
-0.0000000000000001
 21
4.099240161987269
 31
0.0
  0
LINE
  5
BF32
330
BF1B
100
AcDbEntity
  8
0
  6
CONTINUOUS
100
AcDbLine
 10
1.420999999998572
 20
3.351759371068884
 30
0.0
 11
0.0
 21
4.772759371067455
 31
0.0
  0
LINE
  5
BF33
330
BF1B
100
AcDbEntity
  8
0
  6
CONTINUOUS
100
AcDbLine
 10
1.420999999998571
 20
4.02527858014907
 30
0.0
 11
-0.0000000000000003
 21
5.446278580147642
 31
0.0
  0
LINE
  5
BF34
330
BF1B
100
AcDbEntity
  8
0
  6
CONTINUOUS
100
AcDbLine
 10
1.420999999998571
 20
4.698797789229257
 30
0.0
 11
0.0
 21
6.119797789227828
 31
0.0
  0
LINE
  5
BF35
330
BF1B
100
AcDbEntity
  8
0
  6
CONTINUOUS
100
AcDbLine
 10
1.420999999998571
 20
5.372316998309444
 30
0.0
 11
-0.0000000000000001
 21
6.793316998308015
 31
0.0
  0
LINE
  5
BF36
330
BF1B
100
AcDbEntity
  8
0
  6
CONTINUOUS
100
AcDbLine
 10
1.420999999998572
 20
6.045836207389629
 30
0.0
 11
-0.0000000000000004
 21
7.466836207388202
 31
0.0
  0
LINE
  5
BF37
330
BF1B
100
AcDbEntity
  8
0
  6
CONTINUOUS
100
AcDbLine
 10
1.420999999998571
 20
6.719355416469816
 30
0.0
 11
0.0
 21
8.140355416468388
 31
0.0
  0
LINE
  5
BF38
330
BF1B
100
AcDbEntity
  8
0
  6
CONTINUOUS
100
AcDbLine
 10
1.420999999998571
 20
7.392874625550003
 30
0.0
 11
0.0507746255573185
 21
8.763099999991255
 31
0.0
  0
LINE
  5
BF39
330
BF1B
100
AcDbEntity
  8
0
  6
CONTINUOUS
100
AcDbLine
 10
1.420999999998571
 20
8.06639383463019
 30
0.0
 11
0.7242938346375052
 21
8.763099999991255
 31
0.0
  0
LINE
  5
BF3A
330
BF1B
100
AcDbEntity
  8
0
  6
CONTINUOUS
100
AcDbLine
 10
1.420999999998571
 20
8.739913043710375
 30
0.0
 11
1.397813043717691
 21
8.763099999991255
 31
0.0
  0
ENDBLK
  5
BF46
330
BF1B
100
AcDbEntity
  8
0
100
AcDbBlockEnd
  0
ENDSEC
  0
SECTION
  2
ENTITIES
  0
TEXT
  5
8D1E
330
18
100
AcDbEntity
  8
1TEXT
100
AcDbText
 10
739.1711367896315
 20
-776.3590959784777
 30
0.0
 40
4.0
  1
付属ねじ
100
AcDbText
  0
TEXT
  5
8FBC
330
18
100
AcDbEntity
  8
1TEXT
100
AcDbText
 10
461.4180680140553
 20
-607.0742101046737
 30
0.0
 40
8.0
  1
KLJ-3D-X
100
AcDbText
  0
LINE
  5
99A6
330
18
100
AcDbEntity
  8
01
100
AcDbLine
 10
604.9101621158263
 20
-647.6800167540066
 30
-0.0000000000562575
 11
644.9101621158263
 21
-647.6800167540059
 31
-0.0000000000562575
  0
LINE
  5
99A7
330
18
100
AcDbEntity
  8
01
100
AcDbLine
 10
644.4101621158264
 20
-653.9800167540063
 30
-0.0000000000562575
 11
605.4101621158266
 21
-653.9800167540068
 31
-0.0000000000562575
  0
CIRCLE
  5
99A8
330
18
100
AcDbEntity
  8
01
100
AcDbCircle
 10
624.9101495721607
 20
-723.1646288678893
 30
-0.0000000000562575
 40
19.99999999999963
  0
LINE
  5
99AB
330
18
100
AcDbEntity
  8
1CENTER
100
AcDbLine
 10
478.1813296544036
 20
-628.1376049980769
 30
-0.0000000000562575
 11
478.1813296544066
 21
-671.0624637816933
 31
-0.0000000000562575
  0
CIRCLE
  5
99B0
330
18
100
AcDbEntity
  8
01
100
AcDbCircle
 10
478.181329654403
 20
-723.1646288678891
 30
-0.0000000000562575
 40
20.00000000000007
  0
LINE
  5
99B1
330
18
100
AcDbEntity
  8
1CENTER
100
AcDbLine
 10
478.1813296544047
 20
-735.5370761408295
 30
-0.0000000000562575
 11
478.1813296544047
 21
-721.7921815949484
 31
-0.0000000000562575
  0
LINE
  5
99B5
330
18
100
AcDbEntity
  8
1CENTER
100
AcDbLine
 10
471.3088823814641
 20
-728.6646288678891
 30
-0.0000000000562575
 11
485.0537769273453
 21
-728.6646288678888
 31
-0.0000000000562575
  0
LINE
  5
99BF
330
18
100
AcDbEntity
  8
01
100
AcDbLine
 10
481.6813296543989
 20
-655.1800134208062
 30
-0.0000000000562403
 11
487.4313296544045
 21
-655.1800134208073
 31
-0.0000000000562403
  0
LINE
  5
99C0
330
18
100
AcDbEntity
  8
01
100
AcDbLine
 10
458.181341875612
 20
-647.6800167540065
 30
-0.0000000000562575
 11
498.1813418756121
 21
-647.6800167540059
 31
-0.0000000000562575
  0
LINE
  5
99C1
330
18
100
AcDbEntity
  8
01
100
AcDbLine
 10
497.6813418756121
 20
-653.9800167540064
 30
-0.0000000000562575
 11
458.6813418756122
 21
-653.9800167540067
 31
-0.0000000000562575
  0
LINE
  5
99C3
330
18
100
AcDbEntity
  8
01
100
AcDbLine
 10
480.6813296543971
 20
-668.6800363650128
 30
-0.0000000000562403
 11
480.6813296543989
 21
-656.1800134208062
 31
-0.0000000000562403
  0
LINE
  5
99C4
330
18
100
AcDbEntity
  8
01
100
AcDbLine
 10
475.6813296543971
 20
-668.680036365011
 30
-0.0000000000562403
 11
475.6813296543971
 21
-656.180013420808
 31
-0.0000000000562403
  0
ARC
  5
99C5
330
18
100
AcDbEntity
  8
01
100
AcDbCircle
 10
476.6813296543963
 20
-668.6800363650128
 30
-0.0000000000562403
 40
1.0
100
AcDbArc
 50
180.0000000000521
 51
270.0
  0
ARC
  5
99C6
330
18
100
AcDbEntity
  8
01
100
AcDbCircle
 10
479.6813296543963
 20
-668.6800363650128
 30
-0.0000000000562403
 40
1.0
100
AcDbArc
 50
270.0
 51
0.0
  0
LINE
  5
99C7
330
18
100
AcDbEntity
  8
01
100
AcDbLine
 10
476.6813296543971
 20
-669.6800363650146
 30
-0.0000000000562403
 11
479.6813296543962
 21
-669.6800363650146
 31
-0.0000000000562403
  0
LINE
  5
99C8
330
18
100
AcDbEntity
  8
01
100
AcDbLine
 10
468.9313296544054
 20
-655.1800134208081
 30
-0.0000000000562403
 11
474.6813296543971
 21
-655.180013420808
 31
-0.0000000000562403
  0
LINE
  5
99CA
330
18
100
AcDbEntity
  8
01
100
AcDbLine
 10
458.181341875612
 20
-647.6800167540065
 30
-0.0000000000562575
 11
458.1813418756122
 21
-653.4800167540067
 31
-0.0000000000562575
  0
ARC
  5
99CB
330
18
100
AcDbEntity
  8
01
100
AcDbCircle
 10
458.6813418756121
 20
-653.4800167540064
 30
-0.0000000000562575
 40
0.5
100
AcDbArc
 50
180.0
 51
270.0
  0
ARC
  5
99CF
330
18
100
AcDbEntity
  8
01
100
AcDbCircle
 10
474.6813296543963
 20
-656.180013420808
 30
-0.0000000000562403
 40
1.0
100
AcDbArc
 50
0.0
 51
90.0
  0
ARC
  5
99D0
330
18
100
AcDbEntity
  8
01
100
AcDbCircle
 10
481.6813296543981
 20
-656.1800134208062
 30
-0.0000000000562403
 40
1.0
100
AcDbArc
 50
89.99999999998697
 51
180.0
  0
LINE
  5
99E3
330
18
100
AcDbEntity
  8
01
100
AcDbLine
 10
498.1813418756121
 20
-647.6800167540059
 30
-0.0000000000562575
 11
498.1813418756121
 21
-653.4800167540064
 31
-0.0000000000562575
  0
LINE
  5
99E4
330
18
100
AcDbEntity
  8
01
100
AcDbLine
 10
487.9313296544047
 20
-654.6800134208077
 30
0.0000000000000173
 11
487.9313296544047
 21
-653.9800167540067
 31
-0.0000000000000049
  0
ARC
  5
99E5
330
18
100
AcDbEntity
  8
01
100
AcDbCircle
 10
487.4313296544046
 20
-654.6800134208077
 30
0.0000000000000173
 40
0.5
100
AcDbArc
 50
269.999999999987
 51
0.0
  0
ARC
  5
99E6
330
18
100
AcDbEntity
  8
01
100
AcDbCircle
 10
497.6813418756121
 20
-653.4800167540064
 30
-0.0000000000562575
 40
0.5
100
AcDbArc
 50
270.0
 51
0.0
  0
LINE
  5
99EA
330
18
100
AcDbEntity
  8
1CENTER
100
AcDbLine
 10
587.829437482104
 20
-728.6646288678891
 30
-0.0000000000562575
 11
559.5721480531294
 21
-728.6646288678891
 31
-0.0000000000562575
  0
LINE
  5
9A3A
330
18
100
AcDbEntity
  8
01
100
AcDbLine
 10
604.9101621158263
 20
-647.6800167540066
 30
-0.0000000000562575
 11
604.9101621158266
 21
-653.4800167540068
 31
-0.0000000000562575
  0
ARC
  5
9A3B
330
18
100
AcDbEntity
  8
01
100
AcDbCircle
 10
605.4101621158264
 20
-653.4800167540063
 30
-0.0000000000562575
 40
0.5
100
AcDbArc
 50
180.0
 51
270.0
  0
LINE
  5
9A42
330
18
100
AcDbEntity
  8
1CENTER
100
AcDbLine
 10
624.9101498946168
 20
-619.0818502522684
 30
-0.0000000000562575
 11
624.9101498946198
 21
-655.6442292180184
 31
-0.0000000000562575
  0
LINE
  5
9A48
330
18
100
AcDbEntity
  8
1CENTER
100
AcDbLine
 10
624.910150217079
 20
-771.571773463761
 30
-0.0000000000562575
 11
624.9101502170793
 21
-785.7574838637602
 31
-0.0000000000562575
  0
LINE
  5
9A49
330
18
100
AcDbEntity
  8
1CENTER
100
AcDbLine
 10
617.8172950170796
 20
-778.6646286637607
 30
-0.0000000000562575
 11
632.0030054170787
 21
-778.6646286637605
 31
-0.0000000000562575
  0
LINE
  5
9A4A
330
18
100
AcDbEntity
  8
1CENTER
100
AcDbLine
 10
624.9101498946192
 20
-747.3840494272414
 30
-0.0000000000562575
 11
624.9101498946192
 21
-699.8573209133034
 31
-0.0000000000562575
  0
CIRCLE
  5
9A4C
330
18
100
AcDbEntity
  8
01
100
AcDbCircle
 10
624.9101498946192
 20
-728.6646286637612
 30
-0.0000000000562575
 40
3.75
  0
CIRCLE
  5
9A4D
330
18
100
AcDbEntity
  8
01
100
AcDbCircle
 10
624.9101498946192
 20
-728.6646288678891
 30
-0.0000000000562575
 40
3.5000005
  0
LINE
  5
9A4E
330
18
100
AcDbEntity
  8
1CENTER
100
AcDbLine
 10
618.0796299202218
 20
-728.6646288678891
 30
-0.0000000000562575
 11
632.265340320221
 21
-728.6646288678891
 31
-0.0000000000562575
  0
LINE
  5
9A4F
330
18
100
AcDbEntity
  8
01
100
AcDbLine
 10
623.9101498946192
 20
-732.018731667889
 30
-0.0000000000562575
 11
623.9101498946192
 21
-725.3105248678891
 31
-0.0000000000562575
  0
LINE
  5
9A50
330
18
100
AcDbEntity
  8
01
100
AcDbLine
 10
625.9101498946192
 20
-732.018731667889
 30
-0.0000000000562575
 11
625.9101498946192
 21
-725.3105248678891
 31
-0.0000000000562575
  0
ARC
  5
9A55
330
18
100
AcDbEntity
  8
01
100
AcDbCircle
 10
624.9101525736808
 20
-649.8300221318816
 30
-0.0000000000563712
 40
6.0
100
AcDbArc
 50
234.3146660000045
 51
256.8165180000017
  0
LINE
  5
9A57
330
18
100
AcDbEntity
  8
01
100
AcDbLine
 10
621.4101525736806
 20
-654.7034221318818
 30
-0.0000000000563712
 11
621.4101525736801
 21
-653.7300167540063
 31
-0.0000000000563712
  0
LINE
  5
9A5F
330
18
100
AcDbEntity
  8
01
100
AcDbLine
 10
628.4101525736806
 20
-654.7034221318818
 30
-0.0000000000563712
 11
628.4101525736804
 21
-653.7300167540066
 31
-0.0000000000563712
  0
LINE
  5
9A60
330
18
100
AcDbEntity
  8
01
100
AcDbLine
 10
625.9101525736806
 20
-655.3805705912841
 30
-0.0000000000563712
 11
625.9101525736805
 21
-653.7300167540063
 31
-0.0000000000563712
  0
ARC
  5
9A61
330
18
100
AcDbEntity
  8
01
100
AcDbCircle
 10
623.6101495736809
 20
-655.3797921318817
 30
-0.0000000000563712
 40
0.30000001
100
AcDbArc
 50
256.8165180000017
 51
0.0
  0
ARC
  5
9A62
330
18
100
AcDbEntity
  8
01
100
AcDbCircle
 10
626.2101515736808
 20
-655.3797921318817
 30
-0.0000000000563712
 40
0.30000001
100
AcDbArc
 50
179.9999970000023
 51
283.1834799999945
  0
LINE
  5
9A63
330
18
100
AcDbEntity
  8
01
100
AcDbLine
 10
623.9101525736806
 20
-655.3797921318817
 30
-0.0000000000563712
 11
623.9101525736805
 21
-653.7300167540063
 31
-0.0000000000563712
  0
ARC
  5
9A64
330
18
100
AcDbEntity
  8
01
100
AcDbCircle
 10
624.9101525736808
 20
-649.8300221318816
 30
-0.0000000000563712
 40
6.0
100
AcDbArc
 50
283.1834825033616
 51
305.6853299999987
  0
LINE
  5
9A6E
330
18
100
AcDbEntity
  8
01
100
AcDbLine
 10
644.9101621158263
 20
-647.6800167540059
 30
-0.0000000000562575
 11
644.9101621158264
 21
-653.4800167540063
 31
-0.0000000000562575
  0
ARC
  5
9A6F
330
18
100
AcDbEntity
  8
01
100
AcDbCircle
 10
644.4101621158264
 20
-653.4800167540063
 30
-0.0000000000562575
 40
0.5
100
AcDbArc
 50
270.0
 51
0.0
  0
LINE
  5
9A80
330
18
100
AcDbEntity
  8
01
100
AcDbLine
 10
578.8441056411036
 20
-703.1646288678816
 30
0.0
 11
578.8441056410994
 21
-743.1646288678818
 31
0.0
  0
LINE
  5
9A81
330
18
100
AcDbEntity
  8
01
100
AcDbLine
 10
585.1441056411034
 20
-742.6646288678816
 30
0.0
 11
585.1441056411036
 21
-703.664628867882
 31
0.0
  0
LINE
  5
9A83
330
18
100
AcDbEntity
  8
01
100
AcDbLine
 10
578.8441056410994
 20
-743.1646288678818
 30
0.0
 11
584.6441056411036
 21
-743.1646288678816
 31
0.0
  0
LINE
  5
9A87
330
18
100
AcDbEntity
  8
01
100
AcDbLine
 10
580.344105641102
 20
-743.1646288678886
 30
0.0
 11
578.844105641102
 21
-743.1646288678886
 31
0.0
  0
ARC
  5
9A88
330
18
100
AcDbEntity
  8
01
100
AcDbCircle
 10
584.6441056411036
 20
-742.6646288678816
 30
0.0
 40
0.5
100
AcDbArc
 50
270.0
 51
0.0
  0
LINE
  5
9A89
330
18
100
AcDbEntity
  8
01
100
AcDbLine
 10
578.8441056411036
 20
-703.1646288678816
 30
0.0
 11
584.6441056411036
 21
-703.164628867882
 31
0.0
  0
ARC
  5
9A8B
330
18
100
AcDbEntity
  8
01
100
AcDbCircle
 10
584.6441056411036
 20
-703.664628867882
 30
0.0
 40
0.5
100
AcDbArc
 50
0.0
 51
90.0
  0
LINE
  5
9FCF
330
18
100
AcDbEntity
  8
01
100
AcDbLine
 10
532.5441056410943
 20
-742.6646288678818
 30
-0.0000000000562575
 11
532.5441056410942
 21
-703.6646288678822
 31
-0.0000000000562575
  0
LINE
  5
9FD0
330
18
100
AcDbEntity
  8
01
100
AcDbLine
 10
538.8441056410942
 20
-703.1646288678818
 30
-0.0000000000562575
 11
538.8441056410899
 21
-743.1646288678819
 31
-0.0000000000562575
  0
LINE
  5
9FD1
330
18
100
AcDbEntity
  8
01
100
AcDbLine
 10
538.8441056410899
 20
-743.1646288678819
 30
-0.0000000000562575
 11
533.0441056410942
 21
-743.1646288678818
 31
-0.0000000000562575
  0
ARC
  5
9FD2
330
18
100
AcDbEntity
  8
01
100
AcDbCircle
 10
533.0441056410942
 20
-742.6646288678818
 30
-0.0000000000562575
 40
0.5
100
AcDbArc
 50
180.0
 51
270.0
  0
LINE
  5
9FD3
330
18
100
AcDbEntity
  8
01
100
AcDbLine
 10
538.8441056410942
 20
-703.1646288678818
 30
-0.0000000000562575
 11
533.0441056410942
 21
-703.1646288678822
 31
-0.0000000000562575
  0
ARC
  5
9FD4
330
18
100
AcDbEntity
  8
01
100
AcDbCircle
 10
533.0441056410942
 20
-703.6646288678822
 30
-0.0000000000562575
 40
0.5
100
AcDbArc
 50
90.0
 51
180.0
  0
LINE
  5
9FE2
330
18
100
AcDbEntity
  8
01
100
AcDbLine
 10
537.3441056410958
 20
-743.1646288678886
 30
-0.0000000000562575
 11
538.8441056410958
 21
-743.1646288678886
 31
-0.0000000000562575
  0
LINE
  5
9FE6
330
18
100
AcDbEntity
  8
1CENTER
100
AcDbLine
 10
543.8441056410915
 20
-728.6646288678891
 30
-0.0000000000562575
 11
533.8441056410915
 21
-728.6646288678891
 31
-0.0000000000562575
  0
SPLINE
  5
9FFC
330
18
100
AcDbEntity
  8
01
100
AcDbSpline
210
0.0
220
0.0
230
1.0
 70
    24
 71
     1
 72
     4
 73
     2
 74
     0
 42
0.0000000001
 43
0.0000000001
 40
0.1160848018737504
 40
0.1160848018737504
 40
1.0
 40
1.0
 10
532.5441056410942
 20
-738.4146288678891
 30
-0.0000000000562575
 10
517.844080830082
 20
-738.4146288678891
 30
-0.0000000000562575
  0
SPLINE
  5
9FFD
330
18
100
AcDbEntity
  8
01
100
AcDbSpline
210
0.0
220
0.0
230
1.0
 70
    24
 71
     1
 72
     4
 73
     2
 74
     0
 42
0.0000000001
 43
0.0000000001
 40
0.0
 40
0.0
 40
0.8839151981262495
 40
0.8839151981262495
 10
517.844080830082
 20
-718.9146288678891
 30
-0.0000000000562575
 10
532.5441056410941
 20
-718.9146288678891
 30
-0.0000000000562575
  0
ARC
  5
9FFE
330
18
100
AcDbEntity
  8
01
100
AcDbCircle
 10
517.844080830082
 20
-737.4146288678891
 30
-0.0000000000562575
 40
1.0
100
AcDbArc
 50
180.0
 51
270.0
  0
ARC
  5
9FFF
330
18
100
AcDbEntity
  8
01
100
AcDbCircle
 10
517.844080830082
 20
-719.9146288678891
 30
-0.0000000000562575
 40
1.0
100
AcDbArc
 50
90.0
 51
180.0
  0
LINE
  5
A000
330
18
100
AcDbEntity
  8
01
100
AcDbLine
 10
531.344080830082
 20
-720.1023569731173
 30
-0.0000000000562575
 11
531.344080830082
 21
-737.2269007626609
 31
-0.0000000000562575
  0
SPLINE
  5
A001
330
18
100
AcDbEntity
  8
01
100
AcDbSpline
210
0.0
220
0.0
230
1.0
 70
     8
 71
     3
 72
    14
 73
    10
 74
     0
 42
0.0000000001
 43
0.0000000001
 40
0.0
 40
0.0
 40
0.0
 40
0.0
 40
0.25
 40
0.25
 40
0.5
 40
0.5
 40
0.75
 40
0.75
 40
1.0
 40
1.0
 40
1.0
 40
1.0
 10
530.344080830082
 20
-719.6334329337949
 30
-0.0000000000562575
 10
530.484048507835
 20
-719.6334329337949
 30
-0.0000000000562575
 10
530.6224697819807
 20
-719.6430688891016
 30
-0.0000000000562575
 10
530.8725201219352
 20
-719.6821497980433
 30
-0.0000000000562575
 10
530.9848376847642
 20
-719.711955932917
 30
-0.0000000000562575
 10
531.1658850558512
 20
-719.7928756697011
 30
-0.0000000000562575
 10
531.2336856921551
 20
-719.8432652058925
 30
-0.0000000000562575
 10
531.3233046086982
 20
-719.9626347949074
 30
-0.0000000000562575
 10
531.344080830082
 20
-720.0294342456187
 30
-0.0000000000562575
 10
531.344080830082
 20
-720.1023569731173
 30
-0.0000000000562575
  0
SPLINE
  5
A002
330
18
100
AcDbEntity
  8
01
100
AcDbSpline
210
0.0
220
0.0
230
1.0
 70
     8
 71
     3
 72
    14
 73
    10
 74
     0
 42
0.0000000001
 43
0.0000000001
 40
0.0
 40
0.0
 40
0.0
 40
0.0
 40
0.25
 40
0.25
 40
0.5
 40
0.5
 40
0.75
 40
0.75
 40
1.0
 40
1.0
 40
1.0
 40
1.0
 10
531.344080830082
 20
-737.2269007626609
 30
-0.0000000000562575
 10
531.344080830082
 20
-737.2998174497953
 30
-0.0000000000562575
 10
531.3227204228215
 20
-737.3676021456563
 30
-0.0000000000562575
 10
531.2335812311455
 20
-737.4859290196199
 30
-0.0000000000562575
 10
531.1646486009913
 20
-737.537041874388
 30
-0.0000000000562575
 10
530.9846011606244
 20
-737.6172994665418
 30
-0.0000000000562575
 10
530.871895487129
 20
-737.6472622862484
 30
-0.0000000000562575
 10
530.6213248735103
 20
-737.6863106617824
 30
-0.0000000000562575
 10
530.4839387241917
 20
-737.6958248019833
 30
-0.0000000000562575
 10
530.344080830082
 20
-737.6958248019833
 30
-0.0000000000562575
  0
LINE
  5
A003
330
18
100
AcDbEntity
  8
01
100
AcDbLine
 10
530.344080830082
 20
-737.6958248019833
 30
-0.0000000000562575
 11
517.844080830082
 21
-737.6958248019833
 31
-0.0000000000562575
  0
LINE
  5
A004
330
18
100
AcDbEntity
  8
01
100
AcDbLine
 10
517.844080830082
 20
-719.6334329337949
 30
-0.0000000000562575
 11
530.344080830082
 21
-719.6334329337949
 31
-0.0000000000562575
  0
SPLINE
  5
A005
330
18
100
AcDbEntity
  8
01
100
AcDbSpline
210
0.0
220
0.0
230
1.0
 70
     8
 71
     3
 72
    14
 73
    10
 74
     0
 42
0.0000000001
 43
0.0000000001
 40
0.0
 40
0.0
 40
0.0
 40
0.0
 40
0.2500000000000001
 40
0.2500000000000001
 40
0.5000000000000002
 40
0.5000000000000002
 40
0.7500000000000003
 40
0.7500000000000003
 40
1.0
 40
1.0
 40
1.0
 40
1.0
 10
517.844080830082
 20
-719.6334329337949
 30
-0.0000000000562575
 10
517.7068719151546
 20
-719.6334329337949
 30
-0.0000000000562575
 10
517.5718683696424
 20
-719.64480774389
 30
-0.0000000000562575
 10
517.3245319109893
 20
-719.6877626112104
 30
-0.0000000000562575
 10
517.2140304816248
 20
-719.7190069383149
 30
-0.0000000000562575
 10
517.0318368080964
 20
-719.796192455706
 30
-0.0000000000562575
 10
516.9628437057117
 20
-719.8405330709655
 30
-0.0000000000562575
 10
516.8680761672254
 20
-719.9385147223438
 30
-0.0000000000562575
 10
516.844080830082
 20
-719.9910081453605
 30
-0.0000000000562575
 10
516.844080830082
 20
-720.0441590431058
 30
-0.0000000000562575
  0
SPLINE
  5
A006
330
18
100
AcDbEntity
  8
01
100
AcDbSpline
210
0.0
220
0.0
230
1.0
 70
     8
 71
     3
 72
    14
 73
    10
 74
     0
 42
0.0000000001
 43
0.0000000001
 40
0.0
 40
0.0
 40
0.0
 40
0.0
 40
0.2500000000000001
 40
0.2500000000000001
 40
0.5000000000000002
 40
0.5000000000000002
 40
0.7500000000000003
 40
0.7500000000000003
 40
1.0
 40
1.0
 40
1.0
 40
1.0
 10
517.844080830082
 20
-737.6958248019833
 30
-0.0000000000562575
 10
517.7068719151546
 20
-737.6958248019833
 30
-0.0000000000562575
 10
517.5718683696424
 20
-737.6844499918881
 30
-0.0000000000562575
 10
517.3245319109893
 20
-737.6414951245678
 30
-0.0000000000562575
 10
517.2140304816248
 20
-737.6102507974632
 30
-0.0000000000562575
 10
517.0318368080964
 20
-737.5330652800722
 30
-0.0000000000562575
 10
516.9628437057117
 20
-737.4887246648126
 30
-0.0000000000562575
 10
516.8680761672254
 20
-737.3907430134343
 30
-0.0000000000562575
 10
516.844080830082
 20
-737.3382495904177
 30
-0.0000000000562575
 10
516.844080830082
 20
-737.2850986926725
 30
-0.0000000000562575
  0
LINE
  5
A007
330
18
100
AcDbEntity
  8
01
100
AcDbLine
 10
516.844080830082
 20
-720.0441590431058
 30
-0.0000000000562575
 11
516.844080830082
 21
-737.2850986926725
 31
-0.0000000000562575
  0
LINE
  5
A008
330
18
100
AcDbEntity
  8
01
100
AcDbLine
 10
516.844080830082
 20
-737.2850986926725
 30
-0.0000000000562575
 11
516.844080830082
 21
-737.4146288678891
 31
-0.0000000000562575
  0
ARC
  5
A084
330
18
100
AcDbEntity
  8
01
100
AcDbCircle
 10
480.1813296544047
 20
-719.6334329337948
 30
-0.0000000000562575
 40
0.5000000000000013
100
AcDbArc
 50
0.0
 51
77.51311018584555
  0
ARC
  5
A085
330
18
100
AcDbEntity
  8
01
100
AcDbCircle
 10
476.1813296544047
 20
-737.6958248019832
 30
-0.0000000000562575
 40
0.5000000000000029
100
AcDbArc
 50
180.0
 51
257.5131101858392
  0
ARC
  5
A086
330
18
100
AcDbEntity
  8
01
100
AcDbCircle
 10
480.1813296544047
 20
-737.6958248019832
 30
-0.0000000000562575
 40
0.5000000000000013
100
AcDbArc
 50
282.4868898141544
 51
0.0
  0
ARC
  5
A087
330
18
100
AcDbEntity
  8
01
100
AcDbCircle
 10
478.1813296544047
 20
-728.664628867889
 30
-0.0000000000562575
 40
9.749999999999995
100
AcDbArc
 50
77.51311018584555
 51
102.4868898141545
  0
ARC
  5
A088
330
18
100
AcDbEntity
  8
01
100
AcDbCircle
 10
476.1813296544047
 20
-719.6334329337948
 30
-0.0000000000562575
 40
0.5000000000000029
100
AcDbArc
 50
102.4868898141545
 51
180.0
  0
ARC
  5
A089
330
18
100
AcDbEntity
  8
01
100
AcDbCircle
 10
478.1813296544047
 20
-728.664628867889
 30
-0.0000000000562575
 40
9.75
100
AcDbArc
 50
257.5131101858456
 51
282.4868898141544
  0
LINE
  5
A08A
330
18
100
AcDbEntity
  8
01
100
AcDbLine
 10
480.6813296544047
 20
-719.6334329337948
 30
-0.0000000000562575
 11
480.6813296544047
 21
-737.6958248019832
 31
-0.0000000000562575
  0
LINE
  5
A08B
330
18
100
AcDbEntity
  8
01
100
AcDbLine
 10
475.6813296544047
 20
-737.6958248019832
 30
-0.0000000000562575
 11
475.6813296544047
 21
-719.6334329337948
 31
-0.0000000000562575
  0
SPLINE
  5
A08C
330
18
100
AcDbEntity
  8
01
100
AcDbSpline
210
0.0
220
0.0
230
1.0
 70
     8
 71
     3
 72
    18
 73
    14
 74
     0
 42
0.0000000001
 43
0.0000000001
 40
0.0
 40
0.0
 40
0.0
 40
0.0
 40
0.2500000000000002
 40
0.2500000000000002
 40
0.375
 40
0.375
 40
0.4999999999999998
 40
0.4999999999999998
 40
0.6249999999999996
 40
0.6249999999999996
 40
0.7499999999999993
 40
0.7499999999999993
 40
1.0
 40
1.0
 40
1.0
 40
1.0
 10
481.8705188435939
 20
-737.6897262704864
 30
-0.0000000000562575
 10
481.6772577863176
 20
-737.7687255955229
 30
-0.0000000000562575
 10
481.4849361745902
 20
-737.8399931300926
 30
-0.0000000000562575
 10
481.2056107161305
 20
-737.9342502412661
 30
-0.0000000000562575
 10
481.1161175736221
 20
-737.9628834664538
 30
-0.0000000000562575
 10
480.9448403658305
 20
-738.0152185422545
 30
-0.0000000000562575
 10
480.8621909526606
 20
-738.0391507071752
 30
-0.0000000000562575
 10
480.7107178132199
 20
-738.0811501235219
 30
-0.0000000000562575
 10
480.6420462422637
 20
-738.0992119910812
 30
-0.0000000000562575
 10
480.5196782680034
 20
-738.1302831292419
 30
-0.0000000000562575
 10
480.4658380313868
 20
-738.1433146618488
 30
-0.0000000000562575
 10
480.3364837441563
 20
-738.1738697666093
 30
-0.0000000000562575
 10
480.2894377625128
 20
-738.1839975551775
 30
-0.0000000000562575
 10
480.2894377625128
 20
-738.1839975551775
 30
-0.0000000000562575
  0
SPLINE
  5
A08D
330
18
100
AcDbEntity
  8
01
100
AcDbSpline
210
0.0
220
0.0
230
1.0
 70
     8
 71
     3
 72
    18
 73
    14
 74
     0
 42
0.0000000001
 43
0.0000000001
 40
0.0
 40
0.0
 40
0.0
 40
0.0
 40
0.2500000000000002
 40
0.2500000000000002
 40
0.3750000000000002
 40
0.3750000000000002
 40
0.5000000000000002
 40
0.5000000000000002
 40
0.6250000000000002
 40
0.6250000000000002
 40
0.7500000000000001
 40
0.7500000000000001
 40
1.0
 40
1.0
 40
1.0
 40
1.0
 10
474.4921404652155
 20
-719.6395314652916
 30
-0.0000000000562575
 10
474.6854015224918
 20
-719.560532140255
 30
-0.0000000000562575
 10
474.8777231342191
 20
-719.4892646056855
 30
-0.0000000000562575
 10
475.1570485926788
 20
-719.3950074945119
 30
-0.0000000000562575
 10
475.2465417351871
 20
-719.3663742693242
 30
-0.0000000000562575
 10
475.4178189429787
 20
-719.3140391935235
 30
-0.0000000000562575
 10
475.5004683561488
 20
-719.2901070286028
 30
-0.0000000000562575
 10
475.6519414955895
 20
-719.2481076122563
 30
-0.0000000000562575
 10
475.7206130665457
 20
-719.2300457446968
 30
-0.0000000000562575
 10
475.8429810408059
 20
-719.198974606536
 30
-0.0000000000562575
 10
475.8968212774226
 20
-719.1859430739291
 30
-0.0000000000562575
 10
476.0261755646531
 20
-719.1553879691687
 30
-0.0000000000562575
 10
476.0732215462966
 20
-719.1452601806005
 30
-0.0000000000562575
 10
476.0732215462966
 20
-719.1452601806005
 30
-0.0000000000562575
  0
SPLINE
  5
A08E
330
18
100
AcDbEntity
  8
01
100
AcDbSpline
210
0.0
220
0.0
230
1.0
 70
     8
 71
     3
 72
    16
 73
    12
 74
     0
 42
0.0000000001
 43
0.0000000001
 40
0.0
 40
0.0
 40
0.0
 40
0.0
 40
0.1249999999999998
 40
0.1249999999999998
 40
0.2499999999999997
 40
0.2499999999999997
 40
0.4999999999999998
 40
0.4999999999999998
 40
0.7499999999999999
 40
0.7499999999999999
 40
1.0
 40
1.0
 40
1.0
 40
1.0
 10
476.0732215462966
 20
-738.1839975551775
 30
-0.0000000000562575
 10
476.0732215462966
 20
-738.1839975551775
 30
-0.0000000000562575
 10
476.0618060241699
 20
-738.1814895991865
 30
-0.0000000000562575
 10
476.017372967829
 20
-738.1714848180263
 30
-0.0000000000562575
 10
475.9836773672754
 20
-738.1638281529767
 30
-0.0000000000562575
 10
475.854330045814
 20
-738.1332836484441
 30
-0.0000000000562575
 10
475.7278741655071
 20
-738.1021834946672
 30
-0.0000000000562575
 10
475.4269279645114
 20
-738.0187804862956
 30
-0.0000000000562575
 10
475.250134529744
 20
-737.965631556773
 30
-0.0000000000562575
 10
474.8804382577411
 20
-737.8409392301694
 30
-0.0000000000562575
 10
474.6853670995063
 20
-737.7687115244388
 30
-0.0000000000562575
 10
474.4921404652155
 20
-737.6897262704864
 30
-0.0000000000562575
  0
SPLINE
  5
A08F
330
18
100
AcDbEntity
  8
01
100
AcDbSpline
210
0.0
220
0.0
230
1.0
 70
     8
 71
     3
 72
    16
 73
    12
 74
     0
 42
0.0000000001
 43
0.0000000001
 40
0.0
 40
0.0
 40
0.0
 40
0.0
 40
0.1249999999999997
 40
0.1249999999999997
 40
0.2499999999999993
 40
0.2499999999999993
 40
0.4999999999999996
 40
0.4999999999999996
 40
0.7499999999999998
 40
0.7499999999999998
 40
1.0
 40
1.0
 40
1.0
 40
1.0
 10
480.2894377625128
 20
-719.1452601806005
 30
-0.0000000000562575
 10
480.2894377625128
 20
-719.1452601806005
 30
-0.0000000000562575
 10
480.3008532846393
 20
-719.1477681365916
 30
-0.0000000000562575
 10
480.3452863409803
 20
-719.1577729177518
 30
-0.0000000000562575
 10
480.3789819415338
 20
-719.1654295828014
 30
-0.0000000000562575
 10
480.5083292629953
 20
-719.195974087334
 30
-0.0000000000562575
 10
480.6347851433023
 20
-719.2270742411108
 30
-0.0000000000562575
 10
480.9357313442979
 20
-719.3104772494825
 30
-0.0000000000562575
 10
481.1125247790654
 20
-719.363626179005
 30
-0.0000000000562575
 10
481.4822210510682
 20
-719.4883185056086
 30
-0.0000000000562575
 10
481.6772922093029
 20
-719.5605462113392
 30
-0.0000000000562575
 10
481.8705188435939
 20
-719.6395314652916
 30
-0.0000000000562575
  0
ARC
  5
A090
330
18
100
AcDbEntity
  8
01
100
AcDbCircle
 10
478.1813296544047
 20
-728.664628867889
 30
-0.0000000000562575
 40
9.750000000000005
100
AcDbArc
 50
112.2332717982965
 51
247.7667282017034
  0
ARC
  5
A091
330
18
100
AcDbEntity
  8
01
100
AcDbCircle
 10
478.1813296544047
 20
-728.664628867889
 30
-0.0000000000562575
 40
9.750000000000009
100
AcDbArc
 50
292.2332717982966
 51
67.76672820170346
  0
CIRCLE
  5
A092
330
18
100
AcDbEntity
  8
01
100
AcDbCircle
 10
478.1813296544047
 20
-728.664628867889
 30
-0.0000000000562575
 40
10.3
  0
LINE
  5
A11D
330
18
100
AcDbEntity
  8
01
100
AcDbLine
 10
468.4313296544053
 20
-654.6800134208077
 30
0.0000000000000173
 11
468.4313296544053
 21
-653.9800167540067
 31
-0.0000000000000049
  0
ARC
  5
A11E
330
18
100
AcDbEntity
  8
01
100
AcDbCircle
 10
468.9313296544054
 20
-654.6800134208077
 30
0.0000000000000173
 40
0.5
100
AcDbArc
 50
180.0
 51
270.000000000013
  0
ARC
  5
A903
330
18
100
AcDbEntity
  8
01
100
AcDbCircle
 10
581.0126893300644
 20
-728.6646275469436
 30
-0.0000000000000036
 40
6.0
100
AcDbArc
 50
324.3146652873469
 51
35.68533400000172
  0
LINE
  5
A905
330
18
100
AcDbEntity
  8
01
100
AcDbLine
 10
585.8860893300646
 20
-725.1646275469436
 30
-0.0000000000000036
 11
585.1441056411035
 21
-725.1646275469437
 31
-0.0000000000000036
  0
LINE
  5
A906
330
18
100
AcDbEntity
  8
01
100
AcDbLine
 10
585.8860893300646
 20
-732.1646275469436
 30
-0.0000000000000036
 11
585.1441056411035
 21
-732.1646275469436
 31
-0.0000000000000036
  0
CIRCLE
  5
A994
330
18
100
AcDbEntity
  8
01
100
AcDbCircle
 10
624.9101493680404
 20
-721.2646384596413
 30
-0.0000000000562575
 40
2.5
  0
TEXT
  5
AEC4
330
18
100
AcDbEntity
  8
1TEXT
100
AcDbText
 10
671.06663023894
 20
-616.6710887097222
 30
0.0
 40
4.0
  1
材質：亜鉛ダイキャスト・真鍮・アルミ・ポリアセタール
 11
671.06663023894
 21
-614.6710887097222
 31
0.0
100
AcDbText
 73
     2
  0
TEXT
  5
AEC5
330
18
100
AcDbEntity
  8
1TEXT
100
AcDbText
 10
728.5219800758473
 20
-623.9371162960445
 30
0.0
 40
4.0
  1
表面処理
 72
     1
 11
737.788646742514
 21
-623.9371162960445
 31
0.0
100
AcDbText
  0
TEXT
  5
AEC6
330
18
100
AcDbEntity
  8
1TEXT
100
AcDbText
 10
728.3219800758473
 20
-637.7724049555688
 30
0.0
 40
4.0
  1
クローム
 72
     1
 11
737.788646742514
 21
-637.7724049555688
 31
0.0
100
AcDbText
  0
TEXT
  5
AEC7
330
18
100
AcDbEntity
  8
1TEXT
100
AcDbText
 10
726.2553134091806
 20
-630.9150113160288
 30
0.0
 40
4.0
  1
本金メッキ
 72
     1
 11
737.788646742514
 21
-630.9150113160288
 31
0.0
100
AcDbText
  0
LINE
  5
AEC8
330
18
100
AcDbEntity
  8
1DIM
100
AcDbLine
 10
670.3886467425141
 20
-618.4371162960445
 30
0.0
 11
790.3886467425139
 21
-618.4371162960445
 31
0.0
  0
LINE
  5
AEC9
330
18
100
AcDbEntity
  8
1DIM
100
AcDbLine
 10
720.3886467425139
 20
-632.4371162960445
 30
0.0
 11
790.3886467425139
 21
-632.4371162960445
 31
0.0
  0
LINE
  5
AECA
330
18
100
AcDbEntity
  8
1DIM
100
AcDbLine
 10
670.3886467425141
 20
-625.4371162960445
 30
0.0
 11
790.3886467425139
 21
-625.4371162960445
 31
0.0
  0
LINE
  5
AECB
330
18
100
AcDbEntity
  8
1DIM
100
AcDbLine
 10
720.3886467425139
 20
-639.4371162960445
 30
0.0
 11
790.3886467425139
 21
-639.4371162960445
 31
0.0
  0
LINE
  5
AECC
330
18
100
AcDbEntity
  8
1DIM
100
AcDbLine
 10
720.3886467425139
 20
-639.4371162960445
 30
0.0
 11
790.3886467425139
 21
-639.4371162960445
 31
0.0
  0
LINE
  5
AECD
330
18
100
AcDbEntity
  8
1DIM
100
AcDbLine
 10
755.3886467425139
 20
-618.4371162960445
 30
0.0
 11
755.388646742514
 21
-695.4371162960448
 31
0.0
  0
TEXT
  5
AECE
330
18
100
AcDbEntity
  8
1TEXT
100
AcDbText
 10
757.455313409181
 20
-631.1514732796938
 30
0.0
 40
4.0
  1
KLJ-3D-G
 72
     1
 11
772.7886467425144
 21
-631.1514732796938
 31
0.0
100
AcDbText
  0
TEXT
  5
AECF
330
18
100
AcDbEntity
  8
1TEXT
100
AcDbText
 10
765.9219800758473
 20
-623.9371162960445
 30
0.0
 40
4.0
  1
コード
 72
     1
 11
772.788646742514
 21
-623.9371162960445
 31
0.0
100
AcDbText
  0
LINE
  5
AED0
330
18
100
AcDbEntity
  8
1DIM
100
AcDbLine
 10
720.3886467425139
 20
-695.4371162960447
 30
0.0
 11
720.3886467425139
 21
-618.4371162960445
 31
0.0
  0
LINE
  5
AED1
330
18
100
AcDbEntity
  8
1DIM
100
AcDbLine
 10
695.388646742514
 20
-695.4371162960447
 30
0.0
 11
695.388646742514
 21
-618.4371162960445
 31
0.0
  0
LINE
  5
AED2
330
18
100
AcDbEntity
  8
1DIM
100
AcDbLine
 10
790.3886467425139
 20
-695.4371162960448
 30
0.0
 11
790.3886467425139
 21
-618.4371162960445
 31
0.0
  0
LINE
  5
AED3
330
18
100
AcDbEntity
  8
1DIM
100
AcDbLine
 10
720.3886467425139
 20
-646.4371162960445
 30
0.0
 11
790.3886467425139
 21
-646.4371162960445
 31
0.0
  0
LINE
  5
AED4
330
18
100
AcDbEntity
  8
1DIM
100
AcDbLine
 10
720.3886467425139
 20
-646.4371162960445
 30
0.0
 11
790.3886467425139
 21
-646.4371162960445
 31
0.0
  0
LINE
  5
AED5
330
18
100
AcDbEntity
  8
1DIM
100
AcDbLine
 10
720.3886467425139
 20
-653.4371162960445
 30
0.0
 11
790.3886467425139
 21
-653.4371162960445
 31
0.0
  0
LINE
  5
AED6
330
18
100
AcDbEntity
  8
1DIM
100
AcDbLine
 10
720.3886467425139
 20
-653.4371162960445
 30
0.0
 11
790.3886467425139
 21
-653.4371162960445
 31
0.0
  0
TEXT
  5
AED7
330
18
100
AcDbEntity
  8
1TEXT
100
AcDbText
 10
721.2553134091806
 20
-651.7724049555688
 30
0.0
 40
4.0
  1
サテンニッケル
 72
     1
 11
737.788646742514
 21
-651.7724049555688
 31
0.0
100
AcDbText
  0
LINE
  5
AED8
330
18
100
AcDbEntity
  8
1DIM
100
AcDbLine
 10
720.3886467425139
 20
-660.4371162960445
 30
0.0
 11
790.3886467425139
 21
-660.4371162960445
 31
0.0
  0
LINE
  5
AED9
330
18
100
AcDbEntity
  8
1DIM
100
AcDbLine
 10
720.3886467425139
 20
-660.4371162960445
 30
0.0
 11
790.3886467425139
 21
-660.4371162960445
 31
0.0
  0
TEXT
  5
AEDA
330
18
100
AcDbEntity
  8
1TEXT
100
AcDbText
 10
721.388646742514
 20
-644.7724049555688
 30
0.0
 40
4.0
  1
パールクローム
 72
     1
 11
737.788646742514
 21
-644.7724049555688
 31
0.0
100
AcDbText
  0
TEXT
  5
AEDB
330
18
100
AcDbEntity
  8
1TEXT
100
AcDbText
 10
757.455313409181
 20
-638.1514732796938
 30
0.0
 40
4.0
  1
KLJ-3D-C
 72
     1
 11
772.7886467425144
 21
-638.1514732796938
 31
0.0
100
AcDbText
  0
TEXT
  5
AEDC
330
18
100
AcDbEntity
  8
1TEXT
100
AcDbText
 10
757.455313409181
 20
-652.1514732796938
 30
0.0
 40
4.0
  1
KLJ-3D-N
 72
     1
 11
772.7886467425144
 21
-652.1514732796938
 31
0.0
100
AcDbText
  0
TEXT
  5
AEDD
330
18
100
AcDbEntity
  8
1TEXT
100
AcDbText
 10
757.455313409181
 20
-645.1514732796938
 30
0.0
 40
4.0
  1
KLJ-3D-B
 72
     1
 11
772.7886467425144
 21
-645.1514732796938
 31
0.0
100
AcDbText
  0
TEXT
  5
AEDE
330
18
100
AcDbEntity
  8
1TEXT
100
AcDbText
 10
757.1836467425137
 20
-665.9371162960445
 30
0.0
 40
4.0
  1
KLJ-3D-4Q
 41
0.9
 72
     1
 11
772.7886467425137
 21
-665.9371162960445
 31
0.0
100
AcDbText
  0
TEXT
  5
AEDF
330
18
100
AcDbEntity
  8
1TEXT
100
AcDbText
 10
721.5886467425137
 20
-665.9371162960445
 30
0.0
 40
4.0
  1
ダークアンバー
 72
     1
 11
737.7886467425137
 21
-665.9371162960445
 31
0.0
100
AcDbText
  0
LINE
  5
AEE0
330
18
100
AcDbEntity
  8
1DIM
100
AcDbLine
 10
720.3886467425139
 20
-667.4371162960445
 30
0.0
 11
790.3886467425139
 21
-667.4371162960445
 31
0.0
  0
LINE
  5
AEE1
330
18
100
AcDbEntity
  8
1DIM
100
AcDbLine
 10
720.3886467425139
 20
-674.4371162960446
 30
0.0
 11
790.3886467425139
 21
-674.4371162960446
 31
0.0
  0
TEXT
  5
AEE2
330
18
100
AcDbEntity
  8
1TEXT
100
AcDbText
 10
757.4553134091803
 20
-658.9371162960445
 30
0.0
 40
4.0
  1
KLJ-3D-D
 72
     1
 11
772.7886467425137
 21
-658.9371162960445
 31
0.0
100
AcDbText
  0
TEXT
  5
AEE3
330
18
100
AcDbEntity
  8
1TEXT
100
AcDbText
 10
720.7886467425137
 20
-658.9371162960445
 30
0.0
 40
4.0
  1
ミラーニッケル
 72
     1
 11
737.7886467425137
 21
-658.9371162960445
 31
0.0
100
AcDbText
  0
TEXT
  5
AEE4
330
18
100
AcDbEntity
  8
1TEXT
100
AcDbText
 10
757.1711467425138
 20
-672.9371162960446
 30
0.0
 40
4.0
  1
KLJ-3D-GQ
 41
0.9
 72
     1
 11
772.7886467425137
 21
-672.9371162960446
 31
0.0
100
AcDbText
  0
TEXT
  5
AEE5
330
18
100
AcDbEntity
  8
1TEXT
100
AcDbText
 10
721.6553134091804
 20
-672.9371162960446
 30
0.0
 40
4.0
  1
パールブラック
 72
     1
 11
737.7886467425137
 21
-672.9371162960446
 31
0.0
100
AcDbText
  0
TEXT
  5
AEE6
330
18
100
AcDbEntity
  8
1TEXT
100
AcDbText
 10
696.5686467425139
 20
-623.9371162960445
 30
0.0
 40
4.0
  1
材質：サムターン
 41
0.6
 72
     4
 11
707.888646742514
 21
-621.9371162960445
 31
0.0
100
AcDbText
  0
TEXT
  5
AEE7
330
18
100
AcDbEntity
  8
1TEXT
100
AcDbText
 10
703.3553134091806
 20
-654.011817375414
 30
0.0
 40
4.0
  1
亜鉛
 72
     4
 11
707.8886467425139
 21
-651.8784840420807
 31
0.0
100
AcDbText
  0
TEXT
  5
AEE8
330
18
100
AcDbEntity
  8
1TEXT
100
AcDbText
 10
696.9553134091806
 20
-659.0829599022159
 30
0.0
 40
4.0
  1
ダイキャスト
 41
0.8
 72
     4
 11
707.8886467425139
 21
-656.9496265688825
 31
0.0
100
AcDbText
  0
LINE
  5
AEE9
330
18
100
AcDbEntity
  8
1DIM
100
AcDbLine
 10
670.3886467425141
 20
-695.4371162960446
 30
0.0
 11
670.3886467425141
 21
-618.4371162960445
 31
0.0
  0
TEXT
  5
AEEA
330
18
100
AcDbEntity
  8
1TEXT
100
AcDbText
 10
673.1812393351066
 20
-623.9371162960445
 30
0.0
 40
4.0
  1
材質:カバー
 41
0.8
 72
     4
 11
682.8886467425141
 21
-621.9371162960445
 31
0.0
100
AcDbText
  0
TEXT
  5
AEEB
330
18
100
AcDbEntity
  8
1TEXT
100
AcDbText
 10
678.4219800758473
 20
-654.3882416968111
 30
0.0
 40
4.0
  1
真鍮
 72
     4
 11
682.888646742514
 21
-652.3215750301443
 31
0.0
100
AcDbText
  0
TEXT
  5
AEEC
330
18
100
AcDbEntity
  8
1TEXT
100
AcDbText
 10
757.1836467425137
 20
-679.9371162960446
 30
0.0
 40
4.0
  1
KLJ-3D-8Q
 41
0.9
 72
     1
 11
772.7886467425137
 21
-679.9371162960446
 31
0.0
100
AcDbText
  0
TEXT
  5
AEED
330
18
100
AcDbEntity
  8
1TEXT
100
AcDbText
 10
721.1219800758471
 20
-679.9371162960446
 30
0.0
 40
4.0
  1
ミラーブラック
 72
     1
 11
737.7886467425137
 21
-679.9371162960446
 31
0.0
100
AcDbText
  0
LINE
  5
AEEE
330
18
100
AcDbEntity
  8
1DIM
100
AcDbLine
 10
670.388646742514
 20
-681.4371162960443
 30
0.0
 11
790.3886467425137
 21
-681.4371162960446
 31
0.0
  0
LINE
  5
AEF1
330
18
100
AcDbEntity
  8
1DIM
100
AcDbLine
 10
720.3886467425137
 20
-688.4371162960447
 30
0.0
 11
790.3886467425137
 21
-688.4371162960447
 31
0.0
  0
TEXT
  5
AEF2
330
18
100
AcDbEntity
  8
1TEXT
100
AcDbText
 10
757.1886467425136
 20
-686.9371162960447
 30
0.0
 40
4.0
  1
KLJ-3D-AS
 41
0.9
 72
     1
 11
772.7886467425136
 21
-686.9371162960447
 31
0.0
100
AcDbText
  0
TEXT
  5
AEF3
330
18
100
AcDbEntity
  8
1TEXT
100
AcDbText
 10
722.9086467425136
 20
-686.9371162960447
 30
0.0
 40
4.0
  1
ブラストシルバー
 41
0.8
 72
     1
 11
737.7886467425136
 21
-686.9371162960447
 31
0.0
100
AcDbText
  0
TEXT
  5
AEF4
330
18
100
AcDbEntity
  8
1TEXT
100
AcDbText
 10
757.1886467425136
 20
-693.9371162960447
 30
0.0
 40
4.0
  1
KLJ-3D-AK
 41
0.9
 72
     1
 11
772.7886467425136
 21
-693.9371162960447
 31
0.0
100
AcDbText
  0
TEXT
  5
AEF5
330
18
100
AcDbEntity
  8
1TEXT
100
AcDbText
 10
722.9086467425136
 20
-693.9371162960447
 30
0.0
 40
4.0
  1
ブラストブラック
 41
0.8
 72
     1
 11
737.7886467425136
 21
-693.9371162960447
 31
0.0
100
AcDbText
  0
LINE
  5
AEF6
330
18
100
AcDbEntity
  8
1DIM
100
AcDbLine
 10
670.3886467425139
 20
-695.4371162960445
 30
0.0
 11
790.3886467425136
 21
-695.4371162960447
 31
0.0
  0
TEXT
  5
AEF9
330
18
100
AcDbEntity
  8
1TEXT
100
AcDbText
 10
676.488646742514
 20
-690.9531474536087
 30
0.0
 40
4.0
  1
アルミ
 72
     4
 11
682.888646742514
 21
-688.886480786942
 31
0.0
100
AcDbText
  0
TEXT
  5
AEFA
330
18
100
AcDbEntity
  8
1TEXT
100
AcDbText
 10
701.4886467425139
 20
-690.9531474536088
 30
0.0
 40
4.0
  1
アルミ
 72
     4
 11
707.8886467425139
 21
-688.8864807869421
 31
0.0
100
AcDbText
  0
LINE
  5
B2B3
330
18
100
AcDbEntity
  8
01
100
AcDbLine
 10
628.9101621158263
 20
-620.9800167540063
 30
-0.0000000000562575
 11
631.1601621158268
 21
-620.9800167540063
 31
-0.0000000000562575
  0
LINE
  5
B2B4
330
18
100
AcDbEntity
  8
01
100
AcDbLine
 10
632.660162115827
 20
-620.9800167540063
 30
-0.0000000000562575
 11
634.9101621158263
 21
-620.9800167540063
 31
-0.0000000000562575
  0
LINE
  5
B2B5
330
18
100
AcDbEntity
  8
01
100
AcDbLine
 10
614.9101621155007
 20
-620.9800167540063
 30
-0.0000000000562575
 11
617.1601621158259
 21
-620.9800167540063
 31
-0.0000000000562575
  0
LINE
  5
B2B6
330
18
100
AcDbEntity
  8
01
100
AcDbLine
 10
618.6601621158259
 20
-620.9800167540063
 30
-0.0000000000562575
 11
620.9101621155007
 21
-620.9800167540063
 31
-0.0000000000562575
  0
LINE
  5
B2B7
330
18
100
AcDbEntity
  8
01
100
AcDbLine
 10
634.4101621158263
 20
-620.4800167540063
 30
-0.0000000000562575
 11
629.4101621158263
 21
-620.4800167540063
 31
-0.0000000000562575
  0
LINE
  5
B2B8
330
18
100
AcDbEntity
  8
01
100
AcDbLine
 10
620.4101621155007
 20
-620.4800167540063
 30
-0.0000000000562575
 11
615.4101621155007
 21
-620.4800167540063
 31
-0.0000000000562575
  0
LINE
  5
B2B9
330
18
100
AcDbEntity
  8
01
100
AcDbLine
 10
620.9101621155007
 20
-622.6800167540061
 30
-0.0000000000562575
 11
628.9101621158263
 21
-622.6800167540061
 31
-0.0000000000562575
  0
LINE
  5
B2BA
330
18
100
AcDbEntity
  8
01
100
AcDbLine
 10
614.9101621155007
 20
-620.9800167540063
 30
-0.0000000000562575
 11
614.9101621155007
 21
-647.6800167540061
 31
-0.0000000000562575
  0
LINE
  5
B2BB
330
18
100
AcDbEntity
  8
01
100
AcDbLine
 10
615.4101621155007
 20
-620.4800167540063
 30
-0.0000000000562575
 11
614.9101621155007
 21
-620.9800167540063
 31
-0.0000000000562575
  0
LINE
  5
B2BC
330
18
100
AcDbEntity
  8
01
100
AcDbLine
 10
634.9101621158263
 20
-620.9800167540063
 30
-0.0000000000562575
 11
634.9101621158263
 21
-647.6800167540061
 31
-0.0000000000562575
  0
LINE
  5
B2BD
330
18
100
AcDbEntity
  8
01
100
AcDbLine
 10
634.4101621158263
 20
-620.4800167540063
 30
-0.0000000000562575
 11
634.9101621158263
 21
-620.9800167540063
 31
-0.0000000000562575
  0
LINE
  5
B2BE
330
18
100
AcDbEntity
  8
01
100
AcDbLine
 10
628.9101621158263
 20
-620.9800167540063
 30
-0.0000000000562575
 11
628.9101621158263
 21
-647.6800167540061
 31
-0.0000000000562575
  0
LINE
  5
B2BF
330
18
100
AcDbEntity
  8
01
100
AcDbLine
 10
620.9101621155007
 20
-620.9800167540063
 30
-0.0000000000562575
 11
620.9101621155007
 21
-647.6800167540061
 31
-0.0000000000562575
  0
LINE
  5
B2C0
330
18
100
AcDbEntity
  8
01
100
AcDbLine
 10
628.9101621158263
 20
-620.9800167540063
 30
-0.0000000000562575
 11
629.4101621158263
 21
-620.4800167540063
 31
-0.0000000000562575
  0
LINE
  5
B2C1
330
18
100
AcDbEntity
  8
01
100
AcDbLine
 10
620.9101621155007
 20
-620.9800167540063
 30
-0.0000000000562575
 11
620.4101621155007
 21
-620.4800167540063
 31
-0.0000000000562575
  0
LINE
  5
B2C2
330
18
100
AcDbEntity
  8
01
100
AcDbLine
 10
631.1601621158268
 20
-639.7300167540063
 30
-0.0000000000562575
 11
631.1601621158268
 21
-620.9800167540063
 31
-0.0000000000562575
  0
LINE
  5
B2C3
330
18
100
AcDbEntity
  8
01
100
AcDbLine
 10
632.6601621158268
 20
-620.9800167540063
 30
-0.0000000000562575
 11
632.6601621158268
 21
-639.7300167540063
 31
-0.0000000000562575
  0
SPLINE
  5
B2C4
330
18
100
AcDbEntity
  8
01
100
AcDbSpline
210
0.0
220
0.0
230
1.0
 70
    24
 71
     3
 72
     8
 73
     4
 74
     0
 42
0.0000000001
 43
0.0000000001
 40
0.0
 40
0.0
 40
0.0
 40
0.0
 40
0.0007188876611255
 40
0.0007188876611255
 40
0.0007188876611255
 40
0.0007188876611255
 10
632.6601621158268
 20
-620.4800167540063
 30
-0.0000000000562575
 10
632.6601621158268
 20
-620.6461554607911
 30
-0.0000000000562575
 10
632.6601621158268
 20
-620.8129069933668
 30
-0.0000000000562575
 10
632.6601621158268
 20
-620.9800167540063
 30
-0.0000000000562575
  0
SPLINE
  5
B2C5
330
18
100
AcDbEntity
  8
01
100
AcDbSpline
210
0.0
220
0.0
230
1.0
 70
    24
 71
     3
 72
     8
 73
     4
 74
     0
 42
0.0000000001
 43
0.0000000001
 40
0.0
 40
0.0
 40
0.0
 40
0.0
 40
0.0007188876611255
 40
0.0007188876611255
 40
0.0007188876611255
 40
0.0007188876611255
 10
631.1601621158268
 20
-620.9800167540063
 30
-0.0000000000562575
 10
631.1601621158268
 20
-620.8129069933668
 30
-0.0000000000562575
 10
631.1601621158268
 20
-620.6461554607911
 30
-0.0000000000562575
 10
631.1601621158268
 20
-620.4800167540063
 30
-0.0000000000562575
  0
LINE
  5
B2C6
330
18
100
AcDbEntity
  8
01
100
AcDbLine
 10
631.1601621158268
 20
-630.4800167540063
 30
-0.0000000000562575
 11
632.6601621158268
 21
-630.4800167540063
 31
-0.0000000000562575
  0
LINE
  5
B2C7
330
18
100
AcDbEntity
  8
01
100
AcDbLine
 10
631.1601621158268
 20
-620.4800167540063
 30
-0.0000000000562575
 11
631.9101621158268
 21
-620.4800167540063
 31
-0.0000000000562575
  0
ARC
  5
B2C8
330
18
100
AcDbEntity
  8
01
100
AcDbCircle
 10
631.9101621158268
 20
-639.7300167540063
 30
-0.0000000000562575
 40
0.75
100
AcDbArc
 50
180.0
 51
0.0
  0
LINE
  5
B2C9
330
18
100
AcDbEntity
  8
01
100
AcDbLine
 10
618.6601621158259
 20
-639.7300167540063
 30
-0.0000000000562575
 11
618.6601621158259
 21
-620.9800167540063
 31
-0.0000000000562575
  0
LINE
  5
B2CA
330
18
100
AcDbEntity
  8
01
100
AcDbLine
 10
617.1601621158259
 20
-620.9800167540063
 30
-0.0000000000562575
 11
617.1601621158259
 21
-639.7300167540063
 31
-0.0000000000562575
  0
SPLINE
  5
B2CB
330
18
100
AcDbEntity
  8
01
100
AcDbSpline
210
0.0
220
0.0
230
1.0
 70
    24
 71
     3
 72
     8
 73
     4
 74
     0
 42
0.0000000001
 43
0.0000000001
 40
0.0
 40
0.0
 40
0.0
 40
0.0
 40
0.0007188876611255
 40
0.0007188876611255
 40
0.0007188876611255
 40
0.0007188876611255
 10
617.1601621158259
 20
-620.4800167540063
 30
-0.0000000000562575
 10
617.1601621158259
 20
-620.6461554607911
 30
-0.0000000000562575
 10
617.1601621158259
 20
-620.8129069933668
 30
-0.0000000000562575
 10
617.1601621158259
 20
-620.9800167540063
 30
-0.0000000000562575
  0
SPLINE
  5
B2CC
330
18
100
AcDbEntity
  8
01
100
AcDbSpline
210
0.0
220
0.0
230
1.0
 70
    24
 71
     3
 72
     8
 73
     4
 74
     0
 42
0.0000000001
 43
0.0000000001
 40
0.0
 40
0.0
 40
0.0
 40
0.0
 40
0.0007188876611255
 40
0.0007188876611255
 40
0.0007188876611255
 40
0.0007188876611255
 10
618.6601621158259
 20
-620.9800167540063
 30
-0.0000000000562575
 10
618.6601621158259
 20
-620.8129069933668
 30
-0.0000000000562575
 10
618.6601621158259
 20
-620.6461554607911
 30
-0.0000000000562575
 10
618.6601621158259
 20
-620.4800167540063
 30
-0.0000000000562575
  0
LINE
  5
B2CD
330
18
100
AcDbEntity
  8
01
100
AcDbLine
 10
618.6601621158259
 20
-630.4800167540063
 30
-0.0000000000562575
 11
617.1601621158259
 21
-630.4800167540063
 31
-0.0000000000562575
  0
LINE
  5
B2CE
330
18
100
AcDbEntity
  8
01
100
AcDbLine
 10
618.6601621158259
 20
-620.4800167540063
 30
-0.0000000000562575
 11
617.9101621158259
 21
-620.4800167540063
 31
-0.0000000000562575
  0
ARC
  5
B2CF
330
18
100
AcDbEntity
  8
01
100
AcDbCircle
 10
617.9101621158259
 20
-639.7300167540063
 30
-0.0000000000562575
 40
0.75
100
AcDbArc
 50
180.0
 51
0.0
  0
SPLINE
  5
B363
330
18
100
AcDbEntity
  8
01
100
AcDbSpline
210
0.0
220
0.0
230
1.0
 70
    24
 71
     1
 72
     5
 73
     3
 74
     0
 42
0.0000000001
 43
0.0000000001
 40
0.0000000000000249
 40
0.0000000000000249
 40
0.3003855657215301
 40
1.0
 40
1.0
 10
541.5437200753693
 20
-723.6646288678891
 30
-0.0000000000562575
 10
541.8441056410908
 20
-723.9650144336106
 30
-0.0000000000562575
 10
542.5437200753693
 20
-724.6646288678891
 30
-0.0000000000562575
  0
SPLINE
  5
B364
330
18
100
AcDbEntity
  8
01
100
AcDbSpline
210
0.0
220
0.0
230
1.0
 70
    24
 71
     1
 72
     5
 73
     3
 74
     0
 42
0.0000000001
 43
0.0000000001
 40
0.0
 40
0.0
 40
0.6996144342784699
 40
0.9999999999999751
 40
0.9999999999999751
 10
542.5437200753693
 20
-732.6646288678891
 30
-0.0000000000562575
 10
541.8441056410908
 20
-733.3642433021676
 30
-0.0000000000562575
 10
541.5437200753693
 20
-733.6646288678891
 30
-0.0000000000562575
  0
SPLINE
  5
B365
330
18
100
AcDbEntity
  8
01
100
AcDbSpline
210
0.0
220
0.0
230
1.0
 70
    24
 71
     1
 72
     4
 73
     2
 74
     0
 42
0.0000000001
 43
0.0000000001
 40
0.0
 40
0.0
 40
1.0
 40
1.0
 10
554.0437200753693
 20
-725.3362017431429
 30
-0.0000000000562575
 10
554.5437200753693
 20
-725.8362017431429
 30
-0.0000000000562575
  0
SPLINE
  5
B366
330
18
100
AcDbEntity
  8
01
100
AcDbSpline
210
0.0
220
0.0
230
1.0
 70
    24
 71
     1
 72
     4
 73
     2
 74
     0
 42
0.0000000001
 43
0.0000000001
 40
0.0
 40
0.0
 40
1.0
 40
1.0
 10
548.3972734659626
 20
-725.3362017431429
 30
-0.0000000000562575
 10
554.0437200753693
 20
-725.3362017431429
 30
-0.0000000000562575
  0
SPLINE
  5
B367
330
18
100
AcDbEntity
  8
01
100
AcDbSpline
210
0.0
220
0.0
230
1.0
 70
    24
 71
     1
 72
     4
 73
     2
 74
     0
 42
0.0000000001
 43
0.0000000001
 40
0.0
 40
0.0
 40
1.0
 40
1.0
 10
554.5437200753693
 20
-731.4930559926353
 30
-0.0000000000562575
 10
554.0437200753693
 20
-731.9930559926353
 30
-0.0000000000562575
  0
SPLINE
  5
B368
330
18
100
AcDbEntity
  8
01
100
AcDbSpline
210
0.0
220
0.0
230
1.0
 70
    24
 71
     1
 72
     4
 73
     2
 74
     0
 42
0.0000000001
 43
0.0000000001
 40
0.0
 40
0.0
 40
1.0
 40
1.0
 10
554.0437200753693
 20
-731.9930559926353
 30
-0.0000000000562575
 10
548.3972734659626
 20
-731.9930559926353
 30
-0.0000000000562575
  0
SPLINE
  5
B369
330
18
100
AcDbEntity
  8
01
100
AcDbSpline
210
0.0
220
0.0
230
1.0
 70
    24
 71
     1
 72
     4
 73
     2
 74
     0
 42
0.0000000001
 43
0.0000000001
 40
0.0
 40
0.0
 40
1.0
 40
1.0
 10
542.5437200753693
 20
-725.3362017431429
 30
-0.0000000000562575
 10
547.690166684776
 20
-725.3362017431429
 30
-0.0000000000562575
  0
SPLINE
  5
B36A
330
18
100
AcDbEntity
  8
01
100
AcDbSpline
210
0.0
220
0.0
230
1.0
 70
    24
 71
     1
 72
     4
 73
     2
 74
     0
 42
0.0000000001
 43
0.0000000001
 40
0.0
 40
0.0
 40
1.0
 40
1.0
 10
547.6901666847759
 20
-731.9930559926353
 30
-0.0000000000562575
 10
542.5437200753693
 20
-731.9930559926353
 30
-0.0000000000562575
  0
LINE
  5
B36B
330
18
100
AcDbEntity
  8
01
100
AcDbLine
 10
541.5437200753693
 20
-723.6646288678891
 30
-0.0000000000562575
 11
541.5437200753693
 21
-733.6646288678891
 31
-0.0000000000562575
  0
LINE
  5
B36C
330
18
100
AcDbEntity
  8
01
100
AcDbLine
 10
542.5437200753693
 20
-728.6646288678891
 30
-0.0000000000562575
 11
542.5437200753693
 21
-724.6646288678891
 31
-0.0000000000562575
  0
LINE
  5
B36D
330
18
100
AcDbEntity
  8
01
100
AcDbLine
 10
542.5437200753693
 20
-732.6646288678891
 30
-0.0000000000562575
 11
542.5437200753693
 21
-728.6646288678891
 31
-0.0000000000562575
  0
LINE
  5
B36E
330
18
100
AcDbEntity
  8
01
100
AcDbLine
 10
553.7545963732047
 20
-728.6646288672958
 30
-0.0000000000562575
 11
548.5437200753693
 21
-728.6646288672958
 31
-0.0000000000562575
  0
ELLIPSE
  5
B36F
330
18
100
AcDbEntity
  8
01
100
AcDbEllipse
 10
548.0437200753693
 20
-728.6646288678891
 30
-0.0000000000562575
 11
-0.4619397662556537
 21
-0.4619397662556395
 31
0.0
210
0.0
220
0.0
230
-1.0
 40
0.414213562373094
 41
3.53429173528851
 42
4.319689898685994
  0
ELLIPSE
  5
B370
330
18
100
AcDbEntity
  8
01
100
AcDbEllipse
 10
548.0437200753693
 20
-728.6646288678891
 30
-0.0000000000562575
 11
-0.4619397662556537
 21
0.4619397662556467
 31
0.0
210
0.0
220
0.0
230
-1.0
 40
0.4142135623730754
 41
1.963495408493638
 42
2.748893571891077
  0
LINE
  5
B371
330
18
100
AcDbEntity
  8
01
100
AcDbLine
 10
548.5437200753693
 20
-731.8466093832286
 30
-0.0000000000562575
 11
548.5437200753693
 21
-729.0181822584824
 31
-0.0000000000562575
  0
LINE
  5
B372
330
18
100
AcDbEntity
  8
01
100
AcDbLine
 10
548.3972734659626
 20
-731.9930559926353
 30
-0.0000000000562575
 11
548.2558521097253
 21
-731.7930559926352
 31
-0.0000000000562575
  0
LINE
  5
B373
330
18
100
AcDbEntity
  8
01
100
AcDbLine
 10
548.5437200753693
 20
-728.3110754772958
 30
-0.0000000000562575
 11
548.5437200753693
 21
-725.4826483525496
 31
-0.0000000000562575
  0
LINE
  5
B374
330
18
100
AcDbEntity
  8
01
100
AcDbLine
 10
548.3972734659626
 20
-725.3362017431429
 30
-0.0000000000562575
 11
548.2558521097253
 21
-725.5362017431429
 31
-0.0000000000562575
  0
LINE
  5
B375
330
18
100
AcDbEntity
  8
01
100
AcDbLine
 10
547.5437200753693
 20
-728.3110754772958
 30
-0.0000000000562575
 11
547.5437200753693
 21
-725.4826483525496
 31
-0.0000000000562575
  0
ELLIPSE
  5
B376
330
18
100
AcDbEntity
  8
01
100
AcDbEllipse
 10
548.0437200753693
 20
-728.6646288678891
 30
-0.0000000000562575
 11
-0.4619397662556395
 21
0.4619397662556395
 31
0.0
210
0.0
220
0.0
230
-1.0
 40
0.414213562373085
 41
5.105088062083387
 42
5.890486225480888
  0
LINE
  5
B377
330
18
100
AcDbEntity
  8
01
100
AcDbLine
 10
547.8315880410133
 20
-725.5362017431429
 30
-0.0000000000562575
 11
547.6901666847759
 21
-725.3362017431429
 31
-0.0000000000562575
  0
ELLIPSE
  5
B378
330
18
100
AcDbEntity
  8
01
100
AcDbEllipse
 10
548.0437200753693
 20
-728.6646288678891
 30
-0.0000000000562575
 11
0.4619397662556395
 21
0.4619397662556466
 31
0.0
210
0.0
220
0.0
230
-1.0
 40
0.4142135623730818
 41
3.534291735288567
 42
4.319689898685963
  0
LINE
  5
B379
330
18
100
AcDbEntity
  8
01
100
AcDbLine
 10
547.5437200753693
 20
-731.8466093832286
 30
-0.0000000000562575
 11
547.5437200753693
 21
-729.0181822584824
 31
-0.0000000000562575
  0
LINE
  5
B37A
330
18
100
AcDbEntity
  8
01
100
AcDbLine
 10
547.8315880410133
 20
-731.7930559926352
 30
-0.0000000000562575
 11
547.6901666847759
 21
-731.9930559926353
 31
-0.0000000000562575
  0
LINE
  5
B37B
330
18
100
AcDbEntity
  8
01
100
AcDbLine
 10
547.5437200753693
 20
-728.6646288672958
 30
-0.0000000000562575
 11
542.5437200753693
 21
-728.6646288672958
 31
-0.0000000000562575
  0
LINE
  5
B37C
330
18
100
AcDbEntity
  8
01
100
AcDbLine
 10
554.0437200753693
 20
-725.4826483525496
 30
-0.0000000000562575
 11
554.0437200753693
 21
-728.6646288672958
 31
-0.0000000000562575
  0
LINE
  5
B37D
330
18
100
AcDbEntity
  8
01
100
AcDbLine
 10
554.5437200753693
 20
-728.6646288678891
 30
-0.0000000000562575
 11
554.5437200753693
 21
-725.8362017431429
 31
-0.0000000000562575
  0
LINE
  5
B37E
330
18
100
AcDbEntity
  8
01
100
AcDbLine
 10
554.5437200753693
 20
-731.4930559926353
 30
-0.0000000000562575
 11
554.5437200753693
 21
-728.6646288678891
 31
-0.0000000000562575
  0
LINE
  5
B37F
330
18
100
AcDbEntity
  8
01
100
AcDbLine
 10
554.0437200753693
 20
-728.6646288672958
 30
-0.0000000000562575
 11
554.0437200753693
 21
-731.8466093832286
 31
-0.0000000000562575
  0
ELLIPSE
  5
B380
330
18
100
AcDbEntity
  8
01
100
AcDbEllipse
 10
548.0437200753693
 20
-725.2362017431429
 30
-0.0000000000562575
 11
0.0
 21
0.4242640687119347
 31
2.198241588757811E-15
210
0.0
220
5.181305113656384E-15
230
-1.0
 40
0.7071067811865304
 41
2.356194490192316
 42
3.926990816987264
  0
ELLIPSE
  5
B381
330
18
100
AcDbEntity
  8
01
100
AcDbEllipse
 10
548.0437200753693
 20
-732.0930559926353
 30
-0.0000000000562575
 11
0.0
 21
-0.4242640687119347
 31
-7.160938508832247E-16
210
0.0
220
1.687849393085030E-15
230
-1.0
 40
0.7071067811865304
 41
2.356194490192326
 42
3.926990816987297
  0
LINE
  5
B382
330
18
100
AcDbEntity
  8
01
100
AcDbLine
 10
548.0437200753693
 20
-725.9680205310398
 30
-0.0000000000562597
 11
548.0437200753693
 21
-731.4135642374179
 31
-0.0000000000562597
  0
ELLIPSE
  5
B383
330
18
100
AcDbEntity
  8
01
100
AcDbEllipse
 10
553.5437200753693
 20
-728.6646288678891
 30
-0.0000000000562575
 11
-0.4619397662556537
 21
-0.4619397662556395
 31
0.0
210
0.0
220
0.0
230
-1.0
 40
0.414213562373094
 41
3.53429173528851
 42
4.319689898685994
  0
ELLIPSE
  5
B384
330
18
100
AcDbEntity
  8
01
100
AcDbEllipse
 10
553.5437200753693
 20
-728.6646288678891
 30
-0.0000000000562575
 11
-0.4619397662556537
 21
0.4619397662556467
 31
0.0
210
0.0
220
0.0
230
-1.0
 40
0.4142135623730754
 41
1.963495408493638
 42
2.748893571891077
  0
LINE
  5
B385
330
18
100
AcDbEntity
  8
01
100
AcDbLine
 10
569.9126839521873
 20
-731.9930404866776
 30
0.00000000000011
 11
569.9126839521873
 21
-725.336175249085
 31
0.00000000000011
  0
LINE
  5
B386
330
18
100
AcDbEntity
  8
01
100
AcDbLine
 10
568.9126839521873
 20
-731.9930364866777
 30
0.00000000000011
 11
568.9126839521873
 21
-725.3361752490848
 31
0.00000000000011
  0
LINE
  5
B387
330
18
100
AcDbEntity
  8
01
100
AcDbLine
 10
563.4126839521873
 20
-731.9930404866778
 30
0.00000000000011
 11
563.4126839521873
 21
-725.3361752490848
 31
0.00000000000011
  0
LINE
  5
B388
330
18
100
AcDbEntity
  8
01
100
AcDbLine
 10
562.9126839521873
 20
-731.4930508678816
 30
0.00000000000011
 11
562.9126839521873
 21
-725.8361978678817
 31
0.00000000000011
  0
LINE
  5
B389
330
18
100
AcDbEntity
  8
01
100
AcDbLine
 10
562.9126839521873
 20
-731.4930508678816
 30
0.00000000000011
 11
562.9126839521873
 21
-725.8361978678817
 31
0.00000000000011
  0
LINE
  5
B38A
330
18
100
AcDbEntity
  8
01
100
AcDbLine
 10
568.9126839521873
 20
-728.6646248678817
 30
0.00000000000011
 11
562.9126839521873
 21
-728.6646248678817
 31
0.00000000000011
  0
ARC
  5
B38B
330
18
100
AcDbEntity
  8
01
100
AcDbCircle
 10
569.4126867805294
 20
-725.5236752490848
 30
-0.0000000000008
 40
0.30000001
100
AcDbArc
 50
215.2643799999986
 51
324.7356100000012
  0
LINE
  5
B38C
330
18
100
AcDbEntity
  8
01
100
AcDbLine
 10
569.1677367805294
 20
-725.6968772490848
 30
-0.0000000000008
 11
568.9126867805294
 21
-725.3361752490848
 31
-0.0000000000008
  0
LINE
  5
B38D
330
18
100
AcDbEntity
  8
01
100
AcDbLine
 10
569.6576367805294
 20
-725.6968772490848
 30
-0.0000000000008
 11
569.9126867805294
 21
-725.3361712490848
 31
-0.0000000000008
  0
ARC
  5
B38E
330
18
100
AcDbEntity
  8
01
100
AcDbCircle
 10
569.4126839521873
 20
-731.8055474866778
 30
-0.0000000000008
 40
0.30000001
100
AcDbArc
 50
35.2643899999988
 51
144.7356200000013
  0
LINE
  5
B38F
330
18
100
AcDbEntity
  8
01
100
AcDbLine
 10
569.1677339521873
 20
-731.6323454866779
 30
-0.0000000000008
 11
568.9126839521873
 21
-731.9930364866779
 31
-0.0000000000008
  0
LINE
  5
B390
330
18
100
AcDbEntity
  8
01
100
AcDbLine
 10
569.6576339521872
 20
-731.6323484866779
 30
-0.0000000000008
 11
569.9126639521871
 21
-731.9930404866778
 31
-0.0000000000008
  0
LINE
  5
B391
330
18
100
AcDbEntity
  8
01
100
AcDbLine
 10
562.9126839521873
 20
-731.4930508678818
 30
0.00000000000011
 11
562.9126839521873
 21
-725.8361978678819
 31
0.00000000000011
  0
LINE
  5
B392
330
18
100
AcDbEntity
  8
01
100
AcDbLine
 10
562.9126839521873
 20
-731.4930508678818
 30
0.00000000000011
 11
562.9126839521873
 21
-725.8361978678819
 31
0.00000000000011
  0
LINE
  5
B393
330
18
100
AcDbEntity
  8
01
100
AcDbLine
 10
574.9126839521873
 20
-725.3361752490848
 30
-0.0000000000008
 11
569.9126839521873
 21
-725.3361752490848
 31
-0.0000000000008
  0
LINE
  5
B394
330
18
100
AcDbEntity
  8
01
100
AcDbLine
 10
568.9126867805294
 20
-725.3361752490848
 30
-0.0000000000008
 11
563.4126839521873
 21
-725.3361752490848
 31
-0.0000000000008
  0
LINE
  5
B395
330
18
100
AcDbEntity
  8
01
100
AcDbLine
 10
574.9126839521873
 20
-731.9930404866778
 30
-0.0000000000008
 11
569.9126639521871
 21
-731.9930404866778
 31
-0.0000000000008
  0
LINE
  5
B396
330
18
100
AcDbEntity
  8
01
100
AcDbLine
 10
568.9126839521873
 20
-731.9930404866778
 30
-0.0000000000008
 11
563.4126839521873
 21
-731.9930404866778
 31
-0.0000000000008
  0
LINE
  5
B397
330
18
100
AcDbEntity
  8
01
100
AcDbLine
 10
562.9126839521873
 20
-731.4930548678818
 30
0.00000000000011
 11
563.4126839521873
 21
-731.9930404866778
 31
-0.0000000000008
  0
LINE
  5
B398
330
18
100
AcDbEntity
  8
01
100
AcDbLine
 10
562.9126839521873
 20
-725.8361978678819
 30
0.00000000000011
 11
563.4126839521873
 21
-725.3361752490848
 31
-0.0000000000008
  0
LINE
  5
B399
330
18
100
AcDbEntity
  8
01
100
AcDbLine
 10
575.8441056411027
 20
-723.7646228678817
 30
0.00000000000011
 11
575.8126779521872
 21
-723.7646228678817
 31
0.00000000000011
  0
LINE
  5
B39A
330
18
100
AcDbEntity
  8
01
100
AcDbLine
 10
575.8441056411028
 20
-733.5646282260055
 30
0.00000000000011
 11
575.8126979521872
 21
-733.5646282260055
 31
0.00000000000011
  0
LINE
  5
B39B
330
18
100
AcDbEntity
  8
01
100
AcDbLine
 10
574.9126839521873
 20
-724.6646168678816
 30
0.0
 11
575.8126779521872
 21
-723.7646228678817
 31
0.0
  0
LINE
  5
B39C
330
18
100
AcDbEntity
  8
01
100
AcDbLine
 10
574.9126839521873
 20
-732.6646142260055
 30
0.0
 11
575.8126979521872
 21
-733.5646282260055
 31
0.0
  0
LINE
  5
B39D
330
18
100
AcDbEntity
  8
01
100
AcDbLine
 10
575.8126779521872
 20
-723.7646228678817
 30
0.0
 11
575.8126779521872
 21
-733.5646282260055
 31
0.0
  0
LINE
  5
B39E
330
18
100
AcDbEntity
  8
01
100
AcDbLine
 10
574.9126839521873
 20
-724.6646168678816
 30
0.0
 11
574.9126839521873
 21
-732.6646142260055
 31
0.0
  0
LINE
  5
B39F
330
18
100
AcDbEntity
  8
01
100
AcDbLine
 10
574.9126839521873
 20
-728.6646288678892
 30
-0.0000000000562575
 11
569.9126839521873
 21
-728.6646288678891
 31
-0.0000000000562575
  0
LINE
  5
B3A0
330
18
100
AcDbEntity
  8
01
100
AcDbLine
 10
541.2883861549287
 20
-738.1646288678891
 30
-0.0000000000562575
 11
538.8441056410896
 21
-738.1646288678891
 31
-0.0000000000562575
  0
LINE
  5
B3A1
330
18
100
AcDbEntity
  8
01
100
AcDbLine
 10
541.2883861549287
 20
-738.1646288678891
 30
-0.0000000000562575
 11
541.2883861549287
 21
-713.464628798136
 31
-0.0000000000562575
  0
LINE
  5
B3A2
330
18
100
AcDbEntity
  8
01
100
AcDbLine
 10
541.2883861549287
 20
-713.464628798136
 30
-0.0000000000562575
 11
538.8441056410923
 21
-713.464628798136
 31
-0.0000000000562575
  0
LINE
  5
B3A3
330
18
100
AcDbEntity
  8
01
100
AcDbLine
 10
541.5437200753693
 20
-723.6646288678891
 30
-0.0000000000562575
 11
541.2883861549287
 21
-723.6646288678891
 31
-0.0000000000562575
  0
LINE
  5
B3A4
330
18
100
AcDbEntity
  8
01
100
AcDbLine
 10
541.5437200753693
 20
-733.6646288678891
 30
-0.0000000000562575
 11
541.2883861549287
 21
-733.6646288678891
 31
-0.0000000000562575
  0
LINE
  5
B3A5
330
18
100
AcDbEntity
  8
01
100
AcDbLine
 10
575.8441056411029
 20
-738.1646288678918
 30
-0.0000000000562575
 11
575.8441056411029
 21
-720.464628867889
 31
-0.0000000000562575
  0
LINE
  5
B3A6
330
18
100
AcDbEntity
  8
01
100
AcDbLine
 10
575.8441056411029
 20
-738.1646288678918
 30
-0.0000000000562575
 11
578.8441056411029
 21
-738.1646288678918
 31
-0.0000000000562575
  0
LINE
  5
B3A8
330
18
100
AcDbEntity
  8
01
100
AcDbLine
 10
553.8441066916348
 20
-719.9646290511761
 30
-0.0000000000562575
 11
552.1440686012866
 21
-719.9646290511761
 31
-0.0000000000562575
  0
LINE
  5
B3A9
330
18
100
AcDbEntity
  8
01
100
AcDbLine
 10
571.6441062565209
 20
-713.964628999022
 30
-0.0000000000562575
 11
578.8441061328413
 21
-713.964628999022
 31
-0.0000000000562575
  0
SPLINE
  5
B3AA
330
18
100
AcDbEntity
  8
01
100
AcDbSpline
210
0.0
220
0.0
230
1.0
 70
     8
 71
     3
 72
    11
 73
     7
 74
     0
 42
0.0000000001
 43
0.0000000001
 40
0.0
 40
0.0
 40
0.0
 40
0.0
 40
0.0003607178768828
 40
0.0003607178768828
 40
0.0003607178768828
 40
0.0007214404088506
 40
0.0007214404088506
 40
0.0007214404088506
 40
0.0007214404088506
 10
552.1442422156836
 20
-714.0598916234754
 30
-0.0000000000562575
 10
552.0605970602894
 20
-714.1462685613147
 30
-0.0000000000562575
 10
551.9770699215657
 20
-714.2327600504334
 30
-0.0000000000562575
 10
551.893699156967
 20
-714.319401859173
 30
-0.0000000000562575
 10
551.8103273697319
 20
-714.4060447306722
 30
-0.0000000000562575
 10
551.7271109549317
 20
-714.4928375900284
 30
-0.0000000000562575
 10
551.6441060211046
 20
-714.5798319751849
 30
-0.0000000000562575
  0
SPLINE
  5
B3AB
330
18
100
AcDbEntity
  8
01
100
AcDbSpline
210
0.0
220
0.0
230
1.0
 70
    24
 71
     3
 72
    25
 73
    21
 74
     0
 42
0.0000000001
 43
0.0000000001
 40
0.0
 40
0.0
 40
0.0
 40
0.0
 40
0.026469325335944
 40
0.0850326858628371
 40
0.1452902768436033
 40
0.2038145089554584
 40
0.2640214112431393
 40
0.3226823291584373
 40
0.3830490285198371
 40
0.4416351001497315
 40
0.5019299080856691
 40
0.5604572882382637
 40
0.6206928924106403
 40
0.6791402113195154
 40
0.7392826161300312
 40
0.7978082476749138
 40
0.8580319796267157
 40
0.9165072525819112
 40
0.9766662381715039
 40
1.0
 40
1.0
 40
1.0
 40
1.0
 10
551.6441048409106
 20
-719.4556612641487
 30
-0.0000000000562575
 10
551.6441048409106
 20
-719.4579631883607
 30
-0.0000000000562575
 10
551.6441048409106
 20
-719.465358117998
 30
-0.0000000000562575
 10
551.6441048409106
 20
-719.4020230565236
 30
-0.0000000000562575
 10
551.6441048409106
 20
-719.2714859851238
 30
-0.0000000000562575
 10
551.6441048409106
 20
-719.0693662690885
 30
-0.0000000000562575
 10
551.6441048409106
 20
-718.8112346044702
 30
-0.0000000000562575
 10
551.6441048409106
 20
-718.4968294428163
 30
-0.0000000000562575
 10
551.6441048409106
 20
-718.1421627364102
 30
-0.0000000000562575
 10
551.6441048409106
 20
-717.7504817881082
 30
-0.0000000000562575
 10
551.6441048409106
 20
-717.3404693652785
 30
-0.0000000000562575
 10
551.6441048409106
 20
-716.9161415096346
 30
-0.0000000000562575
 10
551.6441048409106
 20
-716.4973816430501
 30
-0.0000000000562575
 10
551.6441048409106
 20
-716.0882067199378
 30
-0.0000000000562575
 10
551.6441048409106
 20
-715.7076717520225
 30
-0.0000000000562575
 10
551.6441048409106
 20
-715.3589901894748
 30
-0.0000000000562575
 10
551.6441048409106
 20
-715.0587588935465
 30
-0.0000000000562575
 10
551.6441048409106
 20
-714.8109925019643
 30
-0.0000000000562575
 10
551.6441048409106
 20
-714.6603195219456
 30
-0.0000000000562575
 10
551.6441048409106
 20
-714.5974124837178
 30
-0.0000000000562575
 10
551.6441048409106
 20
-714.5798318208132
 30
-0.0000000000562575
  0
SPLINE
  5
B3AC
330
18
100
AcDbEntity
  8
01
100
AcDbSpline
210
0.0
220
0.0
230
1.0
 70
     8
 71
     3
 72
    25
 73
    21
 74
     0
 42
0.0000000001
 43
0.0000000001
 40
0.0
 40
0.0
 40
0.0
 40
0.0
 40
0.0413060626807285
 40
0.0987904905995122
 40
0.1579420221764511
 40
0.2154265066295233
 40
0.2745780782817772
 40
0.3320624423934556
 40
0.3912138003583795
 40
0.4486983360358546
 40
0.507849969073579
 40
0.5442743240119366
 40
0.6017587055963227
 40
0.6609101460783265
 40
0.7183947526962642
 40
0.7775464104325895
 40
0.8350308678536114
 40
0.8941823047345365
 40
0.9464694035004845
 40
1.0
 40
1.0
 40
1.0
 40
1.0
 10
552.1440648759963
 20
-719.9553677466633
 30
-0.0000000000562575
 10
552.144070436244
 20
-719.9553335235543
 30
-0.0000000000562575
 10
552.1440837345242
 20
-719.9552516731544
 30
-0.0000000000562575
 10
552.1440546530137
 20
-719.8562386535632
 30
-0.0000000000562575
 10
552.1441293251069
 20
-719.6769466445896
 30
-0.0000000000562575
 10
552.1442812836364
 20
-719.4154967980024
 30
-0.0000000000562575
 10
552.1438432922716
 20
-719.0879828507046
 30
-0.0000000000562575
 10
552.144353028066
 20
-718.6967147114138
 30
-0.0000000000562575
 10
552.1438493421767
 20
-718.2600737600386
 30
-0.0000000000562575
 10
552.1443046485585
 20
-717.7825635897979
 30
-0.0000000000562575
 10
552.1442340819041
 20
-717.3460746054726
 30
-0.0000000000562575
 10
552.1438581110413
 20
-716.9038372628335
 30
-0.0000000000562575
 10
552.1442334963663
 20
-716.4609781701956
 30
-0.0000000000562575
 10
552.1439240855095
 20
-715.9714470614159
 30
-0.0000000000562575
 10
552.1443231085723
 20
-715.5056799099078
 30
-0.0000000000562575
 10
552.1440245598349
 20
-715.0854687792463
 30
-0.0000000000562575
 10
552.1439761512114
 20
-714.7146122061788
 30
-0.0000000000562575
 10
552.1442337911444
 20
-714.421210552169
 30
-0.0000000000562575
 10
552.1438756251231
 20
-714.1950659894006
 30
-0.0000000000562575
 10
552.1441200442455
 20
-714.1053010760533
 30
-0.0000000000562575
 10
552.1442436899306
 20
-714.0598911912117
 30
-0.0000000000562575
  0
LINE
  5
B3AD
330
18
100
AcDbEntity
  8
01
100
AcDbLine
 10
578.8441061328413
 20
-716.964629025099
 30
-0.0000000000562575
 11
553.8441066916348
 21
-716.964629025099
 31
-0.0000000000562575
  0
LINE
  5
B3AE
330
18
100
AcDbEntity
  8
01
100
AcDbLine
 10
570.894105667925
 20
-714.0598911912117
 30
-0.0000000000562575
 11
570.894086110151
 21
-714.0598911912117
 31
-0.0000000000562575
  0
SPLINE
  5
B3AF
330
18
100
AcDbEntity
  8
01
100
AcDbSpline
210
0.0
220
0.0
230
1.0
 70
     8
 71
     3
 72
    12
 73
     8
 74
     0
 42
0.0000000001
 43
0.0000000001
 40
0.0
 40
0.0
 40
0.0
 40
0.0
 40
0.2499999999999992
 40
0.2499999999999992
 40
0.4999999999999984
 40
0.4999999999999984
 40
1.0
 40
1.0
 40
1.0
 40
1.0
 10
570.894106021088
 20
-714.059891623477
 30
-0.0000000000562575
 10
570.9935746741068
 20
-714.059891623477
 30
-0.0000000000562575
 10
571.0911403435049
 20
-714.0546155102777
 30
-0.0000000000562575
 10
571.2725033209919
 20
-714.0367388897038
 30
-0.0000000000562575
 10
571.3554097437158
 20
-714.0242700253727
 30
-0.0000000000562575
 10
571.5620034754143
 20
-713.9871756504066
 30
-0.0000000000562575
 10
571.644106021088
 20
-713.9646291331325
 30
-0.0000000000562575
 10
571.644106021088
 20
-713.9646291331325
 30
-0.0000000000562575
  0
LINE
  5
B3B0
330
18
100
AcDbEntity
  8
01
100
AcDbLine
 10
552.1442436899306
 20
-714.0598911912117
 30
-0.0000000000562575
 11
570.894105667925
 21
-714.0598911912117
 31
-0.0000000000562575
  0
LINE
  5
B3B1
330
18
100
AcDbEntity
  8
01
100
AcDbLine
 10
553.8441066916348
 20
-719.4646292020503
 30
-0.0000000000562575
 11
553.8441066916348
 21
-716.964629025099
 31
-0.0000000000562575
  0
LINE
  5
B3B2
330
18
100
AcDbEntity
  8
01
100
AcDbLine
 10
553.8441066916348
 20
-720.4646291331325
 30
-0.0000000000562575
 11
578.8441061328413
 21
-720.4646291331325
 31
-0.0000000000562575
  0
LINE
  5
B3B3
330
18
100
AcDbEntity
  8
01
100
AcDbLine
 10
553.8441066916348
 20
-719.4646292020503
 30
-0.0000000000562575
 11
553.8441066916348
 21
-720.4646291331325
 31
-0.0000000000562575
  0
SPLINE
  5
B3B4
330
18
100
AcDbEntity
  8
01
100
AcDbSpline
210
0.0
220
0.0
230
1.0
 70
     8
 71
     3
 72
    11
 73
     7
 74
     0
 42
0.0000000001
 43
0.0000000001
 40
0.0000000000000061
 40
0.0000000000000061
 40
0.0000000000000061
 40
0.0000000000000061
 40
0.00036063810356
 40
0.00036063810356
 40
0.00036063810356
 40
0.0007212803997743
 40
0.0007212803997743
 40
0.0007212803997743
 40
0.0007212803997743
 10
551.6441060211071
 20
-714.5797436140605
 30
-0.0000000000562575
 10
551.7270852288522
 20
-714.4927634748988
 30
-0.0000000000562575
 10
551.8102769015343
 20
-714.4059857686665
 30
-0.0000000000562575
 10
551.8936245804463
 20
-714.3193586485102
 30
-0.0000000000562575
 10
551.9769735081741
 20
-714.2327302304014
 30
-0.0000000000562575
 10
552.0604793307419
 20
-714.1462526148454
 30
-0.0000000000562575
 10
552.1441038666497
 20
-714.0598902181001
 30
-0.0000000000562575
  0
SPLINE
  5
B3B5
330
18
100
AcDbEntity
  8
01
100
AcDbSpline
210
0.0
220
0.0
230
1.0
 70
    24
 71
     1
 72
     5
 73
     3
 74
     0
 42
0.0000000001
 43
0.0000000001
 40
-0.0000000000001421
 40
-0.0000000000001421
 40
0.3003855657215301
 40
1.0
 40
1.0
 10
473.1813296544048
 20
-644.9804023197278
 30
-0.0000000000562575
 10
473.4817152201265
 20
-644.6800167540061
 30
-0.0000000000562575
 10
474.181329654405
 20
-643.9804023197278
 30
-0.0000000000562575
  0
SPLINE
  5
B3B6
330
18
100
AcDbEntity
  8
01
100
AcDbSpline
210
0.0
220
0.0
230
1.0
 70
    24
 71
     1
 72
     5
 73
     3
 74
     0
 42
0.0000000001
 43
0.0000000001
 40
0.0
 40
0.0
 40
0.6996144342784699
 40
1.000000000000142
 40
1.000000000000142
 10
482.181329654405
 20
-643.9804023197278
 30
-0.0000000000562575
 10
482.8809440886835
 20
-644.6800167540061
 30
-0.0000000000562575
 10
483.1813296544051
 20
-644.9804023197278
 30
-0.0000000000562575
  0
SPLINE
  5
B3B7
330
18
100
AcDbEntity
  8
01
100
AcDbSpline
210
0.0
220
0.0
230
1.0
 70
    24
 71
     1
 72
     4
 73
     2
 74
     0
 42
0.0000000001
 43
0.0000000001
 40
0.0
 40
0.0
 40
1.0
 40
1.0
 10
474.8529025296588
 20
-632.4804023197278
 30
-0.0000000000562575
 10
475.3529025296588
 20
-631.9804023197278
 30
-0.0000000000562575
  0
SPLINE
  5
B3B8
330
18
100
AcDbEntity
  8
01
100
AcDbSpline
210
0.0
220
0.0
230
1.0
 70
    24
 71
     1
 72
     4
 73
     2
 74
     0
 42
0.0000000001
 43
0.0000000001
 40
0.0
 40
0.0
 40
1.0
 40
1.0
 10
474.8529025296588
 20
-638.1268489291344
 30
-0.0000000000562575
 10
474.8529025296588
 20
-632.4804023197278
 30
-0.0000000000562575
  0
SPLINE
  5
B3B9
330
18
100
AcDbEntity
  8
01
100
AcDbSpline
210
0.0
220
0.0
230
1.0
 70
    24
 71
     1
 72
     4
 73
     2
 74
     0
 42
0.0000000001
 43
0.0000000001
 40
0.0
 40
0.0
 40
1.0
 40
1.0
 10
481.0097567791512
 20
-631.9804023197278
 30
-0.0000000000562575
 10
481.5097567791512
 20
-632.4804023197278
 30
-0.0000000000562575
  0
SPLINE
  5
B3BA
330
18
100
AcDbEntity
  8
01
100
AcDbSpline
210
0.0
220
0.0
230
1.0
 70
    24
 71
     1
 72
     4
 73
     2
 74
     0
 42
0.0000000001
 43
0.0000000001
 40
0.0
 40
0.0
 40
1.0
 40
1.0
 10
481.5097567791512
 20
-632.4804023197278
 30
-0.0000000000562575
 10
481.5097567791512
 20
-638.1268489291344
 30
-0.0000000000562575
  0
SPLINE
  5
B3BB
330
18
100
AcDbEntity
  8
01
100
AcDbSpline
210
0.0
220
0.0
230
1.0
 70
    24
 71
     1
 72
     4
 73
     2
 74
     0
 42
0.0000000001
 43
0.0000000001
 40
0.0
 40
0.0
 40
1.0
 40
1.0
 10
474.8529025296588
 20
-643.9804023197278
 30
-0.0000000000562575
 10
474.8529025296588
 20
-638.8339557103209
 30
-0.0000000000562575
  0
SPLINE
  5
B3BC
330
18
100
AcDbEntity
  8
01
100
AcDbSpline
210
0.0
220
0.0
230
1.0
 70
    24
 71
     1
 72
     4
 73
     2
 74
     0
 42
0.0000000001
 43
0.0000000001
 40
0.0
 40
0.0
 40
1.0
 40
1.0
 10
481.5097567791512
 20
-638.8339557103211
 30
-0.0000000000562575
 10
481.5097567791512
 20
-643.9804023197278
 30
-0.0000000000562575
  0
LINE
  5
B3BD
330
18
100
AcDbEntity
  8
01
100
AcDbLine
 10
473.1813296544048
 20
-644.9804023197278
 30
-0.0000000000562575
 11
483.1813296544051
 21
-644.9804023197278
 31
-0.0000000000562575
  0
LINE
  5
B3BE
330
18
100
AcDbEntity
  8
01
100
AcDbLine
 10
478.181329654405
 20
-643.9804023197278
 30
-0.0000000000562575
 11
474.181329654405
 21
-643.9804023197278
 31
-0.0000000000562575
  0
LINE
  5
B3BF
330
18
100
AcDbEntity
  8
01
100
AcDbLine
 10
482.181329654405
 20
-643.9804023197278
 30
-0.0000000000562575
 11
478.181329654405
 21
-643.9804023197278
 31
-0.0000000000562575
  0
LINE
  5
B3C0
330
18
100
AcDbEntity
  8
01
100
AcDbLine
 10
478.1813296538118
 20
-632.7695260218923
 30
-0.0000000000562575
 11
478.1813296538118
 21
-637.9804023197278
 31
-0.0000000000562575
  0
ELLIPSE
  5
B3C1
330
18
100
AcDbEntity
  8
01
100
AcDbEllipse
 10
478.181329654405
 20
-638.4804023197278
 30
-0.0000000000562575
 11
0.4619397662556395
 21
-0.4619397662556537
 31
0.0
210
0.0
220
0.0
230
-1.0
 40
0.414213562373094
 41
3.53429173528851
 42
4.319689898685994
  0
ELLIPSE
  5
B3C2
330
18
100
AcDbEntity
  8
01
100
AcDbEllipse
 10
478.181329654405
 20
-638.4804023197278
 30
-0.0000000000562575
 11
-0.4619397662556467
 21
-0.4619397662556537
 31
0.0
210
0.0
220
0.0
230
-1.0
 40
0.4142135623730754
 41
1.963495408493638
 42
2.748893571891077
  0
LINE
  5
B3C3
330
18
100
AcDbEntity
  8
01
100
AcDbLine
 10
481.3633101697445
 20
-637.9804023197278
 30
-0.0000000000562575
 11
478.5348830449983
 21
-637.9804023197278
 31
-0.0000000000562575
  0
LINE
  5
B3C4
330
18
100
AcDbEntity
  8
01
100
AcDbLine
 10
481.5097567791512
 20
-638.1268489291344
 30
-0.0000000000562575
 11
481.3097567791511
 21
-638.2682702853717
 31
-0.0000000000562575
  0
LINE
  5
B3C5
330
18
100
AcDbEntity
  8
01
100
AcDbLine
 10
477.8277762638118
 20
-637.9804023197278
 30
-0.0000000000562575
 11
474.9993491390655
 21
-637.9804023197278
 31
-0.0000000000562575
  0
LINE
  5
B3C6
330
18
100
AcDbEntity
  8
01
100
AcDbLine
 10
474.8529025296588
 20
-638.1268489291344
 30
-0.0000000000562575
 11
475.0529025296588
 21
-638.2682702853717
 31
-0.0000000000562575
  0
LINE
  5
B3C7
330
18
100
AcDbEntity
  8
01
100
AcDbLine
 10
477.8277762638118
 20
-638.9804023197278
 30
-0.0000000000562575
 11
474.9993491390655
 21
-638.9804023197278
 31
-0.0000000000562575
  0
ELLIPSE
  5
B3C8
330
18
100
AcDbEntity
  8
01
100
AcDbEllipse
 10
478.181329654405
 20
-638.4804023197278
 30
-0.0000000000562575
 11
-0.4619397662556395
 21
-0.4619397662556395
 31
0.0
210
0.0
220
0.0
230
-1.0
 40
0.414213562373085
 41
5.105088062083387
 42
5.890486225480888
  0
LINE
  5
B3C9
330
18
100
AcDbEntity
  8
01
100
AcDbLine
 10
475.0529025296588
 20
-638.6925343540836
 30
-0.0000000000562575
 11
474.8529025296588
 21
-638.8339557103211
 31
-0.0000000000562575
  0
ELLIPSE
  5
B3CA
330
18
100
AcDbEntity
  8
01
100
AcDbEllipse
 10
478.181329654405
 20
-638.4804023197278
 30
-0.0000000000562575
 11
-0.4619397662556466
 21
0.4619397662556395
 31
0.0
210
0.0
220
0.0
230
-1.0
 40
0.4142135623730818
 41
3.534291735288567
 42
4.319689898685963
  0
LINE
  5
B3CB
330
18
100
AcDbEntity
  8
01
100
AcDbLine
 10
481.3633101697445
 20
-638.9804023197278
 30
-0.0000000000562575
 11
478.5348830449983
 21
-638.9804023197278
 31
-0.0000000000562575
  0
LINE
  5
B3CC
330
18
100
AcDbEntity
  8
01
100
AcDbLine
 10
481.3097567791511
 20
-638.6925343540836
 30
-0.0000000000562575
 11
481.5097567791512
 21
-638.8339557103211
 31
-0.0000000000562575
  0
LINE
  5
B3CD
330
18
100
AcDbEntity
  8
01
100
AcDbLine
 10
478.1813296538118
 20
-638.9804023197278
 30
-0.0000000000562575
 11
478.1813296538118
 21
-643.9804023197278
 31
-0.0000000000562575
  0
LINE
  5
B3CE
330
18
100
AcDbEntity
  8
01
100
AcDbLine
 10
474.9993491390655
 20
-632.4804023197278
 30
-0.0000000000562575
 11
478.1813296538118
 21
-632.4804023197278
 31
-0.0000000000562575
  0
LINE
  5
B3CF
330
18
100
AcDbEntity
  8
01
100
AcDbLine
 10
478.181329654405
 20
-631.9804023197278
 30
-0.0000000000562575
 11
475.3529025296588
 21
-631.9804023197278
 31
-0.0000000000562575
  0
LINE
  5
B3D0
330
18
100
AcDbEntity
  8
01
100
AcDbLine
 10
481.0097567791512
 20
-631.9804023197278
 30
-0.0000000000562575
 11
478.181329654405
 21
-631.9804023197278
 31
-0.0000000000562575
  0
LINE
  5
B3D1
330
18
100
AcDbEntity
  8
01
100
AcDbLine
 10
478.1813296538118
 20
-632.4804023197278
 30
-0.0000000000562575
 11
481.3633101697445
 21
-632.4804023197278
 31
-0.0000000000562575
  0
ELLIPSE
  5
B3D2
330
18
100
AcDbEntity
  8
01
100
AcDbEllipse
 10
474.7529025296589
 20
-638.4804023197278
 30
-0.0000000000562575
 11
-0.4242640687119347
 21
2.597868168706518E-17
 31
2.198241588757811E-15
210
-5.181305113656384E-15
220
3.172634361422552E-31
230
-1.0
 40
0.7071067811865304
 41
2.356194490192316
 42
3.926990816987264
  0
ELLIPSE
  5
B3D3
330
18
100
AcDbEntity
  8
01
100
AcDbEllipse
 10
481.6097567791512
 20
-638.4804023197278
 30
-0.0000000000562575
 11
0.4242640687119347
 21
-2.597868168706518E-17
 31
-7.160938508832247E-16
210
-1.687849393085030E-15
220
1.033509678342193E-31
230
-1.0
 40
0.7071067811865304
 41
2.356194490192326
 42
3.926990816987297
  0
LINE
  5
B3D4
330
18
100
AcDbEntity
  8
01
100
AcDbLine
 10
475.4847213175557
 20
-638.4804023197278
 30
-0.0000000000562597
 11
480.9302650239338
 21
-638.4804023197278
 31
-0.0000000000562597
  0
ELLIPSE
  5
B3D5
330
18
100
AcDbEntity
  8
01
100
AcDbEllipse
 10
478.181329654405
 20
-632.9804023197278
 30
-0.0000000000562575
 11
0.4619397662556395
 21
-0.4619397662556537
 31
0.0
210
0.0
220
0.0
230
-1.0
 40
0.414213562373094
 41
3.53429173528851
 42
4.319689898685994
  0
ELLIPSE
  5
B3D6
330
18
100
AcDbEntity
  8
01
100
AcDbEllipse
 10
478.181329654405
 20
-632.9804023197278
 30
-0.0000000000562575
 11
-0.4619397662556467
 21
-0.4619397662556537
 31
0.0
210
0.0
220
0.0
230
-1.0
 40
0.4142135623730754
 41
1.963495408493638
 42
2.748893571891077
  0
LINE
  5
B3D7
330
18
100
AcDbEntity
  8
01
100
AcDbLine
 10
488.6813540968191
 20
-645.2357362401699
 30
-0.0000000000562575
 11
467.681329654405
 21
-645.2357362401699
 31
-0.0000000000562575
  0
LINE
  5
B3D8
330
18
100
AcDbEntity
  8
01
100
AcDbLine
 10
467.681329654405
 20
-645.2357362401699
 30
-0.0000000000562575
 11
467.681329654405
 21
-647.6800167540064
 31
-0.0000000000562575
  0
LINE
  5
B3D9
330
18
100
AcDbEntity
  8
01
100
AcDbLine
 10
488.681354096819
 20
-645.2357362401694
 30
-0.0000000000562575
 11
488.6813540968191
 21
-647.6800167540059
 31
-0.0000000000562575
  0
LINE
  5
B3DA
330
18
100
AcDbEntity
  8
01
100
AcDbLine
 10
473.1813296544048
 20
-644.9804023197278
 30
-0.0000000000562575
 11
473.1813296544048
 21
-645.2357362401699
 31
-0.0000000000562575
  0
LINE
  5
B3DB
330
18
100
AcDbEntity
  8
01
100
AcDbLine
 10
483.1813296544051
 20
-644.9804023197278
 30
-0.0000000000562575
 11
483.1813296544051
 21
-645.2357362401699
 31
-0.0000000000562575
  0
LINE
  5
BCFA
330
18
100
AcDbEntity
  8
1CENTER
100
AcDbLine
 10
765.7387097658304
 20
-747.0614597242103
 30
0.0
 11
732.5782658658304
 21
-747.0614597242103
 31
0.0
  0
LINE
  5
BCFB
330
18
100
AcDbEntity
  8
1HATCH
100
AcDbLine
 10
764.1370347658304
 20
-745.4114597242103
 30
0.0
 11
735.7870347658304
 21
-745.4114597242103
 31
0.0
  0
LINE
  5
BCFC
330
18
100
AcDbEntity
  8
1HATCH
100
AcDbLine
 10
764.1370347658304
 20
-748.7114597242103
 30
0.0
 11
735.7870347658304
 21
-748.7114597242103
 31
0.0
  0
LINE
  5
BCFE
330
18
100
AcDbEntity
  8
1HATCH
100
AcDbLine
 10
763.7870347658304
 20
-745.0614597242103
 30
0.0
 11
763.7870347658304
 21
-749.0614597242103
 31
0.0
  0
LINE
  5
BCFF
330
18
100
AcDbEntity
  8
1HATCH
100
AcDbLine
 10
734.4370347758304
 20
-744.0614597242103
 30
0.0
 11
734.4370347758304
 21
-750.0614597242103
 31
0.0
  0
LINE
  5
BD00
330
18
100
AcDbEntity
  8
1HATCH
100
AcDbLine
 10
735.4370349399045
 20
-749.0614597242103
 30
0.0
 11
735.7870347658304
 21
-748.7114597242103
 31
0.0
  0
LINE
  5
BD01
330
18
100
AcDbEntity
  8
1HATCH
100
AcDbLine
 10
735.7870347658304
 20
-745.4114597242103
 30
0.0
 11
735.4370349399045
 21
-745.0614597242103
 31
0.0
  0
LINE
  5
BD02
330
18
100
AcDbEntity
  8
01
100
AcDbLine
 10
552.147369208491
 20
-719.9679862362269
 30
0.0
 11
551.8957370247008
 21
-719.7163466018561
 31
0.0
  0
LINE
  5
BD03
330
18
100
AcDbEntity
  8
01
100
AcDbLine
 10
551.8957370247008
 20
-719.7163466018561
 30
0.0
 11
551.6441048409106
 21
-719.464707200316
 31
0.0
  0
LINE
  5
BD0C
330
18
100
AcDbEntity
  8
1CENTER
100
AcDbLine
 10
765.7387097658304
 20
-760.8233756576491
 30
0.0
 11
732.5782658658304
 21
-760.8233756576491
 31
0.0
  0
LINE
  5
BD0D
330
18
100
AcDbEntity
  8
1HATCH
100
AcDbLine
 10
764.1370347658304
 20
-759.1733756576491
 30
0.0
 11
735.7870347658304
 21
-759.1733756576491
 31
0.0
  0
LINE
  5
BD0E
330
18
100
AcDbEntity
  8
1HATCH
100
AcDbLine
 10
764.1370347658304
 20
-762.4733756576491
 30
0.0
 11
735.7870347658304
 21
-762.4733756576491
 31
0.0
  0
LINE
  5
BD10
330
18
100
AcDbEntity
  8
1HATCH
100
AcDbLine
 10
763.7870347658304
 20
-758.8233756576491
 30
0.0
 11
763.7870347658304
 21
-762.8233756576491
 31
0.0
  0
LINE
  5
BD11
330
18
100
AcDbEntity
  8
1HATCH
100
AcDbLine
 10
734.4370347758304
 20
-757.8233756576491
 30
0.0
 11
734.4370347758304
 21
-763.8233756576491
 31
0.0
  0
LINE
  5
BD12
330
18
100
AcDbEntity
  8
1HATCH
100
AcDbLine
 10
735.4370349399045
 20
-762.8233756576491
 30
0.0
 11
735.7870347658304
 21
-762.4733756576491
 31
0.0
  0
LINE
  5
BD13
330
18
100
AcDbEntity
  8
1HATCH
100
AcDbLine
 10
735.7870347658304
 20
-759.1733756576491
 30
0.0
 11
735.4370349399045
 21
-758.8233756576491
 31
0.0
  0
LINE
  5
BD14
330
18
100
AcDbEntity
  8
01
100
AcDbLine
 10
735.4370349399044
 20
-749.0614597242103
 30
0.0
 11
763.7870347658304
 21
-749.0614597242103
 31
0.0
  0
LINE
  5
BD15
330
18
100
AcDbEntity
  8
01
100
AcDbLine
 10
763.7870347658304
 20
-749.0614597242103
 30
0.0
 11
764.1370347658304
 21
-748.7114597242102
 31
0.0
  0
LINE
  5
BD16
330
18
100
AcDbEntity
  8
01
100
AcDbLine
 10
764.1370347658304
 20
-748.7114597242102
 30
0.0
 11
764.1370347658304
 21
-745.4114597242103
 31
0.0
  0
LINE
  5
BD17
330
18
100
AcDbEntity
  8
01
100
AcDbLine
 10
764.1370347658304
 20
-745.4114597242103
 30
0.0
 11
763.7870347658304
 21
-745.0614597242103
 31
0.0
  0
LINE
  5
BD18
330
18
100
AcDbEntity
  8
01
100
AcDbLine
 10
763.7870347658304
 20
-745.0614597242103
 30
0.0
 11
735.4370349399044
 21
-745.0614597242103
 31
0.0
  0
LINE
  5
BD19
330
18
100
AcDbEntity
  8
01
100
AcDbLine
 10
735.4370349399044
 20
-745.0614597242103
 30
0.0
 11
734.4370347758304
 21
-744.0614597242103
 31
0.0
  0
LINE
  5
BD1A
330
18
100
AcDbEntity
  8
01
100
AcDbLine
 10
734.4370347758304
 20
-744.0614597242103
 30
0.0
 11
734.1370347658304
 21
-744.0614597242103
 31
0.0
  0
LINE
  5
BD1B
330
18
100
AcDbEntity
  8
01
100
AcDbLine
 10
734.1370347658304
 20
-744.0614597242103
 30
0.0
 11
734.1370347658304
 21
-750.0614597242103
 31
0.0
  0
LINE
  5
BD1C
330
18
100
AcDbEntity
  8
01
100
AcDbLine
 10
734.1370347658304
 20
-750.0614597242103
 30
0.0
 11
734.4370348658305
 21
-750.0614597242103
 31
0.0
  0
LINE
  5
BD1D
330
18
100
AcDbEntity
  8
01
100
AcDbLine
 10
734.4370348658305
 20
-750.0614597242103
 30
0.0
 11
735.4370349399044
 21
-749.0614597242103
 31
0.0
  0
LINE
  5
BD1E
330
18
100
AcDbEntity
  8
01
100
AcDbLine
 10
735.4370349399044
 20
-762.8233756576491
 30
0.0
 11
763.7870347658304
 21
-762.8233756576491
 31
0.0
  0
LINE
  5
BD1F
330
18
100
AcDbEntity
  8
01
100
AcDbLine
 10
763.7870347658304
 20
-762.8233756576491
 30
0.0
 11
764.1370347658304
 21
-762.473375657649
 31
0.0
  0
LINE
  5
BD20
330
18
100
AcDbEntity
  8
01
100
AcDbLine
 10
764.1370347658304
 20
-762.473375657649
 30
0.0
 11
764.1370347658304
 21
-759.1733756576491
 31
0.0
  0
LINE
  5
BD21
330
18
100
AcDbEntity
  8
01
100
AcDbLine
 10
764.1370347658304
 20
-759.1733756576491
 30
0.0
 11
763.7870347658304
 21
-758.8233756576491
 31
0.0
  0
LINE
  5
BD22
330
18
100
AcDbEntity
  8
01
100
AcDbLine
 10
763.7870347658304
 20
-758.8233756576491
 30
0.0
 11
735.4370349399044
 21
-758.8233756576491
 31
0.0
  0
LINE
  5
BD23
330
18
100
AcDbEntity
  8
01
100
AcDbLine
 10
735.4370349399044
 20
-758.8233756576491
 30
0.0
 11
734.4370347758304
 21
-757.8233756576491
 31
0.0
  0
LINE
  5
BD24
330
18
100
AcDbEntity
  8
01
100
AcDbLine
 10
734.4370347758304
 20
-757.8233756576491
 30
0.0
 11
734.1370347658304
 21
-757.8233756576491
 31
0.0
  0
LINE
  5
BD25
330
18
100
AcDbEntity
  8
01
100
AcDbLine
 10
734.1370347658304
 20
-757.8233756576491
 30
0.0
 11
734.1370347658304
 21
-763.8233756576491
 31
0.0
  0
LINE
  5
BD26
330
18
100
AcDbEntity
  8
01
100
AcDbLine
 10
734.1370347658304
 20
-763.8233756576491
 30
0.0
 11
734.4370348658305
 21
-763.8233756576491
 31
0.0
  0
LINE
  5
BD27
330
18
100
AcDbEntity
  8
01
100
AcDbLine
 10
734.4370348658305
 20
-763.8233756576491
 30
0.0
 11
735.4370349399044
 21
-762.8233756576491
 31
0.0
  0
LINE
  5
BD28
330
18
100
AcDbEntity
  8
1DIM
100
AcDbLine
 10
734.1370347658304
 20
-744.0614597242103
 30
0.0
 11
734.1370347658304
 21
-739.9402625322106
 31
0.0
1001
ACAD
1000
DSTYLE
1002
{
1070
    40
1040
1.0
1002
}
  0
LINE
  5
BD29
330
18
100
AcDbEntity
  8
1DIM
100
AcDbLine
 10
764.1370347658304
 20
-745.4114597242102
 30
0.0
 11
764.1370347658304
 21
-739.9402625322106
 31
0.0
1001
ACAD
1000
DSTYLE
1002
{
1070
    40
1040
1.0
1002
}
  0
LINE
  5
BD2A
330
18
100
AcDbEntity
  8
1DIM
100
AcDbLine
 10
736.1370347658304
 20
-740.9402625322106
 30
0.0
 11
762.1370347658304
 21
-740.9402625322106
 31
0.0
1001
ACAD
1000
DSTYLE
1002
{
1070
    40
1040
1.0
1002
}
  0
LINE
  5
BD2F
330
18
100
AcDbEntity
  8
1DIM
100
AcDbLine
 10
733.455458999482
 20
-745.2393237726661
 30
0.0
 11
729.8873477933121
 21
-736.3123604222197
 31
0.0
  0
LINE
  5
BD30
330
18
100
AcDbEntity
  8
1DIM
100
AcDbLine
 10
729.8873477933121
 20
-736.3123604222197
 30
0.0
 11
727.187347793312
 21
-736.3123604222197
 31
0.0
  0
TEXT
  5
BD31
330
18
100
AcDbEntity
  8
1DIM
  6
CONTINUOUS
100
AcDbText
 10
717.7482113701661
 20
-735.6123604222198
 30
0.0
 40
3.5
  1
SUS
100
AcDbText
  0
TEXT
  5
BD32
330
18
100
AcDbEntity
  8
1DIM
  6
CONTINUOUS
100
AcDbText
 10
519.0974959038097
 20
-674.7864497792688
 30
-0.0000000000562575
 40
3.5
  1
材質：各種材質
100
AcDbText
  0
TEXT
  5
BD33
330
18
100
AcDbEntity
  8
1DIM
  6
CONTINUOUS
100
AcDbText
 10
519.2141625704763
 20
-680.6197831126021
 30
-0.0000000000562575
 40
3.5
  1
仕上げ：各種仕上げ
100
AcDbText
  0
LINE
  5
BD35
330
18
100
AcDbEntity
  8
1DIM
100
AcDbLine
 10
524.8847868460624
 20
-717.6696721232685
 30
-0.0000000000562575
 11
516.630829237143
 21
-681.3197831126022
 31
-0.0000000000562575
  0
LINE
  5
BD36
330
18
100
AcDbEntity
  8
1DIM
100
AcDbLine
 10
516.630829237143
 20
-681.3197831126022
 30
-0.0000000000562575
 11
556.3141625704764
 21
-681.3197831126022
 31
-0.0000000000562575
  0
TEXT
  5
BD37
330
18
100
AcDbEntity
  8
1DIM
  6
CONTINUOUS
100
AcDbText
 10
456.9446885226876
 20
-688.6748993453442
 30
-0.0000000000562575
 40
3.5
  1
材質：各種材質
100
AcDbText
  0
TEXT
  5
BD38
330
18
100
AcDbEntity
  8
1DIM
  6
CONTINUOUS
100
AcDbText
 10
457.0613551893543
 20
-694.5082326786776
 30
-0.0000000000562575
 40
3.5
  1
仕上げ：各種仕上げ
100
AcDbText
  0
LINE
  5
BD3A
330
18
100
AcDbEntity
  8
1DIM
100
AcDbLine
 10
486.9618057906291
 20
-711.0762078369241
 30
-0.0000000000562575
 11
496.7446885226876
 21
-695.2082326786776
 31
-0.0000000000562575
  0
LINE
  5
BD3B
330
18
100
AcDbEntity
  8
1DIM
100
AcDbLine
 10
496.7446885226876
 20
-695.2082326786776
 30
-0.0000000000562575
 11
457.0613551893543
 21
-695.2082326786776
 31
-0.0000000000562575
  0
LINE
  5
BD3C
330
18
100
AcDbEntity
  8
1DIM
100
AcDbLine
 10
458.1813296544078
 20
-723.1646288678891
 30
0.0
 11
458.1813296544078
 21
-768.3581029271421
 31
0.0
1001
ACAD
1000
DSTYLE
1002
{
1070
     3
1000
φ<>
1070
    40
1040
1.0
1002
}
  0
LINE
  5
BD3D
330
18
100
AcDbEntity
  8
1DIM
100
AcDbLine
 10
498.181329654402
 20
-723.1646288678891
 30
0.0
 11
498.181329654402
 21
-768.3581029271421
 31
0.0
1001
ACAD
1000
DSTYLE
1002
{
1070
     3
1000
φ<>
1070
    40
1040
1.0
1002
}
  0
LINE
  5
BD3E
330
18
100
AcDbEntity
  8
1DIM
100
AcDbLine
 10
460.1813296544078
 20
-767.3581029271421
 30
0.0
 11
496.181329654402
 21
-767.3581029271421
 31
0.0
1001
ACAD
1000
DSTYLE
1002
{
1070
     3
1000
φ<>
1070
    40
1040
1.0
1002
}
  0
TEXT
  5
BD42
330
18
100
AcDbEntity
  8
1DIM
  6
CONTINUOUS
100
AcDbText
 10
550.3296222380366
 20
-692.7586367069713
 30
-0.0000000000562575
 40
3.5
  1
材質：ポリアセタール
100
AcDbText
  0
LINE
  5
BD44
330
18
100
AcDbEntity
  8
1DIM
100
AcDbLine
 10
541.88983308327
 20
-712.401737513034
 30
-0.0000000000562575
 11
547.8629555713699
 21
-693.4586367069713
 31
-0.0000000000562575
  0
LINE
  5
BD45
330
18
100
AcDbEntity
  8
1DIM
100
AcDbLine
 10
547.8629555713699
 20
-693.4586367069713
 30
-0.0000000000562575
 11
591.7462889047032
 21
-693.4586367069713
 31
-0.0000000000562575
  0
LINE
  5
BD46
330
18
100
AcDbEntity
  8
1DIM
100
AcDbLine
 10
538.8441056410918
 20
-743.1646288678893
 30
0.0
 11
538.8441056410918
 21
-759.3222727614369
 31
0.0
1001
ACAD
1000
DSTYLE
1002
{
1070
    40
1040
1.0
1070
   271
1070
     0
1002
}
  0
LINE
  5
BD47
330
18
100
AcDbEntity
  8
1DIM
100
AcDbLine
 10
532.5441056410916
 20
-742.6646288678893
 30
0.0
 11
532.5441056410916
 21
-759.3222727614369
 31
0.0
1001
ACAD
1000
DSTYLE
1002
{
1070
    40
1040
1.0
1070
   271
1070
     0
1002
}
  0
LINE
  5
BD48
330
18
100
AcDbEntity
  8
1DIM
100
AcDbLine
 10
536.8441056410918
 20
-758.3222727614369
 30
0.0
 11
534.5441056410916
 21
-758.3222727614369
 31
0.0
1001
ACAD
1000
DSTYLE
1002
{
1070
    40
1040
1.0
1070
   271
1070
     0
1002
}
  0
LINE
  5
BD4C
330
18
100
AcDbEntity
  8
1DIM
100
AcDbLine
 10
538.8441056410918
 20
-743.1646288678893
 30
0.0
 11
538.8441056410918
 21
-768.3581029271421
 31
0.0
1001
ACAD
1000
DSTYLE
1002
{
1070
    40
1040
1.0
1002
}
  0
LINE
  5
BD4D
330
18
100
AcDbEntity
  8
1DIM
100
AcDbLine
 10
516.844080830082
 20
-738.6646338678862
 30
0.0
 11
516.844080830082
 21
-768.3581029271421
 31
0.0
1001
ACAD
1000
DSTYLE
1002
{
1070
    40
1040
1.0
1002
}
  0
LINE
  5
BD4E
330
18
100
AcDbEntity
  8
1DIM
100
AcDbLine
 10
536.8441056410918
 20
-767.3581029271421
 30
0.0
 11
518.844080830082
 21
-767.3581029271421
 31
0.0
1001
ACAD
1000
DSTYLE
1002
{
1070
    40
1040
1.0
1002
}
  0
LINE
  5
BD52
330
18
100
AcDbEntity
  8
1DIM
100
AcDbLine
 10
578.8441056411007
 20
-743.1646288678892
 30
0.0
 11
578.8441056411007
 21
-759.3222727614369
 31
0.0
1001
ACAD
1000
DSTYLE
1002
{
1070
    40
1040
1.0
1070
   271
1070
     0
1002
}
  0
LINE
  5
BD53
330
18
100
AcDbEntity
  8
1DIM
100
AcDbLine
 10
585.1441056411009
 20
-742.6646288678892
 30
0.0
 11
585.1441056411009
 21
-759.3222727614369
 31
0.0
1001
ACAD
1000
DSTYLE
1002
{
1070
    40
1040
1.0
1070
   271
1070
     0
1002
}
  0
LINE
  5
BD54
330
18
100
AcDbEntity
  8
1DIM
100
AcDbLine
 10
580.8441056411007
 20
-758.3222727614369
 30
0.0
 11
583.1441056411009
 21
-758.3222727614369
 31
0.0
1001
ACAD
1000
DSTYLE
1002
{
1070
    40
1040
1.0
1070
   271
1070
     0
1002
}
  0
LINE
  5
BD58
330
18
100
AcDbEntity
  8
1DIM
100
AcDbLine
 10
578.8441056411007
 20
-743.1646288678892
 30
0.0
 11
578.8441056411007
 21
-768.3581029271421
 31
0.0
1001
ACAD
1000
DSTYLE
1002
{
1070
    40
1040
1.0
1070
   271
1070
     0
1002
}
  0
LINE
  5
BD59
330
18
100
AcDbEntity
  8
1DIM
100
AcDbLine
 10
587.0859737959707
 20
-728.6646288678891
 30
0.0
 11
587.0859737959707
 21
-768.3581029271421
 31
0.0
1001
ACAD
1000
DSTYLE
1002
{
1070
    40
1040
1.0
1070
   271
1070
     0
1002
}
  0
LINE
  5
BD5A
330
18
100
AcDbEntity
  8
1DIM
100
AcDbLine
 10
580.8441056411007
 20
-767.3581029271421
 30
0.0
 11
585.0859737959707
 21
-767.3581029271421
 31
0.0
1001
ACAD
1000
DSTYLE
1002
{
1070
    40
1040
1.0
1070
   271
1070
     0
1002
}
  0
LINE
  5
BD5E
330
18
100
AcDbEntity
  8
1DIM
100
AcDbLine
 10
632.0030054170787
 20
-778.6646286637605
 30
0.0
 11
662.1767467082957
 21
-778.6646286637605
 31
0.0
1001
ACAD
1000
DSTYLE
1002
{
1070
    40
1040
1.0
1002
}
  0
LINE
  5
BD5F
330
18
100
AcDbEntity
  8
1DIM
100
AcDbLine
 10
630.9101498946192
 20
-728.6646288678884
 30
0.0
 11
662.1767467082958
 21
-728.6646288678884
 31
0.0
1001
ACAD
1000
DSTYLE
1002
{
1070
    40
1040
1.0
1002
}
  0
LINE
  5
BD60
330
18
100
AcDbEntity
  8
1DIM
100
AcDbLine
 10
661.1767467082957
 20
-776.6646286637605
 30
0.0
 11
661.1767467082958
 21
-730.6646288678884
 31
0.0
1001
ACAD
1000
DSTYLE
1002
{
1070
    40
1040
1.0
1002
}
  0
LINE
  5
BD65
330
18
100
AcDbEntity
  8
1DIM
100
AcDbLine
 10
566.5700390081212
 20
-734.3253314070341
 30
-0.0000000000562575
 11
560.2661454427155
 21
-783.1684314603285
 31
-0.0000000000562575
1001
ACAD
1000
DSTYLE
1002
{
1070
    40
1040
1.3
1070
   271
1070
     1
1002
}
  0
LINE
  5
BD66
330
18
100
AcDbEntity
  8
1DIM
100
AcDbLine
 10
560.2661454427155
 20
-783.1684314603285
 30
-0.0000000000562575
 11
512.1894787760488
 21
-783.1684314603285
 31
-0.0000000000562575
1001
ACAD
1000
DSTYLE
1002
{
1070
    40
1040
1.3
1070
   271
1070
     1
1002
}
  0
TEXT
  5
BD67
330
18
100
AcDbEntity
  8
1DIM
  6
CONTINUOUS
100
AcDbText
 10
511.9561454427154
 20
-776.4834314603285
 30
-0.0000000000562575
 40
3.5
  1
材質：亜鉛ダイキャスト
100
AcDbText
  0
TEXT
  5
BD68
330
18
100
AcDbEntity
  8
1DIM
  6
CONTINUOUS
100
AcDbText
 10
523.8561454427155
 20
-782.3167647936618
 30
-0.0000000000562575
 40
3.5
  1
仕上げ：クローム
100
AcDbText
  0
LINE
  5
BD69
330
18
100
AcDbEntity
  8
0
  6
BYBLOCK
100
AcDbLine
 10
736.1370347658304
 20
-741.4761609122106
 30
0.0
 11
734.1370347658304
 21
-740.9402625322106
 31
0.0
  0
LINE
  5
BD6A
330
18
100
AcDbEntity
  8
0
  6
BYBLOCK
100
AcDbLine
 10
734.1370347658304
 20
-740.9402625322106
 30
0.0
 11
736.1370347658304
 21
-740.4043641522105
 31
0.0
  0
LINE
  5
BD6B
330
18
100
AcDbEntity
  8
0
  6
BYBLOCK
100
AcDbLine
 10
734.1370347658304
 20
-740.9402625322106
 30
0.0
 11
736.1370347658304
 21
-740.9402625322106
 31
0.0
  0
LINE
  5
BD6C
330
18
100
AcDbEntity
  8
0
  6
BYBLOCK
100
AcDbLine
 10
762.1370347658304
 20
-740.4043641522105
 30
0.0
 11
764.1370347658304
 21
-740.9402625322106
 31
0.0
  0
LINE
  5
BD6D
330
18
100
AcDbEntity
  8
0
  6
BYBLOCK
100
AcDbLine
 10
764.1370347658304
 20
-740.9402625322106
 30
0.0
 11
762.1370347658304
 21
-741.4761609122106
 31
0.0
  0
LINE
  5
BD6E
330
18
100
AcDbEntity
  8
0
  6
BYBLOCK
100
AcDbLine
 10
764.1370347658304
 20
-740.9402625322106
 30
0.0
 11
762.1370347658304
 21
-740.9402625322106
 31
0.0
  0
TEXT
  5
BD6F
330
18
100
AcDbEntity
  8
1DIM
  6
CONTINUOUS
100
AcDbText
 10
746.4391180991638
 20
-740.2402625322105
 30
0.0
 40
3.5
  1
30
100
AcDbText
1001
ACAD
1000
DSTYLE
1002
{
1070
    40
1040
1.0
1002
}
  0
LINE
  5
BD70
330
18
100
AcDbEntity
  8
0
  6
BYBLOCK
100
AcDbLine
 10
733.9530795393653
 20
-745.0404246224093
 30
0.0
 11
734.1977607405578
 21
-747.0964689272504
 31
0.0
  0
LINE
  5
BD71
330
18
100
AcDbEntity
  8
0
  6
BYBLOCK
100
AcDbLine
 10
734.1977607405578
 20
-747.0964689272504
 30
0.0
 11
732.9578384595987
 21
-745.4382229229229
 31
0.0
  0
LINE
  5
BD72
330
18
100
AcDbEntity
  8
0
  6
BYBLOCK
100
AcDbLine
 10
734.1977607405578
 20
-747.0964689272504
 30
0.0
 11
733.455458999482
 21
-745.2393237726661
 31
0.0
  0
LINE
  5
BD73
330
18
100
AcDbEntity
  8
0
  6
BYBLOCK
100
AcDbLine
 10
525.4073818859588
 20
-717.5510066356057
 30
-0.0000000000562575
 11
525.3276524791428
 21
-719.6200233816412
 31
-0.0000000000562575
  0
LINE
  5
BD74
330
18
100
AcDbEntity
  8
0
  6
BYBLOCK
100
AcDbLine
 10
525.3276524791428
 20
-719.6200233816412
 30
-0.0000000000562575
 11
524.3621918061659
 21
-717.7883376109312
 31
-0.0000000000562575
  0
LINE
  5
BD75
330
18
100
AcDbEntity
  8
0
  6
BYBLOCK
100
AcDbLine
 10
525.3276524791428
 20
-719.6200233816412
 30
-0.0000000000562575
 11
524.8847868460624
 21
-717.6696721232685
 31
-0.0000000000562575
  0
LINE
  5
BD76
330
18
100
AcDbEntity
  8
0
  6
BYBLOCK
100
AcDbLine
 10
487.4179772999698
 20
-711.3574455082138
 30
-0.0000000000562575
 11
485.9122125028509
 21
-712.7786631021958
 31
-0.0000000000562575
  0
LINE
  5
BD77
330
18
100
AcDbEntity
  8
0
  6
BYBLOCK
100
AcDbLine
 10
485.9122125028509
 20
-712.7786631021958
 30
-0.0000000000562575
 11
486.5056342812883
 21
-710.7949701656346
 31
-0.0000000000562575
  0
LINE
  5
BD78
330
18
100
AcDbEntity
  8
0
  6
BYBLOCK
100
AcDbLine
 10
485.9122125028509
 20
-712.7786631021958
 30
-0.0000000000562575
 11
486.9618057906291
 21
-711.0762078369241
 31
-0.0000000000562575
  0
LINE
  5
BD79
330
18
100
AcDbEntity
  8
0
  6
BYBLOCK
100
AcDbLine
 10
460.1813296544078
 20
-767.8940013071422
 30
0.0
 11
458.1813296544078
 21
-767.3581029271421
 31
0.0
  0
LINE
  5
BD7A
330
18
100
AcDbEntity
  8
0
  6
BYBLOCK
100
AcDbLine
 10
458.1813296544078
 20
-767.3581029271421
 30
0.0
 11
460.1813296544078
 21
-766.8222045471421
 31
0.0
  0
LINE
  5
BD7B
330
18
100
AcDbEntity
  8
0
  6
BYBLOCK
100
AcDbLine
 10
458.1813296544078
 20
-767.3581029271421
 30
0.0
 11
460.1813296544078
 21
-767.3581029271421
 31
0.0
  0
LINE
  5
BD7C
330
18
100
AcDbEntity
  8
0
  6
BYBLOCK
100
AcDbLine
 10
496.181329654402
 20
-766.8222045471421
 30
0.0
 11
498.181329654402
 21
-767.3581029271421
 31
0.0
  0
LINE
  5
BD7D
330
18
100
AcDbEntity
  8
0
  6
BYBLOCK
100
AcDbLine
 10
498.181329654402
 20
-767.3581029271421
 30
0.0
 11
496.181329654402
 21
-767.8940013071422
 31
0.0
  0
LINE
  5
BD7E
330
18
100
AcDbEntity
  8
0
  6
BYBLOCK
100
AcDbLine
 10
498.181329654402
 20
-767.3581029271421
 30
0.0
 11
496.181329654402
 21
-767.3581029271421
 31
0.0
  0
TEXT
  5
BD7F
330
18
100
AcDbEntity
  8
1DIM
  6
CONTINUOUS
100
AcDbText
 10
472.9167463210715
 20
-766.6581029271421
 30
0.0
 40
3.5
  1
φ40
100
AcDbText
1001
ACAD
1000
DSTYLE
1002
{
1070
     3
1000
φ<>
1070
    40
1040
1.0
1002
}
  0
LINE
  5
BD80
330
18
100
AcDbEntity
  8
0
  6
BYBLOCK
100
AcDbLine
 10
542.4009254672928
 20
-712.5628947303111
 30
-0.0000000000562575
 11
541.2883861549287
 21
-714.309160274875
 31
-0.0000000000562575
  0
LINE
  5
BD81
330
18
100
AcDbEntity
  8
0
  6
BYBLOCK
100
AcDbLine
 10
541.2883861549287
 20
-714.309160274875
 30
-0.0000000000562575
 11
541.3787406992471
 21
-712.240580295757
 31
-0.0000000000562575
  0
LINE
  5
BD82
330
18
100
AcDbEntity
  8
0
  6
BYBLOCK
100
AcDbLine
 10
541.2883861549287
 20
-714.309160274875
 30
-0.0000000000562575
 11
541.88983308327
 21
-712.401737513034
 31
-0.0000000000562575
  0
LINE
  5
BD83
330
18
100
AcDbEntity
  8
0
  6
BYBLOCK
100
AcDbLine
 10
536.8441056410918
 20
-757.7863743814369
 30
0.0
 11
538.8441056410918
 21
-758.3222727614369
 31
0.0
  0
LINE
  5
BD84
330
18
100
AcDbEntity
  8
0
  6
BYBLOCK
100
AcDbLine
 10
538.8441056410918
 20
-758.3222727614369
 30
0.0
 11
536.8441056410918
 21
-758.858171141437
 31
0.0
  0
LINE
  5
BD85
330
18
100
AcDbEntity
  8
0
  6
BYBLOCK
100
AcDbLine
 10
538.8441056410918
 20
-758.3222727614369
 30
0.0
 11
536.8441056410918
 21
-758.3222727614369
 31
0.0
  0
LINE
  5
BD86
330
18
100
AcDbEntity
  8
0
  6
BYBLOCK
100
AcDbLine
 10
534.5441056410916
 20
-758.858171141437
 30
0.0
 11
532.5441056410916
 21
-758.3222727614369
 31
0.0
  0
LINE
  5
BD87
330
18
100
AcDbEntity
  8
0
  6
BYBLOCK
100
AcDbLine
 10
532.5441056410916
 20
-758.3222727614369
 30
0.0
 11
534.5441056410916
 21
-757.7863743814369
 31
0.0
  0
LINE
  5
BD88
330
18
100
AcDbEntity
  8
0
  6
BYBLOCK
100
AcDbLine
 10
532.5441056410916
 20
-758.3222727614369
 30
0.0
 11
534.5441056410916
 21
-758.3222727614369
 31
0.0
  0
TEXT
  5
BD89
330
18
100
AcDbEntity
  8
1DIM
  6
CONTINUOUS
100
AcDbText
 10
534.5274389744251
 20
-757.6222727614369
 30
0.0
 40
3.5
  1
6
100
AcDbText
1001
ACAD
1000
DSTYLE
1002
{
1070
    40
1040
1.0
1070
   271
1070
     0
1002
}
  0
LINE
  5
BD8A
330
18
100
AcDbEntity
  8
0
  6
BYBLOCK
100
AcDbLine
 10
536.8441056410918
 20
-766.8222045471421
 30
0.0
 11
538.8441056410918
 21
-767.3581029271421
 31
0.0
  0
LINE
  5
BD8B
330
18
100
AcDbEntity
  8
0
  6
BYBLOCK
100
AcDbLine
 10
538.8441056410918
 20
-767.3581029271421
 30
0.0
 11
536.8441056410918
 21
-767.8940013071422
 31
0.0
  0
LINE
  5
BD8C
330
18
100
AcDbEntity
  8
0
  6
BYBLOCK
100
AcDbLine
 10
538.8441056410918
 20
-767.3581029271421
 30
0.0
 11
536.8441056410918
 21
-767.3581029271421
 31
0.0
  0
LINE
  5
BD8D
330
18
100
AcDbEntity
  8
0
  6
BYBLOCK
100
AcDbLine
 10
518.844080830082
 20
-767.8940013071422
 30
0.0
 11
516.844080830082
 21
-767.3581029271421
 31
0.0
  0
LINE
  5
BD8E
330
18
100
AcDbEntity
  8
0
  6
BYBLOCK
100
AcDbLine
 10
516.844080830082
 20
-767.3581029271421
 30
0.0
 11
518.844080830082
 21
-766.8222045471421
 31
0.0
  0
LINE
  5
BD8F
330
18
100
AcDbEntity
  8
0
  6
BYBLOCK
100
AcDbLine
 10
516.844080830082
 20
-767.3581029271421
 30
0.0
 11
518.844080830082
 21
-767.3581029271421
 31
0.0
  0
TEXT
  5
BD90
330
18
100
AcDbEntity
  8
1DIM
  6
CONTINUOUS
100
AcDbText
 10
524.9274265689203
 20
-766.6581029271421
 30
0.0
 40
3.5
  1
22
100
AcDbText
1001
ACAD
1000
DSTYLE
1002
{
1070
    40
1040
1.0
1002
}
  0
LINE
  5
BD91
330
18
100
AcDbEntity
  8
0
  6
BYBLOCK
100
AcDbLine
 10
580.8441056411007
 20
-758.858171141437
 30
0.0
 11
578.8441056411007
 21
-758.3222727614369
 31
0.0
  0
LINE
  5
BD92
330
18
100
AcDbEntity
  8
0
  6
BYBLOCK
100
AcDbLine
 10
578.8441056411007
 20
-758.3222727614369
 30
0.0
 11
580.8441056411007
 21
-757.7863743814369
 31
0.0
  0
LINE
  5
BD93
330
18
100
AcDbEntity
  8
0
  6
BYBLOCK
100
AcDbLine
 10
578.8441056411007
 20
-758.3222727614369
 30
0.0
 11
580.8441056411007
 21
-758.3222727614369
 31
0.0
  0
LINE
  5
BD94
330
18
100
AcDbEntity
  8
0
  6
BYBLOCK
100
AcDbLine
 10
583.1441056411009
 20
-757.7863743814369
 30
0.0
 11
585.1441056411009
 21
-758.3222727614369
 31
0.0
  0
LINE
  5
BD95
330
18
100
AcDbEntity
  8
0
  6
BYBLOCK
100
AcDbLine
 10
585.1441056411009
 20
-758.3222727614369
 30
0.0
 11
583.1441056411009
 21
-758.858171141437
 31
0.0
  0
LINE
  5
BD96
330
18
100
AcDbEntity
  8
0
  6
BYBLOCK
100
AcDbLine
 10
585.1441056411009
 20
-758.3222727614369
 30
0.0
 11
583.1441056411009
 21
-758.3222727614369
 31
0.0
  0
TEXT
  5
BD97
330
18
100
AcDbEntity
  8
1DIM
  6
CONTINUOUS
100
AcDbText
 10
580.8274389744341
 20
-757.6222727614369
 30
0.0
 40
3.5
  1
6
100
AcDbText
1001
ACAD
1000
DSTYLE
1002
{
1070
    40
1040
1.0
1070
   271
1070
     0
1002
}
  0
LINE
  5
BD98
330
18
100
AcDbEntity
  8
0
  6
BYBLOCK
100
AcDbLine
 10
580.8441056411007
 20
-767.8940013071422
 30
0.0
 11
578.8441056411007
 21
-767.3581029271421
 31
0.0
  0
LINE
  5
BD99
330
18
100
AcDbEntity
  8
0
  6
BYBLOCK
100
AcDbLine
 10
578.8441056411007
 20
-767.3581029271421
 30
0.0
 11
580.8441056411007
 21
-766.8222045471421
 31
0.0
  0
LINE
  5
BD9A
330
18
100
AcDbEntity
  8
0
  6
BYBLOCK
100
AcDbLine
 10
578.8441056411007
 20
-767.3581029271421
 30
0.0
 11
580.8441056411007
 21
-767.3581029271421
 31
0.0
  0
LINE
  5
BD9B
330
18
100
AcDbEntity
  8
0
  6
BYBLOCK
100
AcDbLine
 10
585.0859737959707
 20
-766.8222045471421
 30
0.0
 11
587.0859737959707
 21
-767.3581029271421
 31
0.0
  0
LINE
  5
BD9C
330
18
100
AcDbEntity
  8
0
  6
BYBLOCK
100
AcDbLine
 10
587.0859737959707
 20
-767.3581029271421
 30
0.0
 11
585.0859737959707
 21
-767.8940013071422
 31
0.0
  0
LINE
  5
BD9D
330
18
100
AcDbEntity
  8
0
  6
BYBLOCK
100
AcDbLine
 10
587.0859737959707
 20
-767.3581029271421
 30
0.0
 11
585.0859737959707
 21
-767.3581029271421
 31
0.0
  0
TEXT
  5
BD9E
330
18
100
AcDbEntity
  8
1DIM
  6
CONTINUOUS
100
AcDbText
 10
581.7983730518691
 20
-766.6581029271421
 30
0.0
 40
3.5
  1
8
100
AcDbText
1001
ACAD
1000
DSTYLE
1002
{
1070
    40
1040
1.0
1070
   271
1070
     0
1002
}
  0
LINE
  5
BD9F
330
18
100
AcDbEntity
  8
0
  6
BYBLOCK
100
AcDbLine
 10
661.7126450882957
 20
-776.6646286637605
 30
0.0
 11
661.1767467082957
 21
-778.6646286637605
 31
0.0
  0
LINE
  5
BDA0
330
18
100
AcDbEntity
  8
0
  6
BYBLOCK
100
AcDbLine
 10
661.1767467082957
 20
-778.6646286637605
 30
0.0
 11
660.6408483282956
 21
-776.6646286637605
 31
0.0
  0
LINE
  5
BDA1
330
18
100
AcDbEntity
  8
0
  6
BYBLOCK
100
AcDbLine
 10
661.1767467082957
 20
-778.6646286637605
 30
0.0
 11
661.1767467082957
 21
-776.6646286637605
 31
0.0
  0
LINE
  5
BDA2
330
18
100
AcDbEntity
  8
0
  6
BYBLOCK
100
AcDbLine
 10
660.6408483282958
 20
-730.6646288678884
 30
0.0
 11
661.1767467082958
 21
-728.6646288678884
 31
0.0
  0
LINE
  5
BDA3
330
18
100
AcDbEntity
  8
0
  6
BYBLOCK
100
AcDbLine
 10
661.1767467082958
 20
-728.6646288678884
 30
0.0
 11
661.7126450882959
 21
-730.6646288678884
 31
0.0
  0
LINE
  5
BDA4
330
18
100
AcDbEntity
  8
0
  6
BYBLOCK
100
AcDbLine
 10
661.1767467082958
 20
-728.6646288678884
 30
0.0
 11
661.1767467082958
 21
-730.6646288678884
 31
0.0
  0
TEXT
  5
BDA5
330
18
100
AcDbEntity
  8
1DIM
  6
CONTINUOUS
100
AcDbText
 10
660.476746708296
 20
-774.9830315436021
 30
0.0
 40
3.5
  1
ハンドル取付位置=50
 50
90.0
100
AcDbText
1001
ACAD
1000
DSTYLE
1002
{
1070
    40
1040
1.0
1002
}
  0
LINE
  5
BDA6
330
18
100
AcDbEntity
  8
0
  6
BYBLOCK
100
AcDbLine
 10
565.879102008172
 20
-734.2361562051464
 30
-0.0000000000562575
 11
566.9028453953613
 21
-731.746719394999
 31
-0.0000000000562575
  0
LINE
  5
BDA7
330
18
100
AcDbEntity
  8
0
  6
BYBLOCK
100
AcDbLine
 10
566.9028453953613
 20
-731.746719394999
 30
-0.0000000000562575
 11
567.2609760080702
 21
-734.414506608922
 31
-0.0000000000562575
  0
LINE
  5
BDA8
330
18
100
AcDbEntity
  8
0
  6
BYBLOCK
100
AcDbLine
 10
566.9028453953613
 20
-731.746719394999
 30
-0.0000000000562575
 11
566.5700390081212
 21
-734.3253314070341
 31
-0.0000000000562575
  0
VIEWPORT
  5
20C3
330
15
100
AcDbEntity
 67
     1
  8
0
  6
CONTINUOUS
100
AcDbViewport
 68
     1
 10
0.0
 20
0.0
 30
0.0
 40
535.5106132075472
 41
297.0
 68
     1
 69
     1
1001
ACAD
1000
MVIEW
1002
{
1070
    16
1010
0.0
1020
0.0
1030
0.0
1010
0.0
1020
0.0
1030
1.0
1040
0.0
1040
297.0
1040
-4.171999999999855
1040
12.839
1040
50.0
1040
0.0
1040
0.0
1070
    16
1070
   100
1070
     0
1070
     1
1070
     0
1070
     0
1070
     0
1070
     0
1040
0.0
1040
0.0
1040
0.0
1040
1.0
1040
1.0
1040
0.0
1040
0.0
1070
     0
1002
{
1002
}
1002
}
  0
ENDSEC
  0
SECTION
  2
OBJECTS
  0
DICTIONARY
  5
C
330
0
100
AcDbDictionary
  3
ACAD_CIP_PREVIOUS_PRODUCT_INFO
350
AE8A
  3
ACAD_COLOR
350
6590
  3
ACAD_GROUP
350
D
  3
ACAD_LAYOUT
350
6591
  3
ACAD_MATERIAL
350
658F
  3
ACAD_MLEADERSTYLE
350
9BF1
  3
ACAD_MLINESTYLE
350
1B
  3
ACAD_PLOTSETTINGS
350
6592
  3
ACAD_SCALELIST
350
9BCF
  3
ACAD_VISUALSTYLE
350
9BBE
  3
ACDBHEADERROUNDTRIPXREC
350
BDA9
  3
ACDBVARIABLEDICTIONARY
350
2739
  3
AEC_PROPERTY_SET_DEFS
350
B1BE
  3
CONTENTDICTIONARY
350
1BFA
  3
DRAWINGVARIABLESDICT
350
3B87
  3
DWGPROPS
350
BDAC
1001
ACAD
1000
TREAT_AS_HARD
1070
     0
  0
DICTIONARY
  5
83EE
330
2
100
AcDbDictionary
  3
ACAD_LAYERSTATES
360
83EF
1001
ACAD
1000
TREAT_AS_HARD
1070
     1
  0
DICTIONARY
  5
9BF8
330
E
100
AcDbDictionary
  3
ADSK_XREC_LAYER_RECONCILED
360
9BF9
1001
ACAD
1000
TREAT_AS_HARD
1070
     1
  0
DICTIONARY
  5
9BFA
330
1C0B
100
AcDbDictionary
  3
ADSK_XREC_LAYER_RECONCILED
360
9BFB
1001
ACAD
1000
TREAT_AS_HARD
1070
     1
  0
DICTIONARY
  5
9BFC
330
1C0C
100
AcDbDictionary
  3
ADSK_XREC_LAYER_RECONCILED
360
9BFD
1001
ACAD
1000
TREAT_AS_HARD
1070
     1
  0
DICTIONARY
  5
9BFE
330
1C0E
100
AcDbDictionary
  3
ADSK_XREC_LAYER_RECONCILED
360
9BFF
1001
ACAD
1000
TREAT_AS_HARD
1070
     1
  0
DICTIONARY
  5
9C04
330
37AE
100
AcDbDictionary
  3
ADSK_XREC_LAYER_RECONCILED
360
9C05
1001
ACAD
1000
TREAT_AS_HARD
1070
     1
  0
DICTIONARY
  5
9C16
330
93A7
100
AcDbDictionary
  3
ADSK_XREC_LAYER_RECONCILED
360
9C17
1001
ACAD
1000
TREAT_AS_HARD
1070
     1
  0
DICTIONARY
  5
9CD1
330
18
100
AcDbDictionary
  3
ACAD_SORTENTS
360
9CD2
1001
ACAD
1000
TREAT_AS_HARD
1070
     1
  0
XRECORD
  5
AE8A
102
{ACAD_REACTORS
330
C
102
}
330
C
100
AcDbXrecord
300
ACDLT
300
2012
300
ACDLT_F_S
  0
DICTIONARY
  5
6590
102
{ACAD_REACTORS
330
C
102
}
330
C
100
AcDbDictionary
1001
ACAD
1000
TREAT_AS_HARD
1070
     0
  0
DICTIONARY
  5
D
102
{ACAD_REACTORS
330
C
102
}
330
C
100
AcDbDictionary
1001
ACAD
1000
TREAT_AS_HARD
1070
     0
  0
DICTIONARY
  5
6591
102
{ACAD_REACTORS
330
C
102
}
330
C
100
AcDbDictionary
1001
ACAD
1000
TREAT_AS_HARD
1070
     0
  0
DICTIONARY
  5
658F
102
{ACAD_REACTORS
330
C
102
}
330
C
100
AcDbDictionary
  3
BYBLOCK
350
9BAE
  3
BYLAYER
350
9BA6
  3
GLOBAL
350
9BB6
1001
ACAD
1000
TREAT_AS_HARD
1070
     0
  0
DICTIONARY
  5
9BF1
102
{ACAD_REACTORS
330
C
102
}
330
C
100
AcDbDictionary
  3
STANDARD
350
9BF2
1001
ACAD
1000
TREAT_AS_HARD
1070
     0
  0
DICTIONARY
  5
1B
102
{ACAD_REACTORS
330
C
102
}
330
C
100
AcDbDictionary
  3
STANDARD
350
1C
1001
ACAD
1000
TREAT_AS_HARD
1070
     0
  0
DICTIONARY
  5
6592
102
{ACAD_REACTORS
330
C
102
}
330
C
100
AcDbDictionary
1001
ACAD
1000
TREAT_AS_HARD
1070
     0
  0
DICTIONARY
  5
9BCF
102
{ACAD_REACTORS
330
C
102
}
330
C
100
AcDbDictionary
  3
A0
350
9BD0
  3
A1
350
9BD1
  3
A2
350
9BD2
  3
A3
350
9BD3
  3
A4
350
9BD4
  3
A5
350
9BD5
  3
A6
350
9BD6
  3
A7
350
9BD7
  3
A8
350
9BD8
  3
A9
350
9BD9
  3
B0
350
9BDA
  3
B1
350
9BDB
  3
B2
350
9BDC
  3
B3
350
9BDD
  3
B4
350
9BDE
  3
B5
350
9BDF
  3
B6
350
9BE0
  3
B7
350
9BE1
  3
B8
350
9BE2
  3
B9
350
9BE3
  3
C0
350
9BE4
  3
C1
350
9BE5
  3
C2
350
9BE6
  3
C3
350
9BE7
  3
C4
350
9BE8
  3
C5
350
9BE9
  3
C6
350
9BEA
  3
C7
350
9BEB
  3
C8
350
9BEC
  3
C9
350
9BED
  3
D0
350
9BEE
  3
D1
350
9BEF
  3
D2
350
9BF0
1001
ACAD
1000
TREAT_AS_HARD
1070
     0
  0
DICTIONARY
  5
9BBE
102
{ACAD_REACTORS
330
C
102
}
330
C
100
AcDbDictionary
  3
2DWIREFRAME
350
9BC4
  3
3D_HIDDEN
350
9BC6
  3
3DWIREFRAME
350
9BC5
  3
BASIC
350
9BC3
  3
BRIGHTEN
350
9BCA
  3
COLORCHANGE
350
9BCE
  3
CONCEPTUAL
350
9BC7
  3
DIM
350
9BC9
  3
EDGECOLOROFF
350
AE85
  3
FACEPATTERN
350
9BCD
  3
FLAT
350
9BBF
  3
FLATWITHEDGES
350
9BC0
  3
GOURAUD
350
9BC1
  3
GOURAUDWITHEDGES
350
9BC2
  3
HIDDEN
350
AE7D
  3
JITTEROFF
350
AE83
  3
LINEPATTERN
350
9BCC
  3
MODELING
350
BBCC
  3
OVERHANGOFF
350
AE84
  3
REALISTIC
350
9BC8
  3
SHADED
350
AE82
  3
SHADED_WITH_EDGES
350
AE81
  3
SHADES_OF_GRAY
350
AE7E
  3
SKETCHY
350
AE7F
  3
THICKEN
350
9BCB
  3
WIREFRAME
350
AE7C
  3
X-RAY
350
AE80
1001
ACAD
1000
TREAT_AS_HARD
1070
     0
  0
DICTIONARY
  5
BDA9
102
{ACAD_REACTORS
330
C
102
}
330
C
100
AcDbDictionary
  3
COLORDICT
350
BDAA
  3
MATERIALDICT
350
BDAB
1001
ACAD
1000
TREAT_AS_HARD
1070
     0
  0
DICTIONARY
  5
2739
102
{ACAD_REACTORS
330
C
102
}
330
C
100
AcDbDictionary
  3
CANNOSCALE
350
9C4B
  3
CMLEADERSTYLE
350
9C4A
  3
CTABLESTYLE
350
8076
  3
DIMADEC
350
3FDC
  3
DIMASSOC
350
7B85
  3
HIDETEXT
350
9173
  3
INDEXCTL
350
9C4C
  3
INTERSECTIONCOLOR
350
9177
  3
INTERSECTIONDISPLAY
350
9176
  3
MSLTSCALE
350
BC4A
  3
OBSCOLOR
350
9174
  3
OBSLTYPE
350
9175
  3
PROJECTNAME
350
7B86
  3
SORTENTS
350
273A
  3
XCLIPFRAME
350
BBCB
1001
ACAD
1000
TREAT_AS_HARD
1070
     0
  0
DICTIONARY
  5
B1BE
102
{ACAD_REACTORS
330
C
102
}
330
C
100
AcDbDictionary
1001
ACAD
1000
TREAT_AS_HARD
1070
     0
  0
DICTIONARY
  5
1BFA
102
{ACAD_REACTORS
330
C
102
}
330
C
100
AcDbDictionary
1001
CONTENTTABDATA
1070
    11
1000
Child
1000
D:\ACLT\TABset\CHILDREN.dwg
1070
     0
1070
     0
1070
     1
1000
PK
1000
D:\ACLT\TABset\PK.dwg
1070
     0
1070
     0
1070
     1
1000
Lev1
1000
D:\ACLT\TABset\Lever01.dwg
1070
     0
1070
     0
1070
     1
1000
Lev2
1000
D:\ACLT\TABset\Lever02.dwg
1070
     0
1070
     0
1070
     1
1000
L3
1000
D:\Aclt\TABset\Lever03.dwg
1070
     0
1070
     0
1070
     1
1000
Form
1000
D:\ACLT\FORMAT
1070
     1
1070
     0
1070
     1
1000
Jnt
1000
D:\ACLT\TABset\JOINTPARTS.dwg
1070
     0
1070
     0
1070
     1
1000
ISO
1000
D:\ACLT\TABset\Isome01.dwg
1070
     0
1070
     0
1070
     1
1000
R
1000
D:\ACLT\TABset\REGION.dwg
1070
     0
1070
     0
1070
     1
1000
std
1000
D:\ACLT\TABset\std_sym_all.dwg
1070
     0
1070
     0
1070
     1
1000
丸
1000
D:\Aclt\TABset\MARU.dwg
1070
     0
1070
     0
1070
     1
1001
CONTENTCURRENTTAB
1070
     2
1001
ACAD
1000
TREAT_AS_HARD
1070
     0
  0
DICTIONARY
  5
3B87
102
{ACAD_REACTORS
330
C
102
}
330
C
100
AcDbDictionary
1001
DRAWINGVARIABLESXDATA
1000
POLARANG
1000
0.261799387799149410000000
1000
POLARMODE
1000
1
1000
POLARSTYLE
1000
1
1001
ACAD
1000
TREAT_AS_HARD
1070
     0
  0
XRECORD
  5
BDAC
102
{ACAD_REACTORS
330
C
102
}
330
C
100
AcDbXrecord
  1
DWGPROPS COOKIE
  2

  3

  4

  6

  7

  8
3684
  9

300
=
301
=
302
=
303
=
304
=
305
=
306
=
307
=
308
=
309
=
 40
0.0
 41
2451024.204593021
 42
2458549.14804941
  1

 90
        0
  0
DICTIONARY
  5
83EF
102
{ACAD_REACTORS
330
83EE
102
}
330
83EE
100
AcDbDictionary
1001
ACAD
1000
TREAT_AS_HARD
1070
     0
  0
ACAD_PROXY_OBJECT
  5
9BF9
102
{ACAD_REACTORS
330
9BF8
102
}
330
9BF8
100
AcDbZombieObject
 90
      499
 91
      516
 93
       34
310
40C8804040
  0
ACAD_PROXY_OBJECT
  5
9BFB
102
{ACAD_REACTORS
330
9BFA
102
}
330
9BFA
100
AcDbZombieObject
 90
      499
 91
      516
 93
       34
310
40C8804040
  0
ACAD_PROXY_OBJECT
  5
9BFD
102
{ACAD_REACTORS
330
9BFC
102
}
330
9BFC
100
AcDbZombieObject
 90
      499
 91
      516
 93
       34
310
40C8804040
  0
ACAD_PROXY_OBJECT
  5
9BFF
102
{ACAD_REACTORS
330
9BFE
102
}
330
9BFE
100
AcDbZombieObject
 90
      499
 91
      516
 93
       34
310
40C8804040
  0
ACAD_PROXY_OBJECT
  5
9C05
102
{ACAD_REACTORS
330
9C04
102
}
330
9C04
100
AcDbZombieObject
 90
      499
 91
      516
 93
       34
310
40C8804040
  0
ACAD_PROXY_OBJECT
  5
9C17
102
{ACAD_REACTORS
330
9C16
102
}
330
9C16
100
AcDbZombieObject
 90
      499
 91
      516
 93
       34
310
40C8804040
  0
SORTENTSTABLE
  5
9CD2
102
{ACAD_REACTORS
330
9CD1
102
}
330
9CD1
100
AcDbSortentsTable
330
18
331
0
  5
99C2
331
0
  5
99C4
331
0
  5
99C5
331
8FBC
  5
9A4D
331
99A6
  5
9A4F
331
99A7
  5
9A50
331
99A8
  5
9A58
331
99AB
  5
9A64
331
0
  5
99CC
331
0
  5
99D0
331
0
  5
99D1
331
0
  5
99E4
331
99B0
  5
9FE2
331
99B1
  5
9FE6
331
0
  5
99E7
331
99B5
  5
A084
331
99BF
  5
A085
331
99C0
  5
A089
331
99C1
  5
A08A
331
99C3
  5
A08B
331
99C4
  5
A08F
331
99C5
  5
A090
331
99C6
  5
A091
331
99C7
  5
A903
331
99C8
  5
A905
331
99CA
  5
A906
331
99CB
  5
AEC6
331
99CF
  5
AEC7
331
99D0
  5
AEC8
331
99E3
  5
AEC9
331
99E4
  5
AECA
331
99E5
  5
AECB
331
99E6
  5
AECF
331
0
  5
9A51
331
0
  5
9A56
331
99EA
  5
AED6
331
0
  5
9A60
331
0
  5
9A61
331
0
  5
9A62
331
0
  5
9A63
331
9A3A
  5
B2BC
331
9A3B
  5
B2BD
331
9A42
  5
B2BE
331
0
  5
9A70
331
9A48
  5
B2C9
331
9A49
  5
B2CA
331
9A4A
  5
B2CB
331
9A4C
  5
B2CC
331
9A4D
  5
B2CD
331
9A4E
  5
B2CE
331
9A4F
  5
B2CF
331
9A50
  5
B363
331
9A55
  5
B364
331
9A57
  5
B365
331
9A5F
  5
B366
331
9A60
  5
B367
331
9A61
  5
B368
331
9A62
  5
B369
331
9A63
  5
B36A
331
9A64
  5
B36B
331
9A6E
  5
B36C
331
9A6F
  5
B36D
331
9A80
  5
B36E
331
9A81
  5
B36F
331
9A83
  5
B370
331
9A87
  5
B371
331
9A88
  5
B372
331
9A89
  5
B373
331
9A8B
  5
B374
331
0
  5
A004
331
0
  5
A005
331
9FCF
  5
B37C
331
9FD0
  5
B37D
331
9FD1
  5
B37E
331
9FD2
  5
B37F
331
9FD3
  5
B380
331
9FD4
  5
B381
331
9FE2
  5
B382
331
9FE6
  5
B383
331
9FFC
  5
B384
331
9FFD
  5
B385
331
9FFE
  5
B386
331
9FFF
  5
B387
331
A000
  5
B388
331
A001
  5
B389
331
A002
  5
B38A
331
A003
  5
B38B
331
A004
  5
B38C
331
A005
  5
B38D
331
A006
  5
B38E
331
A007
  5
B38F
331
A008
  5
B390
331
A084
  5
B391
331
A085
  5
B392
331
A086
  5
B393
331
A087
  5
B394
331
A088
  5
B395
331
A089
  5
B396
331
A08A
  5
B397
331
A08B
  5
B398
331
A08C
  5
B399
331
A08D
  5
B39A
331
A08E
  5
B39B
331
A08F
  5
B39C
331
A090
  5
B39D
331
A091
  5
B39E
331
A092
  5
B39F
331
A11D
  5
B3A0
331
A11E
  5
B3A1
331
A903
  5
B3A2
331
A905
  5
B3A3
331
A906
  5
B3A4
331
A994
  5
B3A5
331
AEC4
  5
B3A6
331
AEC5
  5
B3A8
331
AEC6
  5
B3A9
331
AEC7
  5
B3AA
331
AEC8
  5
B3AB
331
AEC9
  5
B3AC
331
AECA
  5
B3AD
331
AECB
  5
B3AE
331
AECC
  5
B3AF
331
AECD
  5
B3B0
331
AECE
  5
B3B1
331
AECF
  5
B3B2
331
AED0
  5
B3B3
331
AED1
  5
B3B4
331
AED2
  5
B3B5
331
AED3
  5
B3B6
331
AED4
  5
B3B7
331
AED5
  5
B3B8
331
AED6
  5
B3B9
331
AED7
  5
B3BA
331
AED8
  5
B3BB
331
AED9
  5
B3BC
331
AEDA
  5
B3BD
331
AEDB
  5
B3BE
331
AEDC
  5
B3BF
331
AEDD
  5
B3C0
331
AEDE
  5
B3C1
331
AEDF
  5
B3C2
331
AEE0
  5
B3C3
331
AEE1
  5
B3C4
331
AEE2
  5
B3C5
331
AEE3
  5
B3C6
331
AEE4
  5
B3C7
331
AEE5
  5
B3C8
331
AEE6
  5
B3C9
331
AEE7
  5
B3CA
331
AEE8
  5
B3CB
331
AEE9
  5
B3CC
331
AEEA
  5
B3CD
331
AEEB
  5
B3CE
331
AEEC
  5
B3CF
331
AEED
  5
B3D0
331
AEEE
  5
B3D1
331
AEF1
  5
B3D2
331
AEF2
  5
B3D3
331
AEF3
  5
B3D4
331
AEF4
  5
B3D5
331
AEF5
  5
B3D6
331
AEF6
  5
B3D7
331
AEF9
  5
B3D8
331
AEFA
  5
B3D9
331
B2B3
  5
B3DA
331
B2B4
  5
B3DB
331
B2B5
  5
BCFA
331
B2B6
  5
BCFB
331
B2B7
  5
BCFC
331
B2B8
  5
BCFD
331
B2B9
  5
BCFE
331
B2BA
  5
BCFF
331
B2BB
  5
BD00
331
B2BC
  5
BD01
331
B2BD
  5
BD02
331
B2BE
  5
BD03
331
B2BF
  5
BD0C
331
B2C0
  5
BD0D
331
B2C1
  5
BD0E
331
B2C2
  5
BD10
331
B2C3
  5
BD11
331
B2C4
  5
BD12
331
B2C5
  5
BD13
331
B2C6
  5
BD14
331
B2C7
  5
BD15
331
B2C8
  5
BD16
331
B2C9
  5
BD17
331
B2CA
  5
BD18
331
B2CB
  5
BD19
331
B2CC
  5
BD1A
331
B2CD
  5
BD1B
331
B2CE
  5
BD1C
331
B2CF
  5
BD1D
331
B363
  5
BD1E
331
B364
  5
BD1F
331
B365
  5
BD20
331
B366
  5
BD21
331
B367
  5
BD22
331
B368
  5
BD23
331
B369
  5
BD24
331
B36A
  5
BD25
331
B36B
  5
BD26
331
B36C
  5
BD27
331
B36D
  5
BD28
331
B36E
  5
BD29
331
B36F
  5
BD2A
331
B370
  5
BD2B
331
B371
  5
BD2C
331
B372
  5
BD2D
331
B373
  5
BD2E
331
B374
  5
BD2F
331
B375
  5
BD30
331
B376
  5
BD31
331
B377
  5
BD32
331
B378
  5
BD33
331
B379
  5
BD34
331
B37A
  5
BD35
331
B37B
  5
BD36
331
B37C
  5
BD37
331
B37D
  5
BD38
331
B37E
  5
BD39
331
B37F
  5
BD3A
331
B380
  5
BD3B
331
B381
  5
BD3C
331
B382
  5
BD3D
331
B383
  5
BD3E
331
B384
  5
BD3F
331
B385
  5
BD40
331
B386
  5
BD41
331
B387
  5
BD42
331
B388
  5
BD43
331
B389
  5
BD44
331
B38A
  5
BD45
331
B38B
  5
BD46
331
B38C
  5
BD47
331
B38D
  5
BD48
331
B38E
  5
BD49
331
B38F
  5
BD4A
331
B390
  5
BD4B
331
B391
  5
BD4C
331
B392
  5
BD4D
331
B393
  5
BD4E
331
B394
  5
BD4F
331
B395
  5
BD50
331
B396
  5
BD51
331
B397
  5
BD52
331
B398
  5
BD53
331
B399
  5
BD54
331
B39A
  5
BD55
331
B39B
  5
BD56
331
B39C
  5
BD57
331
B39D
  5
BD58
331
B39E
  5
BD59
331
B39F
  5
BD5A
331
B3A0
  5
BD5B
331
B3A1
  5
BD5C
331
B3A2
  5
BD5D
331
B3A3
  5
BD5E
331
B3A4
  5
BD5F
331
B3A5
  5
BD60
331
B3A6
  5
BD61
331
B3A8
  5
BD64
331
B3A9
  5
BD65
331
B3AA
  5
BD66
331
B3AB
  5
BD67
331
B3AC
  5
BD68
331
B3AD
  5
BD69
331
B3AE
  5
BD6A
331
B3AF
  5
BD6B
331
B3B0
  5
BD6C
331
B3B1
  5
BD6D
331
B3B2
  5
BD6E
331
B3B3
  5
BD6F
331
B3B4
  5
BD70
331
B3B5
  5
BD71
331
B3B6
  5
BD72
331
B3B7
  5
BD73
331
B3B8
  5
BD74
331
B3B9
  5
BD75
331
B3BA
  5
BD76
331
B3BB
  5
BD77
331
B3BC
  5
BD78
331
B3BD
  5
BD79
331
B3BE
  5
BD7A
331
B3BF
  5
BD7B
331
B3C0
  5
BD7C
331
B3C1
  5
BD7D
331
B3C2
  5
BD7E
331
B3C3
  5
BD7F
331
B3C4
  5
BD80
331
B3C5
  5
BD81
331
B3C6
  5
BD82
331
B3C7
  5
BD83
331
B3C8
  5
BD84
331
B3C9
  5
BD85
331
B3CA
  5
BD86
331
B3CB
  5
BD87
331
B3CC
  5
BD88
331
B3CD
  5
BD89
331
B3CE
  5
BD8A
331
B3CF
  5
BD8B
331
B3D0
  5
BD8C
331
B3D1
  5
BD8D
331
B3D2
  5
BD8E
331
B3D3
  5
BD8F
331
B3D4
  5
BD90
331
B3D5
  5
BD91
331
B3D6
  5
BD92
331
B3D7
  5
BD93
331
B3D8
  5
BD94
331
B3D9
  5
BD95
331
B3DA
  5
BD96
331
B3DB
  5
BD97
331
BCFA
  5
8D20
331
BCFB
  5
8D27
331
BCFC
  5
8D28
331
0
  5
8FBC
331
BCFE
  5
99B3
331
BCFF
  5
99B6
331
BD00
  5
99C0
331
BD01
  5
99C1
331
BD02
  5
BD62
331
BD03
  5
BD63
331
BD0C
  5
BD98
331
BD0D
  5
BD99
331
BD0E
  5
BD9A
331
BD10
  5
BDA5
331
BD11
  5
BDA6
331
BD12
  5
BDA7
331
BD13
  5
BDA8
331
BD14
  5
99A7
331
BD15
  5
99A8
331
BD16
  5
99A9
331
BD17
  5
99AC
331
BD18
  5
99AD
331
BD19
  5
99AE
331
BD1A
  5
99AF
331
BD1B
  5
99B0
331
BD1C
  5
99B1
331
BD1D
  5
99B2
331
BD1E
  5
BD9B
331
BD1F
  5
BD9C
331
BD20
  5
BD9D
331
BD21
  5
BD9E
331
BD22
  5
BD9F
331
BD23
  5
BDA0
331
BD24
  5
BDA1
331
BD25
  5
BDA2
331
BD26
  5
BDA3
331
BD27
  5
BDA4
331
BD28
  5
99C6
331
BD29
  5
99C7
331
BD2A
  5
99C8
331
0
  5
99C9
331
0
  5
99CB
331
0
  5
99E5
331
0
  5
99E6
331
BD2F
  5
9A49
331
BD30
  5
9A4A
331
BD31
  5
9A4C
331
BD32
  5
9A65
331
BD33
  5
9A6F
331
0
  5
9A48
331
BD35
  5
9C66
331
BD36
  5
9DA7
331
BD37
  5
9DA8
331
BD38
  5
9FCF
331
0
  5
9A4E
331
BD3A
  5
9FD3
331
BD3B
  5
9FD4
331
BD3C
  5
9FFC
331
BD3D
  5
9FFD
331
BD3E
  5
9FFE
331
0
  5
9A82
331
0
  5
9A84
331
0
  5
9A88
331
BD42
  5
AED0
331
0
  5
A002
331
BD44
  5
AED4
331
BD45
  5
AED5
331
BD46
  5
AED7
331
BD47
  5
AED8
331
BD48
  5
AED9
331
0
  5
A086
331
0
  5
A087
331
0
  5
A088
331
BD4C
  5
AEE1
331
BD4D
  5
AEE2
331
BD4E
  5
AEE3
331
0
  5
A08C
331
0
  5
A08D
331
0
  5
A08E
331
BD52
  5
AEEC
331
BD53
  5
AEED
331
BD54
  5
AEEE
331
0
  5
A092
331
0
  5
A11D
331
0
  5
A11E
331
BD58
  5
AEFA
331
BD59
  5
B2B3
331
BD5A
  5
B2B4
331
0
  5
A994
331
0
  5
AEC4
331
0
  5
AEC5
331
BD5E
  5
B2BF
331
BD5F
  5
B2C0
331
BD60
  5
B2C1
331
0
  5
AECC
331
0
  5
AECD
331
0
  5
AECE
331
0
  5
AEE8
331
BD65
  5
B378
331
BD66
  5
B379
331
BD67
  5
B37A
331
BD68
  5
B37B
331
BD69
  5
99E9
331
BD6A
  5
99EA
331
BD6B
  5
99EB
331
BD6C
  5
99F2
331
BD6D
  5
99F3
331
BD6E
  5
9A24
331
BD6F
  5
9A25
331
BD70
  5
9A3B
331
BD71
  5
9A3C
331
BD72
  5
9A43
331
BD73
  5
9A81
331
BD74
  5
9A89
331
BD75
  5
9A8A
331
BD76
  5
9FD0
331
BD77
  5
9FD1
331
BD78
  5
9FD2
331
BD79
  5
9FFF
331
BD7A
  5
A000
331
BD7B
  5
A001
331
BD7C
  5
A003
331
BD7D
  5
A006
331
BD7E
  5
A007
331
BD7F
  5
A008
331
BD80
  5
AED1
331
BD81
  5
AED2
331
BD82
  5
AED3
331
BD83
  5
AEDA
331
BD84
  5
AEDB
331
BD85
  5
AEDC
331
BD86
  5
AEDD
331
BD87
  5
AEDE
331
BD88
  5
AEDF
331
BD89
  5
AEE0
331
BD8A
  5
AEE4
331
BD8B
  5
AEE5
331
BD8C
  5
AEE6
331
BD8D
  5
AEE7
331
BD8E
  5
AEE9
331
BD8F
  5
AEEA
331
BD90
  5
AEEB
331
BD91
  5
AEF1
331
BD92
  5
AEF2
331
BD93
  5
AEF3
331
BD94
  5
AEF4
331
BD95
  5
AEF5
331
BD96
  5
AEF6
331
BD97
  5
AEF9
331
BD98
  5
B2B5
331
BD99
  5
B2B6
331
BD9A
  5
B2B7
331
BD9B
  5
B2B8
331
BD9C
  5
B2B9
331
BD9D
  5
B2BA
331
BD9E
  5
B2BB
331
BD9F
  5
B2C2
331
BDA0
  5
B2C3
331
BDA1
  5
B2C4
331
BDA2
  5
B2C5
331
BDA3
  5
B2C6
331
BDA4
  5
B2C7
331
BDA5
  5
B2C8
331
BDA6
  5
B375
331
BDA7
  5
B376
331
BDA8
  5
B377
  0
MATERIAL
  5
9BAE
102
{ACAD_REACTORS
330
658F
102
}
102
{ACAD_XDICTIONARY
360
BF47
102
}
330
658F
100
AcDbMaterial
  1
BYBLOCK
 72
     0
 73
     2
 43
0.0208333333333333
 43
0.0
 43
0.0
 43
0.0
 43
0.0
 43
0.0208333333333333
 43
0.0
 43
0.0
 43
0.0
 43
0.0
 43
1.0
 43
0.0
 43
0.0
 43
0.0
 43
0.0
 43
1.0
 77
     0
 78
     2
 47
0.0208333333333333
 47
0.0
 47
0.0
 47
0.0
 47
0.0
 47
0.0208333333333333
 47
0.0
 47
0.0
 47
0.0
 47
0.0
 47
1.0
 47
0.0
 47
0.0
 47
0.0
 47
0.0
 47
1.0
171
     0
172
     2
 49
0.0208333333333333
 49
0.0
 49
0.0
 49
0.0
 49
0.0
 49
0.0208333333333333
 49
0.0
 49
0.0
 49
0.0
 49
0.0
 49
1.0
 49
0.0
 49
0.0
 49
0.0
 49
0.0
 49
1.0
175
     0
176
     2
142
0.0208333333333333
142
0.0
142
0.0
142
0.0
142
0.0
142
0.0208333333333333
142
0.0
142
0.0
142
0.0
142
0.0
142
1.0
142
0.0
142
0.0
142
0.0
142
0.0
142
1.0
179
     0
270
     2
144
0.0208333333333333
144
0.0
144
0.0
144
0.0
144
0.0
144
0.0208333333333333
144
0.0
144
0.0
144
0.0
144
0.0
144
1.0
144
0.0
144
0.0
144
0.0
144
0.0
144
1.0
274
     2
147
0.0208333333333333
147
0.0
147
0.0
147
0.0
147
0.0
147
0.0208333333333333
147
0.0
147
0.0
147
0.0
147
0.0
147
1.0
147
0.0
147
0.0
147
0.0
147
0.0
147
1.0
  0
MATERIAL
  5
9BA6
102
{ACAD_REACTORS
330
658F
102
}
102
{ACAD_XDICTIONARY
360
BF49
102
}
330
658F
100
AcDbMaterial
  1
BYLAYER
 72
     0
 73
     2
 43
0.0208333333333333
 43
0.0
 43
0.0
 43
0.0
 43
0.0
 43
0.0208333333333333
 43
0.0
 43
0.0
 43
0.0
 43
0.0
 43
1.0
 43
0.0
 43
0.0
 43
0.0
 43
0.0
 43
1.0
 77
     0
 78
     2
 47
0.0208333333333333
 47
0.0
 47
0.0
 47
0.0
 47
0.0
 47
0.0208333333333333
 47
0.0
 47
0.0
 47
0.0
 47
0.0
 47
1.0
 47
0.0
 47
0.0
 47
0.0
 47
0.0
 47
1.0
171
     0
172
     2
 49
0.0208333333333333
 49
0.0
 49
0.0
 49
0.0
 49
0.0
 49
0.0208333333333333
 49
0.0
 49
0.0
 49
0.0
 49
0.0
 49
1.0
 49
0.0
 49
0.0
 49
0.0
 49
0.0
 49
1.0
175
     0
176
     2
142
0.0208333333333333
142
0.0
142
0.0
142
0.0
142
0.0
142
0.0208333333333333
142
0.0
142
0.0
142
0.0
142
0.0
142
1.0
142
0.0
142
0.0
142
0.0
142
0.0
142
1.0
179
     0
270
     2
144
0.0208333333333333
144
0.0
144
0.0
144
0.0
144
0.0
144
0.0208333333333333
144
0.0
144
0.0
144
0.0
144
0.0
144
1.0
144
0.0
144
0.0
144
0.0
144
0.0
144
1.0
274
     2
147
0.0208333333333333
147
0.0
147
0.0
147
0.0
147
0.0
147
0.0208333333333333
147
0.0
147
0.0
147
0.0
147
0.0
147
1.0
147
0.0
147
0.0
147
0.0
147
0.0
147
1.0
  0
MATERIAL
  5
9BB6
102
{ACAD_REACTORS
330
658F
102
}
102
{ACAD_XDICTIONARY
360
BF4B
102
}
330
658F
100
AcDbMaterial
  1
GLOBAL
 72
     0
 73
     2
 43
0.0208333333333333
 43
0.0
 43
0.0
 43
0.0
 43
0.0
 43
0.0208333333333333
 43
0.0
 43
0.0
 43
0.0
 43
0.0
 43
1.0
 43
0.0
 43
0.0
 43
0.0
 43
0.0
 43
1.0
 77
     0
 78
     2
 47
0.0208333333333333
 47
0.0
 47
0.0
 47
0.0
 47
0.0
 47
0.0208333333333333
 47
0.0
 47
0.0
 47
0.0
 47
0.0
 47
1.0
 47
0.0
 47
0.0
 47
0.0
 47
0.0
 47
1.0
171
     0
172
     2
 49
0.0208333333333333
 49
0.0
 49
0.0
 49
0.0
 49
0.0
 49
0.0208333333333333
 49
0.0
 49
0.0
 49
0.0
 49
0.0
 49
1.0
 49
0.0
 49
0.0
 49
0.0
 49
0.0
 49
1.0
175
     0
176
     2
142
0.0208333333333333
142
0.0
142
0.0
142
0.0
142
0.0
142
0.0208333333333333
142
0.0
142
0.0
142
0.0
142
0.0
142
1.0
142
0.0
142
0.0
142
0.0
142
0.0
142
1.0
179
     0
270
     2
144
0.0208333333333333
144
0.0
144
0.0
144
0.0
144
0.0
144
0.0208333333333333
144
0.0
144
0.0
144
0.0
144
0.0
144
1.0
144
0.0
144
0.0
144
0.0
144
0.0
144
1.0
274
     2
147
0.0208333333333333
147
0.0
147
0.0
147
0.0
147
0.0
147
0.0208333333333333
147
0.0
147
0.0
147
0.0
147
0.0
147
1.0
147
0.0
147
0.0
147
0.0
147
0.0
147
1.0
  0
ACAD_PROXY_OBJECT
  5
9BF2
102
{ACAD_REACTORS
330
9BF1
102
}
330
9BF1
100
AcDbZombieObject
 90
      499
 91
      513
 93
      610
310
40901902A4063FBFFFFFE000000000000002040AD7A3703D0AD73F4214DD185B99185C990000000000000104090141901A00000000000004100000000000000041025764000000000000300FC0
340
12
340
0
340
F
340
0
 94
        0
1001
ACAD_MLEADERVER
1070
     2
  0
MLINESTYLE
  5
1C
102
{ACAD_REACTORS
330
1B
102
}
330
1B
100
AcDbMlineStyle
  2
STANDARD
 70
     0
  3

 62
   256
 51
90.0
 52
90.0
 71
     2
 49
0.5
 62
   256
  6
BYLAYER
 49
-0.5
 62
   256
  6
BYLAYER
  0
ACAD_PROXY_OBJECT
  5
9BD0
102
{ACAD_REACTORS
330
9BCF
102
}
330
9BCF
100
AcDbZombieObject
 90
      499
 91
      512
 93
       41
310
903313A31580
  0
ACAD_PROXY_OBJECT
  5
9BD1
102
{ACAD_REACTORS
330
9BCF
102
}
330
9BCF
100
AcDbZombieObject
 90
      499
 91
      512
 93
      105
310
903313A324000000000000004000
  0
ACAD_PROXY_OBJECT
  5
9BD2
102
{ACAD_REACTORS
330
9BCF
102
}
330
9BCF
100
AcDbZombieObject
 90
      499
 91
      512
 93
      105
310
903313A344000000000000104000
  0
ACAD_PROXY_OBJECT
  5
9BD3
102
{ACAD_REACTORS
330
9BCF
102
}
330
9BCF
100
AcDbZombieObject
 90
      499
 91
      512
 93
      105
310
903313A354000000000000144000
  0
ACAD_PROXY_OBJECT
  5
9BD4
102
{ACAD_REACTORS
330
9BCF
102
}
330
9BCF
100
AcDbZombieObject
 90
      499
 91
      512
 93
      105
310
903313A384000000000000204000
  0
ACAD_PROXY_OBJECT
  5
9BD5
102
{ACAD_REACTORS
330
9BCF
102
}
330
9BCF
100
AcDbZombieObject
 90
      499
 91
      512
 93
      113
310
904313A31304000000000000244000
  0
ACAD_PROXY_OBJECT
  5
9BD6
102
{ACAD_REACTORS
330
9BCF
102
}
330
9BCF
100
AcDbZombieObject
 90
      499
 91
      512
 93
      113
310
904313A31364000000000000304000
  0
ACAD_PROXY_OBJECT
  5
9BD7
102
{ACAD_REACTORS
330
9BCF
102
}
330
9BCF
100
AcDbZombieObject
 90
      499
 91
      512
 93
      113
310
904313A32304000000000000344000
  0
ACAD_PROXY_OBJECT
  5
9BD8
102
{ACAD_REACTORS
330
9BCF
102
}
330
9BCF
100
AcDbZombieObject
 90
      499
 91
      512
 93
      113
310
904313A333040000000000003E4000
  0
ACAD_PROXY_OBJECT
  5
9BD9
102
{ACAD_REACTORS
330
9BCF
102
}
330
9BCF
100
AcDbZombieObject
 90
      499
 91
      512
 93
      113
310
904313A34304000000000000444000
  0
ACAD_PROXY_OBJECT
  5
9BDA
102
{ACAD_REACTORS
330
9BCF
102
}
330
9BCF
100
AcDbZombieObject
 90
      499
 91
      512
 93
      113
310
904313A35304000000000000494000
  0
ACAD_PROXY_OBJECT
  5
9BDB
102
{ACAD_REACTORS
330
9BCF
102
}
330
9BCF
100
AcDbZombieObject
 90
      499
 91
      512
 93
      121
310
905313A3130304000000000000594000
  0
ACAD_PROXY_OBJECT
  5
9BDC
102
{ACAD_REACTORS
330
9BCF
102
}
330
9BCF
100
AcDbZombieObject
 90
      499
 91
      512
 93
      105
310
903323A310000000000000010100
  0
ACAD_PROXY_OBJECT
  5
9BDD
102
{ACAD_REACTORS
330
9BCF
102
}
330
9BCF
100
AcDbZombieObject
 90
      499
 91
      512
 93
      105
310
903343A310000000000000410100
  0
ACAD_PROXY_OBJECT
  5
9BDE
102
{ACAD_REACTORS
330
9BCF
102
}
330
9BCF
100
AcDbZombieObject
 90
      499
 91
      512
 93
      105
310
903383A310000000000000810100
  0
ACAD_PROXY_OBJECT
  5
9BDF
102
{ACAD_REACTORS
330
9BCF
102
}
330
9BCF
100
AcDbZombieObject
 90
      499
 91
      512
 93
      113
310
90431303A310000000000000910100
  0
ACAD_PROXY_OBJECT
  5
9BE0
102
{ACAD_REACTORS
330
9BCF
102
}
330
9BCF
100
AcDbZombieObject
 90
      499
 91
      512
 93
      121
310
9053130303A310000000000001650100
  0
ACAD_PROXY_OBJECT
  5
9BE1
102
{ACAD_REACTORS
330
9BCF
102
}
330
9BCF
100
AcDbZombieObject
 90
      499
 91
      512
 93
      257
310
90E312F31323822203D2031272D3022000000000000200FC000000000000284000
  0
ACAD_PROXY_OBJECT
  5
9BE2
102
{ACAD_REACTORS
330
9BCF
102
}
330
9BCF
100
AcDbZombieObject
 90
      499
 91
      512
 93
      249
310
90D312F363422203D2031272D3022000000000000240FC000000000000284000
  0
ACAD_PROXY_OBJECT
  5
9BE3
102
{ACAD_REACTORS
330
9BCF
102
}
330
9BCF
100
AcDbZombieObject
 90
      499
 91
      512
 93
      249
310
90D312F333222203D2031272D3022000000000000280FC000000000000284000
  0
ACAD_PROXY_OBJECT
  5
9BE4
102
{ACAD_REACTORS
330
9BCF
102
}
330
9BCF
100
AcDbZombieObject
 90
      499
 91
      512
 93
      249
310
90D312F313622203D2031272D30220000000000002C0FC000000000000284000
  0
ACAD_PROXY_OBJECT
  5
9BE5
102
{ACAD_REACTORS
330
9BCF
102
}
330
9BCF
100
AcDbZombieObject
 90
      499
 91
      512
 93
      249
310
90D332F333222203D2031272D30220000000000002E0FC000000000000284000
  0
ACAD_PROXY_OBJECT
  5
9BE6
102
{ACAD_REACTORS
330
9BCF
102
}
330
9BCF
100
AcDbZombieObject
 90
      499
 91
      512
 93
      241
310
90C312F3822203D2031272D3022000000000000300FC000000000000284000
  0
ACAD_PROXY_OBJECT
  5
9BE7
102
{ACAD_REACTORS
330
9BCF
102
}
330
9BCF
100
AcDbZombieObject
 90
      499
 91
      512
 93
      249
310
90D332F313622203D2031272D3022000000000000320FC000000000000284000
  0
ACAD_PROXY_OBJECT
  5
9BE8
102
{ACAD_REACTORS
330
9BCF
102
}
330
9BCF
100
AcDbZombieObject
 90
      499
 91
      512
 93
      241
310
90C312F3422203D2031272D3022000000000000340FC000000000000284000
  0
ACAD_PROXY_OBJECT
  5
9BE9
102
{ACAD_REACTORS
330
9BCF
102
}
330
9BCF
100
AcDbZombieObject
 90
      499
 91
      512
 93
      241
310
90C332F3822203D2031272D3022000000000000360FC000000000000284000
  0
ACAD_PROXY_OBJECT
  5
9BEA
102
{ACAD_REACTORS
330
9BCF
102
}
330
9BCF
100
AcDbZombieObject
 90
      499
 91
      512
 93
      241
310
90C312F3222203D2031272D3022000000000000380FC000000000000284000
  0
ACAD_PROXY_OBJECT
  5
9BEB
102
{ACAD_REACTORS
330
9BCF
102
}
330
9BCF
100
AcDbZombieObject
 90
      499
 91
      512
 93
      241
310
90C332F3422203D2031272D30220000000000003A0FC000000000000284000
  0
ACAD_PROXY_OBJECT
  5
9BEC
102
{ACAD_REACTORS
330
9BCF
102
}
330
9BCF
100
AcDbZombieObject
 90
      499
 91
      512
 93
      161
310
90A3122203D2031272D30224000000000000284000
  0
ACAD_PROXY_OBJECT
  5
9BED
102
{ACAD_REACTORS
330
9BCF
102
}
330
9BCF
100
AcDbZombieObject
 90
      499
 91
      512
 93
      257
310
90E312D312F3222203D2031272D30220000000000003E0FC000000000000284000
  0
ACAD_PROXY_OBJECT
  5
9BEE
102
{ACAD_REACTORS
330
9BCF
102
}
330
9BCF
100
AcDbZombieObject
 90
      499
 91
      512
 93
      225
310
90A3322203D2031272D302200000000000002100000000000000284000
  0
ACAD_PROXY_OBJECT
  5
9BEF
102
{ACAD_REACTORS
330
9BCF
102
}
330
9BCF
100
AcDbZombieObject
 90
      499
 91
      512
 93
      225
310
90A3622203D2031272D302200000000000006100000000000000284000
  0
ACAD_PROXY_OBJECT
  5
9BF0
102
{ACAD_REACTORS
330
9BCF
102
}
330
9BCF
100
AcDbZombieObject
 90
      499
 91
      512
 93
      249
310
90D31272D3022203D2031272D30220000000000000A100000000000000284000
  0
ACAD_PROXY_OBJECT
  5
9BC4
102
{ACAD_REACTORS
330
9BBE
102
}
330
9BBE
100
AcDbZombieObject
 90
      499
 91
      511
 93
      436
310
42CC9915DA5C99599C985B595049028333333333333E3BF0000000000000FB0107901411070040501600405405064090741402480A0340
1001
ACAD
1000
AcDbSavedByObjectVersion
1070
     0
  0
ACAD_PROXY_OBJECT
  5
9BC6
102
{ACAD_REACTORS
330
9BBE
102
}
330
9BBE
100
AcDbZombieObject
 90
      499
 91
      511
 93
      500
310
424CD108121A5919195B90640502408333333333333E3BF0000000000000FB01079024090700405020000000000001110200405405064090740C02480A0340
1001
ACAD
1000
AcDbSavedByObjectVersion
1070
     0
  0
ACAD_PROXY_OBJECT
  5
9BC5
102
{ACAD_REACTORS
330
9BBE
102
}
330
9BBE
100
AcDbZombieObject
 90
      499
 91
      511
 93
      436
310
42CCD915DA5C99599C985B595059028333333333333E3BF0000000000000FB0107901411070040501600405405064090741402480A0340
1001
ACAD
1000
AcDbSavedByObjectVersion
1070
     0
  0
ACAD_PROXY_OBJECT
  5
9BC3
102
{ACAD_REACTORS
330
9BBE
102
}
330
9BBE
100
AcDbZombieObject
 90
      499
 91
      511
 93
      388
310
4150985CDA58D07406404333333333333E3BF0000000000000FB0107A41107004050150841D405064090741402480A0350
1001
ACAD
1000
AcDbSavedByObjectVersion
1070
     0
  0
ACAD_PROXY_OBJECT
  5
9BCA
102
{ACAD_REACTORS
330
9BBE
102
}
330
9BBE
100
AcDbZombieObject
 90
      499
 91
      511
 93
      428
310
42109C9A59DA1D195B90C409028333333333333E3BF0000000000000FB010790141107004050150841D405064090741402480A029950
1001
ACAD
1000
AcDbSavedByObjectVersion
1070
     0
  0
ACAD_PROXY_OBJECT
  5
9BCE
102
{ACAD_REACTORS
330
9BBE
102
}
330
9BBE
100
AcDbZombieObject
 90
      499
 91
      511
 93
      452
310
42D0DBDB1BDC90DA185B99D95104090240C333333333333E3BF0000000000000FB0108901411070040501508421405064090741402480A0350
1001
ACAD
1000
AcDbSavedByObjectVersion
1070
     0
  0
ACAD_PROXY_OBJECT
  5
9BC7
102
{ACAD_REACTORS
330
9BBE
102
}
330
9BBE
100
AcDbZombieObject
 90
      499
 91
      511
 93
      500
310
4290DBDB98D95C1D1D585B10940D028333333333333E3BF0000000000000FB0107902409070040501000000000000111010841D405064090740C02480A0340
1001
ACAD
1000
AcDbSavedByObjectVersion
1070
     0
  0
ACAD_PROXY_OBJECT
  5
9BC9
102
{ACAD_REACTORS
330
9BBE
102
}
330
9BBE
100
AcDbZombieObject
 90
      499
 91
      511
 93
      412
310
40D11A5B50B409028333333333333E3BF0000000000000FB010790141107004050150841D405064090741402480A02677FFFFFD0
1001
ACAD
1000
AcDbSavedByObjectVersion
1070
     0
  0
ACAD_PROXY_OBJECT
  5
AE85
102
{ACAD_REACTORS
330
9BBE
102
}
330
9BBE
100
AcDbZombieObject
 90
      499
 91
      511
 93
      452
310
43115919D950DBDB1BDC93D999916409028333333333333E3BF0000000000000FB010790141107004050150841D405064090741402480A0350
1001
ACAD
1000
AcDbSavedByObjectVersion
1070
     0
  0
ACAD_PROXY_OBJECT
  5
9BCD
102
{ACAD_REACTORS
330
9BBE
102
}
330
9BBE
100
AcDbZombieObject
 90
      499
 91
      511
 93
      444
310
42D19858D95C185D1D195C9B90F409028333333333333E3BF0000000000000FB010790141107004050150841D405064090741402480A0350
1001
ACAD
1000
AcDbSavedByObjectVersion
1070
     0
  0
ACAD_PROXY_OBJECT
  5
9BBF
102
{ACAD_REACTORS
330
9BBE
102
}
330
9BBE
100
AcDbZombieObject
 90
      499
 91
      511
 93
      388
310
41119B185D240901404333333333333E3BF0000000000000F9010740A41107004050150841D405064090741402480A1B50
1001
ACAD
1000
AcDbSavedByObjectVersion
1070
     0
  0
ACAD_PROXY_OBJECT
  5
9BC0
102
{ACAD_REACTORS
330
9BBE
102
}
330
9BBE
100
AcDbZombieObject
 90
      499
 91
      511
 93
      476
310
43519B185D15DA5D1A115919D95CD0140901404333333333333E3BF0000000000000F9010740901411070040501600405405064090741402480A1B50
1001
ACAD
1000
AcDbSavedByObjectVersion
1070
     0
  0
ACAD_PROXY_OBJECT
  5
9BC1
102
{ACAD_REACTORS
330
9BBE
102
}
330
9BBE
100
AcDbZombieObject
 90
      499
 91
      511
 93
      412
310
41D1DBDD5C985D5910240902404333333333333E3BF0000000000000F9010740A411070040501641D405064090741402480A1B50
1001
ACAD
1000
AcDbSavedByObjectVersion
1070
     0
  0
ACAD_PROXY_OBJECT
  5
9BC2
102
{ACAD_REACTORS
330
9BBE
102
}
330
9BBE
100
AcDbZombieObject
 90
      499
 91
      511
 93
      500
310
4411DBDD5C985D5915DA5D1A115919D95CD0340902404333333333333E3BF0000000000000F9010740901411070040501600405405064090741402480A1B50
1001
ACAD
1000
AcDbSavedByObjectVersion
1070
     0
  0
ACAD_PROXY_OBJECT
  5
AE7D
102
{ACAD_REACTORS
330
9BBE
102
}
330
9BBE
100
AcDbZombieObject
 90
      499
 91
      511
 93
      476
310
41921A5919195B90640502408333333333333E3BF0000000000000FB01079024090700405020000000000001110200405405064090740C02480A0340
1001
ACAD
1000
AcDbSavedByObjectVersion
1070
     0
  0
ACAD_PROXY_OBJECT
  5
AE83
102
{ACAD_REACTORS
330
9BBE
102
}
330
9BBE
100
AcDbZombieObject
 90
      499
 91
      511
 93
      428
310
42529A5D1D195C93D999914409028333333333333E3BF0000000000000FB010790141107004050150A41D405064090741402480A0350
1001
ACAD
1000
AcDbSavedByObjectVersion
1070
     0
  0
ACAD_PROXY_OBJECT
  5
9BCC
102
{ACAD_REACTORS
330
9BBE
102
}
330
9BBE
100
AcDbZombieObject
 90
      499
 91
      511
 93
      444
310
42D31A5B995C185D1D195C9B90E409028333333333333E3BF0000000000000FB010790141107004050750841D405064090741402483A0350
1001
ACAD
1000
AcDbSavedByObjectVersion
1070
     0
  0
ACAD_PROXY_OBJECT
  5
BBCC
102
{ACAD_REACTORS
330
9BBE
102
}
330
9BBE
100
AcDbZombieObject
 90
      499
 91
      511
 93
      484
310
42135BD9195B1A5B99D0A409038333333333333E33F0000000000000F901074090290700405010000000000201990108421405064090741402480A1B40
1001
ACAD
1000
AcDbSavedByObjectVersion
1070
     0
  0
ACAD_PROXY_OBJECT
  5
AE84
102
{ACAD_REACTORS
330
9BBE
102
}
330
9BBE
100
AcDbZombieObject
 90
      499
 91
      511
 93
      444
310
42D3DD995C9A185B99D3D999915409028333333333333E3BF0000000000000FB010790141107004050150941D405064090741402480A0350
1001
ACAD
1000
AcDbSavedByObjectVersion
1070
     0
  0
ACAD_PROXY_OBJECT
  5
9BC8
102
{ACAD_REACTORS
330
9BBE
102
}
330
9BBE
100
AcDbZombieObject
 90
      499
 91
      511
 93
      420
310
425499585B1A5CDD1A58D08409028333333333333E3BF0000000000000FB01079019070040501508421405064090741402480A1B40
1001
ACAD
1000
AcDbSavedByObjectVersion
1070
     0
  0
ACAD_PROXY_OBJECT
  5
AE82
102
{ACAD_REACTORS
330
9BBE
102
}
330
9BBE
100
AcDbZombieObject
 90
      499
 91
      511
 93
      420
310
4194DA1859195911B40902404333333333333E3BF0000000000000F9010740A41107004050150800405405064090840C02480A0B40
1001
ACAD
1000
AcDbSavedByObjectVersion
1070
     0
  0
ACAD_PROXY_OBJECT
  5
AE81
102
{ACAD_REACTORS
330
9BBE
102
}
330
9BBE
100
AcDbZombieObject
 90
      499
 91
      511
 93
      516
310
4454DA18591959081DDA5D1A08195919D95CD1A40902404333333333333E3BF0000000000000F901074090142907004050250800405405064090740C02480A0B40
1001
ACAD
1000
AcDbSavedByObjectVersion
1070
     0
  0
ACAD_PROXY_OBJECT
  5
AE7E
102
{ACAD_REACTORS
330
9BBE
102
}
330
9BBE
100
AcDbZombieObject
 90
      499
 91
      511
 93
      532
310
4394DA1859195CC81BD98811DC985E5174090240C333333333333E3BF0000000000000FB01079024090741D01000000000000111010841D405064090740C02480A0340
1001
ACAD
1000
AcDbSavedByObjectVersion
1070
     0
  0
ACAD_PROXY_OBJECT
  5
AE7F
102
{ACAD_REACTORS
330
9BBE
102
}
330
9BBE
100
AcDbZombieObject
 90
      499
 91
      511
 93
      476
310
41D4DAD95D18DA1E51840502408333333333333E3BF0000000000000FB01079024090741D01000000000000111010B41D405064090741802480A0340
1001
ACAD
1000
AcDbSavedByObjectVersion
1070
     0
  0
ACAD_PROXY_OBJECT
  5
9BCB
102
{ACAD_REACTORS
330
9BBE
102
}
330
9BBE
100
AcDbZombieObject
 90
      499
 91
      511
 93
      412
310
41D51A1A58DAD95B90D409028333333333333E3BF0000000000000FB010790141107004050150C41D405064090741402480A0350
1001
ACAD
1000
AcDbSavedByObjectVersion
1070
     0
  0
ACAD_PROXY_OBJECT
  5
AE7C
102
{ACAD_REACTORS
330
9BBE
102
}
330
9BBE
100
AcDbZombieObject
 90
      499
 91
      511
 93
      420
310
4255DA5C99599C985B595059028333333333333E3BF0000000000000FB0107901411070040501600405405064090740C02480A0340
1001
ACAD
1000
AcDbSavedByObjectVersion
1070
     0
  0
ACAD_PROXY_OBJECT
  5
AE80
102
{ACAD_REACTORS
330
9BBE
102
}
330
9BBE
100
AcDbZombieObject
 90
      499
 91
      511
 93
      404
310
41560B54985E51940902404000000000000E03F0000000000000FB010740501907004050150841D405064090740C02480A1B40
1001
ACAD
1000
AcDbSavedByObjectVersion
1070
     0
  0
XRECORD
  5
BDAA
102
{ACAD_REACTORS
330
BDA9
102
}
330
BDA9
100
AcDbXrecord
340
6590
  0
XRECORD
  5
BDAB
102
{ACAD_REACTORS
330
BDA9
102
}
330
BDA9
100
AcDbXrecord
340
658F
  0
DICTIONARYVAR
  5
9C4B
102
{ACAD_REACTORS
330
2739
102
}
330
2739
100
DictionaryVariables
280
     0
  1
1:1
  0
DICTIONARYVAR
  5
9C4A
102
{ACAD_REACTORS
330
2739
102
}
330
2739
100
DictionaryVariables
280
     0
  1
Standard
  0
DICTIONARYVAR
  5
8076
102
{ACAD_REACTORS
330
2739
102
}
330
2739
100
DictionaryVariables
280
     0
  1
Standard
  0
DICTIONARYVAR
  5
3FDC
102
{ACAD_REACTORS
330
2739
102
}
330
2739
100
DictionaryVariables
280
     0
  1
-1
  0
DICTIONARYVAR
  5
7B85
102
{ACAD_REACTORS
330
2739
102
}
330
2739
100
DictionaryVariables
280
     0
  1
2
  0
DICTIONARYVAR
  5
9173
102
{ACAD_REACTORS
330
2739
102
}
330
2739
100
DictionaryVariables
280
     0
  1
1
  0
DICTIONARYVAR
  5
9C4C
102
{ACAD_REACTORS
330
2739
102
}
330
2739
100
DictionaryVariables
280
     0
  1
0
  0
DICTIONARYVAR
  5
9177
102
{ACAD_REACTORS
330
2739
102
}
330
2739
100
DictionaryVariables
280
     0
  1
8
  0
DICTIONARYVAR
  5
9176
102
{ACAD_REACTORS
330
2739
102
}
330
2739
100
DictionaryVariables
280
     0
  1
1
  0
DICTIONARYVAR
  5
BC4A
102
{ACAD_REACTORS
330
2739
102
}
330
2739
100
DictionaryVariables
280
     0
  1
0
  0
DICTIONARYVAR
  5
9174
102
{ACAD_REACTORS
330
2739
102
}
330
2739
100
DictionaryVariables
280
     0
  1
8
  0
DICTIONARYVAR
  5
9175
102
{ACAD_REACTORS
330
2739
102
}
330
2739
100
DictionaryVariables
280
     0
  1
2
  0
DICTIONARYVAR
  5
7B86
102
{ACAD_REACTORS
330
2739
102
}
330
2739
100
DictionaryVariables
280
     0
  1

  0
DICTIONARYVAR
  5
273A
102
{ACAD_REACTORS
330
2739
102
}
330
2739
100
DictionaryVariables
280
     0
  1
96
  0
DICTIONARYVAR
  5
BBCB
102
{ACAD_REACTORS
330
2739
102
}
330
2739
100
DictionaryVariables
280
     0
  1
2
  0
DICTIONARY
  5
BF47
330
9BAE
100
AcDbDictionary
  3
ACAD_XREC_ROUNDTRIP
360
BF48
1001
ACAD
1000
TREAT_AS_HARD
1070
     1
  0
DICTIONARY
  5
BF49
330
9BA6
100
AcDbDictionary
  3
ACAD_XREC_ROUNDTRIP
360
BF4A
1001
ACAD
1000
TREAT_AS_HARD
1070
     1
  0
DICTIONARY
  5
BF4B
330
9BB6
100
AcDbDictionary
  3
ACAD_XREC_ROUNDTRIP
360
BF4C
1001
ACAD
1000
TREAT_AS_HARD
1070
     1
  0
XRECORD
  5
BF48
102
{ACAD_REACTORS
330
BF47
102
}
330
BF47
100
AcDbXrecord
102
MATERIAL
148
0.0
149
0.0
149
0.0
 93
        0
 94
      127
282
     0
 72
     0
 77
     0
171
     0
175
     0
179
     0
273
     0
  0
XRECORD
  5
BF4A
102
{ACAD_REACTORS
330
BF49
102
}
330
BF49
100
AcDbXrecord
102
MATERIAL
148
0.0
149
0.0
149
0.0
 93
        0
 94
      127
282
     0
 72
     0
 77
     0
171
     0
175
     0
179
     0
273
     0
  0
XRECORD
  5
BF4C
102
{ACAD_REACTORS
330
BF4B
102
}
330
BF4B
100
AcDbXrecord
102
MATERIAL
148
0.0
149
0.0
149
0.0
 93
        0
 94
      127
282
     0
 72
     0
 77
     0
171
     0
175
     0
179
     0
273
     0
  0
ENDSEC
  0
EOF
