  0
SECTION
  2
HEADER
  9
$ACADVER
  1
AC1012
  9
$DWGCODEPAGE
  3
ansi_932
  9
$INSBASE
 10
0.0
 20
0.0
 30
0.0
  9
$EXTMIN
 10
461.4180680140553
 20
-782.9488047767072
 30
-0.0000000000562597
  9
$EXTMAX
 10
819.4127595814076
 20
-587.3416047739343
 30
0.0000000000000007
  9
$LIMMIN
 10
0.0
 20
0.0
  9
$LIMMAX
 10
12.0
 20
9.0
  9
$ORTHOMODE
 70
     0
  9
$REGENMODE
 70
     1
  9
$FILLMODE
 70
     1
  9
$QTEXTMODE
 70
     0
  9
$MIRRTEXT
 70
     0
  9
$DRAGMODE
 70
     2
  9
$LTSCALE
 40
0.5
  9
$OSMODE
 70
 16383
  9
$ATTMODE
 70
     1
  9
$TEXTSIZE
 40
4.0
  9
$TRACEWID
 40
0.05
  9
$TEXTSTYLE
  7
STANDARD
  9
$CLAYER
  8
1TEXT
  9
$CELTYPE
  6
BYLAYER
  9
$CECOLOR
 62
   256
  9
$CELTSCALE
 40
1.0
  9
$DELOBJ
 70
     1
  9
$DISPSILH
 70
     0
  9
$DIMSCALE
 40
1.0
  9
$DIMASZ
 40
2.0
  9
$DIMEXO
 40
0.0
  9
$DIMDLI
 40
7.0
  9
$DIMRND
 40
0.0
  9
$DIMDLE
 40
0.0
  9
$DIMEXE
 40
1.0
  9
$DIMTP
 40
0.0
  9
$DIMTM
 40
0.0
  9
$DIMTXT
 40
3.5
  9
$DIMCEN
 40
0.0
  9
$DIMTSZ
 40
0.0
  9
$DIMTOL
 70
     0
  9
$DIMLIM
 70
     0
  9
$DIMTIH
 70
     0
  9
$DIMTOH
 70
     0
  9
$DIMSE1
 70
     0
  9
$DIMSE2
 70
     0
  9
$DIMTAD
 70
     1
  9
$DIMZIN
 70
     8
  9
$DIMBLK
  1

  9
$DIMASO
 70
     1
  9
$DIMSHO
 70
     1
  9
$DIMPOST
  1
 
  9
$DIMAPOST
  1

  9
$DIMALT
 70
     0
  9
$DIMALTD
 70
     2
  9
$DIMALTF
 40
25.4
  9
$DIMLFAC
 40
1.0
  9
$DIMTOFL
 70
     1
  9
$DIMTVP
 40
0.0
  9
$DIMTIX
 70
     0
  9
$DIMSOXD
 70
     0
  9
$DIMSAH
 70
     1
  9
$DIMBLK1
  1
OPEN30
  9
$DIMBLK2
  1
OPEN30
  9
$DIMSTYLE
  2
NEWX10
  9
$DIMCLRD
 70
   256
  9
$DIMCLRE
 70
   256
  9
$DIMCLRT
 70
   201
  9
$DIMTFAC
 40
0.7
  9
$DIMGAP
 40
0.7
  9
$DIMJUST
 70
     0
  9
$DIMSD1
 70
     0
  9
$DIMSD2
 70
     0
  9
$DIMTOLJ
 70
     1
  9
$DIMTZIN
 70
     8
  9
$DIMALTZ
 70
     0
  9
$DIMALTTZ
 70
     0
  9
$DIMFIT
 70
     3
  9
$DIMUPT
 70
     0
  9
$DIMUNIT
 70
     2
  9
$DIMDEC
 70
     2
  9
$DIMTDEC
 70
     4
  9
$DIMALTU
 70
     2
  9
$DIMALTTD
 70
     2
  9
$DIMTXSTY
  7
STANDARD
  9
$DIMAUNIT
 70
     0
  9
$LUNITS
 70
     2
  9
$LUPREC
 70
     4
  9
$SKETCHINC
 40
0.1
  9
$FILLETRAD
 40
0.0
  9
$AUNITS
 70
     0
  9
$AUPREC
 70
     2
  9
$MENU
  1
acad
  9
$ELEVATION
 40
0.0
  9
$PELEVATION
 40
0.0
  9
$THICKNESS
 40
0.0
  9
$LIMCHECK
 70
     0
  9
$CHAMFERA
 40
0.0
  9
$CHAMFERB
 40
0.0
  9
$CHAMFERC
 40
0.0
  9
$CHAMFERD
 40
0.0
  9
$SKPOLY
 70
     0
  9
$TDCREATE
 40
2451024.579593021
  9
$TDUPDATE
 40
2458575.791141204
  9
$TDINDWG
 40
0.8862905671
  9
$TDUSRTIMER
 40
0.8862905671
  9
$USRTIMER
 70
     1
  9
$ANGBASE
 50
0.0
  9
$ANGDIR
 70
     0
  9
$PDMODE
 70
     0
  9
$PDSIZE
 40
0.0
  9
$PLINEWID
 40
0.0
  9
$COORDS
 70
     2
  9
$SPLFRAME
 70
     0
  9
$SPLINETYPE
 70
     6
  9
$SPLINESEGS
 70
     8
  9
$ATTDIA
 70
     0
  9
$ATTREQ
 70
     1
  9
$HANDLING
 70
     1
  9
$HANDSEED
  5
D325
  9
$SURFTAB1
 70
     6
  9
$SURFTAB2
 70
     6
  9
$SURFTYPE
 70
     6
  9
$SURFU
 70
     6
  9
$SURFV
 70
     6
  9
$UCSNAME
  2

  9
$UCSORG
 10
0.0
 20
0.0
 30
0.0
  9
$UCSXDIR
 10
1.0
 20
0.0
 30
0.0
  9
$UCSYDIR
 10
0.0
 20
1.0
 30
0.0
  9
$PUCSNAME
  2

  9
$PUCSORG
 10
0.0
 20
0.0
 30
0.0
  9
$PUCSXDIR
 10
1.0
 20
0.0
 30
0.0
  9
$PUCSYDIR
 10
0.0
 20
1.0
 30
0.0
  9
$USERI1
 70
     0
  9
$USERI2
 70
     0
  9
$USERI3
 70
     0
  9
$USERI4
 70
     0
  9
$USERI5
 70
     0
  9
$USERR1
 40
0.0
  9
$USERR2
 40
0.0
  9
$USERR3
 40
0.0
  9
$USERR4
 40
0.0
  9
$USERR5
 40
0.0
  9
$WORLDVIEW
 70
     1
  9
$SHADEDGE
 70
     3
  9
$SHADEDIF
 70
    70
  9
$TILEMODE
 70
     1
  9
$MAXACTVP
 70
    48
  9
$PINSBASE
 10
0.0
 20
0.0
 30
0.0
  9
$PLIMCHECK
 70
     0
  9
$PEXTMIN
 10
1.000000000000000E+20
 20
1.000000000000000E+20
 30
1.000000000000000E+20
  9
$PEXTMAX
 10
-1.000000000000000E+20
 20
-1.000000000000000E+20
 30
-1.000000000000000E+20
  9
$PLIMMIN
 10
0.0
 20
0.0
  9
$PLIMMAX
 10
12.0
 20
9.0
  9
$UNITMODE
 70
     0
  9
$VISRETAIN
 70
     1
  9
$PLINEGEN
 70
     0
  9
$PSLTSCALE
 70
     1
  9
$TREEDEPTH
 70
  3020
  9
$PICKSTYLE
 70
     0
  9
$CMLSTYLE
  2
STANDARD
  9
$CMLJUST
 70
     0
  9
$CMLSCALE
 40
1.0
  9
$SAVEIMAGES
 70
     1
  0
ENDSEC
  0
SECTION
  2
CLASSES
  0
CLASS
  1
IDBUFFER
  2
AcDbIdBuffer
  3
ObjectDBX Classes
 90
    32768
280
     0
281
     0
  0
CLASS
  1
LWPOLYLINE
  2
AcDbPolyline
  3
ObjectDBX Classes
 90
    32768
280
     0
281
     1
  0
CLASS
  1
DICTIONARYVAR
  2
AcDbDictionaryVar
  3
ObjectDBX Classes
 90
        0
280
     0
281
     0
  0
CLASS
  1
HATCH
  2
AcDbHatch
  3
ObjectDBX Classes
 90
    32768
280
     0
281
     1
  0
CLASS
  1
ACDBDICTIONARYWDFLT
  2
AcDbDictionaryWithDefault
  3
ObjectDBX Classes
 90
    32768
280
     0
281
     0
  0
CLASS
  1
ACDBPLACEHOLDER
  2
AcDbPlaceHolder
  3
ObjectDBX Classes
 90
        0
280
     0
281
     0
  0
CLASS
  1
LAYOUT
  2
AcDbLayout
  3
ObjectDBX Classes
 90
        0
280
     0
281
     0
  0
CLASS
  1
TABLESTYLE
  2
AcDbTableStyle
  3
ObjectDBX Classes
 90
     4095
280
     0
281
     0
  0
CLASS
  1
SORTENTSTABLE
  2
AcDbSortentsTable
  3
ObjectDBX Classes
 90
    32768
280
     0
281
     0
  0
CLASS
  1
DIMASSOC
  2
AcDbDimAssoc
  3
"AcDbDimAssoc|Product Desc:     AcDim ARX App For Dimension|Company:          Autodesk, Inc.|WEB Address:      www.autodesk.com"
 90
        0
280
     0
281
     0
  0
CLASS
  1
MATERIAL
  2
AcDbMaterial
  3
ObjectDBX Classes
 90
     1153
280
     0
281
     0
  0
CLASS
  1
VISUALSTYLE
  2
AcDbVisualStyle
  3
ObjectDBX Classes
 90
     4095
280
     0
281
     0
  0
CLASS
  1
SCALE
  2
AcDbScale
  3
ObjectDBX Classes
 90
     1153
280
     0
281
     0
  0
CLASS
  1
MLEADERSTYLE
  2
AcDbMLeaderStyle
  3
ACDB_MLEADERSTYLE_CLASS
 90
     4095
280
     0
281
     0
  0
CLASS
  1
AEC_REFEDIT_STATUS_TRACKER
  2
AecDbRefEditStatusTracker
  3
AecArchBase60|Product Desc: Autodesk Architectural Desktop 2007 |Company: Autodesk,Inc. |WEB Address: www.autodesk.com
 90
      129
280
     1
281
     0
  0
CLASS
  1
NPOCOLLECTION
  2
AcDbImpNonPersistentObjectsCollection
  3
ObjectDBX Classes
 90
     1153
280
     1
281
     0
  0
CLASS
  1
CELLSTYLEMAP
  2
AcDbCellStyleMap
  3
ObjectDBX Classes
 90
     1152
280
     0
281
     0
  0
CLASS
  1
SUN
  2
AcDbSun
  3
SCENEOE
 90
     1153
280
     0
281
     0
  0
CLASS
  1
XRECORD
  2
AcDbXrecord
  3
ObjectDBX Classes
 90
    32768
280
     0
281
     0
  0
ENDSEC
  0
SECTION
  2
TABLES
  0
TABLE
  2
VPORT
  5
8
330
0
100
AcDbSymbolTable
 70
     1
  0
VPORT
  5
A4FA
330
8
100
AcDbSymbolTableRecord
100
AcDbViewportTableRecord
  2
*ACTIVE
 70
     0
 10
0.0
 20
0.0
 11
1.0
 21
1.0
 12
640.4154137977315
 22
-685.1452047753207
 13
0.0
 23
0.0
 14
1.0
 24
1.0
 15
0.0
 25
0.0
 16
0.0
 26
0.0
 36
1.0
 17
0.0
 27
0.0
 37
0.0
 40
213.1775762748939
 41
1.803066037735849
 42
50.0
 43
0.0
 44
0.0
 50
0.0
 51
0.0
 71
    16
 72
  1000
 73
     1
 74
     1
 75
     0
 76
     0
 77
     0
 78
     0
1001
ACAD_NAV_VCDISPLAY
1070
     3
  0
ENDTAB
  0
TABLE
  2
LTYPE
  5
5
330
0
100
AcDbSymbolTable
 70
     2
  0
LTYPE
  5
12
330
5
100
AcDbSymbolTableRecord
100
AcDbLinetypeTableRecord
  2
BYBLOCK
 70
     0
  3

 72
    65
 73
     0
 40
0.0
  0
LTYPE
  5
13
330
5
100
AcDbSymbolTableRecord
100
AcDbLinetypeTableRecord
  2
BYLAYER
 70
     0
  3

 72
    65
 73
     0
 40
0.0
  0
LTYPE
  5
14
330
5
100
AcDbSymbolTableRecord
100
AcDbLinetypeTableRecord
  2
CONTINUOUS
 70
     0
  3
Solid line
 72
    65
 73
     0
 40
0.0
  0
LTYPE
  5
1C04
330
5
100
AcDbSymbolTableRecord
100
AcDbLinetypeTableRecord
  2
CENTER2
 70
     0
  3
Center (.5x) ___ _ ___ _ ___ _ ___ _ ___ _ ___
 72
    65
 73
     4
 40
28.575
 49
19.05
 74
     0
 49
-3.175
 74
     0
 49
3.175
 74
     0
 49
-3.175
 74
     0
  0
ENDTAB
  0
TABLE
  2
LAYER
  5
2
102
{ACAD_XDICTIONARY
360
83EE
102
}
330
0
100
AcDbSymbolTable
 70
     6
  0
LAYER
  5
E
330
2
100
AcDbSymbolTableRecord
100
AcDbLayerTableRecord
  2
0
 70
     0
 62
     7
  6
CONTINUOUS
  0
LAYER
  5
1C0B
330
2
100
AcDbSymbolTableRecord
100
AcDbLayerTableRecord
  2
1CENTER
 70
     0
 62
     7
  6
CENTER2
  0
LAYER
  5
1C0C
330
2
100
AcDbSymbolTableRecord
100
AcDbLayerTableRecord
  2
1DIM
 70
     0
 62
     7
  6
CONTINUOUS
  0
LAYER
  5
1C0E
330
2
100
AcDbSymbolTableRecord
100
AcDbLayerTableRecord
  2
1TEXT
 70
     0
 62
     7
  6
CONTINUOUS
  0
LAYER
  5
37AE
330
2
100
AcDbSymbolTableRecord
100
AcDbLayerTableRecord
  2
1HATCH
 70
     0
 62
     7
  6
CONTINUOUS
  0
LAYER
  5
93F9
330
2
100
AcDbSymbolTableRecord
100
AcDbLayerTableRecord
  2
01
 70
     0
 62
     1
  6
CONTINUOUS
  0
ENDTAB
  0
TABLE
  2
STYLE
  5
3
330
0
100
AcDbSymbolTable
 70
     1
  0
STYLE
  5
F
330
3
100
AcDbSymbolTableRecord
100
AcDbTextStyleTableRecord
  2
STANDARD
 70
     0
 40
0.0
 41
1.0
 50
0.0
 71
     0
 42
4.0
  3
txt.shx
  4
extfont.shx
  0
ENDTAB
  0
TABLE
  2
VIEW
  5
6
330
0
100
AcDbSymbolTable
 70
     1
  0
VIEW
  5
2071
330
6
100
AcDbSymbolTableRecord
100
AcDbViewTableRecord
  2
A
 70
     0
 40
163.8886542118344
 10
23.75874513620715
 20
-310.5239119589886
 41
232.0683926202114
 11
0.0
 21
0.0
 31
1.0
 12
0.0
 22
0.0
 32
0.0
 42
50.0
 43
0.0
 44
0.0
 50
0.0
 71
     0
  0
ENDTAB
  0
TABLE
  2
UCS
  5
7
330
0
100
AcDbSymbolTable
 70
     5
  0
UCS
  5
AE5B
330
7
100
AcDbSymbolTableRecord
100
AcDbUCSTableRecord
  2
U
 70
     0
 10
0.0
 20
0.0
 30
0.0
 11
1.0
 21
0.0
 31
0.0
 12
0.0
 22
2.220446049250313E-16
 32
1.0
 79
     0
146
0.0
  0
UCS
  5
AE5C
330
7
100
AcDbSymbolTableRecord
100
AcDbUCSTableRecord
  2
L
 70
     0
 10
0.0
 20
0.0
 30
0.0
 11
-2.220446049250313E-16
 21
-1.0
 31
2.220446049250313E-16
 12
0.0
 22
2.220446049250313E-16
 32
1.0
 79
     0
146
0.0
  0
UCS
  5
AE5D
330
7
100
AcDbSymbolTableRecord
100
AcDbUCSTableRecord
  2
R
 70
     0
 10
0.0
 20
0.0
 30
0.0
 11
3.445052403072690E-16
 21
1.0
 31
-2.220446049250313E-16
 12
0.0
 22
2.220446049250313E-16
 32
1.0
 79
     0
146
0.0
  0
UCS
  5
AE5E
330
7
100
AcDbSymbolTableRecord
100
AcDbUCSTableRecord
  2
ISOME
 70
     0
 10
0.0
 20
0.0
 30
0.0
 11
0.7071450863198264
 21
-0.7070684729403536
 31
-3.830824619477369E-5
 12
0.4082704059428736
 22
0.408270407740115
 32
0.8164744636514737
 79
     0
146
0.0
  0
UCS
  5
AE5F
330
7
100
AcDbSymbolTableRecord
100
AcDbUCSTableRecord
  2
PERSPECTIVE
 70
     0
 10
0.0
 20
0.0
 30
0.0
 11
0.8191477691768962
 21
-0.5735823260466402
 31
-0.0004974931557765183
 12
0.1584844715982971
 22
0.225502028986108
 32
0.961265575782966
 79
     0
146
0.0
  0
ENDTAB
  0
TABLE
  2
APPID
  5
9
330
0
100
AcDbSymbolTable
 70
    19
  0
APPID
  5
10
330
9
100
AcDbSymbolTableRecord
100
AcDbRegAppTableRecord
  2
ACAD
 70
     0
  0
APPID
  5
1BDB
330
9
100
AcDbSymbolTableRecord
100
AcDbRegAppTableRecord
  2
CONTENTBLOCKICON
 70
     0
  0
APPID
  5
1BDC
330
9
100
AcDbSymbolTableRecord
100
AcDbRegAppTableRecord
  2
CONTENTBLOCKDESCRIPTION
 70
     0
  0
APPID
  5
1BED
330
9
100
AcDbSymbolTableRecord
100
AcDbRegAppTableRecord
  2
CONTENTTABDATA
 70
     0
  0
APPID
  5
1BEE
330
9
100
AcDbSymbolTableRecord
100
AcDbRegAppTableRecord
  2
CONTENTCURRENTTAB
 70
     0
  0
APPID
  5
37BE
330
9
100
AcDbSymbolTableRecord
100
AcDbRegAppTableRecord
  2
DRAWINGVARIABLESXDATA
 70
     0
  0
APPID
  5
37BF
330
9
100
AcDbSymbolTableRecord
100
AcDbRegAppTableRecord
  2
CONTENTLONGBLOCKNAME
 70
     0
  0
APPID
  5
8492
330
9
100
AcDbSymbolTableRecord
100
AcDbRegAppTableRecord
  2
ACAD_DSTYLE_DIMTEXT_FILL
 70
     0
  0
APPID
  5
91C7
330
9
100
AcDbSymbolTableRecord
100
AcDbRegAppTableRecord
  2
ACAD_PSEXT
 70
     0
  0
APPID
  5
AB9F
330
9
100
AcDbSymbolTableRecord
100
AcDbRegAppTableRecord
  2
ACAECLAYERSTANDARD
 70
     0
  0
APPID
  5
AF90
330
9
100
AcDbSymbolTableRecord
100
AcDbRegAppTableRecord
  2
ACAD_EXEMPT_FROM_CAD_STAND
 70
     0
  0
APPID
  5
B086
330
9
100
AcDbSymbolTableRecord
100
AcDbRegAppTableRecord
  2
ACAD_MLEADERVER
 70
     0
  0
APPID
  5
B557
330
9
100
AcDbSymbolTableRecord
100
AcDbRegAppTableRecord
  2
ACAD_NAV_VCDISPLAY
 70
     0
  0
APPID
  5
BFCD
330
9
100
AcDbSymbolTableRecord
100
AcDbRegAppTableRecord
  2
ACADANNOTATIVE
 70
     0
  0
APPID
  5
BFCE
330
9
100
AcDbSymbolTableRecord
100
AcDbRegAppTableRecord
  2
ACLAYERTOOLS
 70
     0
  0
APPID
  5
BFCF
330
9
100
AcDbSymbolTableRecord
100
AcDbRegAppTableRecord
  2
ACAD_DSTYLE_DIMJOGGED_JOGA
 70
     0
  0
APPID
  5
BFD0
330
9
100
AcDbSymbolTableRecord
100
AcDbRegAppTableRecord
  2
GRADIENTCOLOR1ACI
 70
     0
  0
APPID
  5
BFD1
330
9
100
AcDbSymbolTableRecord
100
AcDbRegAppTableRecord
  2
GRADIENTCOLOR2ACI
 70
     0
  0
APPID
  5
CEAC
330
9
100
AcDbSymbolTableRecord
100
AcDbRegAppTableRecord
  2
ACDBBLOCKREPETAG
 70
     0
  0
ENDTAB
  0
TABLE
  2
DIMSTYLE
  5
A
330
0
100
AcDbSymbolTable
 70
     1
  0
DIMSTYLE
105
37CD
102
{ACAD_REACTORS
102
}
330
A
100
AcDbSymbolTableRecord
100
AcDbDimStyleTableRecord
  2
NEWX10
 70
     0
  3
 
  4

  5

  6
OPEN30
  7
OPEN30
 40
1.0
 41
2.0
 42
0.0
 43
7.0
 44
1.0
 45
0.0
 46
0.0
 47
0.0
 48
0.0
140
3.5
141
0.0
142
0.0
143
25.4
144
1.0
145
0.0
146
0.7
147
0.7
 71
     0
 72
     0
 73
     0
 74
     0
 75
     0
 76
     0
 77
     1
 78
     8
170
     0
171
     2
172
     1
173
     1
174
     0
175
     0
176
   256
177
   256
178
   201
179
     1
270
     2
271
     2
272
     4
273
     2
274
     2
340
F
275
     0
280
     0
281
     0
282
     0
283
     1
284
     8
285
     0
286
     0
287
     3
288
     0
  0
ENDTAB
  0
TABLE
  2
BLOCK_RECORD
  5
1
330
0
100
AcDbSymbolTable
 70
     8
  0
BLOCK_RECORD
  5
18
102
{ACAD_XDICTIONARY
360
9993
102
}
330
1
100
AcDbSymbolTableRecord
100
AcDbBlockTableRecord
  2
*MODEL_SPACE
  0
BLOCK_RECORD
  5
15
330
1
100
AcDbSymbolTableRecord
100
AcDbBlockTableRecord
  2
*PAPER_SPACE
  0
BLOCK_RECORD
  5
3853
330
1
100
AcDbSymbolTableRecord
100
AcDbBlockTableRecord
  2
_OPEN30
  0
BLOCK_RECORD
  5
CA57
330
1
100
AcDbSymbolTableRecord
100
AcDbBlockTableRecord
  2
A3WAKUKAWAJUN2017_HYOUDAI_
  0
BLOCK_RECORD
  5
D185
330
1
100
AcDbSymbolTableRecord
100
AcDbBlockTableRecord
  2
*X20
  0
BLOCK_RECORD
  5
D1D3
330
1
100
AcDbSymbolTableRecord
100
AcDbBlockTableRecord
  2
*X21
  0
BLOCK_RECORD
  5
D225
330
1
100
AcDbSymbolTableRecord
100
AcDbBlockTableRecord
  2
*X22
  0
BLOCK_RECORD
  5
D276
330
1
100
AcDbSymbolTableRecord
100
AcDbBlockTableRecord
  2
*X23
  0
BLOCK_RECORD
  5
D2B3
330
1
100
AcDbSymbolTableRecord
100
AcDbBlockTableRecord
  2
*X24
  0
BLOCK_RECORD
  5
D2F3
330
1
100
AcDbSymbolTableRecord
100
AcDbBlockTableRecord
  2
*X25
  0
ENDTAB
  0
ENDSEC
  0
SECTION
  2
BLOCKS
  0
BLOCK
  5
19
330
18
100
AcDbEntity
  8
0
100
AcDbBlockBegin
  2
*MODEL_SPACE
 70
     0
 10
0.0
 20
0.0
 30
0.0
  3
*MODEL_SPACE
  1

  0
ENDBLK
  5
1A
330
18
100
AcDbEntity
  8
0
100
AcDbBlockEnd
  0
BLOCK
  5
16
330
15
100
AcDbEntity
 67
     1
  8
0
100
AcDbBlockBegin
  2
*PAPER_SPACE
 70
     0
 10
0.0
 20
0.0
 30
0.0
  3
*PAPER_SPACE
  1

  0
ENDBLK
  5
17
330
15
100
AcDbEntity
 67
     1
  8
0
100
AcDbBlockEnd
  0
BLOCK
  5
3857
330
3853
100
AcDbEntity
  8
0
100
AcDbBlockBegin
  2
_OPEN30
 70
     0
 10
0.0
 20
0.0
 30
0.0
  3
_OPEN30
  1

  0
LINE
  5
3854
330
3853
100
AcDbEntity
  8
0
  6
BYBLOCK
 62
     0
100
AcDbLine
 10
-1.0
 20
0.26794919
 30
0.0
 11
0.0
 21
0.0
 31
0.0
  0
LINE
  5
3855
330
3853
100
AcDbEntity
  8
0
  6
BYBLOCK
 62
     0
100
AcDbLine
 10
0.0
 20
0.0
 30
0.0
 11
-1.0
 21
-0.26794919
 31
0.0
  0
LINE
  5
3856
330
3853
100
AcDbEntity
  8
0
  6
BYBLOCK
 62
     0
100
AcDbLine
 10
0.0
 20
0.0
 30
0.0
 11
-1.0
 21
0.0
 31
0.0
  0
ENDBLK
  5
3858
330
3853
100
AcDbEntity
  8
0
100
AcDbBlockEnd
  0
BLOCK
  5
CA58
330
CA57
100
AcDbEntity
  8
0
100
AcDbBlockBegin
  2
A3WAKUKAWAJUN2017_HYOUDAI_
 70
     0
 10
0.0
 20
0.0
 30
0.0
  3
A3WAKUKAWAJUN2017_HYOUDAI_
  1

  0
LINE
  5
CA59
330
CA57
100
AcDbEntity
  8
0
100
AcDbLine
 10
13.26299999998673
 20
-0.0001000000000317
 30
0.0
 11
9.236999999990758
 21
8.999899999990987
 31
0.0
1001
ACAD
1000
ASC_BOUNDS
1002
{
1070
    19
1005
CA9A
1002
}
  0
LINE
  5
CA5A
330
CA57
100
AcDbEntity
  8
0
100
AcDbLine
 10
5.657999999994331
 20
0.9999999999989768
 30
0.0
 11
9.236999999990758
 21
8.999999999991019
 31
0.0
1001
ACAD
1000
ASC_BOUNDS
1002
{
1070
    19
1005
CA9A
1002
}
  0
LINE
  5
CA5B
330
CA57
100
AcDbEntity
  8
0
100
AcDbLine
 10
18.59199999998134
 20
-0.2368999999997641
 30
0.0
 11
16.46099999998353
 21
5.432899999994561
 31
0.0
1001
ACAD
1000
ASC_BOUNDS
1002
{
1070
    19
1005
CA9B
1002
}
  0
LINE
  5
CA5C
330
CA57
100
AcDbEntity
  8
0
100
AcDbLine
 10
18.59199999998134
 20
-0.2368999999997641
 30
0.0
 11
22.38199999997767
 21
8.763099999991255
 31
0.0
1001
ACAD
1000
ASC_BOUNDS
1002
{
1070
    19
1005
CA9B
1002
}
  0
LINE
  5
CA5D
330
CA57
100
AcDbEntity
  8
0
100
AcDbLine
 10
14.32899999998563
 20
-0.2368999999997641
 30
0.0
 11
16.46099999998353
 21
5.432899999994561
 31
0.0
1001
ACAD
1000
ASC_BOUNDS
1002
{
1070
    19
1005
CA9B
1002
}
  0
LINE
  5
CA5E
330
CA57
100
AcDbEntity
  8
0
100
AcDbLine
 10
14.32899999998563
 20
-0.2368999999997641
 30
0.0
 11
10.53899999998941
 21
8.763099999991255
 31
0.0
1001
ACAD
1000
ASC_BOUNDS
1002
{
1070
    19
1005
CA9B
1002
}
  0
LINE
  5
CA5F
330
CA57
100
AcDbEntity
  8
0
100
AcDbLine
 10
19.53899999998043
 20
-0.0001000000000317
 30
0.0
 11
23.56599999997638
 21
8.999899999990987
 31
0.0
1001
ACAD
1000
ASC_BOUNDS
1002
{
1070
    19
1005
CA9C
1002
}
  0
LINE
  5
CA60
330
CA57
100
AcDbEntity
  8
0
100
AcDbLine
 10
26.97358892824991
 20
1.383099999991202
 30
0.0
 11
23.56599999997638
 21
8.999899999990987
 31
0.0
1001
ACAD
1000
ASC_BOUNDS
1002
{
1070
    19
1005
CA9C
1002
}
  0
LINE
  5
CA61
330
CA57
100
AcDbEntity
  8
0
100
AcDbLine
 10
5.657999999994331
 20
0.9999999999989768
 30
0.0
 11
3.181999999996833
 21
4.668599999995308
 31
0.0
1001
ACAD
1000
ASC_BOUNDS
1002
{
1070
    19
1005
CA9A
1002
}
  0
LINE
  5
CA62
330
CA57
100
AcDbEntity
  8
0
100
AcDbLine
 10
4.617999999995391
 20
-0.0001000000000317
 30
0.0
 11
1.420999999998571
 21
4.736799999995242
 31
0.0
1001
ACAD
1000
ASC_BOUNDS
1002
{
1070
    19
1005
CA9A
1002
}
  0
LINE
  5
CA63
330
CA57
100
AcDbEntity
  8
0
100
AcDbLine
 10
1.420999999998571
 20
8.763099999991255
 30
0.0
 11
1.420999999998571
 21
0.0
 31
0.0
1001
ACAD
1000
ASC_BOUNDS
1002
{
1070
    19
1005
CA9F
1002
}
  0
LINE
  5
CA64
330
CA57
100
AcDbEntity
  8
0
100
AcDbLine
 10
0.0
 20
8.763099999991255
 30
0.0
 11
0.0
 21
0.0
 31
0.0
1001
ACAD
1000
ASC_BOUNDS
1002
{
1070
    19
1005
CA9F
1002
}
  0
LINE
  5
CA65
330
CA57
100
AcDbEntity
  8
0
100
AcDbLine
 10
6.766999999993232
 20
-0.0001000000000317
 30
0.0
 11
7.826999999992154
 21
2.368399999997621
 31
0.0
1001
ACAD
1000
ASC_BOUNDS
1002
{
1070
    19
1005
CA9A
1002
}
  0
LINE
  5
CA66
330
CA57
100
AcDbEntity
  8
0
100
AcDbLine
 10
0.0
 20
0.0
 30
0.0
 11
1.420999999998571
 21
0.0
 31
0.0
1001
ACAD
1000
ASC_BOUNDS
1002
{
1070
    19
1005
CA9F
1002
}
  0
LINE
  5
CA67
330
CA57
100
AcDbEntity
  8
0
100
AcDbLine
 10
4.617999999995391
 20
0.0
 30
0.0
 11
6.766999999993232
 21
0.0
 31
0.0
1001
ACAD
1000
ASC_BOUNDS
1002
{
1070
    19
1005
CA9A
1002
}
  0
LINE
  5
CA68
330
CA57
100
AcDbEntity
  8
0
100
AcDbLine
 10
11.70599999998831
 20
-0.0001000000000317
 30
0.0
 11
10.64699999998936
 21
2.368399999997621
 31
0.0
1001
ACAD
1000
ASC_BOUNDS
1002
{
1070
    19
1005
CA9A
1002
}
  0
LINE
  5
CA69
330
CA57
100
AcDbEntity
  8
0
100
AcDbLine
 10
7.826999999992154
 20
2.368399999997621
 30
0.0
 11
10.64699999998936
 21
2.368399999997621
 31
0.0
1001
ACAD
1000
ASC_BOUNDS
1002
{
1070
    19
1005
CA9A
1002
}
  0
LINE
  5
CA6A
330
CA57
100
AcDbEntity
  8
0
100
AcDbLine
 10
11.70599999998831
 20
0.0
 30
0.0
 11
13.26299999998673
 21
0.0
 31
0.0
1001
ACAD
1000
ASC_BOUNDS
1002
{
1070
    19
1005
CA9A
1002
}
  0
LINE
  5
CA6B
330
CA57
100
AcDbEntity
  8
0
100
AcDbLine
 10
22.15599999997789
 20
2.368399999997621
 30
0.0
 11
24.97599999997499
 21
2.368399999997621
 31
0.0
1001
ACAD
1000
ASC_BOUNDS
1002
{
1070
    19
1005
CA9C
1002
}
  0
LINE
  5
CA6C
330
CA57
100
AcDbEntity
  8
0
100
AcDbLine
 10
19.53899999998043
 20
0.0
 30
0.0
 11
21.09599999997886
 21
0.0
 31
0.0
1001
ACAD
1000
ASC_BOUNDS
1002
{
1070
    19
1005
CA9C
1002
}
  0
LINE
  5
CA6D
330
CA57
100
AcDbEntity
  8
0
100
AcDbLine
 10
21.09599999997886
 20
-0.0001000000000317
 30
0.0
 11
22.15599999997789
 21
2.368399999997621
 31
0.0
1001
ACAD
1000
ASC_BOUNDS
1002
{
1070
    19
1005
CA9C
1002
}
  0
LINE
  5
CA6E
330
CA57
100
AcDbEntity
  8
0
100
AcDbLine
 10
26.02015566812236
 20
0.0330999999912365
 30
0.0
 11
24.97599999997499
 21
2.368399999997621
 31
0.0
1001
ACAD
1000
ASC_BOUNDS
1002
{
1070
    19
1005
CA9C
1002
}
  0
LINE
  5
CA6F
330
CA57
100
AcDbEntity
  8
0
100
AcDbLine
 10
14.32399999998563
 20
3.315799999996671
 30
0.0
 11
16.46099999998353
 21
8.999899999990987
 31
0.0
1001
ACAD
1000
ASC_BOUNDS
1002
{
1070
    19
1005
CA9B
1002
}
  0
LINE
  5
CA70
330
CA57
100
AcDbEntity
  8
0
100
AcDbLine
 10
6.432999999993513
 20
8.763099999991255
 30
0.0
 11
3.181999999996833
 21
4.668599999995308
 31
0.0
1001
ACAD
1000
ASC_BOUNDS
1002
{
1070
    19
1005
CA9A
1002
}
  0
LINE
  5
CA71
330
CA57
100
AcDbEntity
  8
0
100
AcDbLine
 10
4.617999999995391
 20
8.763099999991255
 30
0.0
 11
1.420999999998571
 21
4.736799999995242
 31
0.0
1001
ACAD
1000
ASC_BOUNDS
1002
{
1070
    19
1005
CA9A
1002
}
  0
LINE
  5
CA72
330
CA57
100
AcDbEntity
  8
0
100
AcDbLine
 10
0.0
 20
8.763099999991255
 30
0.0
 11
1.420999999998571
 21
8.763099999991255
 31
0.0
1001
ACAD
1000
ASC_BOUNDS
1002
{
1070
    19
1005
CA9F
1002
}
  0
LINE
  5
CA73
330
CA57
100
AcDbEntity
  8
0
100
AcDbLine
 10
4.617999999995391
 20
8.763099999991255
 30
0.0
 11
6.432999999993513
 21
8.763099999991255
 31
0.0
1001
ACAD
1000
ASC_BOUNDS
1002
{
1070
    19
1005
CA9A
1002
}
  0
LINE
  5
CA74
330
CA57
100
AcDbEntity
  8
0
100
AcDbLine
 10
14.32399999998563
 20
3.315799999996671
 30
0.0
 11
12.02999999998792
 21
8.763099999991255
 31
0.0
1001
ACAD
1000
ASC_BOUNDS
1002
{
1070
    19
1005
CA9B
1002
}
  0
LINE
  5
CA75
330
CA57
100
AcDbEntity
  8
0
100
AcDbLine
 10
10.06399999998996
 20
3.670999999996297
 30
0.0
 11
9.236999999990758
 21
5.5200999999945
 31
0.0
1001
ACAD
1000
ASC_BOUNDS
1002
{
1070
    19
1005
CA9A
1002
}
  0
LINE
  5
CA76
330
CA57
100
AcDbEntity
  8
0
100
AcDbLine
 10
8.409999999991555
 20
3.670999999996297
 30
0.0
 11
9.236999999990758
 21
5.5200999999945
 31
0.0
1001
ACAD
1000
ASC_BOUNDS
1002
{
1070
    19
1005
CA9A
1002
}
  0
LINE
  5
CA77
330
CA57
100
AcDbEntity
  8
0
100
AcDbLine
 10
8.409999999991555
 20
3.670999999996297
 30
0.0
 11
10.06399999998996
 21
3.670999999996297
 31
0.0
1001
ACAD
1000
ASC_BOUNDS
1002
{
1070
    19
1005
CA9A
1002
}
  0
LINE
  5
CA78
330
CA57
100
AcDbEntity
  8
0
100
AcDbLine
 10
10.53899999998941
 20
8.763099999991255
 30
0.0
 11
12.02999999998792
 21
8.763099999991255
 31
0.0
1001
ACAD
1000
ASC_BOUNDS
1002
{
1070
    19
1005
CA9B
1002
}
  0
LINE
  5
CA79
330
CA57
100
AcDbEntity
  8
0
100
AcDbLine
 10
22.7389999999773
 20
3.670999999996297
 30
0.0
 11
23.56599999997638
 21
5.5200999999945
 31
0.0
1001
ACAD
1000
ASC_BOUNDS
1002
{
1070
    19
1005
CA9C
1002
}
  0
LINE
  5
CA7A
330
CA57
100
AcDbEntity
  8
0
100
AcDbLine
 10
22.7389999999773
 20
3.670999999996297
 30
0.0
 11
24.39299999997559
 21
3.670999999996297
 31
0.0
1001
ACAD
1000
ASC_BOUNDS
1002
{
1070
    19
1005
CA9C
1002
}
  0
LINE
  5
CA7B
330
CA57
100
AcDbEntity
  8
0
100
AcDbLine
 10
18.59799999998143
 20
3.315799999996671
 30
0.0
 11
20.89099999997916
 21
8.763099999991255
 31
0.0
1001
ACAD
1000
ASC_BOUNDS
1002
{
1070
    19
1005
CA9B
1002
}
  0
LINE
  5
CA7C
330
CA57
100
AcDbEntity
  8
0
100
AcDbLine
 10
18.59799999998143
 20
3.315799999996671
 30
0.0
 11
16.46099999998353
 21
8.999899999990987
 31
0.0
1001
ACAD
1000
ASC_BOUNDS
1002
{
1070
    19
1005
CA9B
1002
}
  0
LINE
  5
CA7D
330
CA57
100
AcDbEntity
  8
0
100
AcDbLine
 10
20.89099999997916
 20
8.763099999991255
 30
0.0
 11
22.38199999997767
 21
8.763099999991255
 31
0.0
1001
ACAD
1000
ASC_BOUNDS
1002
{
1070
    19
1005
CA9B
1002
}
  0
LINE
  5
CA7E
330
CA57
100
AcDbEntity
  8
0
100
AcDbLine
 10
24.39299999997559
 20
3.670999999996297
 30
0.0
 11
23.56599999997638
 21
5.5200999999945
 31
0.0
1001
ACAD
1000
ASC_BOUNDS
1002
{
1070
    19
1005
CA9C
1002
}
  0
LINE
  5
CA7F
330
CA57
100
AcDbEntity
  8
0
100
AcDbLine
 10
44.99999999995498
 20
-0.2368999999997641
 30
0.0
 11
40.02599999995994
 21
5.341799999994635
 31
0.0
1001
ACAD
1000
ASC_BOUNDS
1002
{
1070
    19
1005
CA9E
1002
}
  0
LINE
  5
CA80
330
CA57
100
AcDbEntity
  8
0
100
AcDbLine
 10
40.02599999995994
 20
5.341799999994635
 30
0.0
 11
40.02599999995994
 21
0.0
 31
0.0
1001
ACAD
1000
ASC_BOUNDS
1002
{
1070
    19
1005
CA9E
1002
}
  0
LINE
  5
CA81
330
CA57
100
AcDbEntity
  8
0
100
AcDbLine
 10
38.60499999996136
 20
8.999999999991019
 30
0.0
 11
38.60499999996136
 21
0.0
 31
0.0
1001
ACAD
1000
ASC_BOUNDS
1002
{
1070
    19
1005
CA9E
1002
}
  0
LINE
  5
CA82
330
CA57
100
AcDbEntity
  8
0
100
AcDbLine
 10
44.99999999995498
 20
8.763099999991255
 30
0.0
 11
44.99999999995498
 21
-0.2368999999997641
 31
0.0
1001
ACAD
1000
ASC_BOUNDS
1002
{
1070
    19
1005
CA9E
1002
}
  0
LINE
  5
CA83
330
CA57
100
AcDbEntity
  8
0
100
AcDbLine
 10
38.60499999996136
 20
0.0
 30
0.0
 11
40.02599999995994
 21
0.0
 31
0.0
1001
ACAD
1000
ASC_BOUNDS
1002
{
1070
    19
1005
CA9E
1002
}
  0
LINE
  5
CA84
330
CA57
100
AcDbEntity
  8
0
100
AcDbLine
 10
43.57899999995641
 20
3.421199999996588
 30
0.0
 11
38.60499999996136
 21
8.999899999990987
 31
0.0
1001
ACAD
1000
ASC_BOUNDS
1002
{
1070
    19
1005
CA9E
1002
}
  0
LINE
  5
CA85
330
CA57
100
AcDbEntity
  8
0
100
AcDbLine
 10
43.57899999995641
 20
8.763099999991255
 30
0.0
 11
43.57899999995641
 21
3.421199999996588
 31
0.0
1001
ACAD
1000
ASC_BOUNDS
1002
{
1070
    19
1005
CA9E
1002
}
  0
LINE
  5
CA86
330
CA57
100
AcDbEntity
  8
0
100
AcDbLine
 10
43.57899999995641
 20
8.763099999991255
 30
0.0
 11
44.99999999995498
 21
8.763099999991255
 31
0.0
1001
ACAD
1000
ASC_BOUNDS
1002
{
1070
    19
1005
CA9E
1002
}
  0
LINE
  5
CA87
330
CA57
100
AcDbEntity
  8
0
100
AcDbLine
 10
37.67199999996831
 20
8.763099999991255
 30
0.0
 11
36.23199999996837
 21
8.763099999991255
 31
0.0
  0
LINE
  5
CA88
330
CA57
100
AcDbEntity
  8
0
100
AcDbLine
 10
31.64199999996833
 20
8.763099999991255
 30
0.0
 11
31.64199999996833
 21
2.481619422925121
 31
0.0
  0
LINE
  5
CA89
330
CA57
100
AcDbEntity
  8
0
100
AcDbLine
 10
37.67199999996831
 20
8.763099999991255
 30
0.0
 11
37.67199999996831
 21
2.481619422925121
 31
0.0
  0
LINE
  5
CA8A
330
CA57
100
AcDbEntity
  8
0
100
AcDbLine
 10
36.23199999996837
 20
8.763099999991255
 30
0.0
 11
36.23199999996837
 21
2.481619422925064
 31
0.0
  0
LINE
  5
CA8B
330
CA57
100
AcDbEntity
  8
0
100
AcDbLine
 10
33.08199999996839
 20
8.763099999991255
 30
0.0
 11
33.08199999996839
 21
2.481619422925121
 31
0.0
  0
ARC
  5
CA8C
330
CA57
100
AcDbEntity
  8
0
100
AcDbCircle
 10
34.65699999996832
 20
3.183099999991214
 30
0.0
 40
3.420000000000007
100
AcDbArc
 50
240.0000000000255
 51
299.9999999999766
  0
ARC
  5
CA8D
330
CA57
100
AcDbEntity
  8
0
100
AcDbCircle
 10
34.65699999996832
 20
3.183099999991214
 30
0.0
 40
1.97999999999999
100
AcDbArc
 50
240.000000000026
 51
299.9999999999703
  0
LINE
  5
CA8E
330
CA57
100
AcDbEntity
  8
0
100
AcDbLine
 10
33.08199999996828
 20
8.763099999991255
 30
0.0
 11
31.64199999996833
 21
8.763099999991255
 31
0.0
  0
ARC
  5
CA8F
330
CA57
100
AcDbEntity
  8
0
100
AcDbCircle
 10
35.06199999996829
 20
2.481619422925064
 30
0.0
 40
1.17
100
AcDbArc
 50
299.9999999999699
 51
0.0
  0
ARC
  5
CA90
330
CA57
100
AcDbEntity
  8
0
100
AcDbCircle
 10
34.25199999996835
 20
2.481619422925121
 30
0.0
 40
1.17
100
AcDbArc
 50
180.0
 51
240.0000000000238
  0
ARC
  5
CA91
330
CA57
100
AcDbEntity
  8
0
100
AcDbCircle
 10
35.06199999996841
 20
2.481619422925121
 30
0.0
 40
2.61
100
AcDbArc
 50
299.9999999999756
 51
0.0
  0
ARC
  5
CA92
330
CA57
100
AcDbEntity
  8
0
100
AcDbCircle
 10
34.25199999996835
 20
2.481619422925121
 30
0.0
 40
2.61
100
AcDbArc
 50
180.0
 51
240.0000000000244
  0
LINE
  5
CA93
330
CA57
100
AcDbEntity
  8
0
100
AcDbLine
 10
29.30199999996933
 20
8.763099999991255
 30
0.0
 11
30.74199999996927
 21
8.763099999991255
 31
0.0
1001
ACAD
1000
ASC_BOUNDS
1002
{
1070
    19
1005
CA9C
1002
}
  0
LINE
  5
CA94
330
CA57
100
AcDbEntity
  8
0
100
AcDbLine
 10
30.74199999996927
 20
8.763099999991255
 30
0.0
 11
30.74199999996927
 21
2.373099999991211
 31
0.0
1001
ACAD
1000
ASC_BOUNDS
1002
{
1070
    19
1005
CA9C
1002
}
  0
LINE
  5
CA95
330
CA57
100
AcDbEntity
  8
0
100
AcDbLine
 10
26.02015566812236
 20
0.0330999999912365
 30
0.0
 11
28.40199999996923
 21
0.0330999999912365
 31
0.0
1001
ACAD
1000
ASC_BOUNDS
1002
{
1070
    19
1005
CA9C
1002
}
  0
LINE
  5
CA96
330
CA57
100
AcDbEntity
  8
0
100
AcDbLine
 10
29.30199999996933
 20
8.763099999991255
 30
0.0
 11
29.30199999996933
 21
2.283099999991236
 31
0.0
1001
ACAD
1000
ASC_BOUNDS
1002
{
1070
    19
1005
CA9C
1002
}
  0
LINE
  5
CA97
330
CA57
100
AcDbEntity
  8
0
100
AcDbLine
 10
26.97358892824991
 20
1.383099999991202
 30
0.0
 11
28.40199999996923
 21
1.383099999991202
 31
0.0
1001
ACAD
1000
ASC_BOUNDS
1002
{
1070
    19
1005
CA9C
1002
}
  0
ARC
  5
CA98
330
CA57
100
AcDbEntity
  8
0
100
AcDbCircle
 10
28.40199999996923
 20
2.283099999991236
 30
0.0
 40
0.9
100
AcDbArc
 50
270.0
 51
0.0
1001
ACAD
1000
ASC_BOUNDS
1002
{
1070
    19
1005
CA9C
1002
}
  0
ARC
  5
CA99
330
CA57
100
AcDbEntity
  8
0
100
AcDbCircle
 10
28.40199999996923
 20
2.373099999991211
 30
0.0
 40
2.34
100
AcDbArc
 50
270.0
 51
0.0
1001
ACAD
1000
ASC_BOUNDS
1002
{
1070
    19
1005
CA9C
1002
}
  0
INSERT
  5
CA9A
330
CA57
100
AcDbEntity
  8
0
100
AcDbBlockReference
  2
*X20
 10
0.0
 20
0.0
 30
0.0
1001
ACAD
1000
HATCH
1002
{
1070
    19
1000
ANSI37
1040
0.15
1040
0.0
1000
ASC_BOUNDS
1070
     2
1070
     2
1070
    12
1005
CA59
1005
CA5A
1005
CA61
1005
CA70
1005
CA73
1005
CA71
1005
CA62
1005
CA67
1005
CA65
1005
CA69
1005
CA68
1005
CA6A
1070
     2
1070
     3
1005
CA75
1005
CA77
1005
CA76
1000
ASC_SEEDPOINT
1011
3.614004224891801
1021
2.996669441146025
1031
0.0
1000
R14_HATCH_DATA
1000
CA9A
1011
1.0
1021
0.0
1031
0.0
1011
0.0
1021
1.0
1031
0.0
1011
0.0
1021
0.0
1031
1.0
1040
0.0
1010
0.0
1020
0.0
1030
1.0
1000
ANSI37
1070
     0
1070
     1
1071
        2
1071
        7
1070
     0
1070
     1
1071
       17
1040
13.26299999998673
1040
-0.0001000000000317
1040
9.236999999990758
1040
8.999899999990987
1040
9.236999999990758
1040
8.999999999991019
1040
5.657999999994331
1040
0.9999999999989768
1040
3.181999999996833
1040
4.668599999995308
1040
6.432999999993513
1040
8.763099999991255
1040
4.617999999995391
1040
8.763099999991255
1040
1.420999999998571
1040
4.736799999995242
1040
4.617999999995391
1040
-0.0001000000000317
1040
4.617999999995391
1040
0.0
1040
6.766999999993232
1040
0.0
1040
6.766999999993232
1040
-0.0001000000000317
1040
7.826999999992154
1040
2.368399999997621
1040
10.64699999998936
1040
2.368399999997621
1040
11.70599999998831
1040
-0.0001000000000317
1040
11.70599999998831
1040
0.0
1040
13.26299999998673
1040
0.0
1071
       12
1005
CA59
1005
CA5A
1005
CA61
1005
CA70
1005
CA73
1005
CA71
1005
CA62
1005
CA67
1005
CA65
1005
CA69
1005
CA68
1005
CA6A
1071
       22
1070
     0
1070
     1
1071
        3
1040
9.236999999990758
1040
5.5200999999945
1040
10.06399999998996
1040
3.670999999996297
1040
8.409999999991555
1040
3.670999999996297
1071
        3
1005
CA75
1005
CA77
1005
CA76
1070
     0
1070
     1
1040
0.0
1040
0.15
1070
     0
1070
     2
1040
0.7853981633974483
1040
49.29960901727088
1040
-10.17736998311392
1040
-0.3367596045400932
1040
0.3367596045400932
1070
     0
1040
2.356194490192345
1040
49.29960901727088
1040
-10.17736998311392
1040
-0.3367596045400932
1040
-0.3367596045400932
1070
     0
1040
0.0110235143455945
1071
        2
1040
3.614004224891801
1040
2.996669441146025
1040
0.0
1040
3.614004224891801
1040
2.996669441146025
1040
0.0
1002
}
  0
INSERT
  5
CA9B
330
CA57
100
AcDbEntity
  8
0
100
AcDbBlockReference
  2
*X21
 10
0.0
 20
0.0
 30
0.0
1001
ACAD
1000
HATCH
1002
{
1070
    19
1000
ANSI37
1040
0.15
1040
0.0
1000
ASC_BOUNDS
1070
     1
1070
     2
1070
    10
1005
CA5B
1005
CA5C
1005
CA7D
1005
CA7B
1005
CA7C
1005
CA6F
1005
CA74
1005
CA78
1005
CA5E
1005
CA5D
1000
ASC_SEEDPOINT
1011
14.73245321214324
1021
2.798246178283421
1031
0.0
1000
R14_HATCH_DATA
1000
CA9B
1011
1.0
1021
0.0
1031
0.0
1011
0.0
1021
1.0
1031
0.0
1011
0.0
1021
0.0
1031
1.0
1040
0.0
1010
0.0
1020
0.0
1030
1.0
1000
ANSI37
1070
     0
1070
     1
1071
        1
1071
        7
1070
     0
1070
     1
1071
       10
1040
16.46099999998353
1040
5.432899999994561
1040
18.59199999998134
1040
-0.2368999999997641
1040
22.38199999997767
1040
8.763099999991255
1040
20.89099999997916
1040
8.763099999991255
1040
18.59799999998143
1040
3.315799999996671
1040
16.46099999998353
1040
8.999899999990987
1040
14.32399999998563
1040
3.315799999996671
1040
12.02999999998792
1040
8.763099999991255
1040
10.53899999998941
1040
8.763099999991255
1040
14.32899999998563
1040
-0.2368999999997641
1071
       10
1005
CA5B
1005
CA5C
1005
CA7D
1005
CA7B
1005
CA7C
1005
CA6F
1005
CA74
1005
CA78
1005
CA5E
1005
CA5D
1070
     0
1070
     1
1040
0.0
1040
0.15
1070
     0
1070
     2
1040
0.7853981633974483
1040
49.29960901727088
1040
-10.17736998311392
1040
-0.3367596045400932
1040
0.3367596045400932
1070
     0
1040
2.356194490192345
1040
49.29960901727088
1040
-10.17736998311392
1040
-0.3367596045400932
1040
-0.3367596045400932
1070
     0
1040
0.0110235143455945
1071
        1
1040
14.73245321214324
1040
2.798246178283421
1040
0.0
1002
}
  0
INSERT
  5
CA9C
330
CA57
100
AcDbEntity
  8
0
100
AcDbBlockReference
  2
*X22
 10
0.0
 20
0.0
 30
0.0
1001
ACAD
1000
HATCH
1002
{
1070
    19
1000
ANSI37
1040
0.15
1040
0.0
1000
ASC_BOUNDS
1070
     2
1070
     2
1070
    13
1005
CA5F
1005
CA6C
1005
CA6D
1005
CA6B
1005
CA6E
1005
CA95
1005
CA99
1005
CA94
1005
CA93
1005
CA96
1005
CA98
1005
CA97
1005
CA60
1070
     2
1070
     3
1005
CA79
1005
CA7E
1005
CA7A
1000
ASC_SEEDPOINT
1011
21.97929957367762
1021
3.294304244259308
1031
0.0
1000
R14_HATCH_DATA
1000
CA9C
1011
1.0
1021
0.0
1031
0.0
1011
0.0
1021
1.0
1031
0.0
1011
0.0
1021
0.0
1031
1.0
1040
0.0
1010
0.0
1020
0.0
1030
1.0
1000
ANSI37
1070
     0
1070
     1
1071
        2
1071
        7
1070
     1
1070
     1
1071
       15
1040
23.56599999997638
1040
8.999899999990987
1040
0.0
1040
19.53899999998043
1040
-0.0001000000000317
1040
0.0
1040
19.53899999998043
1040
0.0
1040
0.0
1040
21.09599999997886
1040
0.0
1040
0.0
1040
21.09599999997886
1040
-0.0001000000000317
1040
0.0
1040
22.15599999997789
1040
2.368399999997621
1040
0.0
1040
24.97599999997499
1040
2.368399999997621
1040
0.0
1040
26.02015566812236
1040
0.0330999999912365
1040
0.0
1040
28.40199999996923
1040
0.0330999999912365
1040
0.414213562373095
1040
30.74199999996923
1040
2.373099999991211
1040
0.0
1040
30.74199999996927
1040
8.763099999991255
1040
0.0
1040
29.30199999996933
1040
8.763099999991255
1040
0.0
1040
29.30199999996933
1040
2.283099999991236
1040
-0.414213562373095
1040
28.40199999996923
1040
1.383099999991237
1040
0.0
1040
26.97358892824991
1040
1.383099999991202
1040
0.0
1071
       13
1005
CA5F
1005
CA6C
1005
CA6D
1005
CA6B
1005
CA6E
1005
CA95
1005
CA99
1005
CA94
1005
CA93
1005
CA96
1005
CA98
1005
CA97
1005
CA60
1071
       22
1070
     0
1070
     1
1071
        3
1040
22.7389999999773
1040
3.670999999996297
1040
23.56599999997638
1040
5.5200999999945
1040
24.39299999997559
1040
3.670999999996297
1071
        3
1005
CA79
1005
CA7E
1005
CA7A
1070
     0
1070
     1
1040
0.0
1040
0.15
1070
     0
1070
     2
1040
0.7853981633974483
1040
49.29960901727088
1040
-10.17736998311392
1040
-0.3367596045400932
1040
0.3367596045400932
1070
     0
1040
2.356194490192345
1040
49.29960901727088
1040
-10.17736998311392
1040
-0.3367596045400932
1040
-0.3367596045400932
1070
     0
1040
0.0110235143455945
1071
        2
1040
21.97929957367762
1040
3.294304244259308
1040
0.0
1040
21.97929957367762
1040
3.294304244259308
1040
0.0
1002
}
  0
INSERT
  5
CA9D
330
CA57
100
AcDbEntity
  8
0
100
AcDbBlockReference
  2
*X23
 10
0.0
 20
0.0
 30
0.0
1001
ACAD
1000
HATCH
1002
{
1070
    19
1000
ANSI37
1040
0.15
1040
0.0
1000
R14_HATCH_DATA
1000
CA9D
1011
1.0
1021
0.0
1031
0.0
1011
0.0
1021
1.0
1031
0.0
1011
0.0
1021
0.0
1031
1.0
1040
0.0
1010
0.0
1020
0.0
1030
1.0
1000
ANSI37
1070
     0
1070
     1
1071
        1
1071
        7
1070
     1
1070
     1
1071
       12
1040
31.64199999996833
1040
2.481619422925121
1040
0.2679491924310942
1040
32.94699999997067
1040
0.2212931190493919
1040
0.2679491924301353
1040
36.36699999995983
1040
0.2212931190459813
1040
0.2679491924321411
1040
37.67199999996831
1040
2.481619422928361
1040
0.0
1040
37.67199999996831
1040
8.763099999991255
1040
0.0
1040
36.23199999996837
1040
8.763099999991255
1040
0.0
1040
36.23199999996837
1040
2.481619422925064
1040
-0.2679491924310291
1040
35.64699999996708
1040
1.468369700498386
1040
-0.267949192430519
1040
33.66699999997093
1040
1.468369700497703
1040
-0.267949192431809
1040
33.08199999996839
1040
2.481619422926997
1040
0.0
1040
33.08199999996839
1040
8.763099999991255
1040
0.0
1040
31.64199999996833
1040
8.763099999991255
1040
0.0
1071
        0
1070
     0
1070
     1
1040
0.0
1040
0.15
1070
     0
1070
     2
1040
0.7853981633974483
1040
49.29960901727088
1040
-10.17736998311392
1040
-0.3367596045400932
1040
0.3367596045400932
1070
     0
1040
2.356194490192345
1040
49.29960901727088
1040
-10.17736998311392
1040
-0.3367596045400932
1040
-0.3367596045400932
1070
     0
1040
0.0110235143455945
1071
        1
1040
32.30357378967278
1040
3.988785755459219
1040
0.0
1002
}
  0
INSERT
  5
CA9E
330
CA57
100
AcDbEntity
  8
0
100
AcDbBlockReference
  2
*X24
 10
0.0
 20
0.0
 30
0.0
1001
ACAD
1000
HATCH
1002
{
1070
    19
1000
ANSI37
1040
0.15
1040
0.0
1000
ASC_BOUNDS
1070
     1
1070
     2
1070
     8
1005
CA7F
1005
CA82
1005
CA86
1005
CA85
1005
CA84
1005
CA81
1005
CA83
1005
CA80
1000
ASC_SEEDPOINT
1011
39.74896370716704
1021
4.484843821435049
1031
0.0
1000
R14_HATCH_DATA
1000
CA9E
1011
1.0
1021
0.0
1031
0.0
1011
0.0
1021
1.0
1031
0.0
1011
0.0
1021
0.0
1031
1.0
1040
0.0
1010
0.0
1020
0.0
1030
1.0
1000
ANSI37
1070
     0
1070
     1
1071
        1
1071
        7
1070
     0
1070
     1
1071
        9
1040
40.02599999995994
1040
5.341799999994635
1040
44.99999999995498
1040
-0.2368999999997641
1040
44.99999999995498
1040
8.763099999991255
1040
43.57899999995641
1040
8.763099999991255
1040
43.57899999995641
1040
3.421199999996588
1040
38.60499999996136
1040
8.999899999990987
1040
38.60499999996136
1040
8.999999999991019
1040
38.60499999996136
1040
0.0
1040
40.02599999995994
1040
0.0
1071
        8
1005
CA7F
1005
CA82
1005
CA86
1005
CA85
1005
CA84
1005
CA81
1005
CA83
1005
CA80
1070
     0
1070
     1
1040
0.0
1040
0.15
1070
     0
1070
     2
1040
0.7853981633974483
1040
49.29960901727088
1040
-10.17736998311392
1040
-0.3367596045400932
1040
0.3367596045400932
1070
     0
1040
2.356194490192345
1040
49.29960901727088
1040
-10.17736998311392
1040
-0.3367596045400932
1040
-0.3367596045400932
1070
     0
1040
0.0110235143455945
1071
        1
1040
39.74896370716704
1040
4.484843821435049
1040
0.0
1002
}
  0
INSERT
  5
CA9F
330
CA57
100
AcDbEntity
  8
0
100
AcDbBlockReference
  2
*X25
 10
0.0
 20
0.0
 30
0.0
1001
ACAD
1000
HATCH
1002
{
1070
    19
1000
ANSI37
1040
0.15
1040
0.0
1000
ASC_BOUNDS
1070
     1
1070
     2
1070
     4
1005
CA63
1005
CA72
1005
CA64
1005
CA66
1000
ASC_SEEDPOINT
1011
1.079051535452663
1021
4.148538732891836
1031
0.0
1000
R14_HATCH_DATA
1000
CA9F
1011
1.0
1021
0.0
1031
0.0
1011
0.0
1021
1.0
1031
0.0
1011
0.0
1021
0.0
1031
1.0
1040
0.0
1010
0.0
1020
0.0
1030
1.0
1000
ANSI37
1070
     0
1070
     1
1071
        1
1071
        7
1070
     0
1070
     1
1071
        4
1040
1.420999999998571
1040
0.0
1040
1.420999999998571
1040
8.763099999991255
1040
0.0
1040
8.763099999991255
1040
0.0
1040
0.0
1071
        4
1005
CA63
1005
CA72
1005
CA64
1005
CA66
1070
     0
1070
     1
1040
0.0
1040
0.15
1070
     0
1070
     2
1040
0.7853981633974483
1040
49.29960901727088
1040
-10.17736998311392
1040
-0.3367596045400932
1040
0.3367596045400932
1070
     0
1040
2.356194490192345
1040
49.29960901727088
1040
-10.17736998311392
1040
-0.3367596045400932
1040
-0.3367596045400932
1070
     0
1040
0.0053004257112761
1071
        1
1040
1.079051535452663
1040
4.148538732891836
1040
0.0
1002
}
  0
ENDBLK
  5
CAA0
330
CA57
100
AcDbEntity
  8
0
100
AcDbBlockEnd
  0
BLOCK
  5
D313
330
D185
100
AcDbEntity
  8
0
100
AcDbBlockBegin
  2
*X20
 70
     1
 10
0.0
 20
0.0
 30
0.0
  3
*X20
  1

  0
LINE
  5
D186
330
D185
100
AcDbEntity
  8
0
  6
CONTINUOUS
100
AcDbLine
 10
3.418023043697893
 20
7.251849696850613
 30
0.0
 11
4.929273346838536
 21
8.763099999991255
 31
0.0
  0
LINE
  5
D187
330
D185
100
AcDbEntity
  8
0
  6
CONTINUOUS
100
AcDbLine
 10
1.483656411257782
 20
4.643963855330318
 30
0.0
 11
5.60279255591872
 21
8.763099999991255
 31
0.0
  0
LINE
  5
D188
330
D185
100
AcDbEntity
  8
0
  6
CONTINUOUS
100
AcDbLine
 10
1.755053947328235
 20
4.241842182320584
 30
0.0
 11
6.276311764998907
 21
8.763099999991255
 31
0.0
  0
LINE
  5
D189
330
D185
100
AcDbEntity
  8
0
  6
CONTINUOUS
100
AcDbLine
 10
2.026451483398688
 20
3.839720509310849
 30
0.0
 11
4.441040904851878
 21
6.254309930764039
 31
0.0
  0
LINE
  5
D18A
330
D185
100
AcDbEntity
  8
0
  6
CONTINUOUS
100
AcDbLine
 10
2.297849019469139
 20
3.437598836301114
 30
0.0
 11
3.321765168359338
 21
4.461514985191313
 31
0.0
  0
LINE
  5
D18B
330
D185
100
AcDbEntity
  8
0
  6
CONTINUOUS
100
AcDbLine
 10
2.569246555539591
 20
3.03547716329138
 30
0.0
 11
3.593163397972743
 21
4.059394005724531
 31
0.0
  0
LINE
  5
D18C
330
D185
100
AcDbEntity
  8
0
  6
CONTINUOUS
100
AcDbLine
 10
2.840644091610043
 20
2.633355490281646
 30
0.0
 11
3.864561627586149
 21
3.657273026257751
 31
0.0
  0
LINE
  5
D18D
330
D185
100
AcDbEntity
  8
0
  6
CONTINUOUS
100
AcDbLine
 10
3.112041627680496
 20
2.231233817271911
 30
0.0
 11
4.135959857199554
 21
3.25515204679097
 31
0.0
  0
LINE
  5
D18E
330
D185
100
AcDbEntity
  8
0
  6
CONTINUOUS
100
AcDbLine
 10
3.383439163750948
 20
1.829112144262177
 30
0.0
 11
4.40735808681296
 21
2.853031067324189
 31
0.0
  0
LINE
  5
D18F
330
D185
100
AcDbEntity
  8
0
  6
CONTINUOUS
100
AcDbLine
 10
3.654836699821399
 20
1.426990471252442
 30
0.0
 11
4.678756316426365
 21
2.450910087857407
 31
0.0
  0
LINE
  5
D190
330
D185
100
AcDbEntity
  8
0
  6
CONTINUOUS
100
AcDbLine
 10
3.926234235891853
 20
1.024868798242709
 30
0.0
 11
4.95015454603977
 21
2.048789108390626
 31
0.0
  0
LINE
  5
D191
330
D185
100
AcDbEntity
  8
0
  6
CONTINUOUS
100
AcDbLine
 10
4.197631771962304
 20
0.6227471252329737
 30
0.0
 11
5.221552775653176
 21
1.646668128923846
 31
0.0
  0
LINE
  5
D192
330
D185
100
AcDbEntity
  8
0
  6
CONTINUOUS
100
AcDbLine
 10
8.715877546767851
 20
7.835069736359266
 30
0.0
 11
9.435953450375058
 21
8.555145639966472
 31
0.0
  0
LINE
  5
D193
330
D185
100
AcDbEntity
  8
0
  6
CONTINUOUS
100
AcDbLine
 10
8.170620868422267
 20
6.616293848933497
 30
0.0
 11
9.644120833743461
 21
8.08979381425469
 31
0.0
  0
LINE
  5
D194
330
D185
100
AcDbEntity
  8
0
  6
CONTINUOUS
100
AcDbLine
 10
7.625364190076684
 20
5.397517961507727
 30
0.0
 11
9.852288217111864
 21
7.624441988542907
 31
0.0
  0
LINE
  5
D195
330
D185
100
AcDbEntity
  8
0
  6
CONTINUOUS
100
AcDbLine
 10
7.080107511731101
 20
4.178742074081957
 30
0.0
 11
10.06045560048027
 21
7.159090162831124
 31
0.0
  0
LINE
  5
D196
330
D185
100
AcDbEntity
  8
0
  6
CONTINUOUS
100
AcDbLine
 10
6.534850833385518
 20
2.959966186656187
 30
0.0
 11
10.26862298384867
 21
6.693738337119342
 31
0.0
  0
LINE
  5
D197
330
D185
100
AcDbEntity
  8
0
  6
CONTINUOUS
100
AcDbLine
 10
4.469029308032756
 20
0.2206254522232385
 30
0.0
 11
5.492951005266582
 21
1.244547149457064
 31
0.0
  0
LINE
  5
D198
330
D185
100
AcDbEntity
  8
0
  6
CONTINUOUS
100
AcDbLine
 10
5.989594155039935
 20
1.741190299230417
 30
0.0
 11
8.806950407233131
 21
4.558546551423613
 31
0.0
  0
LINE
  5
D199
330
D185
100
AcDbEntity
  8
0
  6
CONTINUOUS
100
AcDbLine
 10
9.401251593263643
 20
5.152847737454126
 30
0.0
 11
10.47679036721708
 21
6.228386511407559
 31
0.0
  0
LINE
  5
D19A
330
D185
100
AcDbEntity
  8
0
  6
CONTINUOUS
100
AcDbLine
 10
4.921837203428691
 20
-0.0000858614610131
 30
0.0
 11
8.592923064886001
 21
3.670999999996297
 31
0.0
  0
LINE
  5
D19B
330
D185
100
AcDbEntity
  8
0
  6
CONTINUOUS
100
AcDbLine
 10
9.609390446785305
 20
4.6874673818956
 30
0.0
 11
10.68495775058548
 21
5.763034685695775
 31
0.0
  0
LINE
  5
D19C
330
D185
100
AcDbEntity
  8
0
  6
CONTINUOUS
100
AcDbLine
 10
5.595387755019432
 20
-0.0000545189504582
 30
0.0
 11
7.716137258923768
 21
2.120694984953879
 31
0.0
  0
LINE
  5
D19D
330
D185
100
AcDbEntity
  8
0
  6
CONTINUOUS
100
AcDbLine
 10
6.268938306610172
 20
-0.000023176439905
 30
0.0
 11
7.170485805526503
 21
0.9015243224764267
 31
0.0
  0
LINE
  5
D19E
330
D185
100
AcDbEntity
  8
0
  6
CONTINUOUS
100
AcDbLine
 10
7.963842273967511
 20
2.368399999997621
 30
0.0
 11
9.266442273966188
 21
3.670999999996297
 31
0.0
  0
LINE
  5
D19F
330
D185
100
AcDbEntity
  8
0
  6
CONTINUOUS
100
AcDbLine
 10
8.637361483047696
 20
2.368399999997621
 30
0.0
 11
9.939961483046375
 21
3.670999999996297
 31
0.0
  0
LINE
  5
D1A0
330
D185
100
AcDbEntity
  8
0
  6
CONTINUOUS
100
AcDbLine
 10
9.817529300306965
 20
4.222087026337075
 30
0.0
 11
10.89312513395388
 21
5.297682859983993
 31
0.0
  0
LINE
  5
D1A1
330
D185
100
AcDbEntity
  8
0
  6
CONTINUOUS
100
AcDbLine
 10
10.02566815382863
 20
3.756706670778549
 30
0.0
 11
11.10129251732229
 21
4.832331034272211
 31
0.0
  0
LINE
  5
D1A2
330
D185
100
AcDbEntity
  8
0
  6
CONTINUOUS
100
AcDbLine
 10
9.310880692127883
 20
2.368399999997621
 30
0.0
 11
11.30945990069069
 21
4.366979208560428
 31
0.0
  0
LINE
  5
D1A3
330
D185
100
AcDbEntity
  8
0
  6
CONTINUOUS
100
AcDbLine
 10
9.98439990120807
 20
2.36839999999762
 30
0.0
 11
11.5176272840591
 21
3.901627382848645
 31
0.0
  0
LINE
  5
D1A4
330
D185
100
AcDbEntity
  8
0
  6
CONTINUOUS
100
AcDbLine
 10
10.65037369446246
 20
2.36085458417182
 30
0.0
 11
11.7257946674275
 21
3.436275557136862
 31
0.0
  0
LINE
  5
D1A5
330
D185
100
AcDbEntity
  8
0
  6
CONTINUOUS
100
AcDbLine
 10
10.85847197087848
 20
1.895433651507656
 30
0.0
 11
11.9339620507959
 21
2.97092373142508
 31
0.0
  0
LINE
  5
D1A6
330
D185
100
AcDbEntity
  8
0
  6
CONTINUOUS
100
AcDbLine
 10
11.0665702472945
 20
1.430012718843491
 30
0.0
 11
12.14212943416431
 21
2.505571905713296
 31
0.0
  0
LINE
  5
D1A7
330
D185
100
AcDbEntity
  8
0
  6
CONTINUOUS
100
AcDbLine
 10
11.27466852371052
 20
0.9645917861793256
 30
0.0
 11
12.35029681753271
 21
2.040220080001513
 31
0.0
  0
LINE
  5
D1A8
330
D185
100
AcDbEntity
  8
0
  6
CONTINUOUS
100
AcDbLine
 10
11.48276680012654
 20
0.4991708535151611
 30
0.0
 11
12.55846420090111
 21
1.57486825428973
 31
0.0
  0
LINE
  5
D1A9
330
D185
100
AcDbEntity
  8
0
  6
CONTINUOUS
100
AcDbLine
 10
11.69086507654257
 20
0.0337499208509957
 30
0.0
 11
12.76663158426952
 21
1.109516428577947
 31
0.0
  0
LINE
  5
D1AA
330
D185
100
AcDbEntity
  8
0
  6
CONTINUOUS
100
AcDbLine
 10
12.33057447873954
 20
-0.0000598860322123
 30
0.0
 11
12.97479896763792
 21
0.6441646028661663
 31
0.0
  0
LINE
  5
D1AB
330
D185
100
AcDbEntity
  8
0
  6
CONTINUOUS
100
AcDbLine
 10
13.00413694809395
 20
-0.0000166257579952
 30
0.0
 11
13.18296635100632
 21
0.1788127771543824
 31
0.0
  0
LINE
  5
D1AC
330
D185
100
AcDbEntity
  8
0
  6
CONTINUOUS
100
AcDbLine
 10
4.772852165289667
 20
-0.000092794222212
 30
0.0
 11
4.296495091028902
 21
0.4762642800385528
 31
0.0
  0
LINE
  5
D1AD
330
D185
100
AcDbEntity
  8
0
  6
CONTINUOUS
100
AcDbLine
 10
5.446340034776103
 20
-0.0000614546284616
 30
0.0
 11
2.898195908335625
 21
2.548082671812017
 31
0.0
  0
LINE
  5
D1AE
330
D185
100
AcDbEntity
  8
0
  6
CONTINUOUS
100
AcDbLine
 10
6.119827904262539
 20
-0.0000301150347113
 30
0.0
 11
1.499896725642348
 21
4.61990106358548
 31
0.0
  0
LINE
  5
D1AF
330
D185
100
AcDbEntity
  8
0
  6
CONTINUOUS
100
AcDbLine
 10
6.775136745476159
 20
0.0181802528318542
 30
0.0
 11
5.699826040202669
 21
1.093490958105344
 31
0.0
  0
LINE
  5
D1B0
330
D185
100
AcDbEntity
  8
0
  6
CONTINUOUS
100
AcDbLine
 10
6.983376846288489
 20
0.4834593610997118
 30
0.0
 11
5.908008617934405
 21
1.558827589453796
 31
0.0
  0
LINE
  5
D1B1
330
D185
100
AcDbEntity
  8
0
  6
CONTINUOUS
100
AcDbLine
 10
5.377063484962296
 20
1.416253513345719
 30
0.0
 11
1.702276957014131
 21
5.091040041293883
 31
0.0
  0
LINE
  5
D1B2
330
D185
100
AcDbEntity
  8
0
  6
CONTINUOUS
100
AcDbLine
 10
3.978745891735324
 20
3.488090315652877
 30
0.0
 11
2.000373521109399
 21
5.466462686278803
 31
0.0
  0
LINE
  5
D1B3
330
D185
100
AcDbEntity
  8
0
  6
CONTINUOUS
100
AcDbLine
 10
7.191616947100819
 20
0.948738469367568
 30
0.0
 11
6.11619119566614
 21
2.024164220802247
 31
0.0
  0
LINE
  5
D1B4
330
D185
100
AcDbEntity
  8
0
  6
CONTINUOUS
100
AcDbLine
 10
7.399857047913149
 20
1.414017577635424
 30
0.0
 11
6.324373773397875
 21
2.489500852150698
 31
0.0
  0
LINE
  5
D1B5
330
D185
100
AcDbEntity
  8
0
  6
CONTINUOUS
100
AcDbLine
 10
7.608097148725479
 20
1.879296685903281
 30
0.0
 11
6.53255635112961
 21
2.95483748349915
 31
0.0
  0
LINE
  5
D1B6
330
D185
100
AcDbEntity
  8
0
  6
CONTINUOUS
100
AcDbLine
 10
7.816337249537808
 20
2.344575794171138
 30
0.0
 11
6.740738928861345
 21
3.420174114847601
 31
0.0
  0
LINE
  5
D1B7
330
D185
100
AcDbEntity
  8
0
  6
CONTINUOUS
100
AcDbLine
 10
3.310241080789734
 20
4.830114335678653
 30
0.0
 11
2.298470085204666
 21
5.84188533126372
 31
0.0
  0
LINE
  5
D1B8
330
D185
100
AcDbEntity
  8
0
  6
CONTINUOUS
100
AcDbLine
 10
3.60832983563551
 20
5.205544789913063
 30
0.0
 11
2.596566649299935
 21
6.217307976248638
 31
0.0
  0
LINE
  5
D1B9
330
D185
100
AcDbEntity
  8
0
  6
CONTINUOUS
100
AcDbLine
 10
3.906418590481286
 20
5.580975244147473
 30
0.0
 11
2.894663213395203
 21
6.592730621233557
 31
0.0
  0
LINE
  5
D1BA
330
D185
100
AcDbEntity
  8
0
  6
CONTINUOUS
100
AcDbLine
 10
4.204507345327062
 20
5.956405698381884
 30
0.0
 11
3.192759777490472
 21
6.968153266218474
 31
0.0
  0
LINE
  5
D1BB
330
D185
100
AcDbEntity
  8
0
  6
CONTINUOUS
100
AcDbLine
 10
8.466032252791512
 20
2.368399999997621
 30
0.0
 11
6.948921506593081
 21
3.885510746196053
 31
0.0
  0
LINE
  5
D1BC
330
D185
100
AcDbEntity
  8
0
  6
CONTINUOUS
100
AcDbLine
 10
9.139551461871699
 20
2.36839999999762
 30
0.0
 11
7.157104084324816
 21
4.350847377544504
 31
0.0
  0
LINE
  5
D1BD
330
D185
100
AcDbEntity
  8
0
  6
CONTINUOUS
100
AcDbLine
 10
4.502596100172839
 20
6.331836152616295
 30
0.0
 11
3.49085634158574
 21
7.343575911203393
 31
0.0
  0
LINE
  5
D1BE
330
D185
100
AcDbEntity
  8
0
  6
CONTINUOUS
100
AcDbLine
 10
4.800684855018615
 20
6.707266606850705
 30
0.0
 11
3.788952905681008
 21
7.718998556188312
 31
0.0
  0
LINE
  5
D1BF
330
D185
100
AcDbEntity
  8
0
  6
CONTINUOUS
100
AcDbLine
 10
12.18154012887317
 20
-0.0000694579236642
 30
0.0
 11
11.32140332908496
 21
0.8600673418645499
 31
0.0
  0
LINE
  5
D1C0
330
D185
100
AcDbEntity
  8
0
  6
CONTINUOUS
100
AcDbLine
 10
12.85501608323566
 20
-0.0000262032059659
 30
0.0
 11
10.77672456435345
 21
2.078265315676246
 31
0.0
  0
LINE
  5
D1C1
330
D185
100
AcDbEntity
  8
0
  6
CONTINUOUS
100
AcDbLine
 10
9.813070670951886
 20
2.36839999999762
 30
0.0
 11
8.51047067095321
 21
3.670999999996297
 31
0.0
  0
LINE
  5
D1C2
330
D185
100
AcDbEntity
  8
0
  6
CONTINUOUS
100
AcDbLine
 10
10.48658988003207
 20
2.36839999999762
 30
0.0
 11
9.183989880033396
 21
3.670999999996297
 31
0.0
  0
LINE
  5
D1C3
330
D185
100
AcDbEntity
  8
0
  6
CONTINUOUS
100
AcDbLine
 10
8.441048632286794
 20
3.740422038662712
 30
0.0
 11
7.365286662056551
 21
4.816184008892956
 31
0.0
  0
LINE
  5
D1C4
330
D185
100
AcDbEntity
  8
0
  6
CONTINUOUS
100
AcDbLine
 10
8.649187485808454
 20
4.205802394221237
 30
0.0
 11
7.573469239788285
 21
5.281520640241407
 31
0.0
  0
LINE
  5
D1C5
330
D185
100
AcDbEntity
  8
0
  6
CONTINUOUS
100
AcDbLine
 10
5.098773609864391
 20
7.082697061085115
 30
0.0
 11
4.087049469776277
 21
8.09442120117323
 31
0.0
  0
LINE
  5
D1C6
330
D185
100
AcDbEntity
  8
0
  6
CONTINUOUS
100
AcDbLine
 10
5.396862364710167
 20
7.458127515319526
 30
0.0
 11
4.385146033871544
 21
8.469843846158149
 31
0.0
  0
LINE
  5
D1C7
330
D185
100
AcDbEntity
  8
0
  6
CONTINUOUS
100
AcDbLine
 10
13.04801363231285
 20
0.4804954567970334
 30
0.0
 11
9.85750908911358
 21
3.670999999996297
 31
0.0
  0
LINE
  5
D1C8
330
D185
100
AcDbEntity
  8
0
  6
CONTINUOUS
100
AcDbLine
 10
8.857326339330116
 20
4.671182749779763
 30
0.0
 11
7.781651817520021
 21
5.746857271589858
 31
0.0
  0
LINE
  5
D1C9
330
D185
100
AcDbEntity
  8
0
  6
CONTINUOUS
100
AcDbLine
 10
5.694951119555943
 20
7.833557969553937
 30
0.0
 11
4.765409089118624
 21
8.763099999991255
 31
0.0
  0
LINE
  5
D1CA
330
D185
100
AcDbEntity
  8
0
  6
CONTINUOUS
100
AcDbLine
 10
12.50286117236978
 20
1.699167125820288
 30
0.0
 11
9.68611877250287
 21
4.515909525687196
 31
0.0
  0
LINE
  5
D1CB
330
D185
100
AcDbEntity
  8
0
  6
CONTINUOUS
100
AcDbLine
 10
9.065465192851777
 20
5.136563105338288
 30
0.0
 11
7.989834395251757
 21
6.21219390293831
 31
0.0
  0
LINE
  5
D1CC
330
D185
100
AcDbEntity
  8
0
  6
CONTINUOUS
100
AcDbLine
 10
5.993039874401719
 20
8.208988423788346
 30
0.0
 11
5.43892829819881
 21
8.763099999991255
 31
0.0
  0
LINE
  5
D1CD
330
D185
100
AcDbEntity
  8
0
  6
CONTINUOUS
100
AcDbLine
 10
11.95770871242671
 20
2.917838794843543
 30
0.0
 11
8.19801697298349
 21
6.677530534286761
 31
0.0
  0
LINE
  5
D1CE
330
D185
100
AcDbEntity
  8
0
  6
CONTINUOUS
100
AcDbLine
 10
6.291128629247495
 20
8.584418878022756
 30
0.0
 11
6.112447507278997
 21
8.763099999991255
 31
0.0
  0
LINE
  5
D1CF
330
D185
100
AcDbEntity
  8
0
  6
CONTINUOUS
100
AcDbLine
 10
11.41255625248364
 20
4.136510463866797
 30
0.0
 11
8.406199550715227
 21
7.142867165635211
 31
0.0
  0
LINE
  5
D1D0
330
D185
100
AcDbEntity
  8
0
  6
CONTINUOUS
100
AcDbLine
 10
10.86740379254057
 20
5.355182132890051
 30
0.0
 11
8.614382128446962
 21
7.608203796983664
 31
0.0
  0
LINE
  5
D1D1
330
D185
100
AcDbEntity
  8
0
  6
CONTINUOUS
100
AcDbLine
 10
10.3222513325975
 20
6.573853801913305
 30
0.0
 11
8.822564706178696
 21
8.073540428332114
 31
0.0
  0
LINE
  5
D1D2
330
D185
100
AcDbEntity
  8
0
  6
CONTINUOUS
100
AcDbLine
 10
9.777098872654436
 20
7.792525470936562
 30
0.0
 11
9.030747283910433
 21
8.538877059680566
 31
0.0
  0
ENDBLK
  5
D314
330
D185
100
AcDbEntity
  8
0
100
AcDbBlockEnd
  0
BLOCK
  5
D315
330
D1D3
100
AcDbEntity
  8
0
100
AcDbBlockBegin
  2
*X21
 70
     1
 10
0.0
 20
0.0
 30
0.0
  3
*X21
  1

  0
LINE
  5
D1D4
330
D1D3
100
AcDbEntity
  8
0
  6
CONTINUOUS
100
AcDbLine
 10
10.67292308101235
 20
8.445076852443387
 30
0.0
 11
10.99094622856022
 21
8.763099999991255
 31
0.0
  0
LINE
  5
D1D5
330
D1D3
100
AcDbEntity
  8
0
  6
CONTINUOUS
100
AcDbLine
 10
10.87250383178748
 20
7.971138394138331
 30
0.0
 11
11.6644654376404
 21
8.763099999991255
 31
0.0
  0
LINE
  5
D1D6
330
D1D3
100
AcDbEntity
  8
0
  6
CONTINUOUS
100
AcDbLine
 10
11.07208458256261
 20
7.497199935833273
 30
0.0
 11
12.12126590876355
 21
8.546381262034211
 31
0.0
  0
LINE
  5
D1D7
330
D1D3
100
AcDbEntity
  8
0
  6
CONTINUOUS
100
AcDbLine
 10
11.27166533333774
 20
7.023261477528216
 30
0.0
 11
12.32085164573666
 21
8.072447789927136
 31
0.0
  0
LINE
  5
D1D8
330
D1D3
100
AcDbEntity
  8
0
  6
CONTINUOUS
100
AcDbLine
 10
11.47124608411287
 20
6.549323019223158
 30
0.0
 11
12.52043738270977
 21
7.59851431782006
 31
0.0
  0
LINE
  5
D1D9
330
D1D3
100
AcDbEntity
  8
0
  6
CONTINUOUS
100
AcDbLine
 10
11.670826834888
 20
6.075384560918101
 30
0.0
 11
12.72002311968288
 21
7.124580845712984
 31
0.0
  0
LINE
  5
D1DA
330
D1D3
100
AcDbEntity
  8
0
  6
CONTINUOUS
100
AcDbLine
 10
11.87040758566313
 20
5.601446102613043
 30
0.0
 11
12.91960885665599
 21
6.650647373605907
 31
0.0
  0
LINE
  5
D1DB
330
D1D3
100
AcDbEntity
  8
0
  6
CONTINUOUS
100
AcDbLine
 10
12.06998833643825
 20
5.127507644307986
 30
0.0
 11
13.1191945936291
 21
6.176713901498832
 31
0.0
  0
LINE
  5
D1DC
330
D1D3
100
AcDbEntity
  8
0
  6
CONTINUOUS
100
AcDbLine
 10
12.26956908721338
 20
4.65356918600293
 30
0.0
 11
13.31878033060221
 21
5.702780429391757
 31
0.0
  0
LINE
  5
D1DD
330
D1D3
100
AcDbEntity
  8
0
  6
CONTINUOUS
100
AcDbLine
 10
12.46914983798851
 20
4.179630727697873
 30
0.0
 11
13.51836606757532
 21
5.228846957284683
 31
0.0
  0
LINE
  5
D1DE
330
D1D3
100
AcDbEntity
  8
0
  6
CONTINUOUS
100
AcDbLine
 10
12.66873058876364
 20
3.705692269392816
 30
0.0
 11
13.71795180454843
 21
4.754913485177607
 31
0.0
  0
LINE
  5
D1DF
330
D1D3
100
AcDbEntity
  8
0
  6
CONTINUOUS
100
AcDbLine
 10
12.86831133953877
 20
3.231753811087759
 30
0.0
 11
13.91753754152154
 21
4.280980013070531
 31
0.0
  0
LINE
  5
D1E0
330
D1D3
100
AcDbEntity
  8
0
  6
CONTINUOUS
100
AcDbLine
 10
13.0678920903139
 20
2.757815352782702
 30
0.0
 11
14.11712327849465
 21
3.807046540963456
 31
0.0
  0
LINE
  5
D1E1
330
D1D3
100
AcDbEntity
  8
0
  6
CONTINUOUS
100
AcDbLine
 10
13.26747284108903
 20
2.283876894477644
 30
0.0
 11
14.31670901546777
 21
3.333113068856379
 31
0.0
  0
LINE
  5
D1E2
330
D1D3
100
AcDbEntity
  8
0
  6
CONTINUOUS
100
AcDbLine
 10
16.36767838827179
 20
8.751678487061342
 30
0.0
 11
16.50332410898388
 21
8.887324207773432
 31
0.0
  0
LINE
  5
D1E3
330
D1D3
100
AcDbEntity
  8
0
  6
CONTINUOUS
100
AcDbLine
 10
15.96190732182191
 20
7.67238821153127
 30
0.0
 11
16.68735328004734
 21
8.397834169756699
 31
0.0
  0
LINE
  5
D1E4
330
D1D3
100
AcDbEntity
  8
0
  6
CONTINUOUS
100
AcDbLine
 10
15.55613625537202
 20
6.593097936001196
 30
0.0
 11
16.87138245111079
 21
7.908344131739965
 31
0.0
  0
LINE
  5
D1E5
330
D1D3
100
AcDbEntity
  8
0
  6
CONTINUOUS
100
AcDbLine
 10
15.15036518892213
 20
5.513807660471122
 30
0.0
 11
17.05541162217424
 21
7.418854093723231
 31
0.0
  0
LINE
  5
D1E6
330
D1D3
100
AcDbEntity
  8
0
  6
CONTINUOUS
100
AcDbLine
 10
14.74459412247225
 20
4.434517384941048
 30
0.0
 11
17.2394407932377
 21
6.929364055706499
 31
0.0
  0
LINE
  5
D1E7
330
D1D3
100
AcDbEntity
  8
0
  6
CONTINUOUS
100
AcDbLine
 10
14.33882305602236
 20
3.355227109410975
 30
0.0
 11
17.42346996430115
 21
6.439874017689766
 31
0.0
  0
LINE
  5
D1E8
330
D1D3
100
AcDbEntity
  8
0
  6
CONTINUOUS
100
AcDbLine
 10
13.46705359186416
 20
1.809938436172586
 30
0.0
 11
16.0819338255367
 21
4.424818669845129
 31
0.0
  0
LINE
  5
D1E9
330
D1D3
100
AcDbEntity
  8
0
  6
CONTINUOUS
100
AcDbLine
 10
16.63283254238972
 20
4.975717386698149
 30
0.0
 11
17.60749913536461
 21
5.950383979673033
 31
0.0
  0
LINE
  5
D1EA
330
D1D3
100
AcDbEntity
  8
0
  6
CONTINUOUS
100
AcDbLine
 10
13.66663434263929
 20
1.335999977867529
 30
0.0
 11
15.67604797733754
 21
3.345413612565779
 31
0.0
  0
LINE
  5
D1EB
330
D1D3
100
AcDbEntity
  8
0
  6
CONTINUOUS
100
AcDbLine
 10
13.86621509341442
 20
0.8620615195624723
 30
0.0
 11
15.27016212913838
 21
2.26600855528643
 31
0.0
  0
LINE
  5
D1EC
330
D1D3
100
AcDbEntity
  8
0
  6
CONTINUOUS
100
AcDbLine
 10
16.81682257348267
 20
4.486188208710908
 30
0.0
 11
17.79152830642806
 21
5.460893941656299
 31
0.0
  0
LINE
  5
D1ED
330
D1D3
100
AcDbEntity
  8
0
  6
CONTINUOUS
100
AcDbLine
 10
17.00081260457561
 20
3.996659030723667
 30
0.0
 11
17.97555747749151
 21
4.971403903639565
 31
0.0
  0
LINE
  5
D1EE
330
D1D3
100
AcDbEntity
  8
0
  6
CONTINUOUS
100
AcDbLine
 10
20.74362343514722
 20
8.412989070375462
 30
0.0
 11
21.09373436476302
 21
8.763099999991256
 31
0.0
  0
LINE
  5
D1EF
330
D1D3
100
AcDbEntity
  8
0
  6
CONTINUOUS
100
AcDbLine
 10
20.25401257174777
 20
7.249858997895826
 30
0.0
 11
21.7672535738432
 21
8.763099999991255
 31
0.0
  0
LINE
  5
D1F0
330
D1D3
100
AcDbEntity
  8
0
  6
CONTINUOUS
100
AcDbLine
 10
14.06579584418955
 20
0.3881230612574149
 30
0.0
 11
14.86427628093921
 21
1.186603498007082
 31
0.0
  0
LINE
  5
D1F1
330
D1D3
100
AcDbEntity
  8
0
  6
CONTINUOUS
100
AcDbLine
 10
14.26537659496467
 20
-0.0858153970476412
 30
0.0
 11
14.45839043274005
 21
0.1071984407277329
 31
0.0
  0
LINE
  5
D1F2
330
D1D3
100
AcDbEntity
  8
0
  6
CONTINUOUS
100
AcDbLine
 10
17.18480263566856
 20
3.507129852736426
 30
0.0
 11
18.15958664855496
 21
4.481913865622833
 31
0.0
  0
LINE
  5
D1F3
330
D1D3
100
AcDbEntity
  8
0
  6
CONTINUOUS
100
AcDbLine
 10
17.3687926667615
 20
3.017600674749186
 30
0.0
 11
18.34361581961842
 21
3.9924238276061
 31
0.0
  0
LINE
  5
D1F4
330
D1D3
100
AcDbEntity
  8
0
  6
CONTINUOUS
100
AcDbLine
 10
19.76440170834832
 20
6.086728925416191
 30
0.0
 11
22.33924590259489
 21
8.661573119662755
 31
0.0
  0
LINE
  5
D1F5
330
D1D3
100
AcDbEntity
  8
0
  6
CONTINUOUS
100
AcDbLine
 10
19.27479084494887
 20
4.923598852936555
 30
0.0
 11
21.84929622842713
 21
7.498104236414807
 31
0.0
  0
LINE
  5
D1F6
330
D1D3
100
AcDbEntity
  8
0
  6
CONTINUOUS
100
AcDbLine
 10
17.55278269785445
 20
2.528071496761945
 30
0.0
 11
18.52764499068187
 21
3.502933789589366
 31
0.0
  0
LINE
  5
D1F7
330
D1D3
100
AcDbEntity
  8
0
  6
CONTINUOUS
100
AcDbLine
 10
18.78517998154942
 20
3.760468780456919
 30
0.0
 11
21.35934655425936
 21
6.33463535316686
 31
0.0
  0
LINE
  5
D1F8
330
D1D3
100
AcDbEntity
  8
0
  6
CONTINUOUS
100
AcDbLine
 10
17.73677272894739
 20
2.038542318774704
 30
0.0
 11
20.8693968800916
 21
5.171166469918914
 31
0.0
  0
LINE
  5
D1F9
330
D1D3
100
AcDbEntity
  8
0
  6
CONTINUOUS
100
AcDbLine
 10
17.92076276004034
 20
1.549013140787464
 30
0.0
 11
20.37944720592384
 21
4.007697586670968
 31
0.0
  0
LINE
  5
D1FA
330
D1D3
100
AcDbEntity
  8
0
  6
CONTINUOUS
100
AcDbLine
 10
18.10475279113329
 20
1.059483962800223
 30
0.0
 11
19.88949753175608
 21
2.84422870342302
 31
0.0
  0
LINE
  5
D1FB
330
D1D3
100
AcDbEntity
  8
0
  6
CONTINUOUS
100
AcDbLine
 10
18.28874282222623
 20
0.5699547848129822
 30
0.0
 11
19.39954785758832
 21
1.680759820175074
 31
0.0
  0
LINE
  5
D1FC
330
D1D3
100
AcDbEntity
  8
0
  6
CONTINUOUS
100
AcDbLine
 10
18.47273285331918
 20
0.0804256068257416
 30
0.0
 11
18.90959818342056
 21
0.517290936927127
 31
0.0
  0
LINE
  5
D1FD
330
D1D3
100
AcDbEntity
  8
0
  6
CONTINUOUS
100
AcDbLine
 10
14.3590401358224
 20
-0.1570118376323384
 30
0.0
 11
14.24903296539946
 21
-0.0470046672093929
 31
0.0
  0
LINE
  5
D1FE
330
D1D3
100
AcDbEntity
  8
0
  6
CONTINUOUS
100
AcDbLine
 10
14.54309291258661
 20
0.332454594683643
 30
0.0
 11
13.75908329123172
 21
1.116464216038529
 31
0.0
  0
LINE
  5
D1FF
330
D1D3
100
AcDbEntity
  8
0
  6
CONTINUOUS
100
AcDbLine
 10
14.72714568935081
 20
0.8219210269996244
 30
0.0
 11
13.26913361706399
 21
2.27993309928645
 31
0.0
  0
LINE
  5
D200
330
D1D3
100
AcDbEntity
  8
0
  6
CONTINUOUS
100
AcDbLine
 10
14.91119846611502
 20
1.311387459315606
 30
0.0
 11
12.77918394289625
 21
3.443401982534371
 31
0.0
  0
LINE
  5
D201
330
D1D3
100
AcDbEntity
  8
0
  6
CONTINUOUS
100
AcDbLine
 10
15.09525124287922
 20
1.800853891631587
 30
0.0
 11
12.28923426872852
 21
4.606870865782293
 31
0.0
  0
LINE
  5
D202
330
D1D3
100
AcDbEntity
  8
0
  6
CONTINUOUS
100
AcDbLine
 10
15.27930401964343
 20
2.290320323947569
 30
0.0
 11
11.79928459456078
 21
5.770339749030213
 31
0.0
  0
LINE
  5
D203
330
D1D3
100
AcDbEntity
  8
0
  6
CONTINUOUS
100
AcDbLine
 10
15.46335679640763
 20
2.77978675626355
 30
0.0
 11
14.48885470994921
 21
3.754288842721972
 31
0.0
  0
LINE
  5
D204
330
D1D3
100
AcDbEntity
  8
0
  6
CONTINUOUS
100
AcDbLine
 10
13.88507249233704
 20
4.358071060334137
 30
0.0
 11
11.30933492039305
 21
6.933808632278135
 31
0.0
  0
LINE
  5
D205
330
D1D3
100
AcDbEntity
  8
0
  6
CONTINUOUS
100
AcDbLine
 10
18.75840522805855
 20
0.1582575336928151
 30
0.0
 11
18.25383727664818
 21
0.6628254851031863
 31
0.0
  0
LINE
  5
D206
330
D1D3
100
AcDbEntity
  8
0
  6
CONTINUOUS
100
AcDbLine
 10
15.64740957317184
 20
3.269253188579531
 30
0.0
 11
14.67288388101266
 21
4.243778880738705
 31
0.0
  0
LINE
  5
D207
330
D1D3
100
AcDbEntity
  8
0
  6
CONTINUOUS
100
AcDbLine
 10
13.39509276772158
 20
5.521569994029786
 30
0.0
 11
10.81938524622531
 21
8.097277515526056
 31
0.0
  0
LINE
  5
D208
330
D1D3
100
AcDbEntity
  8
0
  6
CONTINUOUS
100
AcDbLine
 10
18.95798597883369
 20
0.6321959919978686
 30
0.0
 11
17.84825644852853
 21
1.741925522303024
 31
0.0
  0
LINE
  5
D209
330
D1D3
100
AcDbEntity
  8
0
  6
CONTINUOUS
100
AcDbLine
 10
19.15756672960882
 20
1.106134450302922
 30
0.0
 11
17.44267562040888
 21
2.821025559502861
 31
0.0
  0
LINE
  5
D20A
330
D1D3
100
AcDbEntity
  8
0
  6
CONTINUOUS
100
AcDbLine
 10
15.83146234993604
 20
3.758719620895513
 30
0.0
 11
14.85691305207612
 21
4.733268918755439
 31
0.0
  0
LINE
  5
D20B
330
D1D3
100
AcDbEntity
  8
0
  6
CONTINUOUS
100
AcDbLine
 10
16.01551512670025
 20
4.248186053211494
 30
0.0
 11
15.04094222313957
 21
5.222758956772172
 31
0.0
  0
LINE
  5
D20C
330
D1D3
100
AcDbEntity
  8
0
  6
CONTINUOUS
100
AcDbLine
 10
12.90511304310612
 20
6.685068927725435
 30
0.0
 11
10.8270819708403
 21
8.763099999991255
 31
0.0
  0
LINE
  5
D20D
330
D1D3
100
AcDbEntity
  8
0
  6
CONTINUOUS
100
AcDbLine
 10
12.41513331849066
 20
7.848567861421083
 30
0.0
 11
11.50060117992049
 21
8.763099999991255
 31
0.0
  0
LINE
  5
D20E
330
D1D3
100
AcDbEntity
  8
0
  6
CONTINUOUS
100
AcDbLine
 10
19.35714748038395
 20
1.580072908607975
 30
0.0
 11
17.03709479228923
 21
3.900125596702697
 31
0.0
  0
LINE
  5
D20F
330
D1D3
100
AcDbEntity
  8
0
  6
CONTINUOUS
100
AcDbLine
 10
19.55672823115909
 20
2.054011366913028
 30
0.0
 11
16.63151396416958
 21
4.979225633902534
 31
0.0
  0
LINE
  5
D210
330
D1D3
100
AcDbEntity
  8
0
  6
CONTINUOUS
100
AcDbLine
 10
16.19956790346445
 20
4.737652485527476
 30
0.0
 11
15.22497139420302
 21
5.712248994788904
 31
0.0
  0
LINE
  5
D211
330
D1D3
100
AcDbEntity
  8
0
  6
CONTINUOUS
100
AcDbLine
 10
16.38362068022866
 20
5.227118917843457
 30
0.0
 11
15.40900056526648
 21
6.201739032805637
 31
0.0
  0
LINE
  5
D212
330
D1D3
100
AcDbEntity
  8
0
  6
CONTINUOUS
100
AcDbLine
 10
19.75630898193422
 20
2.527949825218081
 30
0.0
 11
18.70774536448286
 21
3.576513442669441
 31
0.0
  0
LINE
  5
D213
330
D1D3
100
AcDbEntity
  8
0
  6
CONTINUOUS
100
AcDbLine
 10
19.95588973270936
 20
3.001888283523134
 30
0.0
 11
18.90726987211446
 21
4.050508144118028
 31
0.0
  0
LINE
  5
D214
330
D1D3
100
AcDbEntity
  8
0
  6
CONTINUOUS
100
AcDbLine
 10
20.15547048348449
 20
3.475826741828186
 30
0.0
 11
19.10679437974606
 21
4.524502845566614
 31
0.0
  0
LINE
  5
D215
330
D1D3
100
AcDbEntity
  8
0
  6
CONTINUOUS
100
AcDbLine
 10
20.35505123425962
 20
3.94976520013324
 30
0.0
 11
19.30631888737766
 21
4.998497547015201
 31
0.0
  0
LINE
  5
D216
330
D1D3
100
AcDbEntity
  8
0
  6
CONTINUOUS
100
AcDbLine
 10
20.55463198503475
 20
4.423703658438292
 30
0.0
 11
19.50584339500926
 21
5.472492248463787
 31
0.0
  0
LINE
  5
D217
330
D1D3
100
AcDbEntity
  8
0
  6
CONTINUOUS
100
AcDbLine
 10
18.37481191085755
 20
3.909446896294752
 30
0.0
 11
15.59302973632993
 21
6.691229070822371
 31
0.0
  0
LINE
  5
D218
330
D1D3
100
AcDbEntity
  8
0
  6
CONTINUOUS
100
AcDbLine
 10
17.96904084440766
 20
4.988737171824825
 30
0.0
 11
15.77705890739338
 21
7.180719108839104
 31
0.0
  0
LINE
  5
D219
330
D1D3
100
AcDbEntity
  8
0
  6
CONTINUOUS
100
AcDbLine
 10
17.56326977795777
 20
6.068027447354899
 30
0.0
 11
15.96108807845684
 21
7.670209146855838
 31
0.0
  0
LINE
  5
D21A
330
D1D3
100
AcDbEntity
  8
0
  6
CONTINUOUS
100
AcDbLine
 10
17.15749871150789
 20
7.147317722884972
 30
0.0
 11
16.14511724952029
 21
8.15969918487257
 31
0.0
  0
LINE
  5
D21B
330
D1D3
100
AcDbEntity
  8
0
  6
CONTINUOUS
100
AcDbLine
 10
16.751727645058
 20
8.226607998415046
 30
0.0
 11
16.32914642058374
 21
8.649189222889303
 31
0.0
  0
LINE
  5
D21C
330
D1D3
100
AcDbEntity
  8
0
  6
CONTINUOUS
100
AcDbLine
 10
20.75421273580989
 20
4.897642116743345
 30
0.0
 11
19.70536790264086
 21
5.946486949912374
 31
0.0
  0
LINE
  5
D21D
330
D1D3
100
AcDbEntity
  8
0
  6
CONTINUOUS
100
AcDbLine
 10
20.95379348658502
 20
5.371580575048398
 30
0.0
 11
19.90489241027246
 21
6.42048165136096
 31
0.0
  0
LINE
  5
D21E
330
D1D3
100
AcDbEntity
  8
0
  6
CONTINUOUS
100
AcDbLine
 10
21.15337423736015
 20
5.845519033353452
 30
0.0
 11
20.10441691790406
 21
6.894476352809547
 31
0.0
  0
LINE
  5
D21F
330
D1D3
100
AcDbEntity
  8
0
  6
CONTINUOUS
100
AcDbLine
 10
21.35295498813529
 20
6.319457491658505
 30
0.0
 11
20.30394142553566
 21
7.368471054258134
 31
0.0
  0
LINE
  5
D220
330
D1D3
100
AcDbEntity
  8
0
  6
CONTINUOUS
100
AcDbLine
 10
21.55253573891042
 20
6.793395949963558
 30
0.0
 11
20.50346593316726
 21
7.842465755706721
 31
0.0
  0
LINE
  5
D221
330
D1D3
100
AcDbEntity
  8
0
  6
CONTINUOUS
100
AcDbLine
 10
21.75211648968556
 20
7.267334408268612
 30
0.0
 11
20.70299044079886
 21
8.316460457155308
 31
0.0
  0
LINE
  5
D222
330
D1D3
100
AcDbEntity
  8
0
  6
CONTINUOUS
100
AcDbLine
 10
21.95169724046069
 20
7.741272866573663
 30
0.0
 11
20.9298701070431
 21
8.763099999991256
 31
0.0
  0
LINE
  5
D223
330
D1D3
100
AcDbEntity
  8
0
  6
CONTINUOUS
100
AcDbLine
 10
22.15127799123582
 20
8.215211324878716
 30
0.0
 11
21.60338931612328
 21
8.763099999991256
 31
0.0
  0
LINE
  5
D224
330
D1D3
100
AcDbEntity
  8
0
  6
CONTINUOUS
100
AcDbLine
 10
22.35085874201096
 20
8.689149783183769
 30
0.0
 11
22.27690852520347
 21
8.763099999991255
 31
0.0
  0
ENDBLK
  5
D316
330
D1D3
100
AcDbEntity
  8
0
100
AcDbBlockEnd
  0
BLOCK
  5
D317
330
D225
100
AcDbEntity
  8
0
100
AcDbBlockBegin
  2
*X22
 70
     1
 10
0.0
 20
0.0
 30
0.0
  3
*X22
  1

  0
LINE
  5
D226
330
D225
100
AcDbEntity
  8
0
  6
CONTINUOUS
100
AcDbLine
 10
23.19462913593892
 20
8.169917934846424
 30
0.0
 11
23.70775465517246
 21
8.683043454079957
 31
0.0
  0
LINE
  5
D227
330
D225
100
AcDbEntity
  8
0
  6
CONTINUOUS
100
AcDbLine
 10
22.64923161835078
 20
6.951001208178088
 30
0.0
 11
23.9159364069932
 21
8.217705996820516
 31
0.0
  0
LINE
  5
D228
330
D225
100
AcDbEntity
  8
0
  6
CONTINUOUS
100
AcDbLine
 10
22.10383410076263
 20
5.732084481509751
 30
0.0
 11
24.12411815881395
 21
7.752368539561078
 31
0.0
  0
LINE
  5
D229
330
D225
100
AcDbEntity
  8
0
  6
CONTINUOUS
100
AcDbLine
 10
21.55843658317447
 20
4.513167754841414
 30
0.0
 11
24.3322999106347
 21
7.287031082301639
 31
0.0
  0
LINE
  5
D22A
330
D225
100
AcDbEntity
  8
0
  6
CONTINUOUS
100
AcDbLine
 10
21.01303906558632
 20
3.294251028173077
 30
0.0
 11
24.54048166245544
 21
6.821693625042199
 31
0.0
  0
LINE
  5
D22B
330
D225
100
AcDbEntity
  8
0
  6
CONTINUOUS
100
AcDbLine
 10
20.46764154799817
 20
2.075334301504738
 30
0.0
 11
23.28571549467848
 21
4.89340824818505
 31
0.0
  0
LINE
  5
D22C
330
D225
100
AcDbEntity
  8
0
  6
CONTINUOUS
100
AcDbLine
 10
19.92224403041002
 20
0.8564175748364002
 30
0.0
 11
22.74075865492779
 21
3.674932199354171
 31
0.0
  0
LINE
  5
D22D
330
D225
100
AcDbEntity
  8
0
  6
CONTINUOUS
100
AcDbLine
 10
23.67305085490148
 20
5.280743608408048
 30
0.0
 11
24.74866341427619
 21
6.356356167782759
 31
0.0
  0
LINE
  5
D22E
330
D225
100
AcDbEntity
  8
0
  6
CONTINUOUS
100
AcDbLine
 10
23.88118970842314
 20
4.815363252849522
 30
0.0
 11
24.95684516609694
 21
5.89101871052332
 31
0.0
  0
LINE
  5
D22F
330
D225
100
AcDbEntity
  8
0
  6
CONTINUOUS
100
AcDbLine
 10
19.73925852647308
 20
-0.0000871381807288
 30
0.0
 11
23.4103456646501
 21
3.670999999996297
 31
0.0
  0
LINE
  5
D230
330
D225
100
AcDbEntity
  8
0
  6
CONTINUOUS
100
AcDbLine
 10
24.0893285619448
 20
4.349982897290997
 30
0.0
 11
25.16502691791769
 21
5.42568125326388
 31
0.0
  0
LINE
  5
D231
330
D225
100
AcDbEntity
  8
0
  6
CONTINUOUS
100
AcDbLine
 10
20.41282099582748
 20
-0.0000438779065108
 30
0.0
 11
21.64944178675636
 21
1.236576913022366
 31
0.0
  0
LINE
  5
D232
330
D225
100
AcDbEntity
  8
0
  6
CONTINUOUS
100
AcDbLine
 10
22.78126487373161
 20
2.36839999999762
 30
0.0
 11
24.08386487373029
 21
3.670999999996297
 31
0.0
  0
LINE
  5
D233
330
D225
100
AcDbEntity
  8
0
  6
CONTINUOUS
100
AcDbLine
 10
24.29746741546646
 20
3.884602541732471
 30
0.0
 11
25.37320866973843
 21
4.960343796004441
 31
0.0
  0
LINE
  5
D234
330
D225
100
AcDbEntity
  8
0
  6
CONTINUOUS
100
AcDbLine
 10
21.08638346518189
 20
-0.0000006176322938
 30
0.0
 11
21.10379033335899
 21
0.0174062505448083
 31
0.0
  0
LINE
  5
D235
330
D225
100
AcDbEntity
  8
0
  6
CONTINUOUS
100
AcDbLine
 10
23.4547840828118
 20
2.36839999999762
 30
0.0
 11
25.58139042155918
 21
4.495006338745002
 31
0.0
  0
LINE
  5
D236
330
D225
100
AcDbEntity
  8
0
  6
CONTINUOUS
100
AcDbLine
 10
29.30199999996933
 20
8.215615917155148
 30
0.0
 11
29.84948408280543
 21
8.763099999991255
 31
0.0
  0
LINE
  5
D237
330
D225
100
AcDbEntity
  8
0
  6
CONTINUOUS
100
AcDbLine
 10
24.12830329189199
 20
2.36839999999762
 30
0.0
 11
25.78957217337993
 21
4.029668881485562
 31
0.0
  0
LINE
  5
D238
330
D225
100
AcDbEntity
  8
0
  6
CONTINUOUS
100
AcDbLine
 10
29.30199999996933
 20
7.54209670807496
 30
0.0
 11
30.52300329188562
 21
8.763099999991255
 31
0.0
  0
LINE
  5
D239
330
D225
100
AcDbEntity
  8
0
  6
CONTINUOUS
100
AcDbLine
 10
24.80182250097217
 20
2.36839999999762
 30
0.0
 11
25.99775392520067
 21
3.564331424226122
 31
0.0
  0
LINE
  5
D23A
330
D225
100
AcDbEntity
  8
0
  6
CONTINUOUS
100
AcDbLine
 10
29.30199999996933
 20
6.868577498994774
 30
0.0
 11
30.74199999996926
 21
8.308577498994712
 31
0.0
  0
LINE
  5
D23B
330
D225
100
AcDbEntity
  8
0
  6
CONTINUOUS
100
AcDbLine
 10
25.13028238392013
 20
2.023340673865392
 30
0.0
 11
26.20593567702142
 21
3.098993966966683
 31
0.0
  0
LINE
  5
D23C
330
D225
100
AcDbEntity
  8
0
  6
CONTINUOUS
100
AcDbLine
 10
25.33838066033617
 20
1.557919741201244
 30
0.0
 11
26.41411742884217
 21
2.633656509707244
 31
0.0
  0
LINE
  5
D23D
330
D225
100
AcDbEntity
  8
0
  6
CONTINUOUS
100
AcDbLine
 10
25.54647893675221
 20
1.092498808537098
 30
0.0
 11
26.62229918066291
 21
2.168319052447804
 31
0.0
  0
LINE
  5
D23E
330
D225
100
AcDbEntity
  8
0
  6
CONTINUOUS
100
AcDbLine
 10
25.75457721316825
 20
0.62707787587295
 30
0.0
 11
26.83048093248366
 21
1.702981595188365
 31
0.0
  0
LINE
  5
D23F
330
D225
100
AcDbEntity
  8
0
  6
CONTINUOUS
100
AcDbLine
 10
29.30199999996933
 20
6.195058289914587
 30
0.0
 11
30.74199999996926
 21
7.635058289914522
 31
0.0
  0
LINE
  5
D240
330
D225
100
AcDbEntity
  8
0
  6
CONTINUOUS
100
AcDbLine
 10
29.30199999996933
 20
5.521539080834401
 30
0.0
 11
30.74199999996926
 21
6.961539080834331
 31
0.0
  0
LINE
  5
D241
330
D225
100
AcDbEntity
  8
0
  6
CONTINUOUS
100
AcDbLine
 10
29.30199999996933
 20
4.848019871754214
 30
0.0
 11
30.74199999996925
 21
6.288019871754143
 31
0.0
  0
LINE
  5
D242
330
D225
100
AcDbEntity
  8
0
  6
CONTINUOUS
100
AcDbLine
 10
29.30199999996933
 20
4.174500662674028
 30
0.0
 11
30.74199999996925
 21
5.614500662673953
 31
0.0
  0
LINE
  5
D243
330
D225
100
AcDbEntity
  8
0
  6
CONTINUOUS
100
AcDbLine
 10
25.96267548958429
 20
0.1616569432088024
 30
0.0
 11
27.18411854636669
 21
1.383099999991207
 31
0.0
  0
LINE
  5
D244
330
D225
100
AcDbEntity
  8
0
  6
CONTINUOUS
100
AcDbLine
 10
29.30199999996933
 20
3.500981453593841
 30
0.0
 11
30.74199999996925
 21
4.940981453593762
 31
0.0
  0
LINE
  5
D245
330
D225
100
AcDbEntity
  8
0
  6
CONTINUOUS
100
AcDbLine
 10
26.50763775544691
 20
0.0330999999912356
 30
0.0
 11
27.85763775544689
 21
1.383099999991223
 31
0.0
  0
LINE
  5
D246
330
D225
100
AcDbEntity
  8
0
  6
CONTINUOUS
100
AcDbLine
 10
29.30199999996933
 20
2.827462244513656
 30
0.0
 11
30.74199999996925
 21
4.267462244513574
 31
0.0
  0
LINE
  5
D247
330
D225
100
AcDbEntity
  8
0
  6
CONTINUOUS
100
AcDbLine
 10
27.18115696452709
 20
0.0330999999912356
 30
0.0
 11
28.55073879889363
 21
1.402681834357775
 31
0.0
  0
LINE
  5
D248
330
D225
100
AcDbEntity
  8
0
  6
CONTINUOUS
100
AcDbLine
 10
29.28241816560272
 20
2.134361201066866
 30
0.0
 11
30.74199999996924
 21
3.593943035433383
 31
0.0
  0
LINE
  5
D249
330
D225
100
AcDbEntity
  8
0
  6
CONTINUOUS
100
AcDbLine
 10
27.85467617360728
 20
0.0330999999912356
 30
0.0
 11
30.74199999996924
 21
2.920423826353195
 31
0.0
  0
LINE
  5
D24A
330
D225
100
AcDbEntity
  8
0
  6
CONTINUOUS
100
AcDbLine
 10
28.53897559587887
 20
0.0438802131826428
 30
0.0
 11
30.73121978677781
 21
2.236124404081585
 31
0.0
  0
LINE
  5
D24B
330
D225
100
AcDbEntity
  8
0
  6
CONTINUOUS
100
AcDbLine
 10
29.45140055588722
 20
0.2827859641107988
 30
0.0
 11
30.49231403584965
 21
1.323699444073236
 31
0.0
  0
LINE
  5
D24C
330
D225
100
AcDbEntity
  8
0
  6
CONTINUOUS
100
AcDbLine
 10
19.59027867740337
 20
-0.0000967065718083
 30
0.0
 11
19.55485265190471
 21
0.035329318926844
 31
0.0
  0
LINE
  5
D24D
330
D225
100
AcDbEntity
  8
0
  6
CONTINUOUS
100
AcDbLine
 10
20.26375463176586
 20
-0.0000534518541091
 30
0.0
 11
19.76305575737534
 21
0.5006454225364014
 31
0.0
  0
LINE
  5
D24E
330
D225
100
AcDbEntity
  8
0
  6
CONTINUOUS
100
AcDbLine
 10
20.93723058612834
 20
-0.0000101971364099
 30
0.0
 11
19.97125886284597
 21
0.965961526145958
 31
0.0
  0
LINE
  5
D24F
330
D225
100
AcDbEntity
  8
0
  6
CONTINUOUS
100
AcDbLine
 10
21.25514828313686
 20
0.355591314935257
 30
0.0
 11
20.1794619683166
 21
1.431277629755512
 31
0.0
  0
LINE
  5
D250
330
D225
100
AcDbEntity
  8
0
  6
CONTINUOUS
100
AcDbLine
 10
21.46338838394921
 20
0.8208704232030986
 30
0.0
 11
20.38766507378723
 21
1.896593733365069
 31
0.0
  0
LINE
  5
D251
330
D225
100
AcDbEntity
  8
0
  6
CONTINUOUS
100
AcDbLine
 10
21.67162848476155
 20
1.28614953147094
 30
0.0
 11
20.59586817925786
 21
2.361909836974626
 31
0.0
  0
LINE
  5
D252
330
D225
100
AcDbEntity
  8
0
  6
CONTINUOUS
100
AcDbLine
 10
21.8798685855739
 20
1.751428639738782
 30
0.0
 11
20.80407128472849
 21
2.827225940584183
 31
0.0
  0
LINE
  5
D253
330
D225
100
AcDbEntity
  8
0
  6
CONTINUOUS
100
AcDbLine
 10
22.08810868638624
 20
2.216707748006623
 30
0.0
 11
21.01227439019912
 21
3.292542044193739
 31
0.0
  0
LINE
  5
D254
330
D225
100
AcDbEntity
  8
0
  6
CONTINUOUS
100
AcDbLine
 10
22.60993564347543
 20
2.36839999999762
 30
0.0
 11
21.22047749566975
 21
3.757858147803296
 31
0.0
  0
LINE
  5
D255
330
D225
100
AcDbEntity
  8
0
  6
CONTINUOUS
100
AcDbLine
 10
23.28345485255561
 20
2.36839999999762
 30
0.0
 11
21.42868060114038
 21
4.223174251412853
 31
0.0
  0
LINE
  5
D256
330
D225
100
AcDbEntity
  8
0
  6
CONTINUOUS
100
AcDbLine
 10
26.29227406164219
 20
0.0330999999912356
 30
0.0
 11
25.80009199592872
 21
0.5252820657046957
 31
0.0
  0
LINE
  5
D257
330
D225
100
AcDbEntity
  8
0
  6
CONTINUOUS
100
AcDbLine
 10
23.9569740616358
 20
2.36839999999762
 30
0.0
 11
21.63688370661101
 21
4.688490355022409
 31
0.0
  0
LINE
  5
D258
330
D225
100
AcDbEntity
  8
0
  6
CONTINUOUS
100
AcDbLine
 10
26.96579327072237
 20
0.0330999999912356
 30
0.0
 11
25.2554132311971
 21
1.743480039516508
 31
0.0
  0
LINE
  5
D259
330
D225
100
AcDbEntity
  8
0
  6
CONTINUOUS
100
AcDbLine
 10
24.63049327071599
 20
2.36839999999762
 30
0.0
 11
23.32789327071731
 21
3.670999999996297
 31
0.0
  0
LINE
  5
D25A
330
D225
100
AcDbEntity
  8
0
  6
CONTINUOUS
100
AcDbLine
 10
22.92098674744635
 20
4.077906523267254
 30
0.0
 11
21.84508681208164
 21
5.153806458631966
 31
0.0
  0
LINE
  5
D25B
330
D225
100
AcDbEntity
  8
0
  6
CONTINUOUS
100
AcDbLine
 10
27.63931247980256
 20
0.0330999999912356
 30
0.0
 11
24.0014124797975
 21
3.670999999996297
 31
0.0
  0
LINE
  5
D25C
330
D225
100
AcDbEntity
  8
0
  6
CONTINUOUS
100
AcDbLine
 10
23.129125600968
 20
4.5432868788258
 30
0.0
 11
22.05328991755227
 21
5.619122562241522
 31
0.0
  0
LINE
  5
D25D
330
D225
100
AcDbEntity
  8
0
  6
CONTINUOUS
100
AcDbLine
 10
28.31283168888275
 20
0.0330999999912356
 30
0.0
 11
24.16488385994816
 21
4.181047828925828
 31
0.0
  0
LINE
  5
D25E
330
D225
100
AcDbEntity
  8
0
  6
CONTINUOUS
100
AcDbLine
 10
23.33726445448964
 20
5.008667234384345
 30
0.0
 11
22.2614930230229
 21
6.084438665851079
 31
0.0
  0
LINE
  5
D25F
330
D225
100
AcDbEntity
  8
0
  6
CONTINUOUS
100
AcDbLine
 10
28.92085740005492
 20
0.0985934978992438
 30
0.0
 11
27.63635089796295
 21
1.383099999991217
 31
0.0
  0
LINE
  5
D260
330
D225
100
AcDbEntity
  8
0
  6
CONTINUOUS
100
AcDbLine
 10
26.43704649509776
 20
2.582404402856405
 30
0.0
 11
23.61992702019732
 21
5.399523877756844
 31
0.0
  0
LINE
  5
D261
330
D225
100
AcDbEntity
  8
0
  6
CONTINUOUS
100
AcDbLine
 10
23.54540330801128
 20
5.47404758994289
 30
0.0
 11
22.46969612849353
 21
6.549754769460635
 31
0.0
  0
LINE
  5
D262
330
D225
100
AcDbEntity
  8
0
  6
CONTINUOUS
100
AcDbLine
 10
29.42225615078443
 20
0.2707139562499279
 30
0.0
 11
28.30987010704312
 21
1.383099999991234
 31
0.0
  0
LINE
  5
D263
330
D225
100
AcDbEntity
  8
0
  6
CONTINUOUS
100
AcDbLine
 10
25.89179548232307
 20
3.801174624711282
 30
0.0
 11
22.67789923396416
 21
7.015070873070191
 31
0.0
  0
LINE
  5
D264
330
D225
100
AcDbEntity
  8
0
  6
CONTINUOUS
100
AcDbLine
 10
29.83624534690007
 20
0.5302439692144705
 30
0.0
 11
28.85811781497101
 21
1.508371501143527
 31
0.0
  0
LINE
  5
D265
330
D225
100
AcDbEntity
  8
0
  6
CONTINUOUS
100
AcDbLine
 10
25.34654446954838
 20
5.01994484656616
 30
0.0
 11
22.88610233943479
 21
7.480386976679748
 31
0.0
  0
LINE
  5
D266
330
D225
100
AcDbEntity
  8
0
  6
CONTINUOUS
100
AcDbLine
 10
30.17865975401872
 20
0.8613487711760022
 30
0.0
 11
29.18888744090175
 21
1.851121084292977
 31
0.0
  0
LINE
  5
D267
330
D225
100
AcDbEntity
  8
0
  6
CONTINUOUS
100
AcDbLine
 10
24.80129345677369
 20
6.238715068421037
 30
0.0
 11
23.09430544490542
 21
7.945703080289305
 31
0.0
  0
LINE
  5
D268
330
D225
100
AcDbEntity
  8
0
  6
CONTINUOUS
100
AcDbLine
 10
30.45496647202376
 20
1.258561262251155
 30
0.0
 11
29.30199999996933
 21
2.411527734305588
 31
0.0
  0
LINE
  5
D269
330
D225
100
AcDbEntity
  8
0
  6
CONTINUOUS
100
AcDbLine
 10
24.256042443999
 20
7.457485290275915
 30
0.0
 11
23.30250855037605
 21
8.411019183898862
 31
0.0
  0
LINE
  5
D26A
330
D225
100
AcDbEntity
  8
0
  6
CONTINUOUS
100
AcDbLine
 10
30.64868582078271
 20
1.738361122572387
 30
0.0
 11
29.30199999996933
 21
3.085046943385775
 31
0.0
  0
LINE
  5
D26B
330
D225
100
AcDbEntity
  8
0
  6
CONTINUOUS
100
AcDbLine
 10
23.71079143122431
 20
8.676255512130794
 30
0.0
 11
23.51071165584668
 21
8.876335287508416
 31
0.0
  0
LINE
  5
D26C
330
D225
100
AcDbEntity
  8
0
  6
CONTINUOUS
100
AcDbLine
 10
30.73802122914428
 20
2.322544923291007
 30
0.0
 11
29.30199999996933
 21
3.758566152465961
 31
0.0
  0
LINE
  5
D26D
330
D225
100
AcDbEntity
  8
0
  6
CONTINUOUS
100
AcDbLine
 10
30.74199999996924
 20
2.992085361546236
 30
0.0
 11
29.30199999996933
 21
4.432085361546148
 31
0.0
  0
LINE
  5
D26E
330
D225
100
AcDbEntity
  8
0
  6
CONTINUOUS
100
AcDbLine
 10
30.74199999996924
 20
3.665604570626419
 30
0.0
 11
29.30199999996933
 21
5.105604570626333
 31
0.0
  0
LINE
  5
D26F
330
D225
100
AcDbEntity
  8
0
  6
CONTINUOUS
100
AcDbLine
 10
30.74199999996925
 20
4.339123779706602
 30
0.0
 11
29.30199999996933
 21
5.77912377970652
 31
0.0
  0
LINE
  5
D270
330
D225
100
AcDbEntity
  8
0
  6
CONTINUOUS
100
AcDbLine
 10
30.74199999996925
 20
5.012642988786785
 30
0.0
 11
29.30199999996933
 21
6.452642988786707
 31
0.0
  0
LINE
  5
D271
330
D225
100
AcDbEntity
  8
0
  6
CONTINUOUS
100
AcDbLine
 10
30.74199999996925
 20
5.68616219786697
 30
0.0
 11
29.30199999996933
 21
7.126162197866894
 31
0.0
  0
LINE
  5
D272
330
D225
100
AcDbEntity
  8
0
  6
CONTINUOUS
100
AcDbLine
 10
30.74199999996925
 20
6.359681406947153
 30
0.0
 11
29.30199999996933
 21
7.799681406947081
 31
0.0
  0
LINE
  5
D273
330
D225
100
AcDbEntity
  8
0
  6
CONTINUOUS
100
AcDbLine
 10
30.74199999996926
 20
7.033200616027337
 30
0.0
 11
29.30199999996933
 21
8.473200616027269
 31
0.0
  0
LINE
  5
D274
330
D225
100
AcDbEntity
  8
0
  6
CONTINUOUS
100
AcDbLine
 10
30.74199999996926
 20
7.706719825107518
 30
0.0
 11
29.68561982508552
 21
8.763099999991255
 31
0.0
  0
LINE
  5
D275
330
D225
100
AcDbEntity
  8
0
  6
CONTINUOUS
100
AcDbLine
 10
30.74199999996926
 20
8.380239034187703
 30
0.0
 11
30.35913903416571
 21
8.763099999991255
 31
0.0
  0
ENDBLK
  5
D318
330
D225
100
AcDbEntity
  8
0
100
AcDbBlockEnd
  0
BLOCK
  5
D319
330
D276
100
AcDbEntity
  8
0
100
AcDbBlockBegin
  2
*X23
 70
     1
 10
0.0
 20
0.0
 30
0.0
  3
*X23
  1

  0
LINE
  5
D277
330
D276
100
AcDbEntity
  8
0
  6
CONTINUOUS
100
AcDbLine
 10
31.64199999996833
 20
8.535058289913598
 30
0.0
 11
31.87004171004599
 21
8.763099999991255
 31
0.0
  0
LINE
  5
D278
330
D276
100
AcDbEntity
  8
0
  6
CONTINUOUS
100
AcDbLine
 10
31.64199999996833
 20
7.861539080833412
 30
0.0
 11
32.54356091912618
 21
8.763099999991255
 31
0.0
  0
LINE
  5
D279
330
D276
100
AcDbEntity
  8
0
  6
CONTINUOUS
100
AcDbLine
 10
31.64199999996833
 20
7.188019871753226
 30
0.0
 11
33.08199999996839
 21
8.628019871753281
 31
0.0
  0
LINE
  5
D27A
330
D276
100
AcDbEntity
  8
0
  6
CONTINUOUS
100
AcDbLine
 10
31.64199999996833
 20
6.51450066267304
 30
0.0
 11
33.08199999996839
 21
7.954500662673095
 31
0.0
  0
LINE
  5
D27B
330
D276
100
AcDbEntity
  8
0
  6
CONTINUOUS
100
AcDbLine
 10
31.64199999996833
 20
5.840981453592853
 30
0.0
 11
33.08199999996839
 21
7.280981453592908
 31
0.0
  0
LINE
  5
D27C
330
D276
100
AcDbEntity
  8
0
  6
CONTINUOUS
100
AcDbLine
 10
31.64199999996833
 20
5.167462244512667
 30
0.0
 11
33.08199999996839
 21
6.607462244512721
 31
0.0
  0
LINE
  5
D27D
330
D276
100
AcDbEntity
  8
0
  6
CONTINUOUS
100
AcDbLine
 10
31.64199999996833
 20
4.493943035432481
 30
0.0
 11
33.08199999996839
 21
5.933943035432535
 31
0.0
  0
LINE
  5
D27E
330
D276
100
AcDbEntity
  8
0
  6
CONTINUOUS
100
AcDbLine
 10
31.64199999996833
 20
3.820423826352293
 30
0.0
 11
33.08199999996839
 21
5.260423826352348
 31
0.0
  0
LINE
  5
D27F
330
D276
100
AcDbEntity
  8
0
  6
CONTINUOUS
100
AcDbLine
 10
31.64199999996833
 20
3.146904617272106
 30
0.0
 11
33.08199999996839
 21
4.586904617272161
 31
0.0
  0
LINE
  5
D280
330
D276
100
AcDbEntity
  8
0
  6
CONTINUOUS
100
AcDbLine
 10
36.23199999996837
 20
8.410423826352325
 30
0.0
 11
36.5846761736073
 21
8.763099999991255
 31
0.0
  0
LINE
  5
D281
330
D276
100
AcDbEntity
  8
0
  6
CONTINUOUS
100
AcDbLine
 10
36.23199999996837
 20
7.73690461727214
 30
0.0
 11
37.25819538268748
 21
8.763099999991255
 31
0.0
  0
LINE
  5
D282
330
D276
100
AcDbEntity
  8
0
  6
CONTINUOUS
100
AcDbLine
 10
31.64257403601376
 20
2.473959444237348
 30
0.0
 11
33.08199999996839
 21
3.913385408191974
 31
0.0
  0
LINE
  5
D283
330
D276
100
AcDbEntity
  8
0
  6
CONTINUOUS
100
AcDbLine
 10
36.23199999996837
 20
7.063385408191953
 30
0.0
 11
37.67199999996831
 21
8.503385408191894
 31
0.0
  0
LINE
  5
D284
330
D276
100
AcDbEntity
  8
0
  6
CONTINUOUS
100
AcDbLine
 10
31.72013636841932
 20
1.87800256756272
 30
0.0
 11
33.08199999996839
 21
3.239866199111788
 31
0.0
  0
LINE
  5
D285
330
D276
100
AcDbEntity
  8
0
  6
CONTINUOUS
100
AcDbLine
 10
36.23199999996837
 20
6.389866199111767
 30
0.0
 11
37.67199999996831
 21
7.829866199111708
 31
0.0
  0
LINE
  5
D286
330
D276
100
AcDbEntity
  8
0
  6
CONTINUOUS
100
AcDbLine
 10
31.89042734314753
 20
1.374774333210744
 30
0.0
 11
33.08199999996839
 21
2.566346990031601
 31
0.0
  0
LINE
  5
D287
330
D276
100
AcDbEntity
  8
0
  6
CONTINUOUS
100
AcDbLine
 10
36.23199999996837
 20
5.71634699003158
 30
0.0
 11
37.67199999996831
 21
7.156346990031521
 31
0.0
  0
LINE
  5
D288
330
D276
100
AcDbEntity
  8
0
  6
CONTINUOUS
100
AcDbLine
 10
32.14210568064475
 20
0.952933461627778
 30
0.0
 11
33.18745552475986
 21
1.998283305742888
 31
0.0
  0
LINE
  5
D289
330
D276
100
AcDbEntity
  8
0
  6
CONTINUOUS
100
AcDbLine
 10
36.23199999996837
 20
5.042827780951393
 30
0.0
 11
37.67199999996831
 21
6.482827780951334
 31
0.0
  0
LINE
  5
D28A
330
D276
100
AcDbEntity
  8
0
  6
CONTINUOUS
100
AcDbLine
 10
32.45820639400955
 20
0.5955149659123915
 30
0.0
 11
33.47242681921943
 21
1.60973539112227
 31
0.0
  0
LINE
  5
D28B
330
D276
100
AcDbEntity
  8
0
  6
CONTINUOUS
100
AcDbLine
 10
36.23199999996837
 20
4.369308571871207
 30
0.0
 11
37.67199999996831
 21
5.809308571871147
 31
0.0
  0
LINE
  5
D28C
330
D276
100
AcDbEntity
  8
0
  6
CONTINUOUS
100
AcDbLine
 10
32.83432456621412
 20
0.2981139290367771
 30
0.0
 11
33.89722476612215
 21
1.361014128944803
 31
0.0
  0
LINE
  5
D28D
330
D276
100
AcDbEntity
  8
0
  6
CONTINUOUS
100
AcDbLine
 10
36.23199999996837
 20
3.69578936279102
 30
0.0
 11
37.67199999996831
 21
5.135789362790962
 31
0.0
  0
LINE
  5
D28E
330
D276
100
AcDbEntity
  8
0
  6
CONTINUOUS
100
AcDbLine
 10
33.2711633111245
 20
0.0614334648669672
 30
0.0
 11
34.43247338014423
 21
1.222743533886696
 31
0.0
  0
LINE
  5
D28F
330
D276
100
AcDbEntity
  8
0
  6
CONTINUOUS
100
AcDbLine
 10
36.23199999996837
 20
3.022270153710834
 30
0.0
 11
37.67199999996831
 21
4.462270153710775
 31
0.0
  0
LINE
  5
D290
330
D276
100
AcDbEntity
  8
0
  6
CONTINUOUS
100
AcDbLine
 10
33.76515245874577
 20
-0.1180965965919523
 30
0.0
 11
35.1587445516215
 21
1.27549549628378
 31
0.0
  0
LINE
  5
D291
330
D276
100
AcDbEntity
  8
0
  6
CONTINUOUS
100
AcDbLine
 10
36.21639478609585
 20
2.333145730758136
 30
0.0
 11
37.67199999996831
 21
3.788750944630588
 31
0.0
  0
LINE
  5
D292
330
D276
100
AcDbEntity
  8
0
  6
CONTINUOUS
100
AcDbLine
 10
34.34060583368432
 20
-0.2161624307335863
 30
0.0
 11
37.67199999996831
 21
3.115231735550401
 31
0.0
  0
LINE
  5
D293
330
D276
100
AcDbEntity
  8
0
  6
CONTINUOUS
100
AcDbLine
 10
35.01698193613905
 20
-0.2133055373590427
 30
0.0
 11
37.66876712070525
 21
2.438479647207154
 31
0.0
  0
LINE
  5
D294
330
D276
100
AcDbEntity
  8
0
  6
CONTINUOUS
100
AcDbLine
 10
35.90743367693304
 20
0.0036269943547609
 30
0.0
 11
37.51723902192366
 21
1.613432339345381
 31
0.0
  0
LINE
  5
D295
330
D276
100
AcDbEntity
  8
0
  6
CONTINUOUS
100
AcDbLine
 10
32.55309425579761
 20
0.5074718966376706
 30
0.0
 11
32.27784730925847
 21
0.7827188431768102
 31
0.0
  0
LINE
  5
D296
330
D276
100
AcDbEntity
  8
0
  6
CONTINUOUS
100
AcDbLine
 10
33.87496468909684
 20
-0.1408793275813673
 30
0.0
 11
31.67993083278052
 21
2.054154528734943
 31
0.0
  0
LINE
  5
D297
330
D276
100
AcDbEntity
  8
0
  6
CONTINUOUS
100
AcDbLine
 10
34.64362813207632
 20
-0.2360235614806649
 30
0.0
 11
31.64199999996833
 21
2.765604570627322
 31
0.0
  0
LINE
  5
D298
330
D276
100
AcDbEntity
  8
0
  6
CONTINUOUS
100
AcDbLine
 10
35.25801106796118
 20
-0.1768872882853429
 30
0.0
 11
31.64199999996833
 21
3.439123779707508
 31
0.0
  0
LINE
  5
D299
330
D276
100
AcDbEntity
  8
0
  6
CONTINUOUS
100
AcDbLine
 10
35.79065650332146
 20
-0.0360135145654361
 30
0.0
 11
34.54143210838231
 21
1.213210880373721
 31
0.0
  0
LINE
  5
D29A
330
D276
100
AcDbEntity
  8
0
  6
CONTINUOUS
100
AcDbLine
 10
33.08199999996839
 20
2.67264298878764
 30
0.0
 11
31.64199999996833
 21
4.112642988787695
 31
0.0
  0
LINE
  5
D29B
330
D276
100
AcDbEntity
  8
0
  6
CONTINUOUS
100
AcDbLine
 10
36.25975597779143
 20
0.1684062200447833
 30
0.0
 11
35.15395110240023
 21
1.274211095435983
 31
0.0
  0
LINE
  5
D29C
330
D276
100
AcDbEntity
  8
0
  6
CONTINUOUS
100
AcDbLine
 10
33.08199999996839
 20
3.346162197867826
 30
0.0
 11
31.64199999996833
 21
4.786162197867881
 31
0.0
  0
LINE
  5
D29D
330
D276
100
AcDbEntity
  8
0
  6
CONTINUOUS
100
AcDbLine
 10
36.67226329638774
 20
0.4294181105286579
 30
0.0
 11
35.63766478748767
 21
1.464016619428737
 31
0.0
  0
LINE
  5
D29E
330
D276
100
AcDbEntity
  8
0
  6
CONTINUOUS
100
AcDbLine
 10
33.08199999996839
 20
4.019681406948012
 30
0.0
 11
31.64199999996833
 21
5.459681406948068
 31
0.0
  0
LINE
  5
D29F
330
D276
100
AcDbEntity
  8
0
  6
CONTINUOUS
100
AcDbLine
 10
37.01677749710036
 20
0.7584231188962329
 30
0.0
 11
35.99563422741351
 21
1.779566388583076
 31
0.0
  0
LINE
  5
D2A0
330
D276
100
AcDbEntity
  8
0
  6
CONTINUOUS
100
AcDbLine
 10
33.08199999996839
 20
4.693200616028199
 30
0.0
 11
31.64199999996833
 21
6.133200616028255
 31
0.0
  0
LINE
  5
D2A1
330
D276
100
AcDbEntity
  8
0
  6
CONTINUOUS
100
AcDbLine
 10
37.29859977568887
 20
1.1501200493879
 30
0.0
 11
36.20680593341555
 21
2.241913891661226
 31
0.0
  0
LINE
  5
D2A2
330
D276
100
AcDbEntity
  8
0
  6
CONTINUOUS
100
AcDbLine
 10
33.08199999996839
 20
5.366719825108386
 30
0.0
 11
31.64199999996833
 21
6.80671982510844
 31
0.0
  0
LINE
  5
D2A3
330
D276
100
AcDbEntity
  8
0
  6
CONTINUOUS
100
AcDbLine
 10
37.5148623517228
 20
1.607376682434161
 30
0.0
 11
36.23199999996837
 21
2.890239034188594
 31
0.0
  0
LINE
  5
D2A4
330
D276
100
AcDbEntity
  8
0
  6
CONTINUOUS
100
AcDbLine
 10
33.08199999996839
 20
6.040239034188573
 30
0.0
 11
31.64199999996833
 21
7.480239034188627
 31
0.0
  0
LINE
  5
D2A5
330
D276
100
AcDbEntity
  8
0
  6
CONTINUOUS
100
AcDbLine
 10
37.64705163358367
 20
2.148706609653477
 30
0.0
 11
36.23199999996837
 21
3.56375824326878
 31
0.0
  0
LINE
  5
D2A6
330
D276
100
AcDbEntity
  8
0
  6
CONTINUOUS
100
AcDbLine
 10
33.08199999996839
 20
6.713758243268758
 30
0.0
 11
31.64199999996833
 21
8.153758243268815
 31
0.0
  0
LINE
  5
D2A7
330
D276
100
AcDbEntity
  8
0
  6
CONTINUOUS
100
AcDbLine
 10
37.67199999996831
 20
2.797277452349026
 30
0.0
 11
36.23199999996837
 21
4.237277452348967
 31
0.0
  0
LINE
  5
D2A8
330
D276
100
AcDbEntity
  8
0
  6
CONTINUOUS
100
AcDbLine
 10
37.67199999996831
 20
3.470796661429213
 30
0.0
 11
36.23199999996837
 21
4.910796661429154
 31
0.0
  0
LINE
  5
D2A9
330
D276
100
AcDbEntity
  8
0
  6
CONTINUOUS
100
AcDbLine
 10
37.67199999996831
 20
4.144315870509399
 30
0.0
 11
36.23199999996837
 21
5.58431587050934
 31
0.0
  0
LINE
  5
D2AA
330
D276
100
AcDbEntity
  8
0
  6
CONTINUOUS
100
AcDbLine
 10
33.08199999996839
 20
7.387277452348945
 30
0.0
 11
31.70617745232608
 21
8.763099999991255
 31
0.0
  0
LINE
  5
D2AB
330
D276
100
AcDbEntity
  8
0
  6
CONTINUOUS
100
AcDbLine
 10
33.08199999996839
 20
8.060796661429132
 30
0.0
 11
32.37969666140626
 21
8.763099999991255
 31
0.0
  0
LINE
  5
D2AC
330
D276
100
AcDbEntity
  8
0
  6
CONTINUOUS
100
AcDbLine
 10
33.08199999996839
 20
8.734315870509318
 30
0.0
 11
33.05321587048645
 21
8.763099999991255
 31
0.0
  0
LINE
  5
D2AD
330
D276
100
AcDbEntity
  8
0
  6
CONTINUOUS
100
AcDbLine
 10
37.67199999996831
 20
4.817835079589585
 30
0.0
 11
36.23199999996837
 21
6.257835079589526
 31
0.0
  0
LINE
  5
D2AE
330
D276
100
AcDbEntity
  8
0
  6
CONTINUOUS
100
AcDbLine
 10
37.67199999996831
 20
5.491354288669771
 30
0.0
 11
36.23199999996837
 21
6.931354288669713
 31
0.0
  0
LINE
  5
D2AF
330
D276
100
AcDbEntity
  8
0
  6
CONTINUOUS
100
AcDbLine
 10
37.67199999996831
 20
6.164873497749958
 30
0.0
 11
36.23199999996837
 21
7.6048734977499
 31
0.0
  0
LINE
  5
D2B0
330
D276
100
AcDbEntity
  8
0
  6
CONTINUOUS
100
AcDbLine
 10
37.67199999996831
 20
6.838392706830144
 30
0.0
 11
36.23199999996837
 21
8.278392706830086
 31
0.0
  0
LINE
  5
D2B1
330
D276
100
AcDbEntity
  8
0
  6
CONTINUOUS
100
AcDbLine
 10
37.67199999996831
 20
7.511911915910332
 30
0.0
 11
36.42081191588738
 21
8.763099999991255
 31
0.0
  0
LINE
  5
D2B2
330
D276
100
AcDbEntity
  8
0
  6
CONTINUOUS
100
AcDbLine
 10
37.67199999996831
 20
8.185431124990519
 30
0.0
 11
37.09433112496757
 21
8.763099999991255
 31
0.0
  0
ENDBLK
  5
D31A
330
D276
100
AcDbEntity
  8
0
100
AcDbBlockEnd
  0
BLOCK
  5
D31B
330
D2B3
100
AcDbEntity
  8
0
100
AcDbBlockBegin
  2
*X24
 70
     1
 10
0.0
 20
0.0
 30
0.0
  3
*X24
  1

  0
LINE
  5
D2B4
330
D2B3
100
AcDbEntity
  8
0
  6
CONTINUOUS
100
AcDbLine
 10
38.60499999996136
 20
8.762866199104765
 30
0.0
 11
38.71672554182345
 21
8.874591740966855
 31
0.0
  0
LINE
  5
D2B5
330
D2B3
100
AcDbEntity
  8
0
  6
CONTINUOUS
100
AcDbLine
 10
38.60499999996136
 20
8.089346990024577
 30
0.0
 11
39.03418785440363
 21
8.518534844466847
 31
0.0
  0
LINE
  5
D2B6
330
D2B3
100
AcDbEntity
  8
0
  6
CONTINUOUS
100
AcDbLine
 10
38.60499999996136
 20
7.41582778094439
 30
0.0
 11
39.35165016698382
 21
8.16247794796684
 31
0.0
  0
LINE
  5
D2B7
330
D2B3
100
AcDbEntity
  8
0
  6
CONTINUOUS
100
AcDbLine
 10
38.60499999996136
 20
6.742308571864204
 30
0.0
 11
39.66911247956399
 21
7.806421051466834
 31
0.0
  0
LINE
  5
D2B8
330
D2B3
100
AcDbEntity
  8
0
  6
CONTINUOUS
100
AcDbLine
 10
38.60499999996136
 20
6.068789362784018
 30
0.0
 11
39.98657479214418
 21
7.450364154966827
 31
0.0
  0
LINE
  5
D2B9
330
D2B3
100
AcDbEntity
  8
0
  6
CONTINUOUS
100
AcDbLine
 10
38.60499999996136
 20
5.395270153703832
 30
0.0
 11
40.30403710472435
 21
7.09430725846682
 31
0.0
  0
LINE
  5
D2BA
330
D2B3
100
AcDbEntity
  8
0
  6
CONTINUOUS
100
AcDbLine
 10
38.60499999996136
 20
4.721750944623645
 30
0.0
 11
40.62149941730453
 21
6.738250361966813
 31
0.0
  0
LINE
  5
D2BB
330
D2B3
100
AcDbEntity
  8
0
  6
CONTINUOUS
100
AcDbLine
 10
38.60499999996136
 20
4.048231735543458
 30
0.0
 11
40.93896172988471
 21
6.382193465466806
 31
0.0
  0
LINE
  5
D2BC
330
D2B3
100
AcDbEntity
  8
0
  6
CONTINUOUS
100
AcDbLine
 10
38.60499999996136
 20
3.374712526463272
 30
0.0
 11
40.02599999995994
 21
4.795712526461843
 31
0.0
  0
LINE
  5
D2BD
330
D2B3
100
AcDbEntity
  8
0
  6
CONTINUOUS
100
AcDbLine
 10
38.60499999996136
 20
2.701193317383085
 30
0.0
 11
40.02599999995994
 21
4.122193317381657
 31
0.0
  0
LINE
  5
D2BE
330
D2B3
100
AcDbEntity
  8
0
  6
CONTINUOUS
100
AcDbLine
 10
40.28339754687704
 20
5.053110073378947
 30
0.0
 11
41.25642404246489
 21
6.026136568966799
 31
0.0
  0
LINE
  5
D2BF
330
D2B3
100
AcDbEntity
  8
0
  6
CONTINUOUS
100
AcDbLine
 10
40.60085985945722
 20
4.697053176878939
 30
0.0
 11
41.57388635504507
 21
5.670079672466793
 31
0.0
  0
LINE
  5
D2C0
330
D2B3
100
AcDbEntity
  8
0
  6
CONTINUOUS
100
AcDbLine
 10
43.57899999995641
 20
8.348712526458318
 30
0.0
 11
43.99338747348935
 21
8.763099999991255
 31
0.0
  0
LINE
  5
D2C1
330
D2B3
100
AcDbEntity
  8
0
  6
CONTINUOUS
100
AcDbLine
 10
43.57899999995641
 20
7.675193317378131
 30
0.0
 11
44.66690668256953
 21
8.763099999991255
 31
0.0
  0
LINE
  5
D2C2
330
D2B3
100
AcDbEntity
  8
0
  6
CONTINUOUS
100
AcDbLine
 10
38.60499999996136
 20
2.027674108302898
 30
0.0
 11
40.02599999995994
 21
3.44867410830147
 31
0.0
  0
LINE
  5
D2C3
330
D2B3
100
AcDbEntity
  8
0
  6
CONTINUOUS
100
AcDbLine
 10
38.60499999996136
 20
1.354154899222712
 30
0.0
 11
40.02599999995994
 21
2.775154899221284
 31
0.0
  0
LINE
  5
D2C4
330
D2B3
100
AcDbEntity
  8
0
  6
CONTINUOUS
100
AcDbLine
 10
38.60499999996136
 20
0.6806356901425255
 30
0.0
 11
40.02599999995994
 21
2.101635690141098
 31
0.0
  0
LINE
  5
D2C5
330
D2B3
100
AcDbEntity
  8
0
  6
CONTINUOUS
100
AcDbLine
 10
38.60499999996136
 20
0.0071164810623383
 30
0.0
 11
40.02599999995994
 21
1.428116481060911
 31
0.0
  0
LINE
  5
D2C6
330
D2B3
100
AcDbEntity
  8
0
  6
CONTINUOUS
100
AcDbLine
 10
40.9183221720374
 20
4.340996280378933
 30
0.0
 11
41.89134866762525
 21
5.314022775966786
 31
0.0
  0
LINE
  5
D2C7
330
D2B3
100
AcDbEntity
  8
0
  6
CONTINUOUS
100
AcDbLine
 10
41.23578448461758
 20
3.984939383878926
 30
0.0
 11
42.20881098020543
 21
4.957965879466778
 31
0.0
  0
LINE
  5
D2C8
330
D2B3
100
AcDbEntity
  8
0
  6
CONTINUOUS
100
AcDbLine
 10
41.55324679719776
 20
3.628882487378919
 30
0.0
 11
42.52627329278561
 21
4.601908982966772
 31
0.0
  0
LINE
  5
D2C9
330
D2B3
100
AcDbEntity
  8
0
  6
CONTINUOUS
100
AcDbLine
 10
41.87070910977793
 20
3.272825590878912
 30
0.0
 11
42.84373560536579
 21
4.245852086466765
 31
0.0
  0
LINE
  5
D2CA
330
D2B3
100
AcDbEntity
  8
0
  6
CONTINUOUS
100
AcDbLine
 10
43.57899999995641
 20
7.001674108297943
 30
0.0
 11
44.99999999995498
 21
8.422674108296516
 31
0.0
  0
LINE
  5
D2CB
330
D2B3
100
AcDbEntity
  8
0
  6
CONTINUOUS
100
AcDbLine
 10
43.57899999995641
 20
6.328154899217758
 30
0.0
 11
44.99999999995498
 21
7.749154899216329
 31
0.0
  0
LINE
  5
D2CC
330
D2B3
100
AcDbEntity
  8
0
  6
CONTINUOUS
100
AcDbLine
 10
43.57899999995641
 20
5.654635690137571
 30
0.0
 11
44.99999999995498
 21
7.075635690136142
 31
0.0
  0
LINE
  5
D2CD
330
D2B3
100
AcDbEntity
  8
0
  6
CONTINUOUS
100
AcDbLine
 10
43.57899999995641
 20
4.981116481057384
 30
0.0
 11
44.99999999995498
 21
6.402116481055955
 31
0.0
  0
LINE
  5
D2CE
330
D2B3
100
AcDbEntity
  8
0
  6
CONTINUOUS
100
AcDbLine
 10
39.27140272797921
 20
-0.0000000000000009
 30
0.0
 11
40.02599999995994
 21
0.7545972719807246
 31
0.0
  0
LINE
  5
D2CF
330
D2B3
100
AcDbEntity
  8
0
  6
CONTINUOUS
100
AcDbLine
 10
39.9449219370594
 20
-0.0000000000000009
 30
0.0
 11
40.02599999995994
 21
0.0810780629005379
 31
0.0
  0
LINE
  5
D2D0
330
D2B3
100
AcDbEntity
  8
0
  6
CONTINUOUS
100
AcDbLine
 10
42.18817142235812
 20
2.916768694378905
 30
0.0
 11
43.16119791794597
 21
3.889795189966758
 31
0.0
  0
LINE
  5
D2D1
330
D2B3
100
AcDbEntity
  8
0
  6
CONTINUOUS
100
AcDbLine
 10
42.50563373493829
 20
2.560711797878898
 30
0.0
 11
43.47866023052615
 21
3.533738293466751
 31
0.0
  0
LINE
  5
D2D2
330
D2B3
100
AcDbEntity
  8
0
  6
CONTINUOUS
100
AcDbLine
 10
43.57899999995641
 20
4.307597271977198
 30
0.0
 11
44.99999999995498
 21
5.728597271975769
 31
0.0
  0
LINE
  5
D2D3
330
D2B3
100
AcDbEntity
  8
0
  6
CONTINUOUS
100
AcDbLine
 10
43.57899999995641
 20
3.634078062897011
 30
0.0
 11
44.99999999995498
 21
5.055078062895582
 31
0.0
  0
LINE
  5
D2D4
330
D2B3
100
AcDbEntity
  8
0
  6
CONTINUOUS
100
AcDbLine
 10
42.82309604751848
 20
2.204654901378891
 30
0.0
 11
44.99999999995498
 21
4.381558853815395
 31
0.0
  0
LINE
  5
D2D5
330
D2B3
100
AcDbEntity
  8
0
  6
CONTINUOUS
100
AcDbLine
 10
43.14055836009865
 20
1.848598004878885
 30
0.0
 11
44.99999999995498
 21
3.70803964473521
 31
0.0
  0
LINE
  5
D2D6
330
D2B3
100
AcDbEntity
  8
0
  6
CONTINUOUS
100
AcDbLine
 10
43.45802067267883
 20
1.492541108378878
 30
0.0
 11
44.99999999995498
 21
3.034520435655023
 31
0.0
  0
LINE
  5
D2D7
330
D2B3
100
AcDbEntity
  8
0
  6
CONTINUOUS
100
AcDbLine
 10
43.77548298525902
 20
1.136484211878871
 30
0.0
 11
44.99999999995498
 21
2.361001226574837
 31
0.0
  0
LINE
  5
D2D8
330
D2B3
100
AcDbEntity
  8
0
  6
CONTINUOUS
100
AcDbLine
 10
44.09294529783919
 20
0.7804273153788639
 30
0.0
 11
44.99999999995498
 21
1.687482017494649
 31
0.0
  0
LINE
  5
D2D9
330
D2B3
100
AcDbEntity
  8
0
  6
CONTINUOUS
100
AcDbLine
 10
44.41040761041938
 20
0.4243704188788566
 30
0.0
 11
44.99999999995498
 21
1.013962808414463
 31
0.0
  0
LINE
  5
D2DA
330
D2B3
100
AcDbEntity
  8
0
  6
CONTINUOUS
100
AcDbLine
 10
44.72786992299955
 20
0.0683135223788494
 30
0.0
 11
44.99999999995498
 21
0.340443599334276
 31
0.0
  0
LINE
  5
D2DB
330
D2B3
100
AcDbEntity
  8
0
  6
CONTINUOUS
100
AcDbLine
 10
39.12223903415696
 20
-0.0000000000000009
 30
0.0
 11
38.60499999996136
 21
0.5172390341955961
 31
0.0
  0
LINE
  5
D2DC
330
D2B3
100
AcDbEntity
  8
0
  6
CONTINUOUS
100
AcDbLine
 10
39.79575824323715
 20
-0.0000000000000009
 30
0.0
 11
38.60499999996136
 21
1.190758243275783
 31
0.0
  0
LINE
  5
D2DD
330
D2B3
100
AcDbEntity
  8
0
  6
CONTINUOUS
100
AcDbLine
 10
40.02599999995994
 20
0.443277452357397
 30
0.0
 11
38.60499999996136
 21
1.864277452355969
 31
0.0
  0
LINE
  5
D2DE
330
D2B3
100
AcDbEntity
  8
0
  6
CONTINUOUS
100
AcDbLine
 10
40.02599999995994
 20
1.116796661437583
 30
0.0
 11
38.60499999996136
 21
2.537796661436155
 31
0.0
  0
LINE
  5
D2DF
330
D2B3
100
AcDbEntity
  8
0
  6
CONTINUOUS
100
AcDbLine
 10
40.02599999995994
 20
1.79031587051777
 30
0.0
 11
38.60499999996136
 21
3.211315870516341
 31
0.0
  0
LINE
  5
D2E0
330
D2B3
100
AcDbEntity
  8
0
  6
CONTINUOUS
100
AcDbLine
 10
40.02599999995994
 20
2.463835079597956
 30
0.0
 11
38.60499999996136
 21
3.884835079596527
 31
0.0
  0
LINE
  5
D2E1
330
D2B3
100
AcDbEntity
  8
0
  6
CONTINUOUS
100
AcDbLine
 10
40.02599999995994
 20
3.137354288678143
 30
0.0
 11
38.60499999996136
 21
4.558354288676714
 31
0.0
  0
LINE
  5
D2E2
330
D2B3
100
AcDbEntity
  8
0
  6
CONTINUOUS
100
AcDbLine
 10
40.02599999995994
 20
3.810873497758329
 30
0.0
 11
38.60499999996136
 21
5.2318734977569
 31
0.0
  0
LINE
  5
D2E3
330
D2B3
100
AcDbEntity
  8
0
  6
CONTINUOUS
100
AcDbLine
 10
40.02599999995994
 20
4.484392706838515
 30
0.0
 11
38.60499999996136
 21
5.905392706837086
 31
0.0
  0
LINE
  5
D2E4
330
D2B3
100
AcDbEntity
  8
0
  6
CONTINUOUS
100
AcDbLine
 10
44.99999999995498
 20
0.183911915923658
 30
0.0
 11
41.53858364506288
 21
3.64532827081576
 31
0.0
  0
LINE
  5
D2E5
330
D2B3
100
AcDbEntity
  8
0
  6
CONTINUOUS
100
AcDbLine
 10
40.02599999995994
 20
5.157911915918703
 30
0.0
 11
38.60499999996136
 21
6.578911915917274
 31
0.0
  0
LINE
  5
D2E6
330
D2B3
100
AcDbEntity
  8
0
  6
CONTINUOUS
100
AcDbLine
 10
44.99999999995498
 20
0.8574311250038447
 30
0.0
 11
38.60499999996136
 21
7.25243112499746
 31
0.0
  0
LINE
  5
D2E7
330
D2B3
100
AcDbEntity
  8
0
  6
CONTINUOUS
100
AcDbLine
 10
44.99999999995498
 20
1.530950334084031
 30
0.0
 11
38.60499999996136
 21
7.925950334077647
 31
0.0
  0
LINE
  5
D2E8
330
D2B3
100
AcDbEntity
  8
0
  6
CONTINUOUS
100
AcDbLine
 10
44.99999999995498
 20
2.204469543164218
 30
0.0
 11
43.57899999995641
 21
3.625469543162789
 31
0.0
  0
LINE
  5
D2E9
330
D2B3
100
AcDbEntity
  8
0
  6
CONTINUOUS
100
AcDbLine
 10
41.89876730984767
 20
5.305702233271528
 30
0.0
 11
38.60499999996136
 21
8.599469543157834
 31
0.0
  0
LINE
  5
D2EA
330
D2B3
100
AcDbEntity
  8
0
  6
CONTINUOUS
100
AcDbLine
 10
44.99999999995498
 20
2.877988752244405
 30
0.0
 11
43.57899999995641
 21
4.298988752242975
 31
0.0
  0
LINE
  5
D2EB
330
D2B3
100
AcDbEntity
  8
0
  6
CONTINUOUS
100
AcDbLine
 10
44.99999999995498
 20
3.551507961324591
 30
0.0
 11
43.57899999995641
 21
4.972507961323163
 31
0.0
  0
LINE
  5
D2EC
330
D2B3
100
AcDbEntity
  8
0
  6
CONTINUOUS
100
AcDbLine
 10
44.99999999995498
 20
4.225027170404777
 30
0.0
 11
43.57899999995641
 21
5.646027170403348
 31
0.0
  0
LINE
  5
D2ED
330
D2B3
100
AcDbEntity
  8
0
  6
CONTINUOUS
100
AcDbLine
 10
44.99999999995498
 20
4.898546379484964
 30
0.0
 11
43.57899999995641
 21
6.319546379483535
 31
0.0
  0
LINE
  5
D2EE
330
D2B3
100
AcDbEntity
  8
0
  6
CONTINUOUS
100
AcDbLine
 10
44.99999999995498
 20
5.572065588565151
 30
0.0
 11
43.57899999995641
 21
6.993065588563722
 31
0.0
  0
LINE
  5
D2EF
330
D2B3
100
AcDbEntity
  8
0
  6
CONTINUOUS
100
AcDbLine
 10
44.99999999995498
 20
6.245584797645336
 30
0.0
 11
43.57899999995641
 21
7.666584797643908
 31
0.0
  0
LINE
  5
D2F0
330
D2B3
100
AcDbEntity
  8
0
  6
CONTINUOUS
100
AcDbLine
 10
44.99999999995498
 20
6.919104006725522
 30
0.0
 11
43.57899999995641
 21
8.340104006724093
 31
0.0
  0
LINE
  5
D2F1
330
D2B3
100
AcDbEntity
  8
0
  6
CONTINUOUS
100
AcDbLine
 10
44.99999999995498
 20
7.592623215805709
 30
0.0
 11
43.82952321576943
 21
8.763099999991255
 31
0.0
  0
LINE
  5
D2F2
330
D2B3
100
AcDbEntity
  8
0
  6
CONTINUOUS
100
AcDbLine
 10
44.99999999995498
 20
8.266142424885896
 30
0.0
 11
44.50304242484962
 21
8.763099999991255
 31
0.0
  0
ENDBLK
  5
D31C
330
D2B3
100
AcDbEntity
  8
0
100
AcDbBlockEnd
  0
BLOCK
  5
D31D
330
D2F3
100
AcDbEntity
  8
0
100
AcDbBlockBegin
  2
*X25
 70
     1
 10
0.0
 20
0.0
 30
0.0
  3
*X25
  1

  0
LINE
  5
D2F4
330
D2F3
100
AcDbEntity
  8
0
  6
CONTINUOUS
100
AcDbLine
 10
0.0
 20
8.548461116714023
 30
0.0
 11
0.2146388832772324
 21
8.763099999991255
 31
0.0
  0
LINE
  5
D2F5
330
D2F3
100
AcDbEntity
  8
0
  6
CONTINUOUS
100
AcDbLine
 10
-0.0000000000000002
 20
7.874941907633837
 30
0.0
 11
0.8881580923574184
 21
8.763099999991255
 31
0.0
  0
LINE
  5
D2F6
330
D2F3
100
AcDbEntity
  8
0
  6
CONTINUOUS
100
AcDbLine
 10
0.0
 20
7.20142269855365
 30
0.0
 11
1.420999999998572
 21
8.622422698552223
 31
0.0
  0
LINE
  5
D2F7
330
D2F3
100
AcDbEntity
  8
0
  6
CONTINUOUS
100
AcDbLine
 10
-0.0000000000000001
 20
6.527903489473465
 30
0.0
 11
1.420999999998571
 21
7.948903489472036
 31
0.0
  0
LINE
  5
D2F8
330
D2F3
100
AcDbEntity
  8
0
  6
CONTINUOUS
100
AcDbLine
 10
-0.0000000000000002
 20
5.854384280393278
 30
0.0
 11
1.420999999998571
 21
7.275384280391849
 31
0.0
  0
LINE
  5
D2F9
330
D2F3
100
AcDbEntity
  8
0
  6
CONTINUOUS
100
AcDbLine
 10
-0.0000000000000002
 20
5.180865071313091
 30
0.0
 11
1.420999999998571
 21
6.601865071311663
 31
0.0
  0
LINE
  5
D2FA
330
D2F3
100
AcDbEntity
  8
0
  6
CONTINUOUS
100
AcDbLine
 10
0.0
 20
4.507345862232905
 30
0.0
 11
1.420999999998571
 21
5.928345862231477
 31
0.0
  0
LINE
  5
D2FB
330
D2F3
100
AcDbEntity
  8
0
  6
CONTINUOUS
100
AcDbLine
 10
-0.0000000000000003
 20
3.833826653152718
 30
0.0
 11
1.420999999998571
 21
5.25482665315129
 31
0.0
  0
LINE
  5
D2FC
330
D2F3
100
AcDbEntity
  8
0
  6
CONTINUOUS
100
AcDbLine
 10
-0.0000000000000002
 20
3.160307444072532
 30
0.0
 11
1.420999999998571
 21
4.581307444071103
 31
0.0
  0
LINE
  5
D2FD
330
D2F3
100
AcDbEntity
  8
0
  6
CONTINUOUS
100
AcDbLine
 10
-0.0000000000000001
 20
2.486788234992345
 30
0.0
 11
1.420999999998571
 21
3.907788234990917
 31
0.0
  0
LINE
  5
D2FE
330
D2F3
100
AcDbEntity
  8
0
  6
CONTINUOUS
100
AcDbLine
 10
-0.0000000000000006
 20
1.813269025912159
 30
0.0
 11
1.420999999998571
 21
3.234269025910731
 31
0.0
  0
LINE
  5
D2FF
330
D2F3
100
AcDbEntity
  8
0
  6
CONTINUOUS
100
AcDbLine
 10
0.0
 20
1.139749816831973
 30
0.0
 11
1.420999999998571
 21
2.560749816830544
 31
0.0
  0
LINE
  5
D300
330
D2F3
100
AcDbEntity
  8
0
  6
CONTINUOUS
100
AcDbLine
 10
0.0000000000000002
 20
0.466230607751787
 30
0.0
 11
1.420999999998571
 21
1.887230607750358
 31
0.0
  0
LINE
  5
D301
330
D2F3
100
AcDbEntity
  8
0
  6
CONTINUOUS
100
AcDbLine
 10
0.2072886013284003
 20
-0.0000000000000009
 30
0.0
 11
1.420999999998571
 21
1.213711398670171
 31
0.0
  0
LINE
  5
D302
330
D2F3
100
AcDbEntity
  8
0
  6
CONTINUOUS
100
AcDbLine
 10
0.8808078104085864
 20
-0.0000000000000009
 30
0.0
 11
1.420999999998571
 21
0.5401921895899839
 31
0.0
  0
LINE
  5
D303
330
D2F3
100
AcDbEntity
  8
0
  6
CONTINUOUS
100
AcDbLine
 10
0.0581249075061505
 20
-0.0000000000000009
 30
0.0
 11
-0.0000000000000002
 21
0.0581249075061496
 31
0.0
  0
LINE
  5
D304
330
D2F3
100
AcDbEntity
  8
0
  6
CONTINUOUS
100
AcDbLine
 10
0.7316441165863372
 20
-0.0000000000000009
 30
0.0
 11
-0.0000000000000002
 21
0.7316441165863363
 31
0.0
  0
LINE
  5
D305
330
D2F3
100
AcDbEntity
  8
0
  6
CONTINUOUS
100
AcDbLine
 10
1.405163325666523
 20
-0.0000000000000009
 30
0.0
 11
-0.0000000000000002
 21
1.405163325666523
 31
0.0
  0
LINE
  5
D306
330
D2F3
100
AcDbEntity
  8
0
  6
CONTINUOUS
100
AcDbLine
 10
1.420999999998572
 20
0.6576825347481381
 30
0.0
 11
-0.0000000000000001
 21
2.07868253474671
 31
0.0
  0
LINE
  5
D307
330
D2F3
100
AcDbEntity
  8
0
  6
CONTINUOUS
100
AcDbLine
 10
1.420999999998571
 20
1.331201743828324
 30
0.0
 11
-0.0000000000000001
 21
2.752201743826896
 31
0.0
  0
LINE
  5
D308
330
D2F3
100
AcDbEntity
  8
0
  6
CONTINUOUS
100
AcDbLine
 10
1.420999999998571
 20
2.004720952908511
 30
0.0
 11
-0.0000000000000002
 21
3.425720952907082
 31
0.0
  0
LINE
  5
D309
330
D2F3
100
AcDbEntity
  8
0
  6
CONTINUOUS
100
AcDbLine
 10
1.420999999998571
 20
2.678240161988697
 30
0.0
 11
-0.0000000000000001
 21
4.099240161987269
 31
0.0
  0
LINE
  5
D30A
330
D2F3
100
AcDbEntity
  8
0
  6
CONTINUOUS
100
AcDbLine
 10
1.420999999998572
 20
3.351759371068884
 30
0.0
 11
0.0
 21
4.772759371067455
 31
0.0
  0
LINE
  5
D30B
330
D2F3
100
AcDbEntity
  8
0
  6
CONTINUOUS
100
AcDbLine
 10
1.420999999998571
 20
4.02527858014907
 30
0.0
 11
-0.0000000000000003
 21
5.446278580147642
 31
0.0
  0
LINE
  5
D30C
330
D2F3
100
AcDbEntity
  8
0
  6
CONTINUOUS
100
AcDbLine
 10
1.420999999998571
 20
4.698797789229257
 30
0.0
 11
0.0
 21
6.119797789227828
 31
0.0
  0
LINE
  5
D30D
330
D2F3
100
AcDbEntity
  8
0
  6
CONTINUOUS
100
AcDbLine
 10
1.420999999998571
 20
5.372316998309444
 30
0.0
 11
-0.0000000000000001
 21
6.793316998308015
 31
0.0
  0
LINE
  5
D30E
330
D2F3
100
AcDbEntity
  8
0
  6
CONTINUOUS
100
AcDbLine
 10
1.420999999998572
 20
6.045836207389629
 30
0.0
 11
-0.0000000000000004
 21
7.466836207388202
 31
0.0
  0
LINE
  5
D30F
330
D2F3
100
AcDbEntity
  8
0
  6
CONTINUOUS
100
AcDbLine
 10
1.420999999998571
 20
6.719355416469816
 30
0.0
 11
0.0
 21
8.140355416468388
 31
0.0
  0
LINE
  5
D310
330
D2F3
100
AcDbEntity
  8
0
  6
CONTINUOUS
100
AcDbLine
 10
1.420999999998571
 20
7.392874625550003
 30
0.0
 11
0.0507746255573185
 21
8.763099999991255
 31
0.0
  0
LINE
  5
D311
330
D2F3
100
AcDbEntity
  8
0
  6
CONTINUOUS
100
AcDbLine
 10
1.420999999998571
 20
8.06639383463019
 30
0.0
 11
0.7242938346375052
 21
8.763099999991255
 31
0.0
  0
LINE
  5
D312
330
D2F3
100
AcDbEntity
  8
0
  6
CONTINUOUS
100
AcDbLine
 10
1.420999999998571
 20
8.739913043710375
 30
0.0
 11
1.397813043717691
 21
8.763099999991255
 31
0.0
  0
ENDBLK
  5
D31E
330
D2F3
100
AcDbEntity
  8
0
100
AcDbBlockEnd
  0
ENDSEC
  0
SECTION
  2
ENTITIES
  0
TEXT
  5
8D1E
330
18
100
AcDbEntity
  8
1TEXT
100
AcDbText
 10
774.2134469779553
 20
-764.8881350020995
 30
0.0
 40
4.0
  1
付属ねじ
100
AcDbText
  0
TEXT
  5
8FBC
330
18
100
AcDbEntity
  8
1TEXT
100
AcDbText
 10
461.4180680140553
 20
-607.0742101046737
 30
0.0
 40
8.0
  1
KLJ-4C-X
100
AcDbText
  0
TEXT
  5
9213
330
18
100
AcDbEntity
  8
1TEXT
100
AcDbText
 10
753.7994262480744
 20
-626.6790934920933
 30
0.0
 40
4.0
  1
シェルホワイト
 41
0.8
 72
     1
 11
766.8127595814077
 21
-626.6790934920933
 31
0.0
100
AcDbText
  0
TEXT
  5
9214
330
18
100
AcDbEntity
  8
1TEXT
100
AcDbText
 10
757.346092914741
 20
-640.5143821516177
 30
0.0
 40
4.0
  1
クローム
 72
     1
 11
766.8127595814077
 21
-640.5143821516177
 31
0.0
100
AcDbText
  0
TEXT
  5
9215
330
18
100
AcDbEntity
  8
1TEXT
100
AcDbText
 10
755.2794262480744
 20
-633.6569885120776
 30
0.0
 40
4.0
  1
本金メッキ
 72
     1
 11
766.8127595814077
 21
-633.6569885120776
 31
0.0
100
AcDbText
  0
LINE
  5
9216
330
18
100
AcDbEntity
  8
1DIM
100
AcDbLine
 10
749.4127595814076
 20
-621.1790934920933
 30
0.0
 11
819.4127595814076
 21
-621.1790934920933
 31
0.0
  0
LINE
  5
9217
330
18
100
AcDbEntity
  8
1DIM
100
AcDbLine
 10
749.4127595814076
 20
-635.1790934920933
 30
0.0
 11
819.4127595814076
 21
-635.1790934920933
 31
0.0
  0
LINE
  5
9218
330
18
100
AcDbEntity
  8
1DIM
100
AcDbLine
 10
749.4127595814076
 20
-628.1790934920933
 30
0.0
 11
819.4127595814076
 21
-628.1790934920933
 31
0.0
  0
LINE
  5
9219
330
18
100
AcDbEntity
  8
1DIM
100
AcDbLine
 10
749.4127595814076
 20
-642.1790934920933
 30
0.0
 11
819.4127595814076
 21
-642.1790934920933
 31
0.0
  0
LINE
  5
921A
330
18
100
AcDbEntity
  8
1DIM
100
AcDbLine
 10
749.4127595814076
 20
-642.1790934920933
 30
0.0
 11
819.4127595814076
 21
-642.1790934920933
 31
0.0
  0
LINE
  5
921B
330
18
100
AcDbEntity
  8
1DIM
100
AcDbLine
 10
784.4127595814076
 20
-600.1790934920933
 30
0.0
 11
784.4127595814076
 21
-663.1790934920933
 31
0.0
  0
TEXT
  5
921C
330
18
100
AcDbEntity
  8
1TEXT
100
AcDbText
 10
786.4794262480748
 20
-633.8934504757427
 30
0.0
 40
4.0
  1
KLJ-4C-G
 72
     1
 11
801.8127595814082
 21
-633.8934504757427
 31
0.0
100
AcDbText
  0
TEXT
  5
921D
330
18
100
AcDbEntity
  8
1TEXT
100
AcDbText
 10
786.6120188406669
 20
-626.6790934920933
 30
0.0
 40
4.0
  1
KLJ-4C-039
 41
0.8
 72
     1
 11
801.8127595814077
 21
-626.6790934920933
 31
0.0
100
AcDbText
  0
LINE
  5
921E
330
18
100
AcDbEntity
  8
1DIM
100
AcDbLine
 10
749.4127595814076
 20
-663.1790934920933
 30
0.0
 11
749.4127595814076
 21
-600.1790934920933
 31
0.0
  0
LINE
  5
921F
330
18
100
AcDbEntity
  8
1DIM
100
AcDbLine
 10
819.4127595814076
 20
-663.1790934920933
 30
0.0
 11
819.4127595814076
 21
-600.1790934920933
 31
0.0
  0
LINE
  5
9221
330
18
100
AcDbEntity
  8
1DIM
100
AcDbLine
 10
749.4127595814076
 20
-649.1790934920933
 30
0.0
 11
819.4127595814076
 21
-649.1790934920933
 31
0.0
  0
LINE
  5
9222
330
18
100
AcDbEntity
  8
1DIM
100
AcDbLine
 10
749.4127595814076
 20
-649.1790934920933
 30
0.0
 11
819.4127595814076
 21
-649.1790934920933
 31
0.0
  0
TEXT
  5
9223
330
18
100
AcDbEntity
  8
1TEXT
100
AcDbText
 10
749.946092914741
 20
-647.5143821516177
 30
0.0
 40
4.0
  1
ソフトニッケル
 72
     1
 11
766.8127595814077
 21
-647.5143821516177
 31
0.0
100
AcDbText
  0
LINE
  5
9224
330
18
100
AcDbEntity
  8
1DIM
100
AcDbLine
 10
749.4127595814076
 20
-656.1790934920933
 30
0.0
 11
819.4127595814076
 21
-656.1790934920933
 31
0.0
  0
LINE
  5
9225
330
18
100
AcDbEntity
  8
1DIM
100
AcDbLine
 10
749.4127595814076
 20
-656.1790934920933
 30
0.0
 11
819.4127595814076
 21
-656.1790934920933
 31
0.0
  0
TEXT
  5
9226
330
18
100
AcDbEntity
  8
1TEXT
100
AcDbText
 10
750.2794262480744
 20
-654.5143821516177
 30
0.0
 40
4.0
  1
サテンニッケル
 72
     1
 11
766.8127595814077
 21
-654.5143821516177
 31
0.0
100
AcDbText
  0
LINE
  5
9227
330
18
100
AcDbEntity
  8
1DIM
100
AcDbLine
 10
749.4127595814076
 20
-663.1790934920933
 30
0.0
 11
819.4127595814076
 21
-663.1790934920933
 31
0.0
  0
LINE
  5
9228
330
18
100
AcDbEntity
  8
1DIM
100
AcDbLine
 10
749.4127595814076
 20
-663.1790934920933
 30
0.0
 11
819.4127595814076
 21
-663.1790934920933
 31
0.0
  0
TEXT
  5
9229
330
18
100
AcDbEntity
  8
1TEXT
100
AcDbText
 10
750.4127595814077
 20
-661.5143821516177
 30
0.0
 40
4.0
  1
パールクローム
 72
     1
 11
766.8127595814077
 21
-661.5143821516177
 31
0.0
100
AcDbText
  0
TEXT
  5
922C
330
18
100
AcDbEntity
  8
1TEXT
100
AcDbText
 10
786.4794262480748
 20
-640.8934504757427
 30
0.0
 40
4.0
  1
KLJ-4C-C
 72
     1
 11
801.8127595814082
 21
-640.8934504757427
 31
0.0
100
AcDbText
  0
TEXT
  5
922E
330
18
100
AcDbEntity
  8
1TEXT
100
AcDbText
 10
785.8127595814082
 20
-647.8934504757427
 30
0.0
 40
4.0
  1
KLJ-4C-W
 72
     1
 11
801.8127595814082
 21
-647.8934504757427
 31
0.0
100
AcDbText
  0
TEXT
  5
922F
330
18
100
AcDbEntity
  8
1TEXT
100
AcDbText
 10
786.4794262480748
 20
-654.8934504757427
 30
0.0
 40
4.0
  1
KLJ-4C-N
 72
     1
 11
801.8127595814082
 21
-654.8934504757427
 31
0.0
100
AcDbText
  0
TEXT
  5
9230
330
18
100
AcDbEntity
  8
1TEXT
100
AcDbText
 10
786.4794262480748
 20
-661.8934504757427
 30
0.0
 40
4.0
  1
KLJ-4C-B
 72
     1
 11
801.8127595814082
 21
-661.8934504757427
 31
0.0
100
AcDbText
  0
ARC
  5
ACB1
330
18
100
AcDbEntity
  8
01
100
AcDbCircle
 10
483.9513045391709
 20
-712.3445233799472
 30
0.0
 40
10.05
100
AcDbArc
 50
110.045468034821
 51
249.9469134583217
  0
ARC
  5
ACB2
330
18
100
AcDbEntity
  8
01
100
AcDbCircle
 10
483.9513045391709
 20
-712.3445233799472
 30
0.0
 40
10.05
100
AcDbArc
 50
290.0224750536346
 51
69.99145961746751
  0
ARC
  5
ACB3
330
18
100
AcDbEntity
  8
01
100
AcDbCircle
 10
483.9513045391709
 20
-712.3445233799472
 30
0.0
 40
9.74999999999999
100
AcDbArc
 50
0.0000000001563306
 51
68.45395418619105
  0
ARC
  5
ACB4
330
18
100
AcDbEntity
  8
01
100
AcDbCircle
 10
483.9513045391709
 20
-712.3445233799472
 30
0.0
 40
9.749999999999998
100
AcDbArc
 50
111.5843693294121
 51
180.0
  0
ARC
  5
ACB5
330
18
100
AcDbEntity
  8
01
100
AcDbCircle
 10
483.9513045391709
 20
-712.3445233799472
 30
0.0
 40
9.750000000000007
100
AcDbArc
 50
180.0000000001563
 51
248.4084387346878
  0
ARC
  5
ACB6
330
18
100
AcDbEntity
  8
01
100
AcDbCircle
 10
483.9513045391709
 20
-712.3445233799472
 30
0.0
 40
9.75
100
AcDbArc
 50
291.5595539139865
 51
0.0
  0
ELLIPSE
  5
ACB7
330
18
100
AcDbEntity
  8
01
100
AcDbEllipse
 10
483.9489220194687
 20
-712.3464522342371
 30
0.0
 11
-0.0003610284613241425
 21
13.09998045870975
 31
0.0
210
0.0
220
0.0
230
1.0
 40
0.3791170530975356
 41
0.0
 42
6.283185307179586
  0
CIRCLE
  5
ACB8
330
18
100
AcDbEntity
  8
01
100
AcDbCircle
 10
483.9489220194705
 20
-706.8464522342365
 30
0.0
 40
22.5
  0
CIRCLE
  5
ACB9
330
18
100
AcDbEntity
  8
01
100
AcDbCircle
 10
483.9489220194687
 20
-706.8464522342371
 30
0.0
 40
22.29
  0
CIRCLE
  5
ACBA
330
18
100
AcDbEntity
  8
01
100
AcDbCircle
 10
483.9489220194687
 20
-706.8464522342371
 30
0.0
 40
19.0
  0
LINE
  5
ACBB
330
18
100
AcDbEntity
  8
01
100
AcDbLine
 10
575.3021058994314
 20
-684.3464522342366
 30
0.0
 11
575.3021058994314
 21
-729.3464522342366
 31
0.0
  0
ARC
  5
ACBC
330
18
100
AcDbEntity
  8
01
100
AcDbCircle
 10
1568.102105899432
 20
-706.8464522342373
 30
0.0
 40
1000.0
100
AcDbArc
 50
178.9248287457554
 51
180.0
  0
ARC
  5
ACBD
330
18
100
AcDbEntity
  8
01
100
AcDbCircle
 10
568.5781157509332
 20
-688.0879043793265
 30
0.0
 40
0.3
100
AcDbArc
 50
104.1761832656503
 51
178.9248287456968
  0
ARC
  5
ACBE
330
18
100
AcDbEntity
  8
01
100
AcDbCircle
 10
1568.102105899432
 20
-706.8464522342371
 30
0.0
 40
1000.0
100
AcDbArc
 50
180.0
 51
181.0751712542446
  0
LINE
  5
ACBF
330
18
100
AcDbEntity
  8
01
100
AcDbLine
 10
575.3021058994314
 20
-729.3464522342377
 30
0.0
 11
571.7630213294674
 21
-729.3464522342377
 31
0.0
  0
LINE
  5
ACC0
330
18
100
AcDbEntity
  8
01
100
AcDbLine
 10
575.3021058994314
 20
-684.3464522342366
 30
0.0
 11
571.7630213294674
 21
-684.3464522342366
 31
0.0
  0
ARC
  5
ACC1
330
18
100
AcDbEntity
  8
01
100
AcDbCircle
 10
567.5250268944187
 20
-683.9188512661741
 30
0.0
 40
4.0
100
AcDbArc
 50
284.1761832656503
 51
350.2581374962644
  0
ARC
  5
ACC2
330
18
100
AcDbEntity
  8
01
100
AcDbCircle
 10
571.7630213294674
 20
-684.6464522342366
 30
0.0
 40
0.3
100
AcDbArc
 50
90.0
 51
170.2581374962644
  0
ARC
  5
ACC3
330
18
100
AcDbEntity
  8
01
100
AcDbCircle
 10
567.5250268944187
 20
-729.7740532023001
 30
0.0
 40
4.0
100
AcDbArc
 50
9.741862503735636
 51
75.8238167343497
  0
ARC
  5
ACC4
330
18
100
AcDbEntity
  8
01
100
AcDbCircle
 10
568.5781157509332
 20
-725.6050000891478
 30
0.0
 40
0.3
100
AcDbArc
 50
181.0751712542511
 51
255.8238167343497
  0
ARC
  5
ACC5
330
18
100
AcDbEntity
  8
01
100
AcDbCircle
 10
571.7630213294674
 20
-729.0464522342378
 30
0.0
 40
0.3
100
AcDbArc
 50
189.7418625037356
 51
270.0
  0
LINE
  5
ACC6
330
18
100
AcDbEntity
  8
01
100
AcDbLine
 10
571.4673472990912
 20
-729.0972150924787
 30
0.0
 11
571.4673472991167
 21
-684.595689376
 31
0.0
  0
LINE
  5
ACC7
330
18
100
AcDbEntity
  8
01
100
AcDbLine
 10
567.6021058994315
 20
-712.3445240237118
 30
0.0
 11
567.602106303761
 21
-721.5945141133573
 31
0.0
  0
LINE
  5
ACC8
330
18
100
AcDbEntity
  8
01
100
AcDbLine
 10
567.602106303762
 20
-703.0945339340662
 30
0.0
 11
567.6021058994315
 21
-712.3445240237118
 31
0.0
  0
ARC
  5
ACC9
330
18
100
AcDbEntity
  8
01
100
AcDbCircle
 10
568.1021147374581
 20
-721.5945156302975
 30
0.0
 40
0.5000084337392914
100
AcDbArc
 50
180.0003261594393
 51
269.9990335858663
  0
ARC
  5
ACCA
330
18
100
AcDbEntity
  8
01
100
AcDbCircle
 10
568.1021147374581
 20
-703.0945324171283
 30
0.0
 40
0.5000084337417281
100
AcDbArc
 50
90.0009664141337
 51
179.9996738402807
  0
ARC
  5
ACCB
330
18
100
AcDbEntity
  8
01
100
AcDbCircle
 10
557.0694494038203
 20
-723.9448074409887
 30
0.0
 40
1.500000000000001
100
AcDbArc
 50
248.9635837817499
 51
345.5539247770839
  0
ARC
  5
ACCC
330
18
100
AcDbEntity
  8
01
100
AcDbCircle
 10
557.0694494229051
 20
-700.7442177922652
 30
0.0
 40
1.5
100
AcDbArc
 50
14.44607512783759
 51
111.0364165352598
  0
ARC
  5
ACCD
330
18
100
AcDbEntity
  8
01
100
AcDbCircle
 10
561.6783536741318
 20
-706.3444990067761
 30
0.0
 40
2.000013567111268
100
AcDbArc
 50
186.8925049822921
 51
269.9996362637661
  0
ARC
  5
ACCE
330
18
100
AcDbEntity
  8
01
100
AcDbCircle
 10
561.6783392268749
 20
-718.3445098566317
 30
0.0
 40
1.99999727125782
100
AcDbArc
 50
89.9999498551807
 51
173.1079137070697
  0
LINE
  5
ACCF
330
18
100
AcDbEntity
  8
01
100
AcDbLine
 10
566.6021039920829
 20
-708.34451257962
 30
0.0
 11
561.6783398795474
 21
-708.34451257962
 31
0.0
  0
LINE
  5
ACD0
330
18
100
AcDbEntity
  8
01
100
AcDbLine
 10
566.6021039920829
 20
-716.34451257962
 30
0.0
 11
561.6783395609796
 21
-716.34451257962
 31
0.0
  0
ARC
  5
ACD1
330
18
100
AcDbEntity
  8
01
100
AcDbCircle
 10
561.5308979928573
 20
-712.3446659312345
 30
0.0
 40
13.92879400161829
100
AcDbArc
 50
111.0361095903726
 51
179.9993691914271
  0
ARC
  5
ACD2
330
18
100
AcDbEntity
  8
01
100
AcDbCircle
 10
566.6020794927322
 20
-717.3447060290725
 30
0.0
 40
1.00002449696401
100
AcDbArc
 50
0.0070867014715203
 51
89.99859632640197
  0
ARC
  5
ACD3
330
18
100
AcDbEntity
  8
01
100
AcDbCircle
 10
566.6020798390132
 20
-707.344337217812
 30
0.0
 40
1.00002415319642
100
AcDbArc
 50
270.0013838370136
 51
0.0007820534812681
  0
ARC
  5
ACD4
330
18
100
AcDbEntity
  8
01
100
AcDbCircle
 10
561.5308979928573
 20
-712.3443592279219
 30
0.0
 40
13.92879400161829
100
AcDbArc
 50
180.0006308085794
 51
248.9636137060529
  0
ARC
  5
ACD5
330
18
100
AcDbEntity
  8
01
100
AcDbCircle
 10
512.039646374013
 20
-712.3445126560802
 30
0.0
 40
48.0
100
AcDbArc
 50
345.5539248722228
 51
354.0846156061893
  0
ARC
  5
ACD6
330
18
100
AcDbEntity
  8
01
100
AcDbCircle
 10
512.039646374013
 20
-712.3445126560802
 30
0.0
 40
48.0
100
AcDbArc
 50
5.915341272161515
 51
14.44648558685614
  0
LINE
  5
ACF2
330
18
100
AcDbEntity
  8
01
100
AcDbLine
 10
461.4513045391708
 20
-635.3144443190224
 30
0.0
 11
506.4513045391708
 21
-635.3144443190224
 31
0.0
  0
ARC
  5
ACF3
330
18
100
AcDbEntity
  8
01
100
AcDbCircle
 10
483.9513045391723
 20
357.4855556809781
 30
0.0
 40
1000.0
100
AcDbArc
 50
268.9248287457554
 51
270.0
  0
ARC
  5
ACF4
330
18
100
AcDbEntity
  8
01
100
AcDbCircle
 10
465.1927566842609
 20
-642.0384344675206
 30
0.0
 40
0.3
100
AcDbArc
 50
194.1761832656515
 51
268.9248287457033
  0
ARC
  5
ACF5
330
18
100
AcDbEntity
  8
01
100
AcDbCircle
 10
483.9513045391714
 20
357.4855556809781
 30
0.0
 40
1000.0
100
AcDbArc
 50
270.0
 51
271.0751712542446
  0
LINE
  5
ACF6
330
18
100
AcDbEntity
  8
01
100
AcDbLine
 10
506.4513045391717
 20
-635.3144443190224
 30
0.0
 11
506.4513045391717
 21
-638.8535288889864
 31
0.0
  0
LINE
  5
ACF7
330
18
100
AcDbEntity
  8
01
100
AcDbLine
 10
461.4513045391708
 20
-635.3144443190224
 30
0.0
 11
461.4513045391708
 21
-638.8535288889864
 31
0.0
  0
ARC
  5
ACF8
330
18
100
AcDbEntity
  8
01
100
AcDbCircle
 10
461.0237035711083
 20
-643.091523324035
 30
0.0
 40
4.0
100
AcDbArc
 50
14.17618326565149
 51
80.25813749625071
  0
ARC
  5
ACF9
330
18
100
AcDbEntity
  8
01
100
AcDbCircle
 10
461.751304539171
 20
-638.8535288889864
 30
0.0
 40
0.3
100
AcDbArc
 50
180.0
 51
260.2581374962508
  0
ARC
  5
ACFA
330
18
100
AcDbEntity
  8
01
100
AcDbCircle
 10
506.8789055072342
 20
-643.091523324035
 30
0.0
 40
4.0
100
AcDbArc
 50
99.74186250374929
 51
165.8238167343485
  0
ARC
  5
ACFB
330
18
100
AcDbEntity
  8
01
100
AcDbCircle
 10
502.7098523940825
 20
-642.0384344675206
 30
0.0
 40
0.3
100
AcDbArc
 50
271.0751712542446
 51
345.8238167343485
  0
ARC
  5
ACFC
330
18
100
AcDbEntity
  8
01
100
AcDbCircle
 10
506.1513045391724
 20
-638.8535288889864
 30
0.0
 40
0.3
100
AcDbArc
 50
279.7418625037492
 51
0.0
  0
LINE
  5
ACFD
330
18
100
AcDbEntity
  8
01
100
AcDbLine
 10
506.2020673974133
 20
-639.1492029193626
 30
0.0
 11
461.7005416809346
 21
-639.1492029193371
 31
0.0
  0
LINE
  5
ACFE
330
18
100
AcDbEntity
  8
01
100
AcDbLine
 10
493.1812528478707
 20
-642.8144443190224
 30
0.0
 11
474.6812528478707
 21
-642.8144443190224
 31
0.0
  0
ARC
  5
ACFF
330
18
100
AcDbEntity
  8
01
100
AcDbCircle
 10
474.6812528478716
 20
-642.3144443190224
 30
0.0
 40
0.5000000000003975
100
AcDbArc
 50
180.0000000000521
 51
269.9999999997394
  0
ARC
  5
AD00
330
18
100
AcDbEntity
  8
01
100
AcDbCircle
 10
493.1812528478707
 20
-642.3144443190224
 30
0.0
 40
0.5000000000003566
100
AcDbArc
 50
270.0000000000521
 51
359.9999999997394
  0
ARC
  5
AD01
330
18
100
AcDbEntity
  8
01
100
AcDbCircle
 10
488.9513765289233
 20
-643.8144634516495
 30
0.0
 40
1.000021247364248
100
AcDbArc
 50
90.08794835965577
 51
179.9987807493782
  0
ARC
  5
AD02
330
18
100
AcDbEntity
  8
01
100
AcDbCircle
 10
478.951184641009
 20
-643.8144421713362
 30
0.0
 40
1.000000000074975
100
AcDbArc
 50
0.0000000045335881
 51
90.00000000427305
  0
ARC
  5
AD05
330
18
100
AcDbEntity
  8
01
100
AcDbCircle
 10
487.4128119027986
 20
-651.8768997696181
 30
0.0
 40
1.499999999999999
100
AcDbArc
 50
357.058980095615
 51
43.51040491638634
  0
LINE
  5
AD06
330
18
100
AcDbEntity
  8
01
100
AcDbLine
 10
479.9511846410845
 20
-643.8144421712616
 30
0.0
 11
479.9511846411391
 21
-649.4671977461214
 31
0.0
  0
LINE
  5
AD07
330
18
100
AcDbEntity
  8
01
100
AcDbLine
 10
487.9511846410845
 20
-643.8144421712616
 30
0.0
 11
487.9511846410845
 21
-649.4671977463015
 31
0.0
  0
ARC
  5
AD08
330
18
100
AcDbEntity
  8
01
100
AcDbCircle
 10
480.4895573791777
 20
-651.8768997696272
 30
0.0
 40
1.499999999999999
100
AcDbArc
 50
136.4895950802035
 51
182.9410199035501
  0
ARC
  5
AD09
330
18
100
AcDbEntity
  8
01
100
AcDbCircle
 10
477.9511846411236
 20
-649.467197746638
 30
0.0
 40
1.999999999999999
100
AcDbArc
 50
323.0178058706898
 51
359.9999999991141
  0
ARC
  5
AD0A
330
18
100
AcDbEntity
  8
01
100
AcDbCircle
 10
489.9511846410845
 20
-649.4671977463015
 30
0.0
 40
2.0
100
AcDbArc
 50
180.0
 51
212.6290100382853
  0
ARC
  5
AD0C
330
18
100
AcDbEntity
  8
01
100
AcDbCircle
 10
477.8859246390797
 20
-649.4121266148206
 30
0.0
 40
2.085251372005462
100
AcDbArc
 50
316.6267268407307
 51
322.8877364312931
  0
ARC
  5
AD0D
330
18
100
AcDbEntity
  8
01
100
AcDbCircle
 10
481.446612783497
 20
-652.1288525776456
 30
0.0
 40
2.394833768223352
100
AcDbArc
 50
141.404397756736
 51
143.96899047811
  0
LINE
  5
AD43
330
18
100
AcDbEntity
  8
01
100
AcDbLine
 10
483.9513045391708
 20
-617.8500455350315
 30
0.0
 11
483.9513045391708
 21
-651.6240345881835
 31
0.0
  0
LINE
  5
ADD1
330
18
100
AcDbEntity
  8
1CENTER
100
AcDbLine
 10
475.9376919850806
 20
-712.3445233799471
 30
0.0
 11
491.9649170932605
 21
-712.3445233799471
 31
0.0
  0
LINE
  5
ADD2
330
18
100
AcDbEntity
  8
1CENTER
100
AcDbLine
 10
483.9513045391706
 20
-720.3581359340369
 30
0.0
 11
483.9513045391706
 21
-704.330910825857
 31
0.0
  0
LINE
  5
ADD3
330
18
100
AcDbEntity
  8
1CENTER
100
AcDbLine
 10
579.0627706580105
 20
-712.3445233799545
 30
-0.0000000000562575
 11
562.2924556432829
 21
-712.3445233799545
 31
-0.0000000000562575
  0
TEXT
  5
B0A7
330
18
100
AcDbEntity
  8
1TEXT
100
AcDbText
 10
751.9327595814077
 20
-619.6790934920933
 30
0.0
 40
4.0
  1
アイアンブラック
 41
0.8
 72
     1
 11
766.8127595814077
 21
-619.6790934920933
 31
0.0
100
AcDbText
  0
LINE
  5
B0A8
330
18
100
AcDbEntity
  8
1DIM
100
AcDbLine
 10
749.4127595814076
 20
-614.1790934920933
 30
0.0
 11
819.4127595814076
 21
-614.1790934920933
 31
0.0
  0
TEXT
  5
B0A9
330
18
100
AcDbEntity
  8
1TEXT
100
AcDbText
 10
786.6127595814077
 20
-619.6790934920933
 30
0.0
 40
4.0
  1
KLJ-4C-038
 41
0.8
 72
     1
 11
801.8127595814077
 21
-619.6790934920933
 31
0.0
100
AcDbText
  0
TEXT
  5
B0AC
330
18
100
AcDbEntity
  8
1TEXT
100
AcDbText
 10
750.066092914741
 20
-612.6790934920933
 30
0.0
 40
4.0
  1
ヘアラインゴールド
 41
0.8
 72
     1
 11
766.8127595814077
 21
-612.6790934920933
 31
0.0
100
AcDbText
  0
LINE
  5
B0AD
330
18
100
AcDbEntity
  8
1DIM
100
AcDbLine
 10
749.4127595814076
 20
-607.1790934920933
 30
0.0
 11
819.4127595814076
 21
-607.1790934920933
 31
0.0
  0
TEXT
  5
B0AE
330
18
100
AcDbEntity
  8
1TEXT
100
AcDbText
 10
786.4794262480743
 20
-612.6790934920933
 30
0.0
 40
4.0
  1
KLJ-4C-H
 72
     1
 11
801.8127595814077
 21
-612.6790934920933
 31
0.0
100
AcDbText
  0
TEXT
  5
B0AF
330
18
100
AcDbEntity
  8
1TEXT
100
AcDbText
 10
756.0127595814077
 20
-605.6790934920933
 30
0.0
 40
4.0
  1
表面処理：
 72
     1
 11
766.8127595814077
 21
-605.6790934920933
 31
0.0
100
AcDbText
  0
LINE
  5
B0B0
330
18
100
AcDbEntity
  8
1DIM
100
AcDbLine
 10
749.4127595814076
 20
-600.1790934920933
 30
0.0
 11
819.4127595814076
 21
-600.1790934920933
 31
0.0
  0
TEXT
  5
B0B1
330
18
100
AcDbEntity
  8
1TEXT
100
AcDbText
 10
794.946092914741
 20
-605.6790934920933
 30
0.0
 40
4.0
  1
コード
 72
     1
 11
801.8127595814077
 21
-605.6790934920933
 31
0.0
100
AcDbText
  0
SPLINE
  5
B1CB
330
18
100
AcDbEntity
  8
01
100
AcDbSpline
210
0.0
220
0.0
230
1.0
 70
    24
 71
     1
 72
     4
 73
     2
 74
     0
 42
0.0000000001
 43
0.0000000001
 40
0.0
 40
0.0
 40
1.0
 40
1.0
 10
478.9513045391708
 20
-632.3144443190224
 30
0.0
 10
479.9513045391708
 20
-631.3144443190224
 30
0.0
  0
SPLINE
  5
B1CC
330
18
100
AcDbEntity
  8
01
100
AcDbSpline
210
0.0
220
0.0
230
1.0
 70
    24
 71
     1
 72
     4
 73
     2
 74
     0
 42
0.0000000001
 43
0.0000000001
 40
0.0
 40
0.0
 40
1.0
 40
1.0
 10
487.9513045391708
 20
-631.3144443190224
 30
0.0
 10
488.9513045391708
 20
-632.3144443190224
 30
0.0
  0
SPLINE
  5
B1D3
330
18
100
AcDbEntity
  8
01
100
AcDbSpline
210
0.0
220
0.0
230
1.0
 70
    24
 71
     1
 72
     4
 73
     2
 74
     0
 42
0.0000000001
 43
0.0000000001
 40
0.0
 40
0.0
 40
1.0
 40
1.0
 10
480.6228774144246
 20
-619.8144443190224
 30
0.0
 10
481.1228774144246
 20
-619.3144443190224
 30
0.0
  0
SPLINE
  5
B1D4
330
18
100
AcDbEntity
  8
01
100
AcDbSpline
210
0.0
220
0.0
230
1.0
 70
    24
 71
     1
 72
     4
 73
     2
 74
     0
 42
0.0000000001
 43
0.0000000001
 40
0.0
 40
0.0
 40
1.0
 40
1.0
 10
480.6228774144246
 20
-625.4608909284291
 30
0.0
 10
480.6228774144246
 20
-619.8144443190224
 30
0.0
  0
SPLINE
  5
B1D5
330
18
100
AcDbEntity
  8
01
100
AcDbSpline
210
0.0
220
0.0
230
1.0
 70
    24
 71
     1
 72
     4
 73
     2
 74
     0
 42
0.0000000001
 43
0.0000000001
 40
0.0
 40
0.0
 40
1.0
 40
1.0
 10
486.7797316639169
 20
-619.3144443190224
 30
0.0
 10
487.2797316639169
 20
-619.8144443190224
 30
0.0
  0
SPLINE
  5
B1D6
330
18
100
AcDbEntity
  8
01
100
AcDbSpline
210
0.0
220
0.0
230
1.0
 70
    24
 71
     1
 72
     4
 73
     2
 74
     0
 42
0.0000000001
 43
0.0000000001
 40
0.0
 40
0.0
 40
1.0
 40
1.0
 10
487.2797316639169
 20
-619.8144443190224
 30
0.0
 10
487.2797316639169
 20
-625.4608909284292
 30
0.0
  0
SPLINE
  5
B1D7
330
18
100
AcDbEntity
  8
01
100
AcDbSpline
210
0.0
220
0.0
230
1.0
 70
    24
 71
     1
 72
     4
 73
     2
 74
     0
 42
0.0000000001
 43
0.0000000001
 40
0.0
 40
0.0
 40
1.0
 40
1.0
 10
480.6228774144246
 20
-631.3144443190224
 30
0.0
 10
480.6228774144246
 20
-626.1679977096157
 30
0.0
  0
SPLINE
  5
B1D8
330
18
100
AcDbEntity
  8
01
100
AcDbSpline
210
0.0
220
0.0
230
1.0
 70
    24
 71
     1
 72
     4
 73
     2
 74
     0
 42
0.0000000001
 43
0.0000000001
 40
0.0
 40
0.0
 40
1.0
 40
1.0
 10
487.2797316639169
 20
-626.1679977096157
 30
0.0
 10
487.2797316639169
 20
-631.3144443190224
 30
0.0
  0
LINE
  5
B1DB
330
18
100
AcDbEntity
  8
01
100
AcDbLine
 10
483.9513045391708
 20
-631.3144443190224
 30
0.0
 11
479.9513045391708
 21
-631.3144443190224
 31
0.0
  0
LINE
  5
B1DC
330
18
100
AcDbEntity
  8
01
100
AcDbLine
 10
487.9513045391708
 20
-631.3144443190224
 30
0.0
 11
483.9513045391708
 21
-631.3144443190224
 31
0.0
  0
LINE
  5
B1E1
330
18
100
AcDbEntity
  8
01
100
AcDbLine
 10
483.9513045385775
 20
-620.1035680211871
 30
0.0
 11
483.9513045385775
 21
-625.3144443190224
 31
0.0
  0
ELLIPSE
  5
B1E2
330
18
100
AcDbEntity
  8
01
100
AcDbEllipse
 10
483.9513045391708
 20
-625.8144443190224
 30
0.0
 11
0.4619397662556395
 21
-0.4619397662556537
 31
0.0
210
0.0
220
0.0
230
-1.0
 40
0.414213562373094
 41
3.53429173528851
 42
4.319689898685994
  0
ELLIPSE
  5
B1E3
330
18
100
AcDbEntity
  8
01
100
AcDbEllipse
 10
483.9513045391708
 20
-625.8144443190224
 30
0.0
 11
-0.4619397662556467
 21
-0.4619397662556537
 31
0.0
210
0.0
220
0.0
230
-1.0
 40
0.4142135623730754
 41
1.963495408493638
 42
2.748893571891077
  0
LINE
  5
B1E4
330
18
100
AcDbEntity
  8
01
100
AcDbLine
 10
487.1332850545102
 20
-625.3144443190224
 30
0.0
 11
484.304857929764
 21
-625.3144443190224
 31
0.0
  0
LINE
  5
B1E5
330
18
100
AcDbEntity
  8
01
100
AcDbLine
 10
487.2797316639169
 20
-625.4608909284292
 30
0.0
 11
487.079731663917
 21
-625.6023122846665
 31
0.0
  0
LINE
  5
B1E6
330
18
100
AcDbEntity
  8
01
100
AcDbLine
 10
483.5977511485775
 20
-625.3144443190224
 30
0.0
 11
480.7693240238312
 21
-625.3144443190224
 31
0.0
  0
LINE
  5
B1E7
330
18
100
AcDbEntity
  8
01
100
AcDbLine
 10
480.6228774144246
 20
-625.4608909284292
 30
0.0
 11
480.8228774144245
 21
-625.6023122846665
 31
0.0
  0
LINE
  5
B1E8
330
18
100
AcDbEntity
  8
01
100
AcDbLine
 10
483.5977511485775
 20
-626.3144443190224
 30
0.0
 11
480.7693240238314
 21
-626.3144443190224
 31
0.0
  0
ELLIPSE
  5
B1E9
330
18
100
AcDbEntity
  8
01
100
AcDbEllipse
 10
483.9513045391708
 20
-625.8144443190224
 30
0.0
 11
-0.4619397662556395
 21
-0.4619397662556395
 31
0.0
210
0.0
220
0.0
230
-1.0
 40
0.414213562373085
 41
5.105088062083387
 42
5.890486225480888
  0
LINE
  5
B1EA
330
18
100
AcDbEntity
  8
01
100
AcDbLine
 10
480.8228774144245
 20
-626.0265763533785
 30
0.0
 11
480.6228774144246
 21
-626.1679977096157
 31
0.0
  0
ELLIPSE
  5
B1EB
330
18
100
AcDbEntity
  8
01
100
AcDbEllipse
 10
483.9513045391708
 20
-625.8144443190224
 30
0.0
 11
-0.4619397662556466
 21
0.4619397662556395
 31
0.0
210
0.0
220
0.0
230
-1.0
 40
0.4142135623730818
 41
3.534291735288567
 42
4.319689898685963
  0
LINE
  5
B1EC
330
18
100
AcDbEntity
  8
01
100
AcDbLine
 10
487.1332850545102
 20
-626.3144443190224
 30
0.0
 11
484.304857929764
 21
-626.3144443190224
 31
0.0
  0
LINE
  5
B1ED
330
18
100
AcDbEntity
  8
01
100
AcDbLine
 10
487.079731663917
 20
-626.0265763533785
 30
0.0
 11
487.2797316639169
 21
-626.1679977096157
 31
0.0
  0
LINE
  5
B1EE
330
18
100
AcDbEntity
  8
01
100
AcDbLine
 10
483.9513045385775
 20
-626.3144443190224
 30
0.0
 11
483.9513045385775
 21
-631.3144443190224
 31
0.0
  0
LINE
  5
B1EF
330
18
100
AcDbEntity
  8
01
100
AcDbLine
 10
480.7693240238312
 20
-619.8144443190224
 30
0.0
 11
483.9513045385775
 21
-619.8144443190224
 31
0.0
  0
LINE
  5
B1F0
330
18
100
AcDbEntity
  8
01
100
AcDbLine
 10
483.9513045391708
 20
-619.3144443190224
 30
0.0
 11
481.1228774144246
 21
-619.3144443190224
 31
0.0
  0
LINE
  5
B1F1
330
18
100
AcDbEntity
  8
01
100
AcDbLine
 10
486.7797316639169
 20
-619.3144443190224
 30
0.0
 11
483.9513045391708
 21
-619.3144443190224
 31
0.0
  0
LINE
  5
B1F2
330
18
100
AcDbEntity
  8
01
100
AcDbLine
 10
483.9513045385775
 20
-619.8144443190224
 30
0.0
 11
487.1332850545102
 21
-619.8144443190224
 31
0.0
  0
ELLIPSE
  5
B1F3
330
18
100
AcDbEntity
  8
01
100
AcDbEllipse
 10
480.5228774144246
 20
-625.8144443190224
 30
0.0
 11
-0.4242640687119347
 21
2.597782371215845E-17
 31
2.198241588757811E-15
210
-5.181305113656384E-15
220
3.172529581637991E-31
230
-1.0
 40
0.7071067811865304
 41
2.356194490192316
 42
3.926990816987264
  0
ELLIPSE
  5
B1F4
330
18
100
AcDbEntity
  8
01
100
AcDbEllipse
 10
487.3797316639169
 20
-625.8144443190224
 30
0.0
 11
0.4242640687119347
 21
-2.597782371215845E-17
 31
-7.160938508832247E-16
210
-1.687849393085030E-15
220
1.033475545533586E-31
230
-1.0
 40
0.7071067811865304
 41
2.356194490192326
 42
3.926990816987297
  0
LINE
  5
B1F5
330
18
100
AcDbEntity
  8
01
100
AcDbLine
 10
481.2546962023215
 20
-625.8144443190224
 30
-0.0000000000000022
 11
486.7002399086996
 21
-625.8144443190224
 31
-0.0000000000000022
  0
ELLIPSE
  5
B1F6
330
18
100
AcDbEntity
  8
01
100
AcDbEllipse
 10
483.9513045391708
 20
-620.3144443190224
 30
0.0
 11
0.4619397662556395
 21
-0.4619397662556537
 31
0.0
210
0.0
220
0.0
230
-1.0
 40
0.414213562373094
 41
3.53429173528851
 42
4.319689898685994
  0
ELLIPSE
  5
B1F7
330
18
100
AcDbEntity
  8
01
100
AcDbEllipse
 10
483.9513045391708
 20
-620.3144443190224
 30
0.0
 11
-0.4619397662556467
 21
-0.4619397662556537
 31
0.0
210
0.0
220
0.0
230
-1.0
 40
0.4142135623730754
 41
1.963495408493638
 42
2.748893571891077
  0
SPLINE
  5
B2CD
330
18
100
AcDbEntity
  8
01
100
AcDbSpline
210
0.0
220
0.0
230
1.0
 70
    24
 71
     1
 72
     4
 73
     2
 74
     0
 42
0.0000000001
 43
0.0000000001
 40
0.0
 40
0.0
 40
1.0
 40
1.0
 10
578.3021058994312
 20
-707.3445233799545
 30
-0.0000000000562575
 10
579.3021058994312
 20
-708.3445233799545
 30
-0.0000000000562575
  0
SPLINE
  5
B2CE
330
18
100
AcDbEntity
  8
01
100
AcDbSpline
210
0.0
220
0.0
230
1.0
 70
    24
 71
     1
 72
     4
 73
     2
 74
     0
 42
0.0000000001
 43
0.0000000001
 40
0.0
 40
0.0
 40
1.0
 40
1.0
 10
579.3021058994312
 20
-716.3445233799545
 30
-0.0000000000562575
 10
578.3021058994312
 20
-717.3445233799545
 30
-0.0000000000562575
  0
SPLINE
  5
B2D5
330
18
100
AcDbEntity
  8
01
100
AcDbSpline
210
0.0
220
0.0
230
1.0
 70
    24
 71
     1
 72
     4
 73
     2
 74
     0
 42
0.0000000001
 43
0.0000000001
 40
0.0
 40
0.0
 40
1.0
 40
1.0
 10
590.8021058994312
 20
-709.0160962552083
 30
-0.0000000000562575
 10
591.3021058994312
 20
-709.5160962552083
 30
-0.0000000000562575
  0
SPLINE
  5
B2D6
330
18
100
AcDbEntity
  8
01
100
AcDbSpline
210
0.0
220
0.0
230
1.0
 70
    24
 71
     1
 72
     4
 73
     2
 74
     0
 42
0.0000000001
 43
0.0000000001
 40
0.0
 40
0.0
 40
1.0
 40
1.0
 10
585.1556592900246
 20
-709.0160962552083
 30
-0.0000000000562575
 10
590.8021058994312
 20
-709.0160962552083
 30
-0.0000000000562575
  0
SPLINE
  5
B2D7
330
18
100
AcDbEntity
  8
01
100
AcDbSpline
210
0.0
220
0.0
230
1.0
 70
    24
 71
     1
 72
     4
 73
     2
 74
     0
 42
0.0000000001
 43
0.0000000001
 40
0.0
 40
0.0
 40
1.0
 40
1.0
 10
591.3021058994312
 20
-715.1729505047006
 30
-0.0000000000562575
 10
590.8021058994312
 20
-715.6729505047006
 30
-0.0000000000562575
  0
SPLINE
  5
B2D8
330
18
100
AcDbEntity
  8
01
100
AcDbSpline
210
0.0
220
0.0
230
1.0
 70
    24
 71
     1
 72
     4
 73
     2
 74
     0
 42
0.0000000001
 43
0.0000000001
 40
0.0
 40
0.0
 40
1.0
 40
1.0
 10
590.8021058994312
 20
-715.6729505047006
 30
-0.0000000000562575
 10
585.1556592900245
 20
-715.6729505047006
 30
-0.0000000000562575
  0
SPLINE
  5
B2D9
330
18
100
AcDbEntity
  8
01
100
AcDbSpline
210
0.0
220
0.0
230
1.0
 70
    24
 71
     1
 72
     4
 73
     2
 74
     0
 42
0.0000000001
 43
0.0000000001
 40
0.0
 40
0.0
 40
1.0
 40
1.0
 10
579.3021058994312
 20
-709.0160962552083
 30
-0.0000000000562575
 10
584.4485525088379
 20
-709.0160962552083
 30
-0.0000000000562575
  0
SPLINE
  5
B2DA
330
18
100
AcDbEntity
  8
01
100
AcDbSpline
210
0.0
220
0.0
230
1.0
 70
    24
 71
     1
 72
     4
 73
     2
 74
     0
 42
0.0000000001
 43
0.0000000001
 40
0.0
 40
0.0
 40
1.0
 40
1.0
 10
584.4485525088379
 20
-715.6729505047006
 30
-0.0000000000562575
 10
579.3021058994312
 20
-715.6729505047006
 30
-0.0000000000562575
  0
LINE
  5
B2DD
330
18
100
AcDbEntity
  8
01
100
AcDbLine
 10
579.3021058994312
 20
-712.3445233799545
 30
-0.0000000000562575
 11
579.3021058994312
 21
-708.3445233799545
 31
-0.0000000000562575
  0
LINE
  5
B2DE
330
18
100
AcDbEntity
  8
01
100
AcDbLine
 10
579.3021058994312
 20
-716.3445233799545
 30
-0.0000000000562575
 11
579.3021058994312
 21
-712.3445233799545
 31
-0.0000000000562575
  0
LINE
  5
B2E3
330
18
100
AcDbEntity
  8
01
100
AcDbLine
 10
590.5129821972665
 20
-712.3445233793611
 30
-0.0000000000562575
 11
585.3021058994312
 21
-712.3445233793611
 31
-0.0000000000562575
  0
ELLIPSE
  5
B2E4
330
18
100
AcDbEntity
  8
01
100
AcDbEllipse
 10
584.8021058994312
 20
-712.3445233799545
 30
-0.0000000000562575
 11
-0.4619397662556537
 21
-0.4619397662556395
 31
0.0
210
0.0
220
0.0
230
-1.0
 40
0.414213562373094
 41
3.53429173528851
 42
4.319689898685994
  0
ELLIPSE
  5
B2E5
330
18
100
AcDbEntity
  8
01
100
AcDbEllipse
 10
584.8021058994312
 20
-712.3445233799545
 30
-0.0000000000562575
 11
-0.4619397662556537
 21
0.4619397662556467
 31
0.0
210
0.0
220
0.0
230
-1.0
 40
0.4142135623730754
 41
1.963495408493638
 42
2.748893571891077
  0
LINE
  5
B2E6
330
18
100
AcDbEntity
  8
01
100
AcDbLine
 10
585.3021058994312
 20
-715.5265038952939
 30
-0.0000000000562575
 11
585.3021058994312
 21
-712.6980767705477
 31
-0.0000000000562575
  0
LINE
  5
B2E7
330
18
100
AcDbEntity
  8
01
100
AcDbLine
 10
585.1556592900245
 20
-715.6729505047006
 30
-0.0000000000562575
 11
585.0142379337872
 21
-715.4729505047006
 31
-0.0000000000562575
  0
LINE
  5
B2E8
330
18
100
AcDbEntity
  8
01
100
AcDbLine
 10
585.3021058994312
 20
-711.9909699893611
 30
-0.0000000000562575
 11
585.3021058994312
 21
-709.1625428646149
 31
-0.0000000000562575
  0
LINE
  5
B2E9
330
18
100
AcDbEntity
  8
01
100
AcDbLine
 10
585.1556592900245
 20
-709.0160962552083
 30
-0.0000000000562575
 11
585.0142379337872
 21
-709.2160962552082
 31
-0.0000000000562575
  0
LINE
  5
B2EA
330
18
100
AcDbEntity
  8
01
100
AcDbLine
 10
584.3021058994312
 20
-711.9909699893611
 30
-0.0000000000562575
 11
584.3021058994312
 21
-709.162542864615
 31
-0.0000000000562575
  0
ELLIPSE
  5
B2EB
330
18
100
AcDbEntity
  8
01
100
AcDbEllipse
 10
584.8021058994312
 20
-712.3445233799545
 30
-0.0000000000562575
 11
-0.4619397662556395
 21
0.4619397662556395
 31
0.0
210
0.0
220
0.0
230
-1.0
 40
0.414213562373085
 41
5.105088062083387
 42
5.890486225480888
  0
LINE
  5
B2EC
330
18
100
AcDbEntity
  8
01
100
AcDbLine
 10
584.5899738650752
 20
-709.2160962552082
 30
-0.0000000000562575
 11
584.4485525088379
 21
-709.0160962552083
 31
-0.0000000000562575
  0
ELLIPSE
  5
B2ED
330
18
100
AcDbEntity
  8
01
100
AcDbEllipse
 10
584.8021058994312
 20
-712.3445233799545
 30
-0.0000000000562575
 11
0.4619397662556395
 21
0.4619397662556466
 31
0.0
210
0.0
220
0.0
230
-1.0
 40
0.4142135623730818
 41
3.534291735288567
 42
4.319689898685963
  0
LINE
  5
B2EE
330
18
100
AcDbEntity
  8
01
100
AcDbLine
 10
584.3021058994312
 20
-715.5265038952939
 30
-0.0000000000562575
 11
584.3021058994312
 21
-712.6980767705477
 31
-0.0000000000562575
  0
LINE
  5
B2EF
330
18
100
AcDbEntity
  8
01
100
AcDbLine
 10
584.5899738650752
 20
-715.4729505047006
 30
-0.0000000000562575
 11
584.4485525088379
 21
-715.6729505047006
 31
-0.0000000000562575
  0
LINE
  5
B2F0
330
18
100
AcDbEntity
  8
01
100
AcDbLine
 10
584.3021058994312
 20
-712.3445233793611
 30
-0.0000000000562575
 11
579.3021058994312
 21
-712.3445233793611
 31
-0.0000000000562575
  0
LINE
  5
B2F1
330
18
100
AcDbEntity
  8
01
100
AcDbLine
 10
590.8021058994312
 20
-709.1625428646149
 30
-0.0000000000562575
 11
590.8021058994312
 21
-712.3445233793611
 31
-0.0000000000562575
  0
LINE
  5
B2F2
330
18
100
AcDbEntity
  8
01
100
AcDbLine
 10
591.3021058994312
 20
-712.3445233799545
 30
-0.0000000000562575
 11
591.3021058994312
 21
-709.5160962552083
 31
-0.0000000000562575
  0
LINE
  5
B2F3
330
18
100
AcDbEntity
  8
01
100
AcDbLine
 10
591.3021058994312
 20
-715.1729505047006
 30
-0.0000000000562575
 11
591.3021058994312
 21
-712.3445233799545
 31
-0.0000000000562575
  0
LINE
  5
B2F4
330
18
100
AcDbEntity
  8
01
100
AcDbLine
 10
590.8021058994312
 20
-712.3445233793611
 30
-0.0000000000562575
 11
590.8021058994312
 21
-715.5265038952939
 31
-0.0000000000562575
  0
ELLIPSE
  5
B2F5
330
18
100
AcDbEntity
  8
01
100
AcDbEllipse
 10
584.8021058994312
 20
-708.9160962552082
 30
-0.0000000000562575
 11
0.0
 21
0.4242640687119347
 31
2.198241588757811E-15
210
0.0
220
5.181305113656384E-15
230
-1.0
 40
0.7071067811865304
 41
2.356194490192316
 42
3.926990816987264
  0
ELLIPSE
  5
B2F6
330
18
100
AcDbEntity
  8
01
100
AcDbEllipse
 10
584.8021058994312
 20
-715.7729505047006
 30
-0.0000000000562575
 11
0.0
 21
-0.4242640687119347
 31
-7.160938508832247E-16
210
0.0
220
1.687849393085030E-15
230
-1.0
 40
0.7071067811865304
 41
2.356194490192326
 42
3.926990816987297
  0
LINE
  5
B2F7
330
18
100
AcDbEntity
  8
01
100
AcDbLine
 10
584.8021058994312
 20
-709.6479150431052
 30
-0.0000000000562597
 11
584.8021058994312
 21
-715.0934587494833
 31
-0.0000000000562597
  0
ELLIPSE
  5
B2F8
330
18
100
AcDbEntity
  8
01
100
AcDbEllipse
 10
590.3021058994312
 20
-712.3445233799545
 30
-0.0000000000562575
 11
-0.4619397662556537
 21
-0.4619397662556395
 31
0.0
210
0.0
220
0.0
230
-1.0
 40
0.414213562373094
 41
3.53429173528851
 42
4.319689898685994
  0
ELLIPSE
  5
B2F9
330
18
100
AcDbEntity
  8
01
100
AcDbEllipse
 10
590.3021058994312
 20
-712.3445233799545
 30
-0.0000000000562575
 11
-0.4619397662556537
 21
0.4619397662556467
 31
0.0
210
0.0
220
0.0
230
-1.0
 40
0.4142135623730754
 41
1.963495408493638
 42
2.748893571891077
  0
LINE
  5
B758
330
18
100
AcDbEntity
  8
1CENTER
100
AcDbLine
 10
693.0751374307915
 20
-755.2516639758271
 30
-0.0000000000562575
 11
693.075137430792
 21
-769.4373743758263
 31
-0.0000000000562575
  0
LINE
  5
B759
330
18
100
AcDbEntity
  8
1CENTER
100
AcDbLine
 10
685.9822822307922
 20
-762.3445191758268
 30
-0.0000000000562575
 11
700.1679926307913
 21
-762.3445191758266
 31
-0.0000000000562575
  0
LINE
  5
B770
330
18
100
AcDbEntity
  8
01
100
AcDbLine
 10
676.3412106257083
 20
-665.457969767383
 30
-0.0000000000562575
 11
709.8090642358752
 21
-665.457969767383
 31
-0.0000000000562575
  0
ARC
  5
B771
330
18
100
AcDbEntity
  8
01
100
AcDbCircle
 10
709.8090642358752
 20
-664.4579697673829
 30
-0.0000000000562575
 40
1.000000000000028
100
AcDbArc
 50
270.0
 51
358.0340000000047
  0
LINE
  5
B772
330
18
100
AcDbEntity
  8
01
100
AcDbLine
 10
711.575137430792
 20
-642.1579697673828
 30
-0.0000000000562575
 11
710.8084755967097
 21
-664.4922762075204
 31
-0.0000000000562575
  0
LINE
  5
B773
330
18
100
AcDbEntity
  8
01
100
AcDbLine
 10
711.575137430792
 20
-642.157969767383
 30
-0.0000000000562575
 11
674.575137430792
 21
-642.157969767383
 31
-0.0000000000562575
  0
LINE
  5
B774
330
18
100
AcDbEntity
  8
01
100
AcDbLine
 10
675.3417992648738
 20
-664.4922762075204
 30
-0.0000000000562575
 11
674.575137430792
 21
-642.157969767383
 31
-0.0000000000562575
  0
ARC
  5
B775
330
18
100
AcDbEntity
  8
01
100
AcDbCircle
 10
676.3412106257083
 20
-664.4579697673829
 30
-0.0000000000562575
 40
1.000000000000028
100
AcDbArc
 50
181.9659999999953
 51
270.0
  0
LINE
  5
B776
330
18
100
AcDbEntity
  8
01
100
AcDbLine
 10
691.5751374307918
 20
-717.0617789380094
 30
-0.0000000000562575
 11
691.5751374307918
 21
-707.6272678218995
 31
-0.0000000000562575
  0
ARC
  5
B777
330
18
100
AcDbEntity
  8
01
100
AcDbCircle
 10
693.0751374307918
 20
-712.3445233799545
 30
-0.0000000000562575
 40
4.950000000000013
100
AcDbArc
 50
107.6397013942332
 51
252.3602986057668
  0
LINE
  5
B778
330
18
100
AcDbEntity
  8
01
100
AcDbLine
 10
694.5751374307918
 20
-707.6272678218995
 30
-0.0000000000562575
 11
694.5751374307918
 21
-717.0617789380094
 31
-0.0000000000562575
  0
ARC
  5
B779
330
18
100
AcDbEntity
  8
01
100
AcDbCircle
 10
693.0751374307918
 20
-712.3445233799545
 30
-0.0000000000562575
 40
4.950000000000013
100
AcDbArc
 50
287.6397013942332
 51
287.7375975388389
  0
ARC
  5
B77A
330
18
100
AcDbEntity
  8
01
100
AcDbCircle
 10
693.0751374307918
 20
-712.3445233799545
 30
-0.0000000000562575
 40
4.950000000000013
100
AcDbArc
 50
287.6397013942332
 51
72.36029860576679
  0
LINE
  5
B77B
330
18
100
AcDbEntity
  8
01
100
AcDbLine
 10
693.6751374307917
 20
-717.2580251862023
 30
-0.0000000000562575
 11
693.6751374307917
 21
-716.8445233799545
 31
-0.0000000000562575
  0
LINE
  5
B77C
330
18
100
AcDbEntity
  8
01
100
AcDbLine
 10
693.6751374307917
 20
-716.8445233799545
 30
-0.0000000000562575
 11
692.4751374307916
 21
-716.8445233799545
 31
-0.0000000000562575
  0
LINE
  5
B77D
330
18
100
AcDbEntity
  8
01
100
AcDbLine
 10
692.4751374307916
 20
-716.8445233799545
 30
-0.0000000000562575
 11
692.4751374307916
 21
-716.490107792226
 31
-0.0000000000562575
  0
LINE
  5
B77E
330
18
100
AcDbEntity
  8
01
100
AcDbLine
 10
692.4751374307916
 20
-716.490107792226
 30
-0.0000000000562575
 11
693.6751374307917
 21
-715.2901077922261
 31
-0.0000000000562575
  0
LINE
  5
B77F
330
18
100
AcDbEntity
  8
01
100
AcDbLine
 10
693.6751374307917
 20
-715.2901077922261
 30
-0.0000000000562575
 11
693.6751374307917
 21
-709.7445233799544
 31
-0.0000000000562575
  0
LINE
  5
B780
330
18
100
AcDbEntity
  8
01
100
AcDbLine
 10
693.6751374307917
 20
-709.7445233799544
 30
-0.0000000000562575
 11
692.4751374307916
 21
-709.7445233799544
 31
-0.0000000000562575
  0
LINE
  5
B781
330
18
100
AcDbEntity
  8
01
100
AcDbLine
 10
692.4751374307916
 20
-709.7445233799544
 30
-0.0000000000562575
 11
692.4751374307916
 21
-713.9445233799545
 31
-0.0000000000562575
  0
LINE
  5
B782
330
18
100
AcDbEntity
  8
01
100
AcDbLine
 10
692.4751374307916
 20
-713.9445233799545
 30
-0.0000000000562575
 11
691.5751374307918
 21
-714.8445233799545
 31
-0.0000000000562575
  0
ARC
  5
B783
330
18
100
AcDbEntity
  8
01
100
AcDbCircle
 10
693.0751374307918
 20
-712.3445233799545
 30
-0.0000000000562575
 40
4.950000000000013
100
AcDbArc
 50
276.9620626910847
 51
287.6397013942332
  0
ARC
  5
B784
330
18
100
AcDbEntity
  8
01
100
AcDbCircle
 10
693.0751374307918
 20
-712.3445233799545
 30
-0.0000000000562575
 40
4.949999999999999
100
AcDbArc
 50
72.36029860576679
 51
107.6397013942332
  0
CIRCLE
  5
B785
330
18
100
AcDbEntity
  8
01
100
AcDbCircle
 10
693.0751374307918
 20
-706.8445233799545
 30
-0.0000000000562575
 40
18.50000000000001
  0
CIRCLE
  5
B786
330
18
100
AcDbEntity
  8
1HATCH
100
AcDbCircle
 10
693.0751374307918
 20
-706.8445233799545
 30
-0.0000000000562575
 40
17.70018914480337
  0
CIRCLE
  5
B787
330
18
100
AcDbEntity
  8
01
100
AcDbCircle
 10
693.0751374307918
 20
-706.8445233799545
 30
-0.0000000000562575
 40
18.50000000000001
  0
LINE
  5
B788
330
18
100
AcDbEntity
  8
01
  6
BYBLOCK
100
AcDbLine
 10
578.9220473923342
 20
-610.3607679513957
 30
0.0
 11
578.9220473923342
 21
-617.3607679513957
 31
0.0
  0
LINE
  5
B789
330
18
100
AcDbEntity
  8
1HATCH
100
AcDbLine
 10
580.4220473923342
 20
-611.7474563152864
 30
0.0
 11
580.4220473923342
 21
-615.9740795875051
 31
0.0
  0
LINE
  5
B78A
330
18
100
AcDbEntity
  8
01
  6
BYBLOCK
100
AcDbLine
 10
602.9220473923342
 20
-610.3607679513957
 30
0.0
 11
602.9220473923342
 21
-617.3607679513957
 31
0.0
  0
LINE
  5
B78B
330
18
100
AcDbEntity
  8
1HATCH
100
AcDbLine
 10
601.4220473923342
 20
-611.7474563152863
 30
0.0
 11
601.4220473923342
 21
-615.9740795875051
 31
0.0
  0
LINE
  5
B78C
330
18
100
AcDbEntity
  8
01
  6
BYBLOCK
100
AcDbLine
 10
586.1999466512689
 20
-602.8607679513957
 30
0.0
 11
595.9220473923342
 21
-602.8607679513957
 31
0.0
  0
LINE
  5
B78D
330
18
100
AcDbEntity
  8
01
  6
BYBLOCK
100
AcDbLine
 10
588.2094114468873
 20
-605.1607679513957
 30
0.0
 11
594.0546827515057
 21
-605.1607679513957
 31
0.0
  0
LINE
  5
B78E
330
18
100
AcDbEntity
  8
01
  6
BYBLOCK
100
AcDbLine
 10
584.6720473923342
 20
-628.8607679513957
 30
0.0
 11
585.9220473923342
 21
-628.8607679513957
 31
0.0
  0
LINE
  5
B78F
330
18
100
AcDbEntity
  8
01
  6
BYBLOCK
100
AcDbLine
 10
595.622047392334
 20
-628.8607679513957
 30
0.0
 11
597.1720473923342
 21
-628.8607679513957
 31
0.0
  0
LINE
  5
B790
330
18
100
AcDbEntity
  8
01
  6
BYBLOCK
100
AcDbLine
 10
595.622047392334
 20
-630.8607679513957
 30
0.0
 11
595.9220473923342
 21
-630.8607679513957
 31
0.0
  0
LINE
  5
B791
330
18
100
AcDbEntity
  8
01
  6
BYBLOCK
100
AcDbLine
 10
585.9220473923342
 20
-634.8607679513957
 30
0.0
 11
588.9220473923342
 21
-634.8607679513957
 31
0.0
  0
LINE
  5
B792
330
18
100
AcDbEntity
  8
01
  6
BYBLOCK
100
AcDbLine
 10
591.9220473923342
 20
-655.4607679513957
 30
0.0
 11
592.9220473923342
 21
-655.4607679513957
 31
0.0
  0
LINE
  5
B793
330
18
100
AcDbEntity
  8
01
  6
BYBLOCK
100
AcDbLine
 10
600.4220473923342
 20
-620.047603056243
 30
0.0
 11
600.4220473923342
 21
-622.547603056243
 31
0.0
  0
LINE
  5
B794
330
18
100
AcDbEntity
  8
01
  6
BYBLOCK
100
AcDbLine
 10
581.4220473923342
 20
-620.047603056243
 30
0.0
 11
581.4220473923342
 21
-622.547603056243
 31
0.0
  0
LINE
  5
B795
330
18
100
AcDbEntity
  8
01
  6
BYBLOCK
100
AcDbLine
 10
601.9220473923342
 20
-617.4407457029062
 30
0.0
 11
601.9220473923342
 21
-619.9407457029062
 31
0.0
  0
LINE
  5
B796
330
18
100
AcDbEntity
  8
01
  6
BYBLOCK
100
AcDbLine
 10
579.9220473923342
 20
-617.4407457029062
 30
0.0
 11
579.9220473923342
 21
-619.9407457029062
 31
0.0
  0
LINE
  5
B797
330
18
100
AcDbEntity
  8
01
  6
BYBLOCK
100
AcDbLine
 10
585.9220473923342
 20
-628.8607679513957
 30
0.0
 11
585.9220473923342
 21
-634.8607679513957
 31
0.0
  0
LINE
  5
B798
330
18
100
AcDbEntity
  8
01
  6
BYBLOCK
100
AcDbLine
 10
595.622047392334
 20
-628.8607679513957
 30
0.0
 11
595.622047392334
 21
-630.8607679513957
 31
0.0
  0
LINE
  5
B799
330
18
100
AcDbEntity
  8
01
  6
BYBLOCK
100
AcDbLine
 10
595.9220473923342
 20
-630.8607679513957
 30
0.0
 11
595.9220473923342
 21
-652.4607679513957
 31
0.0
  0
LINE
  5
B79A
330
18
100
AcDbEntity
  8
01
  6
BYBLOCK
100
AcDbLine
 10
594.622047392334
 20
-628.8607679513957
 30
0.0
 11
594.622047392334
 21
-653.7607679513957
 31
0.0
  0
LINE
  5
B79B
330
18
100
AcDbEntity
  8
01
  6
BYBLOCK
100
AcDbLine
 10
593.622047392334
 20
-628.8607679513957
 30
0.0
 11
593.622047392334
 21
-654.7607679513956
 31
0.0
  0
LINE
  5
B79C
330
18
100
AcDbEntity
  8
01
  6
BYBLOCK
100
AcDbLine
 10
592.622047392334
 20
-635.8607679513957
 30
0.0
 11
592.622047392334
 21
-655.4607679513957
 31
0.0
  0
LINE
  5
B79D
330
18
100
AcDbEntity
  8
01
  6
BYBLOCK
100
AcDbLine
 10
588.9220473923342
 20
-634.8607679513957
 30
0.0
 11
588.9220473923342
 21
-652.4607679513957
 31
0.0
  0
LINE
  5
B79E
330
18
100
AcDbEntity
  8
01
  6
BYBLOCK
100
AcDbLine
 10
583.4220473923342
 20
-622.8607679513957
 30
0.0
 11
584.6720473923342
 21
-628.8607679513957
 31
0.0
  0
LINE
  5
B79F
330
18
100
AcDbEntity
  8
01
  6
BYBLOCK
100
AcDbLine
 10
597.1720473923342
 20
-628.8607679513957
 30
0.0
 11
598.4220473923342
 21
-622.8607679513957
 31
0.0
  0
ARC
  5
B7A0
330
18
100
AcDbEntity
  8
01
  6
BYBLOCK
100
AcDbCircle
 10
590.9220473923342
 20
-478.6107679513958
 30
0.0
 40
144.2499999999999
100
AcDbArc
 50
266.2238880807499
 51
273.7761119192501
  0
ARC
  5
B7A1
330
18
100
AcDbEntity
  8
01
  6
BYBLOCK
100
AcDbCircle
 10
590.9220473923342
 20
-476.1107679513958
 30
0.0
 40
144.2499999999999
100
AcDbArc
 50
265.6265788215867
 51
274.3734211784133
  0
ARC
  5
B7A2
330
18
100
AcDbEntity
  8
01
  6
BYBLOCK
100
AcDbCircle
 10
590.9220473923342
 20
-473.6107679513958
 30
0.0
 40
144.2499999999999
100
AcDbArc
 50
265.2281119392252
 51
274.7718880607748
  0
ARC
  5
B7A3
330
18
100
AcDbEntity
  8
1HATCH
100
AcDbCircle
 10
590.9220473923342
 20
-473.6107679513958
 30
0.0
 40
142.7499999999999
100
AcDbArc
 50
265.7817898839806
 51
274.2182101160193
  0
ARC
  5
B7A4
330
18
100
AcDbEntity
  8
01
  6
BYBLOCK
100
AcDbCircle
 10
590.9220473923342
 20
-754.1107679513956
 30
0.0
 40
144.2499999999999
100
AcDbArc
 50
85.22811193922529
 51
94.77188806077471
  0
ARC
  5
B7A5
330
18
100
AcDbEntity
  8
1HATCH
100
AcDbCircle
 10
590.9220473923342
 20
-754.1107679513956
 30
0.0
 40
142.7499999999999
100
AcDbArc
 50
85.7817898839807
 51
94.21821011601929
  0
LINE
  5
B7A6
330
18
100
AcDbEntity
  8
01
  6
BYBLOCK
100
AcDbLine
 10
585.7007167496474
 20
-603.9152640905315
 30
0.0
 11
584.4220473923342
 21
-610.0072895062173
 31
0.0
  0
LINE
  5
B7A7
330
18
100
AcDbEntity
  8
01
  6
BYBLOCK
100
AcDbLine
 10
587.619486807871
 20
-605.9703508082329
 30
0.0
 11
586.7904968529579
 21
-609.9199471959101
 31
0.0
  0
LINE
  5
B7A8
330
18
100
AcDbEntity
  8
01
  6
BYBLOCK
100
AcDbLine
 10
595.9220473923342
 20
-602.8607679513957
 30
0.0
 11
597.4220473923342
 21
-610.0072895062173
 31
0.0
  0
LINE
  5
B7A9
330
18
100
AcDbEntity
  8
01
  6
BYBLOCK
100
AcDbLine
 10
594.0546827515057
 20
-605.1607679513957
 30
0.0
 11
595.0535979317103
 21
-609.9199471959101
 31
0.0
  0
LINE
  5
B7AA
330
18
100
AcDbEntity
  8
01
  6
BYBLOCK
100
AcDbLine
 10
588.9220473923342
 20
-652.4607679513957
 30
0.0
 11
591.9220473923342
 21
-655.4607679513957
 31
0.0
  0
LINE
  5
B7AB
330
18
100
AcDbEntity
  8
01
  6
BYBLOCK
100
AcDbLine
 10
595.9220473923342
 20
-652.4607679513957
 30
0.0
 11
592.9220473923342
 21
-655.4607679513957
 31
0.0
  0
LINE
  5
B7AC
330
18
100
AcDbEntity
  8
01
  6
BYBLOCK
100
AcDbLine
 10
594.622047392334
 20
-628.8607679513957
 30
0.0
 11
593.622047392334
 21
-628.8607679513957
 31
0.0
  0
ARC
  5
B7AD
330
18
100
AcDbEntity
  8
01
  6
BYBLOCK
100
AcDbCircle
 10
617.7181320099194
 20
-635.8744943253361
 30
0.0
 40
25.09608837142445
100
AcDbArc
 50
163.7711333760273
 51
179.9686619156618
  0
LINE
  5
B7AE
330
18
100
AcDbEntity
  8
1HATCH
100
AcDbLine
 10
598.4168029474217
 20
-612.2476101737343
 30
0.0
 11
598.9220473918342
 21
-612.2476101737343
 31
0.0
  0
LINE
  5
B7AF
330
18
100
AcDbEntity
  8
1HATCH
100
AcDbLine
 10
596.6482696142007
 20
-615.3633790624255
 30
0.0
 11
597.1535140586134
 21
-615.3633790624255
 31
0.0
  0
LINE
  5
B7B0
330
18
100
AcDbEntity
  8
1HATCH
100
AcDbLine
 10
598.9220473918342
 20
-615.447610173531
 30
0.0
 11
597.1535140586134
 21
-613.4640723958794
 31
0.0
  0
LINE
  5
B7B1
330
18
100
AcDbEntity
  8
1HATCH
100
AcDbLine
 10
597.1535140586134
 20
-613.4640723958794
 30
0.0
 11
597.1535140586134
 21
-615.3633790624255
 31
0.0
  0
LINE
  5
B7B2
330
18
100
AcDbEntity
  8
1HATCH
100
AcDbLine
 10
596.6482696142007
 20
-612.1633790626288
 30
0.0
 11
596.6482696142007
 21
-615.3633790624255
 31
0.0
  0
LINE
  5
B7B3
330
18
100
AcDbEntity
  8
1HATCH
100
AcDbLine
 10
598.9220473918342
 20
-612.2476101737343
 30
0.0
 11
598.9220473918342
 21
-615.447610173531
 31
0.0
  0
LINE
  5
B7B4
330
18
100
AcDbEntity
  8
1HATCH
100
AcDbLine
 10
598.4168029474217
 20
-614.1469523958359
 30
0.0
 11
596.6482696142007
 21
-612.163414618184
 31
0.0
  0
LINE
  5
B7B5
330
18
100
AcDbEntity
  8
1HATCH
100
AcDbLine
 10
598.4168029474217
 20
-612.2476101737343
 30
0.0
 11
598.4168029474217
 21
-614.1469523958359
 31
0.0
  0
LINE
  5
B7B6
330
18
100
AcDbEntity
  8
1HATCH
100
AcDbLine
 10
596.3165362808907
 20
-612.2476101737343
 30
0.0
 11
595.8045362809225
 21
-612.2476101737343
 31
0.0
  0
LINE
  5
B7B7
330
18
100
AcDbEntity
  8
1HATCH
100
AcDbLine
 10
594.6845362809927
 20
-612.2476101737343
 30
0.0
 11
594.1725362810248
 21
-612.2476101737343
 31
0.0
  0
LINE
  5
B7B8
330
18
100
AcDbEntity
  8
1HATCH
100
AcDbLine
 10
593.340536281077
 20
-612.2476101737343
 30
0.0
 11
593.8525362810451
 21
-612.2476101737343
 31
0.0
  0
ARC
  5
B7B9
330
18
100
AcDbEntity
  8
1HATCH
100
AcDbCircle
 10
595.3885362809488
 20
-614.4810254898848
 30
0.0
 40
0.415999999974
100
AcDbArc
 50
299.9999999999702
 51
0.0
  0
ARC
  5
B7BA
330
18
100
AcDbEntity
  8
1HATCH
100
AcDbCircle
 10
595.1005362809667
 20
-614.4810254898848
 30
0.0
 40
0.415999999974
100
AcDbArc
 50
180.0
 51
240.0000000000224
  0
ARC
  5
B7BB
330
18
100
AcDbEntity
  8
1HATCH
100
AcDbCircle
 10
595.2445362809576
 20
-614.2316101736103
 30
0.0
 40
0.7039999999559964
100
AcDbArc
 50
240.0000000000224
 51
299.9999999999702
  0
ARC
  5
B7BC
330
18
100
AcDbEntity
  8
1HATCH
100
AcDbCircle
 10
595.2445362809576
 20
-614.2316101736103
 30
0.0
 40
1.215999999924003
100
AcDbArc
 50
240.0000000000298
 51
299.9999999999776
  0
ARC
  5
B7BD
330
18
100
AcDbEntity
  8
1HATCH
100
AcDbCircle
 10
595.1005362809667
 20
-614.4810254898848
 30
0.0
 40
0.9279999999419999
100
AcDbArc
 50
180.0
 51
240.0000000000298
  0
LINE
  5
B7BE
330
18
100
AcDbEntity
  8
1HATCH
100
AcDbLine
 10
592.512656788962
 20
-614.8716101735704
 30
0.0
 11
593.0205362810971
 21
-614.8716101735704
 31
0.0
  0
ARC
  5
B7BF
330
18
100
AcDbEntity
  8
1HATCH
100
AcDbCircle
 10
593.0205362810971
 20
-614.5516101735903
 30
0.0
 40
0.3199999999800001
100
AcDbArc
 50
270.0
 51
0.0
  0
LINE
  5
B7C0
330
18
100
AcDbEntity
  8
1HATCH
100
AcDbLine
 10
591.0070251701145
 20
-614.058134618064
 30
0.0
 11
591.5951140589661
 21
-614.058134618064
 31
0.0
  0
LINE
  5
B7C1
330
18
100
AcDbEntity
  8
1HATCH
100
AcDbLine
 10
592.1736582964932
 20
-615.3516101735404
 30
0.0
 11
593.0205362810971
 21
-615.3516101735404
 31
0.0
  0
LINE
  5
B7C2
330
18
100
AcDbEntity
  8
1HATCH
100
AcDbLine
 10
592.1736582964932
 20
-615.3516101735404
 30
0.0
 11
591.802402947842
 21
-614.5212812847012
 31
0.0
  0
ARC
  5
B7C3
330
18
100
AcDbEntity
  8
1HATCH
100
AcDbCircle
 10
593.0205362810971
 20
-614.5196101735924
 30
0.0
 40
0.831999999948
100
AcDbArc
 50
270.0
 51
0.0
  0
LINE
  5
B7C4
330
18
100
AcDbEntity
  8
1HATCH
100
AcDbLine
 10
592.512656788962
 20
-614.8716101735704
 30
0.0
 11
591.3010696145402
 21
-612.163414618184
 31
0.0
  0
LINE
  5
B7C5
330
18
100
AcDbEntity
  8
1HATCH
100
AcDbLine
 10
591.0070251701145
 20
-614.058134618064
 30
0.0
 11
591.3010696145402
 21
-613.4006768403277
 31
0.0
  0
LINE
  5
B7C6
330
18
100
AcDbEntity
  8
1HATCH
100
AcDbLine
 10
591.5951140589661
 20
-614.058134618064
 30
0.0
 11
591.3010696145402
 21
-613.4006768403277
 31
0.0
  0
LINE
  5
B7C7
330
18
100
AcDbEntity
  8
1HATCH
100
AcDbLine
 10
594.1725362810248
 20
-612.2476101737343
 30
0.0
 11
594.1725362810248
 21
-614.4810254898848
 31
0.0
  0
LINE
  5
B7C8
330
18
100
AcDbEntity
  8
1HATCH
100
AcDbLine
 10
596.3165362808907
 20
-612.2476101737343
 30
0.0
 11
596.3165362808907
 21
-614.4810254898848
 31
0.0
  0
LINE
  5
B7C9
330
18
100
AcDbEntity
  8
1HATCH
100
AcDbLine
 10
595.8045362809225
 20
-612.2476101737343
 30
0.0
 11
595.8045362809225
 21
-614.4810254898848
 31
0.0
  0
LINE
  5
B7CA
330
18
100
AcDbEntity
  8
1HATCH
100
AcDbLine
 10
594.6845362809927
 20
-612.2476101737343
 30
0.0
 11
594.6845362809927
 21
-614.4810254898848
 31
0.0
  0
LINE
  5
B7CB
330
18
100
AcDbEntity
  8
1HATCH
100
AcDbLine
 10
593.8525362810451
 20
-612.2476101737343
 30
0.0
 11
593.8525362810451
 21
-614.5196101735924
 31
0.0
  0
LINE
  5
B7CC
330
18
100
AcDbEntity
  8
1HATCH
100
AcDbLine
 10
593.340536281077
 20
-612.2476101737343
 30
0.0
 11
593.340536281077
 21
-614.5516101735903
 31
0.0
  0
ARC
  5
B7CD
330
18
100
AcDbEntity
  8
1HATCH
100
AcDbCircle
 10
595.3885362809488
 20
-614.4810254898848
 30
0.0
 40
0.9279999999419999
100
AcDbArc
 50
299.9999999999776
 51
0.0
  0
LINE
  5
B7CE
330
18
100
AcDbEntity
  8
1HATCH
100
AcDbLine
 10
590.3499585034897
 20
-612.2476101737343
 30
0.0
 11
590.8800918367892
 21
-612.2476101737343
 31
0.0
  0
LINE
  5
B7CF
330
18
100
AcDbEntity
  8
1HATCH
100
AcDbLine
 10
586.6692473926123
 20
-612.2476101737343
 30
0.0
 11
587.1993807259119
 21
-612.2476101737343
 31
0.0
  0
LINE
  5
B7D0
330
18
100
AcDbEntity
  8
1HATCH
100
AcDbLine
 10
589.8692473924091
 20
-615.3633790624255
 30
0.0
 11
590.422847392374
 21
-615.3633790624255
 31
0.0
  0
LINE
  5
B7D1
330
18
100
AcDbEntity
  8
1HATCH
100
AcDbLine
 10
590.422847392374
 20
-615.3634146179811
 30
0.0
 11
590.7997362812389
 21
-614.5212812847012
 31
0.0
  0
LINE
  5
B7D2
330
18
100
AcDbEntity
  8
1HATCH
100
AcDbLine
 10
585.7049807260069
 20
-614.5212812847012
 30
0.0
 11
586.7076473926099
 21
-614.5212812847012
 31
0.0
  0
LINE
  5
B7D3
330
18
100
AcDbEntity
  8
1HATCH
100
AcDbLine
 10
585.9122696148825
 20
-614.058134618064
 30
0.0
 11
586.5003585037341
 21
-614.058134618064
 31
0.0
  0
LINE
  5
B7D4
330
18
100
AcDbEntity
  8
1HATCH
100
AcDbLine
 10
587.0841807259192
 20
-615.3633790624255
 30
0.0
 11
587.6377807258841
 21
-615.3633790624255
 31
0.0
  0
LINE
  5
B7D5
330
18
100
AcDbEntity
  8
1HATCH
100
AcDbLine
 10
587.0841807259192
 20
-615.3634146179811
 30
0.0
 11
586.7076473926099
 21
-614.5212812847012
 31
0.0
  0
LINE
  5
B7D6
330
18
100
AcDbEntity
  8
1HATCH
100
AcDbLine
 10
587.6377807258841
 20
-615.3634146179811
 30
0.0
 11
586.2063140593082
 21
-612.163414618184
 31
0.0
  0
LINE
  5
B7D7
330
18
100
AcDbEntity
  8
1HATCH
100
AcDbLine
 10
589.5325362813194
 20
-615.447610173531
 30
0.0
 11
588.7748473924785
 21
-613.4316812847703
 31
0.0
  0
LINE
  5
B7D8
330
18
100
AcDbEntity
  8
1HATCH
100
AcDbLine
 10
589.5325362813194
 20
-615.447610173531
 30
0.0
 11
590.8800918367892
 21
-612.2476101737343
 31
0.0
  0
LINE
  5
B7D9
330
18
100
AcDbEntity
  8
1HATCH
100
AcDbLine
 10
588.0168029480824
 20
-615.447610173531
 30
0.0
 11
588.7748473924785
 21
-613.4316812847703
 31
0.0
  0
LINE
  5
B7DA
330
18
100
AcDbEntity
  8
1HATCH
100
AcDbLine
 10
588.0168029480824
 20
-615.447610173531
 30
0.0
 11
586.6692473926123
 21
-612.2476101737343
 31
0.0
  0
LINE
  5
B7DB
330
18
100
AcDbEntity
  8
1HATCH
100
AcDbLine
 10
588.0150251703046
 20
-614.1844279513892
 30
0.0
 11
588.7748473924785
 21
-612.163414618184
 31
0.0
  0
LINE
  5
B7DC
330
18
100
AcDbEntity
  8
1HATCH
100
AcDbLine
 10
588.0150251703046
 20
-614.1844279513892
 30
0.0
 11
587.1993807259119
 21
-612.2476101737343
 31
0.0
  0
LINE
  5
B7DD
330
18
100
AcDbEntity
  8
1HATCH
100
AcDbLine
 10
586.5003585037341
 20
-614.058134618064
 30
0.0
 11
586.2063140593082
 21
-613.4006768403277
 31
0.0
  0
LINE
  5
B7DE
330
18
100
AcDbEntity
  8
1HATCH
100
AcDbLine
 10
585.9122696148825
 20
-614.058134618064
 30
0.0
 11
586.2063140593082
 21
-613.4006768403277
 31
0.0
  0
LINE
  5
B7DF
330
18
100
AcDbEntity
  8
1HATCH
100
AcDbLine
 10
589.5346696146526
 20
-614.1844279513892
 30
0.0
 11
590.3499585034897
 21
-612.2476101737343
 31
0.0
  0
LINE
  5
B7E0
330
18
100
AcDbEntity
  8
1HATCH
100
AcDbLine
 10
589.5346696146526
 20
-614.1844279513892
 30
0.0
 11
588.7748473924785
 21
-612.163414618184
 31
0.0
  0
LINE
  5
B7E1
330
18
100
AcDbEntity
  8
1HATCH
100
AcDbLine
 10
584.5640029483015
 20
-612.2476101737343
 30
0.0
 11
585.209336281594
 21
-612.2476101737343
 31
0.0
  0
LINE
  5
B7E2
330
18
100
AcDbEntity
  8
1HATCH
100
AcDbLine
 10
582.9220473928503
 20
-612.2476101737343
 30
0.0
 11
583.4272918372626
 21
-612.2476101737343
 31
0.0
  0
LINE
  5
B7E3
330
18
100
AcDbEntity
  8
1HATCH
100
AcDbLine
 10
585.209336281594
 20
-612.2476101737343
 30
0.0
 11
584.0534251705562
 21
-613.703432395864
 31
0.0
  0
LINE
  5
B7E4
330
18
100
AcDbEntity
  8
1HATCH
100
AcDbLine
 10
584.5640029483015
 20
-612.2476101737343
 30
0.0
 11
583.4272918372626
 21
-613.6791835069766
 31
0.0
  0
LINE
  5
B7E5
330
18
100
AcDbEntity
  8
1HATCH
100
AcDbLine
 10
584.5640029483015
 20
-615.3633790624255
 30
0.0
 11
585.328091837142
 21
-615.3633790624255
 31
0.0
  0
LINE
  5
B7E6
330
18
100
AcDbEntity
  8
1HATCH
100
AcDbLine
 10
582.9220473928503
 20
-615.3633790624255
 30
0.0
 11
583.4272918372626
 21
-615.3633790624255
 31
0.0
  0
LINE
  5
B7E7
330
18
100
AcDbEntity
  8
1HATCH
100
AcDbLine
 10
584.9337807260558
 20
-615.0078235068926
 30
0.0
 11
584.0534251705562
 21
-613.703432395864
 31
0.0
  0
LINE
  5
B7E8
330
18
100
AcDbEntity
  8
1HATCH
100
AcDbLine
 10
584.5640029483015
 20
-615.3634146179811
 30
0.0
 11
583.4272918372626
 21
-613.6791835069766
 31
0.0
  0
LINE
  5
B7E9
330
18
100
AcDbEntity
  8
1HATCH
100
AcDbLine
 10
583.4272918372626
 20
-612.2476101737343
 30
0.0
 11
583.4272918372626
 21
-615.3633790624255
 31
0.0
  0
LINE
  5
B7EA
330
18
100
AcDbEntity
  8
1HATCH
100
AcDbLine
 10
582.9220473928503
 20
-612.2476101737343
 30
0.0
 11
582.9220473928503
 21
-615.3633790624255
 31
0.0
  0
LINE
  5
B7EB
330
18
100
AcDbEntity
  8
1HATCH
100
AcDbLine
 10
584.9337807260558
 20
-615.0078235068926
 30
0.0
 11
586.2063140593082
 21
-612.1633790626288
 31
0.0
  0
LINE
  5
B7EC
330
18
100
AcDbEntity
  8
1HATCH
100
AcDbLine
 10
585.328091837142
 20
-615.3634146179811
 30
0.0
 11
585.7049807260069
 21
-614.5212812847012
 31
0.0
  0
LINE
  5
B7ED
330
18
100
AcDbEntity
  8
1HATCH
100
AcDbLine
 10
589.8692473924091
 20
-615.3634146179811
 30
0.0
 11
591.3010696145402
 21
-612.163414618184
 31
0.0
  0
LINE
  5
B7EE
330
18
100
AcDbEntity
  8
1HATCH
100
AcDbLine
 10
590.7997362812389
 20
-614.5212812847012
 30
0.0
 11
591.802402947842
 21
-614.5212812847012
 31
0.0
  0
LINE
  5
B7EF
330
18
100
AcDbEntity
  8
01
  6
BYBLOCK
100
AcDbLine
 10
610.9598114646656
 20
-602.9018305833047
 30
0.0
 11
614.4598114646656
 21
-608.9640084097957
 31
0.0
  0
LINE
  5
B7F0
330
18
100
AcDbEntity
  8
01
  6
BYBLOCK
100
AcDbLine
 10
597.6648956969336
 20
-601.9173997428138
 30
0.0
 11
601.1476336381747
 21
-599.9066400549214
 31
0.0
  0
LINE
  5
B7F1
330
18
100
AcDbEntity
  8
01
  6
BYBLOCK
100
AcDbLine
 10
596.4310010961101
 20
-605.2856003610232
 30
0.0
 11
597.634494813432
 21
-604.5907629393593
 31
0.0
  0
LINE
  5
B7F2
330
18
100
AcDbEntity
  8
01
  6
BYBLOCK
100
AcDbLine
 10
599.6293598892253
 20
-603.439027050853
 30
0.0
 11
600.6804484210884
 21
-602.8321808040398
 31
0.0
  0
LINE
  5
B7F3
330
18
100
AcDbEntity
  8
01
  6
BYBLOCK
100
AcDbLine
 10
595.622047392334
 20
-629.3819599869527
 30
0.0
 11
595.751380594196
 21
-629.3473052599593
 31
0.0
  0
LINE
  5
B7F4
330
18
100
AcDbEntity
  8
01
  6
BYBLOCK
100
AcDbLine
 10
613.8878260170391
 20
-622.5733005533168
 30
0.0
 11
615.2301653929053
 21
-621.7983005533167
 31
0.0
  0
LINE
  5
B7F5
330
18
100
AcDbEntity
  8
01
  6
BYBLOCK
100
AcDbLine
 10
614.8878260170395
 20
-624.3053513608857
 30
0.0
 11
615.1476336381747
 21
-624.1553513608857
 31
0.0
  0
LINE
  5
B7F6
330
18
100
AcDbEntity
  8
01
  6
BYBLOCK
100
AcDbLine
 10
608.4873796003303
 20
-632.6194529760234
 30
0.0
 11
611.0854558116835
 21
-631.1194529760234
 31
0.0
  0
LINE
  5
B7F7
330
18
100
AcDbEntity
  8
01
  6
BYBLOCK
100
AcDbLine
 10
623.9835320230368
 20
-647.4595762939829
 30
0.0
 11
624.8495574268213
 21
-646.9595762939829
 31
0.0
  0
LINE
  5
B7F8
330
18
100
AcDbEntity
  8
01
  6
BYBLOCK
100
AcDbLine
 10
613.6381655076284
 20
-612.5408758663733
 30
0.0
 11
614.8881655076284
 21
-614.7059393758344
 31
0.0
  0
LINE
  5
B7F9
330
18
100
AcDbEntity
  8
01
  6
BYBLOCK
100
AcDbLine
 10
613.6337749366367
 20
-609.5332711743414
 30
0.0
 11
614.8837749366367
 21
-611.6983346838024
 31
0.0
  0
LINE
  5
B7FA
330
18
100
AcDbEntity
  8
01
  6
BYBLOCK
100
AcDbLine
 10
605.4873796003303
 20
-627.4233005533167
 30
0.0
 11
608.4873796003303
 21
-632.6194529760234
 31
0.0
  0
LINE
  5
B7FB
330
18
100
AcDbEntity
  8
01
  6
BYBLOCK
100
AcDbLine
 10
613.8878260170391
 20
-622.5733005533168
 30
0.0
 11
614.8878260170395
 21
-624.3053513608857
 31
0.0
  0
LINE
  5
B7FC
330
18
100
AcDbEntity
  8
01
  6
BYBLOCK
100
AcDbLine
 10
615.1476336381747
 20
-624.1553513608857
 30
0.0
 11
625.9476336381745
 21
-642.8615000826295
 31
0.0
  0
LINE
  5
B7FD
330
18
100
AcDbEntity
  8
01
  6
BYBLOCK
100
AcDbLine
 10
613.021800613255
 20
-623.0733005533167
 30
0.0
 11
625.4718006132548
 21
-644.6373331075492
 31
0.0
  0
LINE
  5
B7FE
330
18
100
AcDbEntity
  8
01
  6
BYBLOCK
100
AcDbLine
 10
612.1557752094704
 20
-623.5733005533168
 30
0.0
 11
625.1057752094703
 21
-646.0033585113335
 31
0.0
  0
LINE
  5
B7FF
330
18
100
AcDbEntity
  8
01
  6
BYBLOCK
100
AcDbLine
 10
614.7897498056859
 20
-630.1354783798079
 30
0.0
 11
624.5897498056861
 21
-647.1095762939829
 31
0.0
  0
LINE
  5
B800
330
18
100
AcDbEntity
  8
01
  6
BYBLOCK
100
AcDbLine
 10
611.0854558116835
 20
-631.1194529760234
 30
0.0
 11
619.8854558116836
 21
-646.3615000826295
 31
0.0
  0
LINE
  5
B801
330
18
100
AcDbEntity
  8
01
  6
BYBLOCK
100
AcDbLine
 10
615.2301653929053
 20
-621.7983005533167
 30
0.0
 11
613.3126971476358
 21
-615.9771481306101
 31
0.0
  0
ARC
  5
B802
330
18
100
AcDbEntity
  8
01
  6
BYBLOCK
100
AcDbCircle
 10
534.6925066192525
 20
-494.8029836347049
 30
0.0
 40
144.2499999999999
100
AcDbArc
 50
300.5739861080399
 51
303.776111919253
  0
ARC
  5
B803
330
18
100
AcDbEntity
  8
01
  6
BYBLOCK
100
AcDbCircle
 10
533.4425066192525
 20
-492.6379201252438
 30
0.0
 40
144.2499999999999
100
AcDbArc
 50
301.461243233756
 51
304.3734211784137
  0
ARC
  5
B804
330
18
100
AcDbEntity
  8
01
  6
BYBLOCK
100
AcDbCircle
 10
532.1925066192525
 20
-490.4728566157827
 30
0.0
 40
144.2499999999999
100
AcDbArc
 50
302.1446280944704
 51
304.7718880607773
  0
ARC
  5
B805
330
18
100
AcDbEntity
  8
01
  6
BYBLOCK
100
AcDbCircle
 10
672.4425066192525
 20
-733.3929823773176
 30
0.0
 40
144.2499999999999
100
AcDbArc
 50
115.228111939218
 51
119.3406055281439
  0
LINE
  5
B806
330
18
100
AcDbEntity
  8
01
  6
BYBLOCK
100
AcDbLine
 10
601.1476336381747
 20
-599.9066400549214
 30
0.0
 11
606.019932521262
 21
-605.3457092700899
 31
0.0
  0
LINE
  5
B807
330
18
100
AcDbEntity
  8
01
  6
BYBLOCK
100
AcDbLine
 10
600.6804484210884
 20
-602.8321808040398
 30
0.0
 11
603.9251239656287
 21
-606.4542933408505
 31
0.0
  0
LINE
  5
B808
330
18
100
AcDbEntity
  8
01
  6
BYBLOCK
100
AcDbLine
 10
619.8854558116836
 20
-646.3615000826295
 30
0.0
 11
623.9835320230368
 21
-647.4595762939829
 31
0.0
  0
LINE
  5
B809
330
18
100
AcDbEntity
  8
01
  6
BYBLOCK
100
AcDbLine
 10
625.9476336381745
 20
-642.8615000826295
 30
0.0
 11
624.8495574268213
 21
-646.9595762939829
 31
0.0
  0
LINE
  5
B80A
330
18
100
AcDbEntity
  8
01
  6
BYBLOCK
100
AcDbLine
 10
613.021800613255
 20
-623.0733005533167
 30
0.0
 11
612.1557752094704
 21
-623.5733005533168
 31
0.0
  0
ARC
  5
B80B
330
18
100
AcDbEntity
  8
01
  6
BYBLOCK
100
AcDbCircle
 10
636.5304598070093
 20
-617.5993234595494
 30
0.0
 40
25.09608837142445
100
AcDbArc
 50
193.7711333760299
 51
209.9686619156588
  0
LINE
  5
B80C
330
18
100
AcDbEntity
  8
01
  6
BYBLOCK
100
AcDbLine
 10
607.3839673067137
 20
-607.0777537068686
 30
0.0
 11
609.1957006224311
 21
-613.8392344908922
 31
0.0
  0
LINE
  5
B80D
330
18
100
AcDbEntity
  8
01
  6
BYBLOCK
100
AcDbLine
 10
594.1441976122605
 20
-602.8607679513957
 30
0.0
 11
598.6813436844213
 21
-601.6450433254182
 31
0.0
  0
LINE
  5
B80E
330
18
100
AcDbEntity
  8
01
  6
BYBLOCK
100
AcDbLine
 10
591.4211049589417
 20
-605.9715536437109
 30
0.0
 11
594.0755719501703
 21
-605.2602913570761
 31
0.0
  0
LINE
  5
B80F
330
18
100
AcDbEntity
  8
01
  6
BYBLOCK
100
AcDbLine
 10
596.3005548297147
 20
-604.664108991329
 30
0.0
 11
597.4728917544817
 21
-604.3499822590805
 31
0.0
  0
LINE
  5
B810
330
18
100
AcDbEntity
  8
01
  6
BYBLOCK
100
AcDbLine
 10
605.1208611092
 20
-626.8367605224648
 30
0.0
 11
606.6180461399481
 21
-626.4355910025558
 31
0.0
  0
LINE
  5
B811
330
18
100
AcDbEntity
  8
01
  6
BYBLOCK
100
AcDbLine
 10
605.638499199405
 20
-628.7686121750429
 30
0.0
 11
605.9282769472918
 21
-628.6909664615122
 31
0.0
  0
LINE
  5
B812
330
18
100
AcDbEntity
  8
01
  6
BYBLOCK
100
AcDbLine
 10
597.3042948648113
 20
-635.1428602176936
 30
0.0
 11
600.2020723436785
 21
-634.3664030823861
 31
0.0
  0
LINE
  5
B813
330
18
100
AcDbEntity
  8
01
  6
BYBLOCK
100
AcDbLine
 10
608.4315221516574
 20
-653.4880179686334
 30
0.0
 11
609.3974479779465
 21
-653.2291989235308
 31
0.0
  0
LINE
  5
B814
330
18
100
AcDbEntity
  8
01
  6
BYBLOCK
100
AcDbLine
 10
607.476290152893
 20
-617.0815655224005
 30
0.0
 11
608.1233377656495
 21
-619.4963800881231
 31
0.0
  0
LINE
  5
B815
330
18
100
AcDbEntity
  8
01
  6
BYBLOCK
100
AcDbLine
 10
608.2504745614174
 20
-614.1753061117071
 30
0.0
 11
608.8975221741739
 21
-616.5901206774298
 31
0.0
  0
LINE
  5
B816
330
18
100
AcDbEntity
  8
01
  6
BYBLOCK
100
AcDbLine
 10
595.751380594196
 20
-629.3473052599593
 30
0.0
 11
597.3042948648113
 21
-635.1428602176936
 31
0.0
  0
LINE
  5
B817
330
18
100
AcDbEntity
  8
01
  6
BYBLOCK
100
AcDbLine
 10
605.1208611092
 20
-626.8367605224648
 30
0.0
 11
605.638499199405
 21
-628.7686121750429
 31
0.0
  0
LINE
  5
B818
330
18
100
AcDbEntity
  8
01
  6
BYBLOCK
100
AcDbLine
 10
605.9282769472918
 20
-628.6909664615122
 30
0.0
 11
611.5187683215063
 21
-649.554964309356
 31
0.0
  0
LINE
  5
B819
330
18
100
AcDbEntity
  8
01
  6
BYBLOCK
100
AcDbLine
 10
604.1549352829111
 20
-627.0955795675673
 30
0.0
 11
610.5995295059638
 21
-651.147132642165
 31
0.0
  0
LINE
  5
B81A
330
18
100
AcDbEntity
  8
01
  6
BYBLOCK
100
AcDbLine
 10
603.1890094566218
 20
-627.3543986126698
 30
0.0
 11
609.8924227247771
 21
-652.3718775135566
 31
0.0
  0
LINE
  5
B81B
330
18
100
AcDbEntity
  8
01
  6
BYBLOCK
100
AcDbLine
 10
604.0348169460503
 20
-634.3746984417958
 30
0.0
 11
609.1076702300597
 21
-653.3068446370615
 31
0.0
  0
LINE
  5
B81C
330
18
100
AcDbEntity
  8
01
  6
BYBLOCK
100
AcDbLine
 10
600.2020723436785
 20
-634.3664030823861
 30
0.0
 11
604.7572875374826
 21
-651.3666976250737
 31
0.0
  0
LINE
  5
B81D
330
18
100
AcDbEntity
  8
01
  6
BYBLOCK
100
AcDbLine
 10
606.6180461399481
 20
-626.4355910025558
 30
0.0
 11
606.2725391521944
 21
-620.3165122384434
 31
0.0
  0
ARC
  5
B81E
330
18
100
AcDbEntity
  8
01
  6
BYBLOCK
100
AcDbCircle
 10
561.6934481989877
 20
-482.9228546345142
 30
0.0
 40
144.2499999999999
100
AcDbArc
 50
285.5739861080416
 51
288.7761119192527
  0
ARC
  5
B81F
330
18
100
AcDbEntity
  8
01
  6
BYBLOCK
100
AcDbCircle
 10
561.0464005862314
 20
-480.5080400687915
 30
0.0
 40
144.2499999999999
100
AcDbArc
 50
286.4612432337552
 51
289.3734211784114
  0
ARC
  5
B820
330
18
100
AcDbEntity
  8
01
  6
BYBLOCK
100
AcDbCircle
 10
560.3993529734751
 20
-478.093225503069
 30
0.0
 40
144.2499999999999
100
AcDbArc
 50
287.1446280944803
 51
289.7718880607742
  0
ARC
  5
B821
330
18
100
AcDbEntity
  8
01
  6
BYBLOCK
100
AcDbCircle
 10
632.9980951247321
 20
-749.0354197771524
 30
0.0
 40
144.2499999999999
100
AcDbArc
 50
100.2281119392214
 51
104.3406055281487
  0
LINE
  5
B822
330
18
100
AcDbEntity
  8
01
  6
BYBLOCK
100
AcDbLine
 10
589.0730678757834
 20
-605.1607679513957
 30
0.0
 11
589.1093234512105
 21
-605.8203730201162
 31
0.0
  0
LINE
  5
B823
330
18
100
AcDbEntity
  8
01
  6
BYBLOCK
100
AcDbLine
 10
589.1755502466904
 20
-607.02525060017
 30
0.0
 11
589.3318878734017
 21
-609.8695328876861
 31
0.0
  0
LINE
  5
B824
330
18
100
AcDbEntity
  8
01
  6
BYBLOCK
100
AcDbLine
 10
591.4211049589417
 20
-605.9715536437109
 30
0.0
 11
591.4733425580275
 21
-606.921922924274
 31
0.0
  0
LINE
  5
B825
330
18
100
AcDbEntity
  8
01
  6
BYBLOCK
100
AcDbLine
 10
591.5314633529229
 20
-607.9793263845607
 30
0.0
 11
591.6349747169011
 21
-609.8625297138703
 31
0.0
  0
LINE
  5
B826
330
18
100
AcDbEntity
  8
01
  6
BYBLOCK
100
AcDbLine
 10
598.6813436844213
 20
-601.6450433254182
 30
0.0
 11
601.9798883084782
 21
-608.1598244956981
 31
0.0
  0
LINE
  5
B827
330
18
100
AcDbEntity
  8
01
  6
BYBLOCK
100
AcDbLine
 10
597.4728917544817
 20
-604.3499822590805
 30
0.0
 11
599.6695359528505
 21
-608.6884581302169
 31
0.0
  0
LINE
  5
B828
330
18
100
AcDbEntity
  8
01
  6
BYBLOCK
100
AcDbLine
 10
604.7572875374826
 20
-651.3666976250737
 30
0.0
 11
608.4315221516574
 21
-653.4880179686334
 31
0.0
  0
LINE
  5
B829
330
18
100
AcDbEntity
  8
01
  6
BYBLOCK
100
AcDbLine
 10
611.5187683215063
 20
-649.554964309356
 30
0.0
 11
609.3974479779465
 21
-653.2291989235308
 31
0.0
  0
LINE
  5
B82A
330
18
100
AcDbEntity
  8
01
  6
BYBLOCK
100
AcDbLine
 10
604.1549352829111
 20
-627.0955795675673
 30
0.0
 11
603.1890094566218
 21
-627.3543986126698
 31
0.0
  0
ARC
  5
B82B
330
18
100
AcDbEntity
  8
01
  6
BYBLOCK
100
AcDbCircle
 10
628.2793258639081
 20
-627.8926124443507
 30
0.0
 40
25.09608837142445
100
AcDbArc
 50
178.7711333760267
 51
194.9686619156642
  0
ARC
  5
B82C
330
18
100
AcDbEntity
  8
01
  6
BYBLOCK
100
AcDbCircle
 10
594.2658006666857
 20
-597.8416047739343
 30
0.0
 40
9.5
100
AcDbArc
 50
285.4139799106694
 51
296.3792223244822
  0
ARC
  5
B82D
330
18
100
AcDbEntity
  8
01
  6
BYBLOCK
100
AcDbCircle
 10
594.2658006666857
 20
-597.8416047739343
 30
0.0
 40
9.5
100
AcDbArc
 50
310.3760163376899
 51
320.6215320564892
  0
ARC
  5
B82E
330
18
100
AcDbEntity
  8
01
  6
BYBLOCK
100
AcDbCircle
 10
594.2658006666857
 20
-597.8416047739343
 30
0.0
 40
9.5
100
AcDbArc
 50
335.0907413191983
 51
271.4835511155014
  0
ARC
  5
B82F
330
18
100
AcDbEntity
  8
01
  6
BYBLOCK
100
AcDbCircle
 10
594.2658006666857
 20
-597.8416047739343
 30
0.0
 40
10.5
100
AcDbArc
 50
285.0745453738475
 51
296.4244277613399
  0
ARC
  5
B830
330
18
100
AcDbEntity
  8
01
  6
BYBLOCK
100
AcDbCircle
 10
594.2658006666857
 20
-597.8416047739343
 30
0.0
 40
10.5
100
AcDbArc
 50
309.0672187189969
 51
319.7808582964524
  0
ARC
  5
B831
330
18
100
AcDbEntity
  8
01
  6
BYBLOCK
100
AcDbCircle
 10
594.2658006666857
 20
-597.8416047739343
 30
0.0
 40
10.5
100
AcDbArc
 50
332.7674072845762
 51
272.4805916030467
  0
CIRCLE
  5
B832
330
18
100
AcDbEntity
  8
01
100
AcDbCircle
 10
693.0751374307915
 20
-712.3445233799545
 30
-0.0000000000562575
 40
5.599999999999952
  0
CIRCLE
  5
B833
330
18
100
AcDbEntity
  8
01
100
AcDbCircle
 10
693.0751374307915
 20
-712.3445233799545
 30
-0.0000000000562575
 40
6.49999999999998
  0
LINE
  5
B836
330
18
100
AcDbEntity
  8
1CENTER
100
AcDbLine
 10
701.6617687235689
 20
-712.3445233799545
 30
-0.0000000000562575
 11
684.4885061380146
 21
-712.3445233799545
 31
-0.0000000000562575
  0
LINE
  5
B837
330
18
100
AcDbEntity
  8
1CENTER
100
AcDbLine
 10
693.0751374307918
 20
-703.7578920871772
 30
-0.0000000000562575
 11
693.0751374307918
 21
-720.9311546727317
 31
-0.0000000000562575
  0
LINE
  5
B83C
330
18
100
AcDbEntity
  8
01
100
AcDbLine
 10
651.6885838182202
 20
-723.5784501850379
 30
-0.0000000000562575
 11
651.6885838182202
 21
-690.110596574871
 31
-0.0000000000562575
  0
ARC
  5
B83D
330
18
100
AcDbEntity
  8
01
100
AcDbCircle
 10
650.6885838182202
 20
-690.110596574871
 30
-0.0000000000562575
 40
1.000000000000028
100
AcDbArc
 50
0.0
 51
88.03400000000465
  0
LINE
  5
B83E
330
18
100
AcDbEntity
  8
01
100
AcDbLine
 10
628.38858381822
 20
-688.3445233799545
 30
-0.0000000000562575
 11
650.7228902583577
 21
-689.1111852140365
 31
-0.0000000000562575
  0
LINE
  5
B83F
330
18
100
AcDbEntity
  8
01
100
AcDbLine
 10
628.3885838182202
 20
-688.3445233799545
 30
-0.0000000000562575
 11
628.3885838182202
 21
-725.3445233799545
 31
-0.0000000000562575
  0
LINE
  5
B840
330
18
100
AcDbEntity
  8
01
100
AcDbLine
 10
650.7228902583577
 20
-724.5778615458725
 30
-0.0000000000562575
 11
628.3885838182202
 21
-725.3445233799545
 31
-0.0000000000562575
  0
ARC
  5
B841
330
18
100
AcDbEntity
  8
01
100
AcDbCircle
 10
650.6885838182202
 20
-723.5784501850379
 30
-0.0000000000562575
 40
1.000000000000028
100
AcDbArc
 50
271.9659999999953
 51
0.0
  0
LINE
  5
B842
330
18
100
AcDbEntity
  8
1CENTER
100
AcDbLine
 10
636.9752151109979
 20
-712.3445233799545
 30
-0.0000000000562575
 11
619.8019525254431
 21
-712.3445233799545
 31
-0.0000000000562575
  0
LINE
  5
B843
330
18
100
AcDbEntity
  8
1CENTER
100
AcDbLine
 10
693.0751374307918
 20
-633.5713384746057
 30
-0.0000000000562575
 11
693.0751374307918
 21
-650.7446010601602
 31
-0.0000000000562575
  0
LINE
  5
C669
330
18
100
AcDbEntity
  8
01
100
AcDbLine
 10
578.3021058994321
 20
-721.8445233799572
 30
-0.0000000000562575
 11
578.3021058994308
 21
-697.1445233102014
 31
-0.0000000000562575
  0
LINE
  5
C66A
330
18
100
AcDbEntity
  8
01
100
AcDbLine
 10
578.3021058994308
 20
-697.1445233102014
 30
-0.0000000000562575
 11
575.3021058994308
 21
-697.1445233102014
 31
-0.0000000000562575
  0
LINE
  5
C66B
330
18
100
AcDbEntity
  8
01
100
AcDbLine
 10
578.3021058994321
 20
-721.8445233799572
 30
-0.0000000000562575
 11
575.3021058994321
 21
-721.8445233799572
 31
-0.0000000000562575
  0
LINE
  5
C66C
330
18
100
AcDbEntity
  8
01
100
AcDbLine
 10
473.4513045391708
 20
-632.3144443190224
 30
0.0
 11
473.4513045391708
 21
-635.3144443190224
 31
0.0
  0
LINE
  5
C66D
330
18
100
AcDbEntity
  8
01
100
AcDbLine
 10
494.4513045391707
 20
-632.3144443190223
 30
0.0
 11
494.4513045391707
 21
-635.3144443190224
 31
0.0
  0
LINE
  5
C66E
330
18
100
AcDbEntity
  8
01
100
AcDbLine
 10
473.4513045391708
 20
-632.3144443190224
 30
0.0
 11
494.4513045391707
 21
-632.3144443190224
 31
0.0
  0
LINE
  5
C6C7
330
18
100
AcDbEntity
  8
01
100
AcDbLine
 10
628.3885838182202
 20
-720.3651359323596
 30
-0.0000000000562575
 11
626.1885838182201
 21
-720.3651359323596
 31
-0.0000000000562575
  0
LINE
  5
C6C8
330
18
100
AcDbEntity
  8
01
100
AcDbLine
 10
626.1885838182201
 20
-704.2651359323596
 30
-0.0000000000562575
 11
628.3885838182202
 21
-704.2651359323596
 31
-0.0000000000562575
  0
ARC
  5
C6C9
330
18
100
AcDbEntity
  8
01
100
AcDbCircle
 10
626.1885838182201
 20
-705.2651359323596
 30
-0.0000000000562575
 40
1.000000000000007
100
AcDbArc
 50
90.0
 51
180.0
  0
ARC
  5
C6CA
330
18
100
AcDbEntity
  8
01
100
AcDbCircle
 10
626.1885838182201
 20
-719.3651359323596
 30
-0.0000000000562575
 40
1.000000000000007
100
AcDbArc
 50
180.0
 51
270.0
  0
LINE
  5
C6CB
330
18
100
AcDbEntity
  8
01
100
AcDbLine
 10
625.1885838182201
 20
-705.2651359323596
 30
-0.0000000000562575
 11
625.1885838182201
 21
-719.3651359323596
 31
-0.0000000000562575
  0
LINE
  5
C6CC
330
18
100
AcDbEntity
  8
01
100
AcDbLine
 10
612.3823789000423
 20
-709.4867088076134
 30
-0.0000000000562575
 11
612.8823789000423
 21
-708.9867088076134
 31
-0.0000000000562575
  0
LINE
  5
C6CD
330
18
100
AcDbEntity
  8
01
100
AcDbLine
 10
612.8823789000423
 20
-715.6435630571058
 30
-0.0000000000562575
 11
612.3823789000423
 21
-715.1435630571058
 31
-0.0000000000562575
  0
LINE
  5
C6CE
330
18
100
AcDbEntity
  8
01
100
AcDbLine
 10
625.1885838182201
 20
-706.4151359323596
 30
-0.0000000000562575
 11
624.9823789000424
 21
-706.4151359323596
 31
-0.0000000000562575
  0
LINE
  5
C6CF
330
18
100
AcDbEntity
  8
01
100
AcDbLine
 10
624.6823789000423
 20
-706.7151359323597
 30
-0.0000000000562575
 11
624.9823789000424
 21
-706.4151359323596
 31
-0.0000000000562575
  0
LINE
  5
C6D0
330
18
100
AcDbEntity
  8
01
100
AcDbLine
 10
624.6823789000423
 20
-717.9151359323596
 30
-0.0000000000562575
 11
624.6823789000423
 21
-706.7151359323597
 31
-0.0000000000562575
  0
LINE
  5
C6D1
330
18
100
AcDbEntity
  8
01
100
AcDbLine
 10
612.8823789000423
 20
-708.9867088076134
 30
-0.0000000000562575
 11
618.3823789000423
 21
-708.9867088076134
 31
-0.0000000000562575
  0
LINE
  5
C6D2
330
18
100
AcDbEntity
  8
01
100
AcDbLine
 10
619.3823789000423
 20
-708.9867088076135
 30
-0.0000000000562575
 11
624.6823789000423
 21
-708.9867088076134
 31
-0.0000000000562575
  0
LINE
  5
C6D3
330
18
100
AcDbEntity
  8
01
100
AcDbLine
 10
612.3823789000423
 20
-715.1435630571058
 30
-0.0000000000562575
 11
612.3823789000423
 21
-709.4867088076134
 31
-0.0000000000562575
  0
LINE
  5
C6D4
330
18
100
AcDbEntity
  8
01
100
AcDbLine
 10
624.6823789000423
 20
-715.6435630571058
 30
-0.0000000000562575
 11
619.3823789000423
 21
-715.6435630571058
 31
-0.0000000000562575
  0
LINE
  5
C6D5
330
18
100
AcDbEntity
  8
01
100
AcDbLine
 10
618.3823789000423
 20
-715.6435630571058
 30
-0.0000000000562575
 11
612.8823789000423
 21
-715.6435630571058
 31
-0.0000000000562575
  0
LINE
  5
C6D6
330
18
100
AcDbEntity
  8
01
100
AcDbLine
 10
624.9823789000424
 20
-718.2151359323597
 30
-0.0000000000562575
 11
624.6823789000423
 21
-717.9151359323596
 31
-0.0000000000562575
  0
LINE
  5
C6D7
330
18
100
AcDbEntity
  8
01
100
AcDbLine
 10
624.9823789000424
 20
-718.2151359323597
 30
-0.0000000000562575
 11
625.1885838182201
 21
-718.2151359323597
 31
-0.0000000000562575
  0
LINE
  5
C6D8
330
18
100
AcDbEntity
  8
01
100
AcDbLine
 10
618.3823789000423
 20
-708.9867088076134
 30
-0.0000000000562575
 11
618.6702468687057
 21
-709.2745767732575
 31
-0.0000000000562575
  0
ARC
  5
C6D9
330
18
100
AcDbEntity
  8
01
100
AcDbCircle
 10
618.8823789030616
 20
-709.0624447389015
 30
-0.0000000000562575
 40
0.3
100
AcDbArc
 50
225.0000000000035
 51
314.9999999999965
  0
LINE
  5
C6DA
330
18
100
AcDbEntity
  8
01
100
AcDbLine
 10
619.3823789000423
 20
-708.9867088076134
 30
-0.0000000000562575
 11
619.0945109374176
 21
-709.2745767732575
 31
-0.0000000000562575
  0
LINE
  5
C6DB
330
18
100
AcDbEntity
  8
01
100
AcDbLine
 10
618.3823789000423
 20
-715.6435630571058
 30
-0.0000000000562575
 11
618.6702468687057
 21
-715.3556950914618
 31
-0.0000000000562575
  0
ARC
  5
C6DC
330
18
100
AcDbEntity
  8
01
100
AcDbCircle
 10
618.8823789030616
 20
-715.5678271258178
 30
-0.0000000000562575
 40
0.3
100
AcDbArc
 50
45.00000000000346
 51
134.9999999999965
  0
LINE
  5
C6DD
330
18
100
AcDbEntity
  8
01
100
AcDbLine
 10
619.3823789000423
 20
-715.6435630571058
 30
-0.0000000000562575
 11
619.0945109374176
 21
-715.3556950914618
 31
-0.0000000000562575
  0
LINE
  5
C6DE
330
18
100
AcDbEntity
  8
01
100
AcDbLine
 10
619.3823789000423
 20
-708.9867088076135
 30
-0.0000000000562575
 11
619.3823789000423
 21
-715.6435630571058
 31
-0.0000000000562575
  0
LINE
  5
C6DF
330
18
100
AcDbEntity
  8
01
100
AcDbLine
 10
618.3823789000423
 20
-708.9867088076134
 30
-0.0000000000562575
 11
618.3823789000423
 21
-715.6435630571058
 31
-0.0000000000562575
  0
LINE
  5
C6E0
330
18
100
AcDbEntity
  8
01
100
AcDbLine
 10
612.8823789000423
 20
-708.9867088076134
 30
-0.0000000000562575
 11
612.8823789000423
 21
-715.6435630571058
 31
-0.0000000000562575
  0
LINE
  5
C6E1
330
18
100
AcDbEntity
  8
01
100
AcDbLine
 10
624.6823789000423
 20
-712.3445233799545
 30
-0.0000000000562575
 11
619.3823789000423
 21
-712.3445233799545
 31
-0.0000000000562575
  0
LINE
  5
C6E2
330
18
100
AcDbEntity
  8
01
100
AcDbLine
 10
618.3823789000425
 20
-712.3445233799545
 30
-0.0000000000562575
 11
612.8823789000423
 21
-712.3445233799545
 31
-0.0000000000562575
  0
LINE
  5
C6E3
330
18
100
AcDbEntity
  8
01
100
AcDbLine
 10
603.3885838182202
 20
-704.1445233871731
 30
-0.0000000000562575
 11
628.3885838182202
 21
-704.1445233871731
 31
-0.0000000000562575
  0
LINE
  5
C6E4
330
18
100
AcDbEntity
  8
01
100
AcDbLine
 10
601.1885838182191
 20
-703.1445233171397
 30
-0.0000000000562575
 11
601.1885838182191
 21
-700.4445233868954
 31
-0.0000000000562575
  0
LINE
  5
C6E5
330
18
100
AcDbEntity
  8
01
100
AcDbLine
 10
601.1885838182191
 20
-700.4445233868954
 30
-0.0000000000562575
 11
601.1885838182191
 21
-698.2596753156477
 31
-0.0000000000562575
  0
LINE
  5
C6E6
330
18
100
AcDbEntity
  8
01
100
AcDbLine
 10
603.3885838182189
 20
-704.1445233868955
 30
-0.0000000000562575
 11
603.3885838182189
 21
-700.6445233171397
 31
-0.0000000000562575
  0
LINE
  5
C6E7
330
18
100
AcDbEntity
  8
01
100
AcDbLine
 10
603.3885838182189
 20
-703.6445233171397
 30
-0.0000000000562575
 11
601.6885838182191
 21
-703.6445233171397
 31
-0.0000000000562575
  0
LINE
  5
C6E8
330
18
100
AcDbEntity
  8
01
100
AcDbLine
 10
625.7885838182203
 20
-697.6445233171398
 30
-0.0000000000562575
 11
621.1885838182191
 21
-697.6445233171398
 31
-0.0000000000562575
  0
LINE
  5
C6E9
330
18
100
AcDbEntity
  8
01
100
AcDbLine
 10
601.6885838182191
 20
-703.6445233171397
 30
-0.0000000000562575
 11
601.1885838182191
 21
-703.1445233171397
 31
-0.0000000000562575
  0
LINE
  5
C6EA
330
18
100
AcDbEntity
  8
01
100
AcDbLine
 10
601.6885838182191
 20
-697.7397858091674
 30
-0.0000000000562575
 11
620.4385838182191
 21
-697.7397858091674
 31
-0.0000000000562575
  0
LINE
  5
C6EB
330
18
100
AcDbEntity
  8
01
100
AcDbLine
 10
601.1885838182191
 20
-698.2596753156477
 30
-0.0000000000562575
 11
601.6885838182191
 21
-697.7397858091674
 31
-0.0000000000562575
  0
ELLIPSE
  5
C6EC
330
18
100
AcDbEntity
  8
01
100
AcDbEllipse
 10
620.4385838182191
 20
-697.6445233171398
 30
-0.0000000000562575
 11
0.75
 21
0.0
 31
0.0
210
0.0
220
0.0
230
1.0
 40
0.1270166560369338
 41
4.71238898038469
 42
6.283185307179586
  0
LINE
  5
C6ED
330
18
100
AcDbEntity
  8
01
100
AcDbLine
 10
601.6885838182191
 20
-697.7397858091674
 30
-0.0000000000562575
 11
601.6885838182191
 21
-703.6445233171397
 31
-0.0000000000562575
  0
ARC
  5
C6EE
330
18
100
AcDbEntity
  8
01
100
AcDbCircle
 10
627.7885838182203
 20
-700.3445233871731
 30
-0.0000000000562575
 40
2.0
100
AcDbArc
 50
180.0
 51
188.62692452941
  0
LINE
  5
C6EF
330
18
100
AcDbEntity
  8
01
100
AcDbLine
 10
625.7885838182203
 20
-697.3445233871732
 30
-0.0000000000562575
 11
625.7885838182203
 21
-700.3445233871731
 31
-0.0000000000562575
  0
ARC
  5
C6F0
330
18
100
AcDbEntity
  8
01
100
AcDbCircle
 10
627.7885838182203
 20
-697.3445233871732
 30
-0.0000000000562575
 40
2.0
100
AcDbArc
 50
90.0
 51
180.0
  0
LINE
  5
C6F1
330
18
100
AcDbEntity
  8
01
100
AcDbLine
 10
628.3885838182202
 20
-695.3445233871732
 30
-0.0000000000562575
 11
627.7885838182203
 21
-695.3445233871732
 31
-0.0000000000562575
  0
LINE
  5
C6F2
330
18
100
AcDbEntity
  8
01
100
AcDbLine
 10
603.3885838182189
 20
-703.1445234558133
 30
-0.0000000000562575
 11
628.3885838182202
 21
-703.1445234558133
 31
-0.0000000000562575
  0
LINE
  5
C6F3
330
18
100
AcDbEntity
  8
01
100
AcDbLine
 10
603.3885838182189
 20
-700.6445233171397
 30
-0.0000000000562575
 11
628.3885838182202
 21
-700.6445233171397
 31
-0.0000000000562575
  0
LINE
  5
C6F4
330
18
100
AcDbEntity
  8
1CENTER
100
AcDbLine
 10
636.9752151109979
 20
-700.6445233171397
 30
-0.0000000000562575
 11
597.8156679682327
 21
-700.6445233171397
 31
-0.0000000000562575
  0
LINE
  5
C6F5
330
18
100
AcDbEntity
  8
01
100
AcDbLine
 10
703.0800739154117
 20
-615.4612341349622
 30
-0.0000000000562575
 11
702.5767890587347
 21
-614.9579697673818
 31
-0.0000000000562575
  0
LINE
  5
C6F6
330
18
100
AcDbEntity
  8
01
100
AcDbLine
 10
697.5766820683973
 20
-614.9579697673818
 30
-0.0000000000562575
 11
697.0734186321395
 21
-615.4612341349622
 31
-0.0000000000562575
  0
LINE
  5
C6F7
330
18
100
AcDbEntity
  8
01
100
AcDbLine
 10
703.076682038595
 20
-617.157971618106
 30
-0.0000000000562575
 11
703.076682038595
 21
-615.4578441207906
 31
-0.0000000000562575
  0
LINE
  5
C6F8
330
18
100
AcDbEntity
  8
01
100
AcDbLine
 10
697.0766824521022
 20
-615.4579707806607
 30
-0.0000000000562575
 11
697.0766824521022
 21
-617.157971618106
 31
-0.0000000000562575
  0
LINE
  5
C6FB
330
18
100
AcDbEntity
  8
01
100
AcDbLine
 10
689.0766820721226
 20
-617.157971618106
 30
-0.0000000000562575
 11
689.0766820721226
 21
-615.4578441207906
 31
-0.0000000000562575
  0
LINE
  5
C6FC
330
18
100
AcDbEntity
  8
01
100
AcDbLine
 10
683.0766824856298
 20
-615.4579707806607
 30
-0.0000000000562575
 11
683.0766824856298
 21
-617.157971618106
 31
-0.0000000000562575
  0
LINE
  5
C6FD
330
18
100
AcDbEntity
  8
01
100
AcDbLine
 10
697.576681602736
 20
-614.9579697673818
 30
-0.0000000000562575
 11
697.0734791681068
 21
-615.4611745303174
 31
-0.0000000000562575
  0
LINE
  5
C6FE
330
18
100
AcDbEntity
  8
01
100
AcDbLine
 10
683.5766816362636
 20
-614.9579697673818
 30
-0.0000000000562575
 11
683.0734796672957
 21
-615.4611745303174
 31
-0.0000000000562575
  0
SPLINE
  5
C6FF
330
18
100
AcDbEntity
  8
01
100
AcDbSpline
210
0.0
220
0.0
230
1.0
 70
    24
 71
     3
 72
    11
 73
     7
 74
     0
 42
0.0000000001
 43
0.0000000001
 40
0.0
 40
0.0
 40
0.0
 40
0.0
 40
0.0003607178768828
 40
0.0003607178768828
 40
0.0003607178768828
 40
0.0007214404088506
 40
0.0007214404088506
 40
0.0007214404088506
 40
0.0007214404088506
 10
700.8266822621135
 20
-615.4581071421547
 30
-0.0000000000562575
 10
700.8266822621135
 20
-615.3744619867605
 30
-0.0000000000562575
 10
700.8266822621135
 20
-615.2909348480368
 30
-0.0000000000562575
 10
700.8266822621135
 20
-615.2075640834382
 30
-0.0000000000562575
 10
700.8266822621135
 20
-615.1241922962031
 30
-0.0000000000562575
 10
700.8266822621135
 20
-615.0409758814029
 30
-0.0000000000562575
 10
700.8266822621135
 20
-614.9579709475757
 30
-0.0000000000562575
  0
SPLINE
  5
C700
330
18
100
AcDbEntity
  8
01
100
AcDbSpline
210
0.0
220
0.0
230
1.0
 70
    24
 71
     3
 72
    16
 73
    12
 74
     0
 42
0.0000000001
 43
0.0000000001
 40
0.0
 40
0.0
 40
0.0
 40
0.0
 40
0.0134835891622112
 40
0.1486773039996227
 40
0.2798573639350279
 40
0.4148419006937338
 40
0.5461977267117744
 40
0.6813647953550469
 40
0.8126075957812087
 40
0.9476293466950491
 40
1.0
 40
1.0
 40
1.0
 40
1.0
 10
702.5735927596586
 20
-614.9579697673818
 30
-0.0000000000562575
 10
702.5746265223386
 20
-614.9579697673818
 30
-0.0000000000562575
 10
702.5860253454839
 20
-614.9579697673818
 30
-0.0000000000562575
 10
702.5401320990798
 20
-614.9579697673818
 30
-0.0000000000562575
 10
702.4320611403525
 20
-614.9579697673818
 30
-0.0000000000562575
 10
702.2508649581097
 20
-614.9579697673818
 30
-0.0000000000562575
 10
702.0086136986989
 20
-614.9579697673818
 30
-0.0000000000562575
 10
701.7131006165046
 20
-614.9579697673818
 30
-0.0000000000562575
 10
701.3684378216396
 20
-614.9579697673818
 30
-0.0000000000562575
 10
701.0661345997868
 20
-614.9579697673818
 30
-0.0000000000562575
 10
700.8789849469123
 20
-614.9579697673818
 30
-0.0000000000562575
 10
700.8266821354525
 20
-614.9579697673818
 30
-0.0000000000562575
  0
SPLINE
  5
C701
330
18
100
AcDbEntity
  8
01
100
AcDbSpline
210
0.0
220
0.0
230
1.0
 70
     8
 71
     3
 72
    15
 73
    11
 74
     0
 42
0.0000000001
 43
0.0000000001
 40
0.0
 40
0.0
 40
0.0
 40
0.0
 40
0.1258590206341089
 40
0.2556966312497209
 40
0.381875535932899
 40
0.5117136234224768
 40
0.6378922006179232
 40
0.7677298033291556
 40
0.882500160812819
 40
1.0
 40
1.0
 40
1.0
 40
1.0
 10
703.0765777304666
 20
-615.4578441207906
 30
-0.0000000000562575
 10
703.0685789524347
 20
-615.4579122256368
 30
-0.0000000000562575
 10
703.0523285431547
 20
-615.4580505882243
 30
-0.0000000000562575
 10
702.9215994338952
 20
-615.4578015117837
 30
-0.0000000000562575
 10
702.7146347201581
 20
-615.4581846161623
 30
-0.0000000000562575
 10
702.4333401393465
 20
-615.4578903837903
 30
-0.0000000000562575
 10
702.0828437600477
 20
-615.4578408315366
 30
-0.0000000000562575
 10
701.69034372641
 20
-615.4580987754545
 30
-0.0000000000562575
 10
701.2677328937436
 20
-615.4577405375018
 30
-0.0000000000562575
 10
700.9748463229464
 20
-615.4579849659825
 30
-0.0000000000562575
 10
700.8266821354525
 20
-615.4581086164018
 30
-0.0000000000562575
  0
LINE
  5
C702
330
18
100
AcDbEntity
  8
01
100
AcDbLine
 10
703.076682038595
 20
-642.1579710593124
 30
-0.0000000000562575
 11
703.076682038595
 21
-617.157971618106
 31
-0.0000000000562575
  0
LINE
  5
C703
330
18
100
AcDbEntity
  8
01
100
AcDbLine
 10
697.0766824521022
 20
-617.157971618106
 30
-0.0000000000562575
 11
697.0766824521022
 21
-642.1579710593124
 31
-0.0000000000562575
  0
LINE
  5
C704
330
18
100
AcDbEntity
  8
01
100
AcDbLine
 10
699.3266823552447
 20
-634.2079705943962
 30
-0.0000000000562575
 11
699.3266823552447
 21
-615.4579670553704
 31
-0.0000000000562575
  0
SPLINE
  5
C705
330
18
100
AcDbEntity
  8
01
100
AcDbSpline
210
0.0
220
0.0
230
1.0
 70
     8
 71
     3
 72
    18
 73
    14
 74
     0
 42
0.0000000001
 43
0.0000000001
 40
0.0
 40
0.0
 40
0.0
 40
0.0
 40
0.1249999999999994
 40
0.1249999999999994
 40
0.2499999999999989
 40
0.2499999999999989
 40
0.4999999999999991
 40
0.4999999999999991
 40
0.6249999999999992
 40
0.6249999999999992
 40
0.7499999999999993
 40
0.7499999999999993
 40
1.0
 40
1.0
 40
1.0
 40
1.0
 10
700.8266822621135
 20
-634.2079709475591
 30
-0.0000000000562575
 10
700.8266822621135
 20
-634.3074408229131
 30
-0.0000000000562575
 10
700.8069690869665
 20
-634.4050077331424
 30
-0.0000000000562575
 10
700.7316285415403
 20
-634.5863724704047
 30
-0.0000000000562575
 10
700.6759930674892
 20
-634.6692795876784
 30
-0.0000000000562575
 10
700.4695208957739
 20
-634.875873799371
 30
-0.0000000000562575
 10
700.2755977659754
 20
-634.9579748377846
 30
-0.0000000000562575
 10
699.9772025091717
 20
-634.9579690022315
 30
-0.0000000000562575
 10
699.8796303930562
 20
-634.9382558303838
 30
-0.0000000000562575
 10
699.6982394951923
 20
-634.8628957686999
 30
-0.0000000000562575
 10
699.6153247779855
 20
-634.8072443037779
 30
-0.0000000000562575
 10
699.4087456517747
 20
-634.6007530997858
 30
-0.0000000000562575
 10
699.3266822621135
 20
-634.4068997598432
 30
-0.0000000000562575
 10
699.3266822621135
 20
-634.2079709475591
 30
-0.0000000000562575
  0
LINE
  5
C706
330
18
100
AcDbEntity
  8
01
100
AcDbLine
 10
700.8266821354525
 20
-615.4581086164018
 30
-0.0000000000562575
 11
700.8266821354525
 21
-634.2079705943962
 31
-0.0000000000562575
  0
SPLINE
  5
C707
330
18
100
AcDbEntity
  8
01
100
AcDbSpline
210
0.0
220
0.0
230
1.0
 70
     8
 71
     3
 72
    14
 73
    10
 74
     0
 42
0.0000000001
 43
0.0000000001
 40
0.0
 40
0.0
 40
0.0
 40
0.0
 40
0.2500000000000002
 40
0.2500000000000002
 40
0.5000000000000004
 40
0.5000000000000004
 40
0.7500000000000002
 40
0.7500000000000002
 40
1.0
 40
1.0
 40
1.0
 40
1.0
 10
699.3266822626938
 20
-615.4579674322978
 30
-0.0000000000562575
 10
699.0046832121227
 20
-615.4578965749245
 30
-0.0000000000562575
 10
698.7050104314119
 20
-615.4581601670332
 30
-0.0000000000562575
 10
698.1501386703058
 20
-615.4579889706117
 30
-0.0000000000562575
 10
697.9089170982429
 20
-615.4579151610767
 30
-0.0000000000562575
 10
697.5024707841535
 20
-615.4581686992256
 30
-0.0000000000562575
 10
697.3460400490668
 20
-615.4578071292037
 30
-0.0000000000562575
 10
697.1312679011533
 20
-615.4580726221193
 30
-0.0000000000562575
 10
697.0766822623385
 20
-615.4577147020605
 30
-0.0000000000562575
 10
697.0766822621141
 20
-615.4579709475604
 30
-0.0000000000562575
  0
SPLINE
  5
C708
330
18
100
AcDbEntity
  8
01
100
AcDbSpline
210
0.0
220
0.0
230
1.0
 70
    24
 71
     3
 72
    11
 73
     7
 74
     0
 42
0.0000000001
 43
0.0000000001
 40
0.0
 40
0.0
 40
0.0
 40
0.0
 40
0.0003607178768874
 40
0.0003607178768874
 40
0.0003607178768874
 40
0.0007214404088598
 40
0.0007214404088598
 40
0.0007214404088598
 40
0.0007214404088598
 10
686.8266822621127
 20
-615.4581071421558
 30
-0.0000000000562575
 10
686.8266822621127
 20
-615.3744619867618
 30
-0.0000000000562575
 10
686.8266822621127
 20
-615.2909348480384
 30
-0.0000000000562575
 10
686.8266822621127
 20
-615.2075640834403
 30
-0.0000000000562575
 10
686.8266822621127
 20
-615.1241922962056
 30
-0.0000000000562575
 10
686.8266822621127
 20
-615.040975881406
 30
-0.0000000000562575
 10
686.8266822621127
 20
-614.9579709475795
 30
-0.0000000000562575
  0
SPLINE
  5
C709
330
18
100
AcDbEntity
  8
01
100
AcDbSpline
210
0.0
220
0.0
230
1.0
 70
    24
 71
     3
 72
    16
 73
    12
 74
     0
 42
0.0000000001
 43
0.0000000001
 40
0.0
 40
0.0
 40
0.0
 40
0.0
 40
0.0134835799619913
 40
0.1486772998782719
 40
0.2798574042794923
 40
0.414841820429102
 40
0.5461978198207288
 40
0.6813647901760788
 40
0.8126075955326842
 40
0.9476294837875501
 40
0.9999999999999999
 40
0.9999999999999999
 40
0.9999999999999999
 40
0.9999999999999999
 10
688.5735932588475
 20
-614.9579697673818
 30
-0.0000000000562575
 10
688.5746268577725
 20
-614.9579697673818
 30
-0.0000000000562575
 10
688.586023882728
 20
-614.9579697673818
 30
-0.0000000000562575
 10
688.5401330151633
 20
-614.9579697673818
 30
-0.0000000000562575
 10
688.4320600916819
 20
-614.9579697673818
 30
-0.0000000000562575
 10
688.2508659201815
 20
-614.9579697673818
 30
-0.0000000000562575
 10
688.0086130331151
 20
-614.9579697673818
 30
-0.0000000000562575
 10
687.7131007275997
 20
-614.9579697673818
 30
-0.0000000000562575
 10
687.3684377363452
 20
-614.9579697673818
 30
-0.0000000000562575
 10
687.0661343884229
 20
-614.9579697673818
 30
-0.0000000000562575
 10
686.8789848198859
 20
-614.9579697673818
 30
-0.0000000000562575
 10
686.8266821689801
 20
-614.9579697673818
 30
-0.0000000000562575
  0
SPLINE
  5
C70A
330
18
100
AcDbEntity
  8
01
100
AcDbSpline
210
0.0
220
0.0
230
1.0
 70
     8
 71
     3
 72
    15
 73
    11
 74
     0
 42
0.0000000001
 43
0.0000000001
 40
0.0
 40
0.0
 40
0.0
 40
0.0
 40
0.1258589057345688
 40
0.255696460288807
 40
0.3818754157444429
 40
0.5117135384558782
 40
0.637891946975275
 40
0.7677296940508126
 40
0.8825001583629242
 40
1.0
 40
1.0
 40
1.0
 40
1.0
 10
689.076577298333
 20
-615.4578441207906
 30
-0.0000000000562575
 10
689.06857839859
 20
-615.457912225617
 30
-0.0000000000562575
 10
689.0523277380702
 20
-615.4580505881979
 30
-0.0000000000562575
 10
688.9216004060725
 20
-615.4578015118038
 30
-0.0000000000562575
 10
688.7146342839243
 20
-615.4581846161902
 30
-0.0000000000562575
 10
688.433341277773
 20
-615.4578903839083
 30
-0.0000000000562575
 10
688.0828435362129
 20
-615.4578408316434
 30
-0.0000000000562575
 10
687.6903445111293
 20
-615.4580987755202
 30
-0.0000000000562575
 10
687.2677329742742
 20
-615.4577405374894
 30
-0.0000000000562575
 10
686.9748463280246
 20
-615.4579849660154
 30
-0.0000000000562575
 10
686.8266821689801
 20
-615.4581086164018
 30
-0.0000000000562575
  0
LINE
  5
C70B
330
18
100
AcDbEntity
  8
01
100
AcDbLine
 10
689.0766820721226
 20
-642.1579710593124
 30
-0.0000000000562575
 11
689.0766820721226
 21
-617.157971618106
 31
-0.0000000000562575
  0
LINE
  5
C70C
330
18
100
AcDbEntity
  8
01
100
AcDbLine
 10
683.0766824856298
 20
-642.1579710593124
 30
-0.0000000000562575
 11
683.0766824856298
 21
-617.157971618106
 31
-0.0000000000562575
  0
LINE
  5
C70D
330
18
100
AcDbEntity
  8
01
100
AcDbLine
 10
685.3266823887723
 20
-634.2079705943962
 30
-0.0000000000562575
 11
685.3266823887723
 21
-615.4579670553704
 31
-0.0000000000562575
  0
SPLINE
  5
C70E
330
18
100
AcDbEntity
  8
01
100
AcDbSpline
210
0.0
220
0.0
230
1.0
 70
     8
 71
     3
 72
    18
 73
    14
 74
     0
 42
0.0000000001
 43
0.0000000001
 40
0.0
 40
0.0
 40
0.0
 40
0.0
 40
0.1250000000000005
 40
0.1250000000000005
 40
0.2500000000000011
 40
0.2500000000000011
 40
0.4999999999999996
 40
0.4999999999999996
 40
0.6249999999999993
 40
0.6249999999999993
 40
0.749999999999999
 40
0.749999999999999
 40
1.0
 40
1.0
 40
1.0
 40
1.0
 10
686.8266822621126
 20
-634.2079709472147
 30
-0.0000000000562575
 10
686.8266822621583
 20
-634.3074408225699
 30
-0.0000000000562575
 10
686.8069690869709
 20
-634.4050077331212
 30
-0.0000000000562575
 10
686.7316285415534
 20
-634.5863724703795
 30
-0.0000000000562575
 10
686.6759930675025
 20
-634.6692795876595
 30
-0.0000000000562575
 10
686.4695208957972
 20
-634.8758737993559
 30
-0.0000000000562575
 10
686.2755977660006
 20
-634.9579748377787
 30
-0.0000000000562575
 10
685.9772025091914
 20
-634.9579690022344
 30
-0.0000000000562575
 10
685.879630393074
 20
-634.9382558303892
 30
-0.0000000000562575
 10
685.6982394952041
 20
-634.8628957687076
 30
-0.0000000000562575
 10
685.6153247779943
 20
-634.8072443037858
 30
-0.0000000000562575
 10
685.4087456517759
 20
-634.6007530997915
 30
-0.0000000000562575
 10
685.3266822621126
 20
-634.4068997598456
 30
-0.0000000000562575
 10
685.3266822621126
 20
-634.2079709475591
 30
-0.0000000000562575
  0
LINE
  5
C70F
330
18
100
AcDbEntity
  8
01
100
AcDbLine
 10
686.8266821689801
 20
-615.4581086164018
 30
-0.0000000000562575
 11
686.8266821689801
 21
-634.2079705943962
 31
-0.0000000000562575
  0
SPLINE
  5
C710
330
18
100
AcDbEntity
  8
01
100
AcDbSpline
210
0.0
220
0.0
230
1.0
 70
     8
 71
     3
 72
    14
 73
    10
 74
     0
 42
0.0000000001
 43
0.0000000001
 40
0.0
 40
0.0
 40
0.0
 40
0.0
 40
0.25
 40
0.25
 40
0.5
 40
0.5
 40
0.75
 40
0.75
 40
1.0
 40
1.0
 40
1.0
 40
1.0
 10
685.326682262403
 20
-615.4579674322978
 30
-0.0000000000562575
 10
685.0046832116979
 20
-615.4578965749245
 30
-0.0000000000562575
 10
684.7050104308705
 20
-615.4581601670322
 30
-0.0000000000562575
 10
684.1501386695685
 20
-615.4579889706217
 30
-0.0000000000562575
 10
683.9089170974595
 20
-615.4579151610967
 30
-0.0000000000562575
 10
683.5024707833225
 20
-615.4581686992337
 30
-0.0000000000562575
 10
683.3460400482795
 20
-615.4578071291761
 30
-0.0000000000562575
 10
683.1312679005141
 20
-615.4580726221351
 30
-0.0000000000562575
 10
683.0766822618366
 20
-615.4577147022875
 30
-0.0000000000562575
 10
683.0766822617866
 20
-615.4579709475604
 30
-0.0000000000562575
  0
SPLINE
  5
C711
330
18
100
AcDbEntity
  8
01
100
AcDbSpline
210
0.0
220
0.0
230
1.0
 70
    24
 71
     3
 72
    11
 73
     7
 74
     0
 42
0.0000000001
 43
0.0000000001
 40
12.5422763557778
 40
12.5422763557778
 40
12.5422763557778
 40
12.5422763557778
 40
12.69201870703971
 40
13.67932092783035
 40
14.67163434622995
 40
15.70745408779297
 40
15.70745408779297
 40
15.70745408779297
 40
15.70745408779297
 10
699.3266822621952
 20
-614.9579709475605
 30
-0.0000000000562575
 10
699.2790598214007
 20
-614.9579709475605
 30
-0.0000000000562575
 10
698.9208721863216
 20
-614.9579709475605
 30
-0.0000000000562575
 10
698.3084092401401
 20
-614.9579709475605
 30
-0.0000000000562575
 10
697.7188059199484
 20
-614.9579709475606
 30
-0.0000000000562575
 10
697.5764161585456
 20
-614.9579709475606
 30
-0.0000000000562575
 10
697.5766822620379
 20
-614.9579709475606
 30
-0.0000000000562575
  0
SPLINE
  5
C712
330
18
100
AcDbEntity
  8
01
100
AcDbSpline
210
0.0
220
0.0
230
1.0
 70
    24
 71
     3
 72
    11
 73
     7
 74
     0
 42
0.0000000001
 43
0.0000000001
 40
0.0000000000000061
 40
0.0000000000000061
 40
0.0000000000000061
 40
0.0000000000000061
 40
0.00036063810356
 40
0.00036063810356
 40
0.00036063810356
 40
0.0007212803997743
 40
0.0007212803997743
 40
0.0007212803997743
 40
0.0007212803997743
 10
699.3266822621122
 20
-614.9579709475782
 30
-0.0000000000562575
 10
699.3266822621122
 20
-615.0409501553235
 30
-0.0000000000562575
 10
699.3266822621135
 20
-615.1241418280056
 30
-0.0000000000562575
 10
699.3266822621135
 20
-615.2074895069175
 30
-0.0000000000562575
 10
699.3266822621135
 20
-615.2908384346454
 30
-0.0000000000562575
 10
699.3266822621135
 20
-615.3743442572131
 30
-0.0000000000562575
 10
699.3266822621135
 20
-615.4579687931209
 30
-0.0000000000562575
  0
SPLINE
  5
C713
330
18
100
AcDbEntity
  8
01
100
AcDbSpline
210
0.0
220
0.0
230
1.0
 70
    24
 71
     3
 72
    11
 73
     7
 74
     0
 42
0.0000000001
 43
0.0000000001
 40
12.54227635613844
 40
12.54227635613844
 40
12.54227635613844
 40
12.54227635613844
 40
12.69201870773213
 40
13.67932092866409
 40
14.67163434720575
 40
15.70745408779297
 40
15.70745408779297
 40
15.70745408779297
 40
15.70745408779297
 10
685.3266822621654
 20
-614.9579709475605
 30
-0.0000000000562575
 10
685.2790598212704
 20
-614.9579709475605
 30
-0.0000000000562575
 10
684.920872186085
 20
-614.9579709475605
 30
-0.0000000000562575
 10
684.3084092398143
 20
-614.9579709475606
 30
-0.0000000000562575
 10
683.7188059198423
 20
-614.9579709475606
 30
-0.0000000000562575
 10
683.5764161583776
 20
-614.9579709475606
 30
-0.0000000000562575
 10
683.5766822617121
 20
-614.9579709475606
 30
-0.0000000000562575
  0
SPLINE
  5
C714
330
18
100
AcDbEntity
  8
01
100
AcDbSpline
210
0.0
220
0.0
230
1.0
 70
    24
 71
     3
 72
    11
 73
     7
 74
     0
 42
0.0000000001
 43
0.0000000001
 40
0.0000000000000039
 40
0.0000000000000039
 40
0.0000000000000039
 40
0.0000000000000039
 40
0.0003606376145055
 40
0.0003606376145055
 40
0.0003606376145055
 40
0.0007212799106826
 40
0.0007212799106826
 40
0.0007212799106826
 40
0.0007212799106826
 10
685.326682262112
 20
-614.9579709475717
 30
-0.0000000000562575
 10
685.326682262112
 20
-615.0409500427921
 30
-0.0000000000562575
 10
685.3266822621127
 20
-615.1241416023779
 30
-0.0000000000562575
 10
685.3266822621127
 20
-615.2074891678367
 30
-0.0000000000562575
 10
685.3266822621127
 20
-615.2908379821068
 30
-0.0000000000562575
 10
685.3266822621127
 20
-615.3743436908555
 30
-0.0000000000562575
 10
685.3266822621127
 20
-615.4579681127098
 30
-0.0000000000562575
  0
SPLINE
  5
C715
330
18
100
AcDbEntity
  8
01
100
AcDbSpline
210
0.0
220
0.0
230
1.0
 70
    24
 71
     3
 72
    18
 73
    14
 74
     0
 42
0.0000000001
 43
0.0000000001
 40
-1.333745785452581
 40
-1.333745785452581
 40
-1.333745785452581
 40
-1.333745785452581
 40
0.0
 40
0.0
 40
0.0
 40
0.1324261494914724
 40
0.3657262375835942
 40
0.5990083132974809
 40
0.8318817844114575
 40
1.0
 40
1.0
 40
1.0
 40
1.032726893625971
 40
1.032726893625971
 40
1.032726893625971
 40
1.032726893625971
 10
697.5766820683973
 20
-614.9579697673818
 30
-0.0000000000562575
 10
698.1748328395086
 20
-614.9579697673818
 30
-0.0000000000562575
 10
698.7729836106198
 20
-614.9579697673818
 30
-0.0000000000562575
 10
699.371134381731
 20
-614.9579697673818
 30
-0.0000000000562575
 10
699.430524112741
 20
-614.9579697673818
 30
-0.0000000000562575
 10
699.5945429485733
 20
-614.9579697673818
 30
-0.0000000000562575
 10
699.8821966397423
 20
-614.9579697673818
 30
-0.0000000000562575
 10
700.2194062850094
 20
-614.9579697673818
 30
-0.0000000000562575
 10
700.5245614085243
 20
-614.9579697673818
 30
-0.0000000000562575
 10
700.7061133484654
 20
-614.9579697673818
 30
-0.0000000000562575
 10
700.7822301089661
 20
-614.9579697673818
 30
-0.0000000000562575
 10
700.7970474511283
 20
-614.9579697673818
 30
-0.0000000000562575
 10
700.8118647932904
 20
-614.9579697673818
 30
-0.0000000000562575
 10
700.8266821354525
 20
-614.9579697673818
 30
-0.0000000000562575
  0
SPLINE
  5
C716
330
18
100
AcDbEntity
  8
01
100
AcDbSpline
210
0.0
220
0.0
230
1.0
 70
    24
 71
     3
 72
    18
 73
    14
 74
     0
 42
0.0000000001
 43
0.0000000001
 40
-1.3337293096312
 40
-1.3337293096312
 40
-1.3337293096312
 40
-1.3337293096312
 40
0.0
 40
0.0
 40
0.0
 40
0.1324324317371045
 40
0.3657308304647318
 40
0.5990112169445546
 40
0.8318830017832409
 40
1.0
 40
1.0
 40
1.0
 40
1.032726656530257
 40
1.032726656530257
 40
1.032726656530257
 40
1.032726656530257
 10
683.5766825675861
 20
-614.9579697673818
 30
-0.0000000000562575
 10
684.1748299238479
 20
-614.9579697673818
 30
-0.0000000000562575
 10
684.7729772801098
 20
-614.9579697673818
 30
-0.0000000000562575
 10
685.3711246363716
 20
-614.9579697673818
 30
-0.0000000000562575
 10
685.4305175794185
 20
-614.9579697673818
 30
-0.0000000000562575
 10
685.5945395648138
 20
-614.9579697673818
 30
-0.0000000000562575
 10
685.8821966535685
 20
-614.9579697673818
 30
-0.0000000000562575
 10
686.2194063238375
 20
-614.9579697673818
 30
-0.0000000000562575
 10
686.5245614411474
 20
-614.9579697673818
 30
-0.0000000000562575
 10
686.7061133817258
 20
-614.9579697673818
 30
-0.0000000000562575
 10
686.7822301424937
 20
-614.9579697673818
 30
-0.0000000000562575
 10
686.7970474846559
 20
-614.9579697673818
 30
-0.0000000000562575
 10
686.811864826818
 20
-614.9579697673818
 30
-0.0000000000562575
 10
686.8266821689801
 20
-614.9579697673818
 30
-0.0000000000562575
  0
LINE
  5
C717
330
18
100
AcDbEntity
  8
01
100
AcDbLine
 10
696.5766823701458
 20
-617.157971618106
 30
-0.0000000000562575
 11
697.0766824521022
 21
-617.157971618106
 31
-0.0000000000562575
  0
LINE
  5
C718
330
18
100
AcDbEntity
  8
01
100
AcDbLine
 10
689.0766820721226
 20
-617.157971618106
 30
-0.0000000000562575
 11
689.576682154079
 21
-617.157971618106
 31
-0.0000000000562575
  0
LINE
  5
C719
330
18
100
AcDbEntity
  8
01
100
AcDbLine
 10
689.576682154079
 20
-617.157971618106
 30
-0.0000000000562575
 11
696.5766823701458
 21
-617.157971618106
 31
-0.0000000000562575
  0
LINE
  5
CF5C
330
18
100
AcDbEntity
  8
01
100
AcDbLine
 10
694.5751374307918
 20
-639.557969767383
 30
-0.0000000000562575
 11
691.5751374307918
 21
-639.557969767383
 31
-0.0000000000562575
  0
ARC
  5
CF5D
330
18
100
AcDbEntity
  8
01
100
AcDbCircle
 10
694.5751374307918
 20
-641.557969767383
 30
-0.0000000000562575
 40
2.0
100
AcDbArc
 50
0.0
 51
90.0
  0
LINE
  5
CF5E
330
18
100
AcDbEntity
  8
01
100
AcDbLine
 10
696.5751374307918
 20
-642.157969767383
 30
-0.0000000000562575
 11
696.5751374307918
 21
-641.557969767383
 31
-0.0000000000562575
  0
ARC
  5
CF5F
330
18
100
AcDbEntity
  8
01
100
AcDbCircle
 10
691.5751374307918
 20
-641.557969767383
 30
-0.0000000000562575
 40
2.0
100
AcDbArc
 50
90.0
 51
180.0
  0
LINE
  5
CF60
330
18
100
AcDbEntity
  8
01
100
AcDbLine
 10
689.5751374307918
 20
-642.157969767383
 30
-0.0000000000562575
 11
689.5751374307918
 21
-641.557969767383
 31
-0.0000000000562575
  0
LINE
  5
D095
330
18
100
AcDbEntity
  8
1CENTER
100
AcDbLine
 10
798.2507057585052
 20
-734.1716129270504
 30
0.0
 11
765.0902618585052
 21
-734.1716129270504
 31
0.0
  0
LINE
  5
D096
330
18
100
AcDbEntity
  8
1HATCH
100
AcDbLine
 10
796.6490307585052
 20
-732.5216129270505
 30
0.0
 11
768.2990307585052
 21
-732.5216129270505
 31
0.0
  0
LINE
  5
D097
330
18
100
AcDbEntity
  8
1HATCH
100
AcDbLine
 10
796.6490307585052
 20
-735.8216129270504
 30
0.0
 11
768.2990307585052
 21
-735.8216129270504
 31
0.0
  0
LINE
  5
D099
330
18
100
AcDbEntity
  8
1HATCH
100
AcDbLine
 10
796.2990307585052
 20
-732.1716129270504
 30
0.0
 11
796.2990307585052
 21
-736.1716129270504
 31
0.0
  0
LINE
  5
D09A
330
18
100
AcDbEntity
  8
1HATCH
100
AcDbLine
 10
766.9490307685053
 20
-731.1716129270504
 30
0.0
 11
766.9490307685053
 21
-737.1716129270504
 31
0.0
  0
LINE
  5
D09B
330
18
100
AcDbEntity
  8
1HATCH
100
AcDbLine
 10
767.9490309325793
 20
-736.1716129270504
 30
0.0
 11
768.2990307585052
 21
-735.8216129270504
 31
0.0
  0
LINE
  5
D09C
330
18
100
AcDbEntity
  8
1HATCH
100
AcDbLine
 10
768.2990307585052
 20
-732.5216129270505
 30
0.0
 11
767.9490309325793
 21
-732.1716129270504
 31
0.0
  0
LINE
  5
D09D
330
18
100
AcDbEntity
  8
01
100
AcDbLine
 10
483.9511884557818
 20
-662.8144443190224
 30
0.0
 11
483.3844846593951
 21
-662.7317874586709
 31
0.0
  0
LINE
  5
D09E
330
18
100
AcDbEntity
  8
01
100
AcDbLine
 10
483.3844846593951
 20
-662.7317874586709
 30
0.0
 11
482.849313150606
 21
-662.5083987867959
 31
0.0
  0
LINE
  5
D09F
330
18
100
AcDbEntity
  8
01
100
AcDbLine
 10
482.849313150606
 20
-662.5083987867959
 30
0.0
 11
482.372636209688
 21
-662.1803500807412
 31
0.0
  0
LINE
  5
D0A0
330
18
100
AcDbEntity
  8
01
100
AcDbLine
 10
482.372636209688
 20
-662.1803500807412
 30
0.0
 11
481.9540723669146
 21
-661.779425398124
 31
0.0
  0
LINE
  5
D0A1
330
18
100
AcDbEntity
  8
01
100
AcDbLine
 10
481.9540723669146
 20
-661.779425398124
 30
0.0
 11
481.5851835119341
 21
-661.3337161696084
 31
0.0
  0
LINE
  5
D0A2
330
18
100
AcDbEntity
  8
01
100
AcDbLine
 10
481.5851835119341
 20
-661.3337161696084
 30
0.0
 11
481.2584394323443
 21
-660.8567264235146
 31
0.0
  0
LINE
  5
D0A3
330
18
100
AcDbEntity
  8
01
100
AcDbLine
 10
481.2584394323443
 20
-660.8567264235146
 30
0.0
 11
480.9669813024615
 21
-660.3564212477334
 31
0.0
  0
LINE
  5
D0A4
330
18
100
AcDbEntity
  8
01
100
AcDbLine
 10
480.9669813024615
 20
-660.3564212477334
 30
0.0
 11
480.7061094152544
 21
-659.8391025221474
 31
0.0
  0
LINE
  5
D0A5
330
18
100
AcDbEntity
  8
01
100
AcDbLine
 10
480.7061094152544
 20
-659.8391025221474
 30
0.0
 11
480.472115884981
 21
-659.3099734938271
 31
0.0
  0
LINE
  5
D0A6
330
18
100
AcDbEntity
  8
01
100
AcDbLine
 10
480.472115884981
 20
-659.3099734938271
 30
0.0
 11
480.2617658483599
 21
-658.7714145338662
 31
0.0
  0
LINE
  5
D0A7
330
18
100
AcDbEntity
  8
01
100
AcDbLine
 10
480.2617658483599
 20
-658.7714145338662
 30
0.0
 11
480.0721067297076
 21
-658.2244479811318
 31
0.0
  0
LINE
  5
D0A8
330
18
100
AcDbEntity
  8
01
100
AcDbLine
 10
480.0721067297076
 20
-658.2244479811318
 30
0.0
 11
479.9012082922076
 21
-657.6707065260537
 31
0.0
  0
LINE
  5
D0A9
330
18
100
AcDbEntity
  8
01
100
AcDbLine
 10
479.9012082922076
 20
-657.6707065260537
 30
0.0
 11
479.7477430212115
 21
-657.1121738112099
 31
0.0
  0
LINE
  5
D0AA
330
18
100
AcDbEntity
  8
01
100
AcDbLine
 10
479.7477430212115
 20
-657.1121738112099
 30
0.0
 11
479.610429178438
 21
-656.5497348463662
 31
0.0
  0
LINE
  5
D0AB
330
18
100
AcDbEntity
  8
01
100
AcDbLine
 10
479.610429178438
 20
-656.5497348463662
 30
0.0
 11
479.4880231725787
 21
-655.983526960624
 31
0.0
  0
LINE
  5
D0AC
330
18
100
AcDbEntity
  8
01
100
AcDbLine
 10
479.4880231725787
 20
-655.983526960624
 30
0.0
 11
479.3796399938677
 21
-655.4142978346474
 31
0.0
  0
LINE
  5
D0AD
330
18
100
AcDbEntity
  8
01
100
AcDbLine
 10
479.3796399938677
 20
-655.4142978346474
 30
0.0
 11
479.2846769201373
 21
-654.8432071364052
 31
0.0
  0
LINE
  5
D0AE
330
18
100
AcDbEntity
  8
01
100
AcDbLine
 10
479.2846769201373
 20
-654.8432071364052
 30
0.0
 11
479.2025159704302
 21
-654.2706973707802
 31
0.0
  0
LINE
  5
D0AF
330
18
100
AcDbEntity
  8
01
100
AcDbLine
 10
479.2025159704302
 20
-654.2706973707802
 30
0.0
 11
479.1325620519732
 21
-653.6964633619912
 31
0.0
  0
LINE
  5
D0B0
330
18
100
AcDbEntity
  8
01
100
AcDbLine
 10
479.1325620519732
 20
-653.6964633619912
 30
0.0
 11
479.0743574010943
 21
-653.1205661451943
 31
0.0
  0
LINE
  5
D0B1
330
18
100
AcDbEntity
  8
01
100
AcDbLine
 10
479.0743574010943
 20
-653.1205661451943
 30
0.0
 11
479.0276273595904
 21
-652.5434634840615
 31
0.0
  0
LINE
  5
D0B2
330
18
100
AcDbEntity
  8
01
100
AcDbLine
 10
479.0276273595904
 20
-652.5434634840615
 30
0.0
 11
478.991532694063
 21
-651.9538638746865
 31
0.0
  0
LINE
  5
D0B3
330
18
100
AcDbEntity
  8
01
100
AcDbLine
 10
483.9511884557818
 20
-662.8144443190224
 30
0.0
 11
484.517884622774
 21
-662.7317874586709
 31
0.0
  0
LINE
  5
D0B4
330
18
100
AcDbEntity
  8
01
100
AcDbLine
 10
484.517884622774
 20
-662.7317874586709
 30
0.0
 11
485.053056131563
 21
-662.5083987867959
 31
0.0
  0
LINE
  5
D0B5
330
18
100
AcDbEntity
  8
01
100
AcDbLine
 10
485.053056131563
 20
-662.5083987867959
 30
0.0
 11
485.529733072481
 21
-662.1803500807412
 31
0.0
  0
LINE
  5
D0B6
330
18
100
AcDbEntity
  8
01
100
AcDbLine
 10
485.529733072481
 20
-662.1803500807412
 30
0.0
 11
485.9483007299517
 21
-661.779425398124
 31
0.0
  0
LINE
  5
D0B7
330
18
100
AcDbEntity
  8
01
100
AcDbLine
 10
485.9483007299517
 20
-661.779425398124
 30
0.0
 11
486.3171895849322
 21
-661.3337161696084
 31
0.0
  0
LINE
  5
D0B8
330
18
100
AcDbEntity
  8
01
100
AcDbLine
 10
486.3171895849322
 20
-661.3337161696084
 30
0.0
 11
486.6439260351275
 21
-660.8567264235146
 31
0.0
  0
LINE
  5
D0B9
330
18
100
AcDbEntity
  8
01
100
AcDbLine
 10
486.6439260351275
 20
-660.8567264235146
 30
0.0
 11
486.9353879797076
 21
-660.3564212477334
 31
0.0
  0
LINE
  5
D0BA
330
18
100
AcDbEntity
  8
01
100
AcDbLine
 10
486.9353879797076
 20
-660.3564212477334
 30
0.0
 11
487.1962636816119
 21
-659.8391025221474
 31
0.0
  0
LINE
  5
D0BB
330
18
100
AcDbEntity
  8
01
100
AcDbLine
 10
487.1962636816119
 20
-659.8391025221474
 30
0.0
 11
487.4302495824908
 21
-659.3099734938271
 31
0.0
  0
LINE
  5
D0BC
330
18
100
AcDbEntity
  8
01
100
AcDbLine
 10
487.4302495824908
 20
-659.3099734938271
 30
0.0
 11
487.6406072485064
 21
-658.7714145338662
 31
0.0
  0
LINE
  5
D0BD
330
18
100
AcDbEntity
  8
01
100
AcDbLine
 10
487.6406072485064
 20
-658.7714145338662
 30
0.0
 11
487.8302625524615
 21
-658.2244479811318
 31
0.0
  0
LINE
  5
D0BE
330
18
100
AcDbEntity
  8
01
100
AcDbLine
 10
487.8302625524615
 20
-658.2244479811318
 30
0.0
 11
488.0011571752642
 21
-657.6707065260537
 31
0.0
  0
LINE
  5
D0BF
330
18
100
AcDbEntity
  8
01
100
AcDbLine
 10
488.0011571752642
 20
-657.6707065260537
 30
0.0
 11
488.1546224462603
 21
-657.1121738112099
 31
0.0
  0
LINE
  5
D0C0
330
18
100
AcDbEntity
  8
01
100
AcDbLine
 10
488.1546224462603
 20
-657.1121738112099
 30
0.0
 11
488.291940103731
 21
-656.5497348463662
 31
0.0
  0
LINE
  5
D0C1
330
18
100
AcDbEntity
  8
01
100
AcDbLine
 10
488.291940103731
 20
-656.5497348463662
 30
0.0
 11
488.4143422948931
 21
-655.983526960624
 31
0.0
  0
LINE
  5
D0C2
330
18
100
AcDbEntity
  8
01
100
AcDbLine
 10
488.4143422948931
 20
-655.983526960624
 30
0.0
 11
488.5227292883013
 21
-655.4142978346474
 31
0.0
  0
LINE
  5
D0C3
330
18
100
AcDbEntity
  8
01
100
AcDbLine
 10
488.5227292883013
 20
-655.4142978346474
 30
0.0
 11
488.6176961767291
 21
-654.8432071364052
 31
0.0
  0
LINE
  5
D0C4
330
18
100
AcDbEntity
  8
01
100
AcDbLine
 10
488.6176961767291
 20
-654.8432071364052
 30
0.0
 11
488.6998494970416
 21
-654.2706973707802
 31
0.0
  0
LINE
  5
D0C5
330
18
100
AcDbEntity
  8
01
100
AcDbLine
 10
488.6998494970416
 20
-654.2706973707802
 30
0.0
 11
488.7698034154986
 21
-653.6964633619912
 31
0.0
  0
LINE
  5
D0C6
330
18
100
AcDbEntity
  8
01
100
AcDbLine
 10
488.7698034154986
 20
-653.6964633619912
 30
0.0
 11
488.8280118810748
 21
-653.1205661451943
 31
0.0
  0
LINE
  5
D0C7
330
18
100
AcDbEntity
  8
01
100
AcDbLine
 10
488.8280118810748
 20
-653.1205661451943
 30
0.0
 11
488.8747419225787
 21
-652.5434634840615
 31
0.0
  0
LINE
  5
D0C8
330
18
100
AcDbEntity
  8
01
100
AcDbLine
 10
488.8747419225787
 20
-652.5434634840615
 30
0.0
 11
488.910836588106
 21
-651.9538638746865
 31
0.0
  0
LINE
  5
D0C9
330
18
100
AcDbEntity
  8
01
100
AcDbLine
 10
488.5006841528033
 20
-650.8441684401162
 30
0.0
 11
488.4837850439166
 21
-650.8261172926552
 31
0.0
  0
LINE
  5
D0CA
330
18
100
AcDbEntity
  8
01
100
AcDbLine
 10
488.4837850439166
 20
-650.8261172926552
 30
0.0
 11
488.2668241369341
 21
-650.5455997145302
 31
0.0
  0
LINE
  5
D0CB
330
18
100
AcDbEntity
  8
01
100
AcDbLine
 10
488.910836588106
 20
-651.9538638746865
 30
0.0
 11
488.8988965856646
 21
-651.6747806227334
 31
0.0
  0
LINE
  5
D0CC
330
18
100
AcDbEntity
  8
01
100
AcDbLine
 10
488.8988965856646
 20
-651.6747806227334
 30
0.0
 11
488.8358739721392
 21
-651.4026096022255
 31
0.0
  0
LINE
  5
D0CD
330
18
100
AcDbEntity
  8
01
100
AcDbLine
 10
488.8358739721392
 20
-651.4026096022255
 30
0.0
 11
488.6874402868365
 21
-651.0862186110146
 31
0.0
  0
TEXT
  5
D0CE
330
18
100
AcDbEntity
  8
01
  6
CONTINUOUS
100
AcDbText
 10
625.6247041109548
 20
-666.9745261759982
 30
0.0
 40
3.5
  1
材質：ポリアセタール
100
AcDbText
  0
LINE
  5
D0CF
330
18
100
AcDbEntity
  8
01
100
AcDbLine
 10
689.080073483278
 20
-615.4612341349622
 30
0.0
 11
688.8284310549395
 21
-615.209601951172
 31
0.0
  0
LINE
  5
D0D0
330
18
100
AcDbEntity
  8
01
100
AcDbLine
 10
688.8284310549395
 20
-615.209601951172
 30
0.0
 11
688.5767890922623
 21
-614.9579697673818
 31
0.0
  0
LINE
  5
D0D1
330
18
100
AcDbEntity
  8
01
100
AcDbLine
 10
683.5766825675862
 20
-614.9579697673818
 30
0.0
 11
683.325050383796
 21
-615.209601951172
 31
0.0
  0
LINE
  5
D0D2
330
18
100
AcDbEntity
  8
01
100
AcDbLine
 10
683.325050383796
 20
-615.209601951172
 30
0.0
 11
683.0734191313284
 21
-615.4612341349622
 31
0.0
  0
LINE
  5
D0DB
330
18
100
AcDbEntity
  8
1CENTER
100
AcDbLine
 10
798.2507057585052
 20
-749.091168012507
 30
0.0
 11
765.0902618585052
 21
-749.091168012507
 31
0.0
  0
LINE
  5
D0DC
330
18
100
AcDbEntity
  8
1HATCH
100
AcDbLine
 10
796.6490307585052
 20
-747.441168012507
 30
0.0
 11
768.2990307585052
 21
-747.441168012507
 31
0.0
  0
LINE
  5
D0DD
330
18
100
AcDbEntity
  8
1HATCH
100
AcDbLine
 10
796.6490307585052
 20
-750.7411680125069
 30
0.0
 11
768.2990307585052
 21
-750.7411680125069
 31
0.0
  0
LINE
  5
D0DF
330
18
100
AcDbEntity
  8
1HATCH
100
AcDbLine
 10
796.2990307585052
 20
-747.091168012507
 30
0.0
 11
796.2990307585052
 21
-751.091168012507
 31
0.0
  0
LINE
  5
D0E0
330
18
100
AcDbEntity
  8
1HATCH
100
AcDbLine
 10
766.9490307685053
 20
-746.091168012507
 30
0.0
 11
766.9490307685053
 21
-752.091168012507
 31
0.0
  0
LINE
  5
D0E1
330
18
100
AcDbEntity
  8
1HATCH
100
AcDbLine
 10
767.9490309325793
 20
-751.091168012507
 30
0.0
 11
768.2990307585052
 21
-750.7411680125069
 31
0.0
  0
LINE
  5
D0E2
330
18
100
AcDbEntity
  8
1HATCH
100
AcDbLine
 10
768.2990307585052
 20
-747.441168012507
 30
0.0
 11
767.9490309325793
 21
-747.091168012507
 31
0.0
  0
LINE
  5
D0E3
330
18
100
AcDbEntity
  8
01
100
AcDbLine
 10
767.9490309325793
 20
-736.1716129270504
 30
0.0
 11
796.2990307585053
 21
-736.1716129270504
 31
0.0
  0
LINE
  5
D0E4
330
18
100
AcDbEntity
  8
01
100
AcDbLine
 10
796.2990307585053
 20
-736.1716129270504
 30
0.0
 11
796.6490307585052
 21
-735.8216129270503
 31
0.0
  0
LINE
  5
D0E5
330
18
100
AcDbEntity
  8
01
100
AcDbLine
 10
796.6490307585052
 20
-735.8216129270503
 30
0.0
 11
796.6490307585052
 21
-732.5216129270505
 31
0.0
  0
LINE
  5
D0E6
330
18
100
AcDbEntity
  8
01
100
AcDbLine
 10
796.6490307585052
 20
-732.5216129270505
 30
0.0
 11
796.2990307585053
 21
-732.1716129270504
 31
0.0
  0
LINE
  5
D0E7
330
18
100
AcDbEntity
  8
01
100
AcDbLine
 10
796.2990307585053
 20
-732.1716129270504
 30
0.0
 11
767.9490309325793
 21
-732.1716129270504
 31
0.0
  0
LINE
  5
D0E8
330
18
100
AcDbEntity
  8
01
100
AcDbLine
 10
767.9490309325793
 20
-732.1716129270504
 30
0.0
 11
766.9490307685053
 21
-731.1716129270504
 31
0.0
  0
LINE
  5
D0E9
330
18
100
AcDbEntity
  8
01
100
AcDbLine
 10
766.9490307685053
 20
-731.1716129270504
 30
0.0
 11
766.6490307585052
 21
-731.1716129270504
 31
0.0
  0
LINE
  5
D0EA
330
18
100
AcDbEntity
  8
01
100
AcDbLine
 10
766.6490307585052
 20
-731.1716129270504
 30
0.0
 11
766.6490307585052
 21
-737.1716129270504
 31
0.0
  0
LINE
  5
D0EB
330
18
100
AcDbEntity
  8
01
100
AcDbLine
 10
766.6490307585052
 20
-737.1716129270504
 30
0.0
 11
766.9490308585052
 21
-737.1716129270504
 31
0.0
  0
LINE
  5
D0EC
330
18
100
AcDbEntity
  8
01
100
AcDbLine
 10
766.9490308585052
 20
-737.1716129270504
 30
0.0
 11
767.9490309325793
 21
-736.1716129270504
 31
0.0
  0
LINE
  5
D0ED
330
18
100
AcDbEntity
  8
01
100
AcDbLine
 10
767.9490309325793
 20
-751.091168012507
 30
0.0
 11
796.2990307585053
 21
-751.091168012507
 31
0.0
  0
LINE
  5
D0EE
330
18
100
AcDbEntity
  8
01
100
AcDbLine
 10
796.2990307585053
 20
-751.091168012507
 30
0.0
 11
796.6490307585052
 21
-750.7411680125068
 31
0.0
  0
LINE
  5
D0EF
330
18
100
AcDbEntity
  8
01
100
AcDbLine
 10
796.6490307585052
 20
-750.7411680125068
 30
0.0
 11
796.6490307585052
 21
-747.441168012507
 31
0.0
  0
LINE
  5
D0F0
330
18
100
AcDbEntity
  8
01
100
AcDbLine
 10
796.6490307585052
 20
-747.441168012507
 30
0.0
 11
796.2990307585053
 21
-747.091168012507
 31
0.0
  0
LINE
  5
D0F1
330
18
100
AcDbEntity
  8
01
100
AcDbLine
 10
796.2990307585053
 20
-747.091168012507
 30
0.0
 11
767.9490309325793
 21
-747.091168012507
 31
0.0
  0
LINE
  5
D0F2
330
18
100
AcDbEntity
  8
01
100
AcDbLine
 10
767.9490309325793
 20
-747.091168012507
 30
0.0
 11
766.9490307685053
 21
-746.091168012507
 31
0.0
  0
LINE
  5
D0F3
330
18
100
AcDbEntity
  8
01
100
AcDbLine
 10
766.9490307685053
 20
-746.091168012507
 30
0.0
 11
766.6490307585052
 21
-746.091168012507
 31
0.0
  0
LINE
  5
D0F4
330
18
100
AcDbEntity
  8
01
100
AcDbLine
 10
766.6490307585052
 20
-746.091168012507
 30
0.0
 11
766.6490307585052
 21
-752.091168012507
 31
0.0
  0
LINE
  5
D0F5
330
18
100
AcDbEntity
  8
01
100
AcDbLine
 10
766.6490307585052
 20
-752.091168012507
 30
0.0
 11
766.9490308585052
 21
-752.091168012507
 31
0.0
  0
LINE
  5
D0F6
330
18
100
AcDbEntity
  8
01
100
AcDbLine
 10
766.9490308585052
 20
-752.091168012507
 30
0.0
 11
767.9490309325793
 21
-751.091168012507
 31
0.0
  0
LINE
  5
D0F7
330
18
100
AcDbEntity
  8
1DIM
100
AcDbLine
 10
766.6490307585052
 20
-731.1716129270504
 30
0.0
 11
766.6490307585052
 21
-727.0504157350507
 31
0.0
  0
LINE
  5
D0F8
330
18
100
AcDbEntity
  8
1DIM
100
AcDbLine
 10
796.6490307585052
 20
-732.5216129270503
 30
0.0
 11
796.6490307585052
 21
-727.0504157350507
 31
0.0
  0
LINE
  5
D0F9
330
18
100
AcDbEntity
  8
1DIM
100
AcDbLine
 10
768.6490307585052
 20
-728.0504157350507
 30
0.0
 11
794.6490307585052
 21
-728.0504157350507
 31
0.0
  0
LINE
  5
D0FE
330
18
100
AcDbEntity
  8
1DIM
100
AcDbLine
 10
765.8616519023442
 20
-732.3494769755063
 30
0.0
 11
762.2935406961743
 21
-723.4225136250599
 31
0.0
  0
LINE
  5
D0FF
330
18
100
AcDbEntity
  8
1DIM
100
AcDbLine
 10
762.2935406961743
 20
-723.4225136250599
 30
0.0
 11
759.5935406961743
 21
-723.4225136250599
 31
0.0
  0
TEXT
  5
D100
330
18
100
AcDbEntity
  8
1DIM
  6
CONTINUOUS
100
AcDbText
 10
750.2602073628409
 20
-722.72251362506
 30
0.0
 40
3.5
  1
SUS
100
AcDbText
  0
LINE
  5
D101
330
18
100
AcDbEntity
  8
1DIM
100
AcDbLine
 10
700.1679926307912
 20
-762.3445231758192
 30
0.0
 11
726.6030184586489
 21
-762.3445231758192
 31
0.0
  0
LINE
  5
D102
330
18
100
AcDbEntity
  8
1DIM
100
AcDbLine
 10
701.6617687235689
 20
-712.3445233799545
 30
0.0
 11
726.6030184586489
 21
-712.3445233799545
 31
0.0
  0
LINE
  5
D103
330
18
100
AcDbEntity
  8
1DIM
100
AcDbLine
 10
725.6030184586489
 20
-760.3445231758192
 30
0.0
 11
725.6030184586489
 21
-714.3445233799545
 31
0.0
  0
LINE
  5
D107
330
18
100
AcDbEntity
  8
1DIM
100
AcDbLine
 10
461.4489220194705
 20
-706.8464522342371
 30
0.0
 11
461.4489220194705
 21
-751.076987034647
 31
0.0
1001
ACAD
1000
DSTYLE
1002
{
1070
     3
1000
φ<>
1002
}
  0
LINE
  5
D108
330
18
100
AcDbEntity
  8
1DIM
100
AcDbLine
 10
506.4489220194705
 20
-706.8464522342365
 30
0.0
 11
506.4489220194705
 21
-751.076987034647
 31
0.0
1001
ACAD
1000
DSTYLE
1002
{
1070
     3
1000
φ<>
1002
}
  0
LINE
  5
D109
330
18
100
AcDbEntity
  8
1DIM
100
AcDbLine
 10
463.4489220194705
 20
-750.076987034647
 30
0.0
 11
504.4489220194705
 21
-750.076987034647
 31
0.0
1001
ACAD
1000
DSTYLE
1002
{
1070
     3
1000
φ<>
1002
}
  0
LINE
  5
D10D
330
18
100
AcDbEntity
  8
1DIM
100
AcDbLine
 10
547.6021039920831
 20
-712.3445125795786
 30
0.0
 11
547.6021039920831
 21
-751.076987034647
 31
0.0
1001
ACAD
1000
DSTYLE
1002
{
1070
    45
1040
0.5
1002
}
  0
LINE
  5
D10E
330
18
100
AcDbEntity
  8
1DIM
100
AcDbLine
 10
575.3021058994314
 20
-729.3464522342366
 30
0.0
 11
575.3021058994314
 21
-751.076987034647
 31
0.0
1001
ACAD
1000
DSTYLE
1002
{
1070
    45
1040
0.5
1002
}
  0
LINE
  5
D10F
330
18
100
AcDbEntity
  8
1DIM
100
AcDbLine
 10
549.6021039920831
 20
-750.076987034647
 30
0.0
 11
573.3021058994314
 21
-750.076987034647
 31
0.0
1001
ACAD
1000
DSTYLE
1002
{
1070
    45
1040
0.5
1002
}
  0
LINE
  5
D113
330
18
100
AcDbEntity
  8
1DIM
100
AcDbLine
 10
568.1021058994315
 20
-706.846452234237
 30
0.0
 11
568.1021058994315
 21
-741.6897431294343
 31
0.0
1001
ACAD
1000
DSTYLE
1002
{
1070
    45
1040
0.5
1002
}
  0
LINE
  5
D114
330
18
100
AcDbEntity
  8
1DIM
100
AcDbLine
 10
575.3021058994314
 20
-729.3464522342366
 30
0.0
 11
575.3021058994314
 21
-741.6897431294343
 31
0.0
1001
ACAD
1000
DSTYLE
1002
{
1070
    45
1040
0.5
1002
}
  0
LINE
  5
D115
330
18
100
AcDbEntity
  8
1DIM
100
AcDbLine
 10
570.1021058994315
 20
-740.6897431294343
 30
0.0
 11
573.3021058994314
 21
-740.6897431294343
 31
0.0
1001
ACAD
1000
DSTYLE
1002
{
1070
    45
1040
0.5
1002
}
  0
LINE
  5
D11A
330
18
100
AcDbEntity
  8
1DIM
100
AcDbLine
 10
554.3474845737079
 20
-700.8144245896709
 30
0.0
 11
542.7418814706634
 21
-679.2244628722416
 31
0.0
  0
LINE
  5
D11B
330
18
100
AcDbEntity
  8
1DIM
100
AcDbLine
 10
542.7418814706634
 20
-679.2244628722416
 30
0.0
 11
503.0585481373301
 21
-679.2244628722416
 31
0.0
  0
TEXT
  5
D11C
330
18
100
AcDbEntity
  8
1DIM
  6
CONTINUOUS
100
AcDbText
 10
519.7418814706633
 20
-672.6911295389082
 30
0.0
 40
3.5
  1
材質：真鍮
100
AcDbText
  0
TEXT
  5
D11D
330
18
100
AcDbEntity
  8
1DIM
  6
CONTINUOUS
100
AcDbText
 10
502.9418814706634
 20
-678.5244628722415
 30
0.0
 40
3.5
  1
仕上げ：各種仕上げ
100
AcDbText
  0
LINE
  5
D11F
330
18
100
AcDbEntity
  8
1DIM
100
AcDbLine
 10
572.0696195698731
 20
-684.1272951406023
 30
0.0
 11
562.3469811262646
 21
-664.1087332742227
 31
0.0
  0
LINE
  5
D120
330
18
100
AcDbEntity
  8
1DIM
100
AcDbLine
 10
562.3469811262646
 20
-664.1087332742227
 30
0.0
 11
522.6636477929312
 21
-664.1087332742227
 31
0.0
  0
TEXT
  5
D121
330
18
100
AcDbEntity
  8
1DIM
  6
CONTINUOUS
100
AcDbText
 10
539.3469811262645
 20
-657.5753999408893
 30
0.0
 40
3.5
  1
材質：真鍮
100
AcDbText
  0
TEXT
  5
D122
330
18
100
AcDbEntity
  8
1DIM
  6
CONTINUOUS
100
AcDbText
 10
522.5469811262645
 20
-663.4087332742226
 30
0.0
 40
3.5
  1
仕上げ：各種仕上げ
100
AcDbText
  0
LINE
  5
D124
330
18
100
AcDbEntity
  8
1DIM
100
AcDbLine
 10
691.8945666847113
 20
-709.3831178082561
 30
0.0
 11
715.1431865604388
 21
-684.6492697038308
 31
0.0
  0
LINE
  5
D125
330
18
100
AcDbEntity
  8
1DIM
100
AcDbLine
 10
715.1431865604388
 20
-684.6492697038308
 30
0.0
 11
762.4098532271055
 21
-684.6492697038308
 31
0.0
  0
TEXT
  5
D126
330
18
100
AcDbEntity
  8
1DIM
  6
CONTINUOUS
100
AcDbText
 10
717.6098532271055
 20
-678.1159363704974
 30
0.0
 40
3.5
  1
材質：亜鉛ダイキャスト
100
AcDbText
  0
TEXT
  5
D127
330
18
100
AcDbEntity
  8
1DIM
  6
CONTINUOUS
100
AcDbText
 10
717.7265198937722
 20
-683.9492697038307
 30
0.0
 40
3.5
  1
仕上げ：クローム
100
AcDbText
  0
LINE
  5
D128
330
18
100
AcDbEntity
  8
1DIM
100
AcDbLine
 10
651.6885838182202
 20
-690.110596574871
 30
0.0
 11
651.6885838182202
 21
-678.8267240896014
 31
0.0
1001
ACAD
1000
DSTYLE
1002
{
1070
   271
1070
     1
1002
}
  0
LINE
  5
D129
330
18
100
AcDbEntity
  8
1DIM
100
AcDbLine
 10
628.38858381822
 20
-688.3445233799545
 30
0.0
 11
628.38858381822
 21
-678.8267240896014
 31
0.0
1001
ACAD
1000
DSTYLE
1002
{
1070
   271
1070
     1
1002
}
  0
LINE
  5
D12A
330
18
100
AcDbEntity
  8
1DIM
100
AcDbLine
 10
649.6885838182202
 20
-679.8267240896014
 30
0.0
 11
630.38858381822
 21
-679.8267240896014
 31
0.0
1001
ACAD
1000
DSTYLE
1002
{
1070
   271
1070
     1
1002
}
  0
LINE
  5
D12E
330
18
100
AcDbEntity
  8
1DIM
100
AcDbLine
 10
674.5751374307918
 20
-706.8445233799545
 30
0.0
 11
674.5751374307918
 21
-678.8267240896014
 31
0.0
1001
ACAD
1000
DSTYLE
1002
{
1070
     3
1000
φ<>
1002
}
  0
LINE
  5
D12F
330
18
100
AcDbEntity
  8
1DIM
100
AcDbLine
 10
711.5751374307918
 20
-706.8445233799545
 30
0.0
 11
711.5751374307918
 21
-678.8267240896014
 31
0.0
1001
ACAD
1000
DSTYLE
1002
{
1070
     3
1000
φ<>
1002
}
  0
LINE
  5
D130
330
18
100
AcDbEntity
  8
1DIM
100
AcDbLine
 10
676.5751374307918
 20
-679.8267240896014
 30
0.0
 11
709.5751374307918
 21
-679.8267240896014
 31
0.0
1001
ACAD
1000
DSTYLE
1002
{
1070
     3
1000
φ<>
1002
}
  0
TEXT
  5
D134
330
18
100
AcDbEntity
  8
1TEXT
  6
CONTINUOUS
100
AcDbText
 10
461.9823923494529
 20
-769.7488047767073
 30
0.0
 40
4.0
  1
カギ違い数　：1000通り
100
AcDbText
  0
TEXT
  5
D135
330
18
100
AcDbEntity
  8
1TEXT
  6
CONTINUOUS
100
AcDbText
 10
462.1157256827863
 20
-776.4154714433739
 30
0.0
 40
4.0
  1
同一キー　　：対応可
100
AcDbText
  0
TEXT
  5
D136
330
18
100
AcDbEntity
  8
1TEXT
  6
CONTINUOUS
100
AcDbText
 10
462.2490590161196
 20
-783.0821381100405
 30
0.0
 40
4.0
  1
マスターキー：対応不可
100
AcDbText
  0
LINE
  5
D138
330
18
100
AcDbEntity
  8
1DIM
100
AcDbLine
 10
632.1234128177745
 20
-721.2914139355971
 30
-0.0000000000562575
 11
639.3401697946024
 21
-744.6193037338983
 31
-0.0000000000562575
  0
LINE
  5
D139
330
18
100
AcDbEntity
  8
1DIM
100
AcDbLine
 10
639.3401697946024
 20
-744.6193037338983
 30
-0.0000000000562575
 11
679.0235031279358
 21
-744.6193037338983
 31
-0.0000000000562575
  0
TEXT
  5
D13A
330
18
100
AcDbEntity
  8
1DIM
  6
CONTINUOUS
100
AcDbText
 10
641.8068364612691
 20
-738.0859704005649
 30
-0.0000000000562575
 40
3.5
  1
材質：真鍮
100
AcDbText
  0
TEXT
  5
D13B
330
18
100
AcDbEntity
  8
1DIM
  6
CONTINUOUS
100
AcDbText
 10
641.9235031279358
 20
-743.9193037338982
 30
-0.0000000000562575
 40
3.5
  1
仕上げ：各種仕上げ
100
AcDbText
  0
LINE
  5
D13D
330
18
100
AcDbEntity
  8
1DIM
100
AcDbLine
 10
606.1671110692762
 20
-693.6655374381888
 30
0.0
 11
625.1580374442881
 21
-667.6745261759983
 31
0.0
  0
LINE
  5
D13E
330
18
100
AcDbEntity
  8
0
  6
BYBLOCK
100
AcDbLine
 10
768.6490307585052
 20
-728.5863141150508
 30
0.0
 11
766.6490307585052
 21
-728.0504157350507
 31
0.0
  0
LINE
  5
D13F
330
18
100
AcDbEntity
  8
0
  6
BYBLOCK
100
AcDbLine
 10
766.6490307585052
 20
-728.0504157350507
 30
0.0
 11
768.6490307585052
 21
-727.5145173550507
 31
0.0
  0
LINE
  5
D140
330
18
100
AcDbEntity
  8
0
  6
BYBLOCK
100
AcDbLine
 10
766.6490307585052
 20
-728.0504157350507
 30
0.0
 11
768.6490307585052
 21
-728.0504157350507
 31
0.0
  0
LINE
  5
D141
330
18
100
AcDbEntity
  8
0
  6
BYBLOCK
100
AcDbLine
 10
794.6490307585052
 20
-727.5145173550507
 30
0.0
 11
796.6490307585052
 21
-728.0504157350507
 31
0.0
  0
LINE
  5
D142
330
18
100
AcDbEntity
  8
0
  6
BYBLOCK
100
AcDbLine
 10
796.6490307585052
 20
-728.0504157350507
 30
0.0
 11
794.6490307585052
 21
-728.5863141150508
 31
0.0
  0
LINE
  5
D143
330
18
100
AcDbEntity
  8
0
  6
BYBLOCK
100
AcDbLine
 10
796.6490307585052
 20
-728.0504157350507
 30
0.0
 11
794.6490307585052
 21
-728.0504157350507
 31
0.0
  0
TEXT
  5
D144
330
18
100
AcDbEntity
  8
1DIM
  6
CONTINUOUS
100
AcDbText
 10
778.9511140918386
 20
-727.3504157350507
 30
0.0
 40
3.5
  1
30
100
AcDbText
  0
LINE
  5
D145
330
18
100
AcDbEntity
  8
0
  6
BYBLOCK
100
AcDbLine
 10
766.3592724422275
 20
-732.1505778252495
 30
0.0
 11
766.60395364342
 21
-734.2066221300905
 31
0.0
  0
LINE
  5
D146
330
18
100
AcDbEntity
  8
0
  6
BYBLOCK
100
AcDbLine
 10
766.60395364342
 20
-734.2066221300905
 30
0.0
 11
765.364031362461
 21
-732.5483761257631
 31
0.0
  0
LINE
  5
D147
330
18
100
AcDbEntity
  8
0
  6
BYBLOCK
100
AcDbLine
 10
766.60395364342
 20
-734.2066221300905
 30
0.0
 11
765.8616519023442
 21
-732.3494769755063
 31
0.0
  0
LINE
  5
D148
330
18
100
AcDbEntity
  8
0
  6
BYBLOCK
100
AcDbLine
 10
726.1389168386489
 20
-760.3445231758192
 30
0.0
 11
725.6030184586489
 21
-762.3445231758192
 31
0.0
  0
LINE
  5
D149
330
18
100
AcDbEntity
  8
0
  6
BYBLOCK
100
AcDbLine
 10
725.6030184586489
 20
-762.3445231758192
 30
0.0
 11
725.0671200786488
 21
-760.3445231758192
 31
0.0
  0
LINE
  5
D14A
330
18
100
AcDbEntity
  8
0
  6
BYBLOCK
100
AcDbLine
 10
725.6030184586489
 20
-762.3445231758192
 30
0.0
 11
725.6030184586489
 21
-760.3445231758192
 31
0.0
  0
LINE
  5
D14B
330
18
100
AcDbEntity
  8
0
  6
BYBLOCK
100
AcDbLine
 10
725.0671200786488
 20
-714.3445233799545
 30
0.0
 11
725.6030184586489
 21
-712.3445233799545
 31
0.0
  0
LINE
  5
D14C
330
18
100
AcDbEntity
  8
0
  6
BYBLOCK
100
AcDbLine
 10
725.6030184586489
 20
-712.3445233799545
 30
0.0
 11
726.1389168386489
 21
-714.3445233799545
 31
0.0
  0
LINE
  5
D14D
330
18
100
AcDbEntity
  8
0
  6
BYBLOCK
100
AcDbLine
 10
725.6030184586489
 20
-712.3445233799545
 30
0.0
 11
725.6030184586489
 21
-714.3445233799545
 31
0.0
  0
TEXT
  5
D14E
330
18
100
AcDbEntity
  8
1DIM
  6
CONTINUOUS
100
AcDbText
 10
724.9030184586491
 20
-758.6629260556647
 30
0.0
 40
3.5
  1
ハンドル取付位置=50
 50
90.0
100
AcDbText
  0
LINE
  5
D14F
330
18
100
AcDbEntity
  8
0
  6
BYBLOCK
100
AcDbLine
 10
463.4489220194705
 20
-750.612885414647
 30
0.0
 11
461.4489220194705
 21
-750.076987034647
 31
0.0
  0
LINE
  5
D150
330
18
100
AcDbEntity
  8
0
  6
BYBLOCK
100
AcDbLine
 10
461.4489220194705
 20
-750.076987034647
 30
0.0
 11
463.4489220194705
 21
-749.541088654647
 31
0.0
  0
LINE
  5
D151
330
18
100
AcDbEntity
  8
0
  6
BYBLOCK
100
AcDbLine
 10
461.4489220194705
 20
-750.076987034647
 30
0.0
 11
463.4489220194705
 21
-750.076987034647
 31
0.0
  0
LINE
  5
D152
330
18
100
AcDbEntity
  8
0
  6
BYBLOCK
100
AcDbLine
 10
504.4489220194705
 20
-749.541088654647
 30
0.0
 11
506.4489220194705
 21
-750.076987034647
 31
0.0
  0
LINE
  5
D153
330
18
100
AcDbEntity
  8
0
  6
BYBLOCK
100
AcDbLine
 10
506.4489220194705
 20
-750.076987034647
 30
0.0
 11
504.4489220194705
 21
-750.612885414647
 31
0.0
  0
LINE
  5
D154
330
18
100
AcDbEntity
  8
0
  6
BYBLOCK
100
AcDbLine
 10
506.4489220194705
 20
-750.076987034647
 30
0.0
 11
504.4489220194705
 21
-750.076987034647
 31
0.0
  0
TEXT
  5
D155
330
18
100
AcDbEntity
  8
1DIM
  6
CONTINUOUS
100
AcDbText
 10
478.4655886861372
 20
-749.3745564790916
 30
0.0
 40
3.5
  1
φ45
100
AcDbText
1001
ACAD
1000
DSTYLE
1002
{
1070
     3
1000
φ<>
1002
}
  0
LINE
  5
D156
330
18
100
AcDbEntity
  8
0
  6
BYBLOCK
100
AcDbLine
 10
549.6021039920831
 20
-750.612885414647
 30
0.0
 11
547.6021039920831
 21
-750.076987034647
 31
0.0
  0
LINE
  5
D157
330
18
100
AcDbEntity
  8
0
  6
BYBLOCK
100
AcDbLine
 10
547.6021039920831
 20
-750.076987034647
 30
0.0
 11
549.6021039920831
 21
-749.541088654647
 31
0.0
  0
LINE
  5
D158
330
18
100
AcDbEntity
  8
0
  6
BYBLOCK
100
AcDbLine
 10
547.6021039920831
 20
-750.076987034647
 30
0.0
 11
549.6021039920831
 21
-750.076987034647
 31
0.0
  0
LINE
  5
D159
330
18
100
AcDbEntity
  8
0
  6
BYBLOCK
100
AcDbLine
 10
573.3021058994314
 20
-749.541088654647
 30
0.0
 11
575.3021058994314
 21
-750.076987034647
 31
0.0
  0
LINE
  5
D15A
330
18
100
AcDbEntity
  8
0
  6
BYBLOCK
100
AcDbLine
 10
575.3021058994314
 20
-750.076987034647
 30
0.0
 11
573.3021058994314
 21
-750.612885414647
 31
0.0
  0
LINE
  5
D15B
330
18
100
AcDbEntity
  8
0
  6
BYBLOCK
100
AcDbLine
 10
575.3021058994314
 20
-750.076987034647
 30
0.0
 11
573.3021058994314
 21
-750.076987034647
 31
0.0
  0
TEXT
  5
D15C
330
18
100
AcDbEntity
  8
1DIM
  6
CONTINUOUS
100
AcDbText
 10
556.2021049457572
 20
-749.3745564790916
 30
0.0
 40
3.5
  1
27.5
100
AcDbText
1001
ACAD
1000
DSTYLE
1002
{
1070
    45
1040
0.5
1002
}
  0
LINE
  5
D15D
330
18
100
AcDbEntity
  8
0
  6
BYBLOCK
100
AcDbLine
 10
570.1021058994315
 20
-741.2256415094344
 30
0.0
 11
568.1021058994315
 21
-740.6897431294343
 31
0.0
  0
LINE
  5
D15E
330
18
100
AcDbEntity
  8
0
  6
BYBLOCK
100
AcDbLine
 10
568.1021058994315
 20
-740.6897431294343
 30
0.0
 11
570.1021058994315
 21
-740.1538447494343
 31
0.0
  0
LINE
  5
D15F
330
18
100
AcDbEntity
  8
0
  6
BYBLOCK
100
AcDbLine
 10
568.1021058994315
 20
-740.6897431294343
 30
0.0
 11
570.1021058994315
 21
-740.6897431294343
 31
0.0
  0
LINE
  5
D160
330
18
100
AcDbEntity
  8
0
  6
BYBLOCK
100
AcDbLine
 10
573.3021058994314
 20
-740.1538447494343
 30
0.0
 11
575.3021058994314
 21
-740.6897431294343
 31
0.0
  0
LINE
  5
D161
330
18
100
AcDbEntity
  8
0
  6
BYBLOCK
100
AcDbLine
 10
575.3021058994314
 20
-740.6897431294343
 30
0.0
 11
573.3021058994314
 21
-741.2256415094344
 31
0.0
  0
LINE
  5
D162
330
18
100
AcDbEntity
  8
0
  6
BYBLOCK
100
AcDbLine
 10
575.3021058994314
 20
-740.6897431294343
 30
0.0
 11
573.3021058994314
 21
-740.6897431294343
 31
0.0
  0
TEXT
  5
D163
330
18
100
AcDbEntity
  8
1DIM
  6
CONTINUOUS
100
AcDbText
 10
570.5354392327648
 20
-739.9897431294343
 30
0.0
 40
3.5
  1
7
100
AcDbText
1001
ACAD
1000
DSTYLE
1002
{
1070
    45
1040
0.5
1002
}
  0
LINE
  5
D164
330
18
100
AcDbEntity
  8
0
  6
BYBLOCK
100
AcDbLine
 10
554.8195078355138
 20
-700.5606902522218
 30
0.0
 11
555.2944340212846
 21
-702.5760394010682
 31
0.0
  0
LINE
  5
D165
330
18
100
AcDbEntity
  8
0
  6
BYBLOCK
100
AcDbLine
 10
555.2944340212846
 20
-702.5760394010682
 30
0.0
 11
553.875461311902
 21
-701.0681589271201
 31
0.0
  0
LINE
  5
D166
330
18
100
AcDbEntity
  8
0
  6
BYBLOCK
100
AcDbLine
 10
555.2944340212846
 20
-702.5760394010682
 30
0.0
 11
554.3474845737079
 21
-700.8144245896709
 31
0.0
  0
LINE
  5
D167
330
18
100
AcDbEntity
  8
0
  6
BYBLOCK
100
AcDbLine
 10
572.5516708092979
 20
-683.893171933176
 30
0.0
 11
572.9433792831471
 21
-685.9263348743101
 31
0.0
  0
LINE
  5
D168
330
18
100
AcDbEntity
  8
0
  6
BYBLOCK
100
AcDbLine
 10
572.9433792831471
 20
-685.9263348743101
 30
0.0
 11
571.5875683304483
 21
-684.3614183480288
 31
0.0
  0
LINE
  5
D169
330
18
100
AcDbEntity
  8
0
  6
BYBLOCK
100
AcDbLine
 10
572.9433792831471
 20
-685.9263348743101
 30
0.0
 11
572.0696195698731
 21
-684.1272951406023
 31
0.0
  0
LINE
  5
D16A
330
18
100
AcDbEntity
  8
0
  6
BYBLOCK
100
AcDbLine
 10
692.2850465052876
 20
-709.7501499368352
 30
0.0
 11
690.5247841204157
 21
-710.8404083511992
 31
0.0
  0
LINE
  5
D16B
330
18
100
AcDbEntity
  8
0
  6
BYBLOCK
100
AcDbLine
 10
690.5247841204157
 20
-710.8404083511992
 30
0.0
 11
691.504086864135
 21
-709.016085679677
 31
0.0
  0
LINE
  5
D16C
330
18
100
AcDbEntity
  8
0
  6
BYBLOCK
100
AcDbLine
 10
690.5247841204157
 20
-710.8404083511992
 30
0.0
 11
691.8945666847113
 21
-709.3831178082561
 31
0.0
  0
LINE
  5
D16D
330
18
100
AcDbEntity
  8
0
  6
BYBLOCK
100
AcDbLine
 10
649.6885838182202
 20
-679.2908257096013
 30
0.0
 11
651.6885838182202
 21
-679.8267240896014
 31
0.0
  0
LINE
  5
D16E
330
18
100
AcDbEntity
  8
0
  6
BYBLOCK
100
AcDbLine
 10
651.6885838182202
 20
-679.8267240896014
 30
0.0
 11
649.6885838182202
 21
-680.3626224696014
 31
0.0
  0
LINE
  5
D16F
330
18
100
AcDbEntity
  8
0
  6
BYBLOCK
100
AcDbLine
 10
651.6885838182202
 20
-679.8267240896014
 30
0.0
 11
649.6885838182202
 21
-679.8267240896014
 31
0.0
  0
LINE
  5
D170
330
18
100
AcDbEntity
  8
0
  6
BYBLOCK
100
AcDbLine
 10
630.38858381822
 20
-680.3626224696014
 30
0.0
 11
628.38858381822
 21
-679.8267240896014
 31
0.0
  0
LINE
  5
D171
330
18
100
AcDbEntity
  8
0
  6
BYBLOCK
100
AcDbLine
 10
628.38858381822
 20
-679.8267240896014
 30
0.0
 11
630.38858381822
 21
-679.2908257096013
 31
0.0
  0
LINE
  5
D172
330
18
100
AcDbEntity
  8
0
  6
BYBLOCK
100
AcDbLine
 10
628.38858381822
 20
-679.8267240896014
 30
0.0
 11
630.38858381822
 21
-679.8267240896014
 31
0.0
  0
TEXT
  5
D173
330
18
100
AcDbEntity
  8
1DIM
  6
CONTINUOUS
100
AcDbText
 10
635.1010193835186
 20
-679.1267240896013
 30
0.0
 40
3.5
  1
23.3
100
AcDbText
1001
ACAD
1000
DSTYLE
1002
{
1070
   271
1070
     1
1002
}
  0
LINE
  5
D174
330
18
100
AcDbEntity
  8
0
  6
BYBLOCK
100
AcDbLine
 10
676.5751374307918
 20
-680.3626224696014
 30
0.0
 11
674.5751374307918
 21
-679.8267240896014
 31
0.0
  0
LINE
  5
D175
330
18
100
AcDbEntity
  8
0
  6
BYBLOCK
100
AcDbLine
 10
674.5751374307918
 20
-679.8267240896014
 30
0.0
 11
676.5751374307918
 21
-679.2908257096013
 31
0.0
  0
LINE
  5
D176
330
18
100
AcDbEntity
  8
0
  6
BYBLOCK
100
AcDbLine
 10
674.5751374307918
 20
-679.8267240896014
 30
0.0
 11
676.5751374307918
 21
-679.8267240896014
 31
0.0
  0
LINE
  5
D177
330
18
100
AcDbEntity
  8
0
  6
BYBLOCK
100
AcDbLine
 10
709.5751374307918
 20
-679.2908257096013
 30
0.0
 11
711.5751374307918
 21
-679.8267240896014
 31
0.0
  0
LINE
  5
D178
330
18
100
AcDbEntity
  8
0
  6
BYBLOCK
100
AcDbLine
 10
711.5751374307918
 20
-679.8267240896014
 30
0.0
 11
709.5751374307918
 21
-680.3626224696014
 31
0.0
  0
LINE
  5
D179
330
18
100
AcDbEntity
  8
0
  6
BYBLOCK
100
AcDbLine
 10
711.5751374307918
 20
-679.8267240896014
 30
0.0
 11
709.5751374307918
 21
-679.8267240896014
 31
0.0
  0
TEXT
  5
D17A
330
18
100
AcDbEntity
  8
1DIM
  6
CONTINUOUS
100
AcDbText
 10
687.5918040974585
 20
-679.1267240896013
 30
0.0
 40
3.5
  1
φ37
100
AcDbText
1001
ACAD
1000
DSTYLE
1002
{
1070
     3
1000
φ<>
1002
}
  0
LINE
  5
D17B
330
18
100
AcDbEntity
  8
0
  6
BYBLOCK
100
AcDbLine
 10
631.6114532278099
 20
-721.4497946538994
 30
-0.0000000000562575
 11
631.5323279247682
 21
-719.3807547170917
 31
-0.0000000000562575
  0
LINE
  5
D17C
330
18
100
AcDbEntity
  8
0
  6
BYBLOCK
100
AcDbLine
 10
631.5323279247682
 20
-719.3807547170917
 30
-0.0000000000562575
 11
632.6353724077389
 21
-721.1330332172948
 31
-0.0000000000562575
  0
LINE
  5
D17D
330
18
100
AcDbEntity
  8
0
  6
BYBLOCK
100
AcDbLine
 10
631.5323279247682
 20
-719.3807547170917
 30
-0.0000000000562575
 11
632.1234128177745
 21
-721.2914139355971
 31
-0.0000000000562575
  0
LINE
  5
D17E
330
18
100
AcDbEntity
  8
0
  6
BYBLOCK
100
AcDbLine
 10
606.5998105287235
 20
-693.9816991871095
 30
0.0
 11
604.9871793481886
 21
-695.2803938199056
 31
0.0
  0
LINE
  5
D17F
330
18
100
AcDbEntity
  8
0
  6
BYBLOCK
100
AcDbLine
 10
604.9871793481886
 20
-695.2803938199056
 30
0.0
 11
605.7344116098288
 21
-693.3493756892681
 31
0.0
  0
LINE
  5
D180
330
18
100
AcDbEntity
  8
0
  6
BYBLOCK
100
AcDbLine
 10
604.9871793481886
 20
-695.2803938199056
 30
0.0
 11
606.1671110692762
 21
-693.6655374381888
 31
0.0
  0
VIEWPORT
  5
20C3
330
15
100
AcDbEntity
 67
     1
  8
0
  6
CONTINUOUS
100
AcDbViewport
 68
     1
 10
0.0
 20
0.0
 30
0.0
 40
535.5106132075472
 41
297.0
 68
     1
 69
     1
1001
ACAD
1000
MVIEW
1002
{
1070
    16
1010
0.0
1020
0.0
1030
0.0
1010
0.0
1020
0.0
1030
1.0
1040
0.0
1040
297.0
1040
-4.171999999999855
1040
12.83899999999994
1040
50.0
1040
0.0
1040
0.0
1070
    16
1070
   100
1070
     0
1070
     1
1070
     0
1070
     0
1070
     0
1070
     0
1040
0.0
1040
0.0
1040
0.0
1040
1.0
1040
1.0
1040
0.0
1040
0.0
1070
     0
1002
{
1002
}
1002
}
  0
ENDSEC
  0
SECTION
  2
OBJECTS
  0
DICTIONARY
  5
C
330
0
100
AcDbDictionary
  3
ACAD_CIP_PREVIOUS_PRODUCT_INFO
350
BBA1
  3
ACAD_COLOR
350
6590
  3
ACAD_GROUP
350
D
  3
ACAD_LAYOUT
350
6591
  3
ACAD_MATERIAL
350
658F
  3
ACAD_MLEADERSTYLE
350
A552
  3
ACAD_MLINESTYLE
350
1B
  3
ACAD_PLOTSETTINGS
350
6592
  3
ACAD_SCALELIST
350
A540
  3
ACAD_VISUALSTYLE
350
A52C
  3
ACDBHEADERROUNDTRIPXREC
350
D181
  3
ACDBVARIABLEDICTIONARY
350
2739
  3
AEC_PROPERTY_SET_DEFS
350
A875
  3
CONTENTDICTIONARY
350
1BFA
  3
DRAWINGVARIABLESDICT
350
3B87
  3
DWGPROPS
350
D184
1001
ACAD
1000
TREAT_AS_HARD
1070
     0
  0
DICTIONARY
  5
83EE
330
2
100
AcDbDictionary
  3
ACAD_LAYERSTATES
360
83EF
1001
ACAD
1000
TREAT_AS_HARD
1070
     1
  0
DICTIONARY
  5
9993
330
18
100
AcDbDictionary
  3
ACAD_SORTENTS
360
9994
1001
ACAD
1000
TREAT_AS_HARD
1070
     1
  0
XRECORD
  5
BBA1
102
{ACAD_REACTORS
330
C
102
}
330
C
100
AcDbXrecord
300
ACDLT
300
2012
300
ACDLT_F_S
  0
DICTIONARY
  5
6590
102
{ACAD_REACTORS
330
C
102
}
330
C
100
AcDbDictionary
1001
ACAD
1000
TREAT_AS_HARD
1070
     0
  0
DICTIONARY
  5
D
102
{ACAD_REACTORS
330
C
102
}
330
C
100
AcDbDictionary
1001
ACAD
1000
TREAT_AS_HARD
1070
     0
  0
DICTIONARY
  5
6591
102
{ACAD_REACTORS
330
C
102
}
330
C
100
AcDbDictionary
1001
ACAD
1000
TREAT_AS_HARD
1070
     0
  0
DICTIONARY
  5
658F
102
{ACAD_REACTORS
330
C
102
}
330
C
100
AcDbDictionary
  3
BYBLOCK
350
A51C
  3
BYLAYER
350
A514
  3
GLOBAL
350
A524
1001
ACAD
1000
TREAT_AS_HARD
1070
     0
  0
DICTIONARY
  5
A552
102
{ACAD_REACTORS
330
C
102
}
330
C
100
AcDbDictionary
  3
STANDARD
350
A553
1001
ACAD
1000
TREAT_AS_HARD
1070
     0
  0
DICTIONARY
  5
1B
102
{ACAD_REACTORS
330
C
102
}
330
C
100
AcDbDictionary
  3
STANDARD
350
1C
1001
ACAD
1000
TREAT_AS_HARD
1070
     0
  0
DICTIONARY
  5
6592
102
{ACAD_REACTORS
330
C
102
}
330
C
100
AcDbDictionary
1001
ACAD
1000
TREAT_AS_HARD
1070
     0
  0
DICTIONARY
  5
A540
102
{ACAD_REACTORS
330
C
102
}
330
C
100
AcDbDictionary
  3
*A1
350
A557
  3
*A10
350
A55F
  3
*A11
350
A560
  3
*A12
350
A561
  3
*A13
350
A562
  3
*A14
350
A563
  3
*A15
350
A564
  3
*A16
350
A565
  3
*A2
350
A566
  3
*A3
350
A558
  3
*A4
350
A559
  3
*A5
350
A55A
  3
*A6
350
A55B
  3
*A7
350
A55C
  3
*A8
350
A55D
  3
*A9
350
A55E
  3
A0
350
A541
  3
A1
350
A542
  3
A2
350
A543
  3
A3
350
A544
  3
A4
350
A545
  3
A5
350
A546
  3
A6
350
A547
  3
A7
350
A548
  3
A8
350
A549
  3
A9
350
A54A
  3
B0
350
A54B
  3
B1
350
A54C
  3
B2
350
A54D
  3
B3
350
A54E
  3
B4
350
A54F
  3
B5
350
A550
  3
B6
350
A551
1001
ACAD
1000
TREAT_AS_HARD
1070
     0
  0
DICTIONARY
  5
A52C
102
{ACAD_REACTORS
330
C
102
}
330
C
100
AcDbDictionary
  3
2DWIREFRAME
350
A532
  3
3D_HIDDEN
350
A534
  3
3DWIREFRAME
350
A533
  3
BASIC
350
A531
  3
BRIGHTEN
350
A538
  3
COLORCHANGE
350
A53C
  3
CONCEPTUAL
350
A535
  3
DIM
350
A537
  3
EDGECOLOROFF
350
A53F
  3
FACEPATTERN
350
A53B
  3
FLAT
350
A52D
  3
FLATWITHEDGES
350
A52E
  3
GOURAUD
350
A52F
  3
GOURAUDWITHEDGES
350
A530
  3
HIDDEN
350
BB88
  3
JITTEROFF
350
A53D
  3
LINEPATTERN
350
A53A
  3
MODELING
350
CFF8
  3
OVERHANGOFF
350
A53E
  3
REALISTIC
350
A536
  3
SHADED
350
BB8D
  3
SHADED_WITH_EDGES
350
BB8C
  3
SHADES_OF_GRAY
350
BB89
  3
SKETCHY
350
BB8A
  3
THICKEN
350
A539
  3
WIREFRAME
350
BB87
  3
X-RAY
350
BB8B
1001
ACAD
1000
TREAT_AS_HARD
1070
     0
  0
DICTIONARY
  5
D181
102
{ACAD_REACTORS
330
C
102
}
330
C
100
AcDbDictionary
  3
COLORDICT
350
D182
  3
MATERIALDICT
350
D183
1001
ACAD
1000
TREAT_AS_HARD
1070
     0
  0
DICTIONARY
  5
2739
102
{ACAD_REACTORS
330
C
102
}
330
C
100
AcDbDictionary
  3
CANNOSCALE
350
B088
  3
CMLEADERSTYLE
350
B087
  3
CTABLESTYLE
350
8076
  3
DIMADEC
350
3FDC
  3
DIMASSOC
350
7B85
  3
HIDETEXT
350
9173
  3
INDEXCTL
350
B08B
  3
INTERSECTIONCOLOR
350
9177
  3
INTERSECTIONDISPLAY
350
9176
  3
LAYEREVAL
350
B089
  3
LAYERNOTIFY
350
B08A
  3
MSLTSCALE
350
D077
  3
OBSCOLOR
350
9174
  3
OBSLTYPE
350
9175
  3
PROJECTNAME
350
7B86
  3
SORTENTS
350
273A
  3
XCLIPFRAME
350
CFF7
1001
ACAD
1000
TREAT_AS_HARD
1070
     0
  0
DICTIONARY
  5
A875
102
{ACAD_REACTORS
330
C
102
}
330
C
100
AcDbDictionary
1001
ACAD
1000
TREAT_AS_HARD
1070
     0
  0
DICTIONARY
  5
1BFA
102
{ACAD_REACTORS
330
C
102
}
330
C
100
AcDbDictionary
1001
CONTENTTABDATA
1070
    11
1000
Child
1000
D:\ACLT\TABset\CHILDREN.dwg
1070
     0
1070
     0
1070
     1
1000
PK
1000
D:\ACLT\TABset\PK.dwg
1070
     0
1070
     0
1070
     1
1000
Lev1
1000
D:\ACLT\TABset\Lever01.dwg
1070
     0
1070
     0
1070
     1
1000
Lev2
1000
D:\ACLT\TABset\Lever02.dwg
1070
     0
1070
     0
1070
     1
1000
L3
1000
D:\Aclt\TABset\Lever03.dwg
1070
     0
1070
     0
1070
     1
1000
Form
1000
D:\ACLT\FORMAT
1070
     1
1070
     0
1070
     1
1000
Jnt
1000
D:\ACLT\TABset\JOINTPARTS.dwg
1070
     0
1070
     0
1070
     1
1000
ISO
1000
D:\ACLT\TABset\Isome01.dwg
1070
     0
1070
     0
1070
     1
1000
R
1000
D:\ACLT\TABset\REGION.dwg
1070
     0
1070
     0
1070
     1
1000
std
1000
D:\ACLT\TABset\std_sym_all.dwg
1070
     0
1070
     0
1070
     1
1000
丸
1000
D:\Aclt\TABset\MARU.dwg
1070
     0
1070
     0
1070
     1
1001
CONTENTCURRENTTAB
1070
     2
1001
ACAD
1000
TREAT_AS_HARD
1070
     0
  0
DICTIONARY
  5
3B87
102
{ACAD_REACTORS
330
C
102
}
330
C
100
AcDbDictionary
1001
DRAWINGVARIABLESXDATA
1000
POLARANG
1000
0.261799387799149410000000
1000
POLARMODE
1000
1
1000
POLARSTYLE
1000
1
1001
ACAD
1000
TREAT_AS_HARD
1070
     0
  0
XRECORD
  5
D184
102
{ACAD_REACTORS
330
C
102
}
330
C
100
AcDbXrecord
  1
DWGPROPS COOKIE
  2

  3

  4

  6

  7

  8
3684
  9

300
=
301
=
302
=
303
=
304
=
305
=
306
=
307
=
308
=
309
=
 40
0.0
 41
2451024.204593021
 42
2458575.416141204
  1

 90
        0
  0
DICTIONARY
  5
83EF
102
{ACAD_REACTORS
330
83EE
102
}
330
83EE
100
AcDbDictionary
1001
ACAD
1000
TREAT_AS_HARD
1070
     0
  0
SORTENTSTABLE
  5
9994
102
{ACAD_REACTORS
330
9993
102
}
330
9993
100
AcDbSortentsTable
330
18
331
0
  5
9222
331
0
  5
9223
331
0
  5
9224
331
8FBC
  5
ACBC
331
9213
  5
ACBD
331
9214
  5
ACBE
331
9215
  5
ACBF
331
9216
  5
ACC0
331
9217
  5
ACC1
331
9218
  5
ACC2
331
9219
  5
ACC3
331
921A
  5
ACC4
331
921B
  5
ACC5
331
921C
  5
ACC6
331
921D
  5
ACC7
331
921E
  5
ACC8
331
921F
  5
ACC9
331
9221
  5
ACCA
331
9222
  5
ACCB
331
9223
  5
ACCC
331
9224
  5
ACCD
331
9225
  5
ACCE
331
9226
  5
ACCF
331
9227
  5
ACD0
331
9228
  5
ACD1
331
9229
  5
ACD2
331
922C
  5
ACD3
331
922E
  5
ACD4
331
922F
  5
ACD5
331
9230
  5
ACD6
331
ACB1
  5
ACF2
331
ACB2
  5
ACF3
331
ACB3
  5
ACF4
331
ACB4
  5
ACF5
331
ACB5
  5
ACF6
331
ACB6
  5
ACF7
331
ACB7
  5
ACF8
331
ACB8
  5
ACF9
331
ACB9
  5
ACFA
331
ACBA
  5
ACFB
331
ACBB
  5
ACFC
331
ACBC
  5
ACFD
331
ACBD
  5
ACFE
331
ACBE
  5
ACFF
331
ACBF
  5
AD00
331
ACC0
  5
AD01
331
ACC1
  5
AD02
331
ACC2
  5
AD03
331
ACC3
  5
AD06
331
ACC4
  5
AD07
331
ACC5
  5
AD08
331
ACC6
  5
AD09
331
ACC7
  5
AD0A
331
ACC8
  5
AD0B
331
ACC9
  5
AD0D
331
ACCA
  5
AD0E
331
ACCB
  5
ADD1
331
ACCC
  5
ADD2
331
ACCD
  5
ADD3
331
ACCE
  5
AE66
331
ACCF
  5
AE96
331
ACD0
  5
AED2
331
ACD1
  5
AEF7
331
ACD2
  5
AF88
331
ACD3
  5
AF92
331
ACD4
  5
AF93
331
ACD5
  5
AF94
331
ACD6
  5
AF97
331
ACF2
  5
AF98
331
ACF3
  5
B0A8
331
ACF4
  5
B0A9
331
ACF5
  5
B0AC
331
ACF6
  5
B0AD
331
ACF7
  5
B0AE
331
ACF8
  5
B0AF
331
ACF9
  5
B0B0
331
ACFA
  5
B0B1
331
ACFB
  5
B1B6
331
ACFC
  5
B1B7
331
ACFD
  5
B1B8
331
ACFE
  5
B1CE
331
ACFF
  5
B1CF
331
AD00
  5
B1D6
331
AD01
  5
B1D7
331
AD02
  5
B1D8
331
0
  5
AD04
331
0
  5
AD05
331
AD05
  5
B2F6
331
AD06
  5
B2F7
331
AD07
  5
B2F8
331
AD08
  5
B2F9
331
AD09
  5
B758
331
AD0A
  5
B759
331
0
  5
AD0C
331
AD0C
  5
B771
331
AD0D
  5
B772
331
0
  5
AD43
331
AD43
  5
B779
331
ADD1
  5
B77F
331
ADD2
  5
B780
331
ADD3
  5
B784
331
0
  5
B2EB
331
0
  5
B2EC
331
0
  5
B2ED
331
0
  5
B2EE
331
0
  5
B2EF
331
0
  5
B2F0
331
0
  5
B2F1
331
0
  5
B2F2
331
0
  5
B2F3
331
0
  5
B2F4
331
B0A7
  5
B7C9
331
B0A8
  5
B7CA
331
B0A9
  5
B7CB
331
B0AC
  5
B7CC
331
B0AD
  5
B7CD
331
B0AE
  5
B7CE
331
B0AF
  5
B7CF
331
B0B0
  5
B7D0
331
B0B1
  5
B7D1
331
B1CB
  5
B7D2
331
B1CC
  5
B7D3
331
B1D3
  5
B7D4
331
B1D4
  5
B7D5
331
B1D5
  5
B7D6
331
B1D6
  5
B7D7
331
B1D7
  5
B7D8
331
B1D8
  5
B7D9
331
B1DB
  5
B7DA
331
B1DC
  5
B7DB
331
B1E1
  5
B7DC
331
B1E2
  5
B7DD
331
B1E3
  5
B7DE
331
B1E4
  5
B7DF
331
B1E5
  5
B7E0
331
B1E6
  5
B7E1
331
B1E7
  5
B7E2
331
B1E8
  5
B7E3
331
B1E9
  5
B7E4
331
B1EA
  5
B7E5
331
B1EB
  5
B7E6
331
B1EC
  5
B7E7
331
B1ED
  5
B7E8
331
B1EE
  5
B7E9
331
B1EF
  5
B7ED
331
B1F0
  5
B7EE
331
B1F1
  5
B7EF
331
B1F2
  5
B7F0
331
B1F3
  5
B7F1
331
B1F4
  5
B7F2
331
B1F5
  5
B7F3
331
B1F6
  5
B7F4
331
B1F7
  5
B7F5
331
B2CD
  5
B7F6
331
B2CE
  5
B7F7
331
B2D5
  5
B7F8
331
B2D6
  5
B7F9
331
B2D7
  5
B7FA
331
B2D8
  5
B7FB
331
B2D9
  5
B7FC
331
B2DA
  5
B7FD
331
B2DD
  5
B7FE
331
B2DE
  5
B7FF
331
B2E3
  5
B800
331
B2E4
  5
B801
331
B2E5
  5
B802
331
B2E6
  5
B803
331
B2E7
  5
B804
331
B2E8
  5
B805
331
B2E9
  5
B806
331
B2EA
  5
B807
331
B2EB
  5
B808
331
B2EC
  5
B809
331
B2ED
  5
B80A
331
B2EE
  5
B80B
331
B2EF
  5
B80C
331
B2F0
  5
B80D
331
B2F1
  5
B80E
331
B2F2
  5
B80F
331
B2F3
  5
B810
331
B2F4
  5
B811
331
B2F5
  5
B812
331
B2F6
  5
B813
331
B2F7
  5
B814
331
B2F8
  5
B815
331
B2F9
  5
B816
331
B758
  5
B817
331
B759
  5
B818
331
0
  5
B7B5
331
B770
  5
B823
331
B771
  5
B824
331
B772
  5
B825
331
B773
  5
B826
331
B774
  5
B827
331
B775
  5
B828
331
B776
  5
B829
331
B777
  5
B82A
331
B778
  5
B82B
331
B779
  5
B82C
331
B77A
  5
B82D
331
B77B
  5
B82E
331
B77C
  5
B82F
331
B77D
  5
B830
331
B77E
  5
B831
331
B77F
  5
B832
331
B780
  5
B833
331
B781
  5
B834
331
B782
  5
B835
331
B783
  5
B836
331
B784
  5
B837
331
B785
  5
B83C
331
B786
  5
B83D
331
B787
  5
B83E
331
B788
  5
B83F
331
B789
  5
B840
331
B78A
  5
B841
331
B78B
  5
B842
331
B78C
  5
B843
331
B78D
  5
B848
331
B78E
  5
B849
331
B78F
  5
B84A
331
B790
  5
B868
331
B791
  5
B869
331
B792
  5
BD9F
331
B793
  5
C66C
331
B794
  5
C66D
331
B795
  5
C66E
331
B796
  5
C6C7
331
B797
  5
C6C8
331
B798
  5
C6C9
331
B799
  5
C6CA
331
B79A
  5
C6CB
331
B79B
  5
C6CC
331
B79C
  5
C6CD
331
B79D
  5
C6CE
331
B79E
  5
C6CF
331
B79F
  5
C6D0
331
B7A0
  5
C6D1
331
B7A1
  5
C6D2
331
B7A2
  5
C6D3
331
B7A3
  5
C6D4
331
B7A4
  5
C6D5
331
B7A5
  5
C6D6
331
B7A6
  5
C6D7
331
B7A7
  5
C6D8
331
B7A8
  5
C6D9
331
B7A9
  5
C6DA
331
B7AA
  5
C6DB
331
B7AB
  5
C6DC
331
B7AC
  5
C6DD
331
B7AD
  5
C6DE
331
B7AE
  5
C6DF
331
B7AF
  5
C6E0
331
B7B0
  5
C6E1
331
B7B1
  5
C6E2
331
B7B2
  5
C6E3
331
B7B3
  5
C6E4
331
B7B4
  5
C6E5
331
B7B5
  5
C6E6
331
B7B6
  5
C6E7
331
B7B7
  5
C6E8
331
B7B8
  5
C6E9
331
B7B9
  5
C6EA
331
B7BA
  5
C6EB
331
B7BB
  5
C6EC
331
B7BC
  5
C6ED
331
B7BD
  5
C6EE
331
B7BE
  5
C6EF
331
B7BF
  5
C6F0
331
B7C0
  5
C6F1
331
B7C1
  5
C6F2
331
B7C2
  5
C6F3
331
B7C3
  5
C6F4
331
B7C4
  5
C6F5
331
B7C5
  5
C6F6
331
B7C6
  5
C6F7
331
B7C7
  5
C6FC
331
B7C8
  5
C6FD
331
B7C9
  5
C6FE
331
B7CA
  5
C6FF
331
B7CB
  5
C700
331
B7CC
  5
C701
331
B7CD
  5
C702
331
B7CE
  5
C703
331
B7CF
  5
C704
331
B7D0
  5
C705
331
B7D1
  5
C709
331
B7D2
  5
C70A
331
B7D3
  5
C70B
331
B7D4
  5
C70C
331
B7D5
  5
C70D
331
B7D6
  5
C70E
331
B7D7
  5
C70F
331
B7D8
  5
C710
331
B7D9
  5
C711
331
B7DA
  5
C712
331
B7DB
  5
C713
331
B7DC
  5
C714
331
B7DD
  5
C715
331
B7DE
  5
C716
331
B7DF
  5
C717
331
B7E0
  5
C718
331
B7E1
  5
C719
331
B7E2
  5
CF5C
331
B7E3
  5
CF5D
331
B7E4
  5
CF5E
331
B7E5
  5
CF5F
331
B7E6
  5
CF60
331
B7E7
  5
D095
331
B7E8
  5
D096
331
B7E9
  5
D097
331
B7EA
  5
D098
331
B7EB
  5
D099
331
B7EC
  5
D09A
331
B7ED
  5
D09B
331
B7EE
  5
D09C
331
B7EF
  5
D09D
331
B7F0
  5
D09E
331
B7F1
  5
D09F
331
B7F2
  5
D0A0
331
B7F3
  5
D0A1
331
B7F4
  5
D0A2
331
B7F5
  5
D0A3
331
B7F6
  5
D0A4
331
B7F7
  5
D0A5
331
B7F8
  5
D0A6
331
B7F9
  5
D0A7
331
B7FA
  5
D0A8
331
B7FB
  5
D0A9
331
B7FC
  5
D0AA
331
B7FD
  5
D0AB
331
B7FE
  5
D0AC
331
B7FF
  5
D0AD
331
B800
  5
D0AE
331
B801
  5
D0B2
331
B802
  5
D0B3
331
B803
  5
D0B4
331
B804
  5
D0B5
331
B805
  5
D0B6
331
B806
  5
D0B7
331
B807
  5
D0B8
331
B808
  5
D0B9
331
B809
  5
D0BA
331
B80A
  5
D0BB
331
B80B
  5
D0BC
331
B80C
  5
D0BD
331
B80D
  5
D0BE
331
B80E
  5
D0C0
331
B80F
  5
D0C1
331
B810
  5
D0C2
331
B811
  5
D0C3
331
B812
  5
D0C5
331
B813
  5
D0C6
331
B814
  5
D0C7
331
B815
  5
D0C8
331
B816
  5
D0C9
331
B817
  5
D0CA
331
B818
  5
D0CB
331
B819
  5
D0CC
331
B81A
  5
D0CD
331
B81B
  5
D0CE
331
B81C
  5
D0CF
331
B81D
  5
D0D0
331
B81E
  5
D0D2
331
B81F
  5
D0DB
331
B820
  5
D0DC
331
B821
  5
D0DD
331
B822
  5
D0DE
331
B823
  5
D0DF
331
B824
  5
D0E0
331
B825
  5
D0E1
331
B826
  5
D0E2
331
B827
  5
D0E3
331
B828
  5
D0E4
331
B829
  5
D0E5
331
B82A
  5
D0E6
331
B82B
  5
D0E7
331
B82C
  5
D0E8
331
B82D
  5
D0E9
331
B82E
  5
D0EA
331
B82F
  5
D0EB
331
B830
  5
D0EC
331
B831
  5
D0ED
331
B832
  5
D0EE
331
B833
  5
D0EF
331
0
  5
C6F8
331
0
  5
C6FB
331
B836
  5
D0FD
331
B837
  5
D0FE
331
B83C
  5
D0FF
331
B83D
  5
D100
331
B83E
  5
D101
331
B83F
  5
D102
331
B840
  5
D103
331
B841
  5
D104
331
B842
  5
D105
331
B843
  5
D106
331
0
  5
C706
331
0
  5
C707
331
0
  5
C708
331
0
  5
BDA0
331
C669
  5
D113
331
C66A
  5
D114
331
C66B
  5
D115
331
C66C
  5
B77E
331
C66D
  5
B77A
331
C66E
  5
B0A7
331
C6C7
  5
D116
331
C6C8
  5
D117
331
C6C9
  5
D118
331
C6CA
  5
D119
331
C6CB
  5
D11A
331
C6CC
  5
D11B
331
C6CD
  5
D11C
331
C6CE
  5
D11D
331
C6CF
  5
D11E
331
C6D0
  5
D11F
331
C6D1
  5
D120
331
C6D2
  5
D121
331
C6D3
  5
D122
331
C6D4
  5
D123
331
C6D5
  5
D124
331
C6D6
  5
D125
331
C6D7
  5
D126
331
C6D8
  5
D127
331
C6D9
  5
D128
331
C6DA
  5
D129
331
C6DB
  5
D12A
331
C6DC
  5
D12B
331
C6DD
  5
D12C
331
C6DE
  5
D12D
331
C6DF
  5
D12E
331
C6E0
  5
D12F
331
C6E1
  5
D130
331
C6E2
  5
D131
331
C6E3
  5
D132
331
C6E4
  5
D133
331
C6E5
  5
D134
331
C6E6
  5
D135
331
C6E7
  5
D136
331
C6E8
  5
D137
331
C6E9
  5
D138
331
C6EA
  5
D139
331
C6EB
  5
D13A
331
C6EC
  5
D13B
331
C6ED
  5
D13C
331
C6EE
  5
D13D
331
C6EF
  5
D13E
331
C6F0
  5
D13F
331
C6F1
  5
D140
331
C6F2
  5
D141
331
C6F3
  5
D142
331
C6F4
  5
D143
331
C6F5
  5
D144
331
C6F6
  5
D145
331
C6F7
  5
D146
331
C6F8
  5
D147
331
C6FB
  5
D14C
331
C6FC
  5
D14D
331
C6FD
  5
D14E
331
C6FE
  5
D14F
331
C6FF
  5
D150
331
C700
  5
D151
331
C701
  5
D152
331
C702
  5
D153
331
C703
  5
D154
331
C704
  5
D155
331
C705
  5
D156
331
C706
  5
D157
331
C707
  5
D158
331
C708
  5
D159
331
C709
  5
D15A
331
C70A
  5
D15B
331
C70B
  5
D15C
331
C70C
  5
D15D
331
C70D
  5
D15E
331
C70E
  5
D15F
331
C70F
  5
D160
331
C710
  5
D161
331
C711
  5
D162
331
C712
  5
D163
331
C713
  5
D164
331
C714
  5
D165
331
C715
  5
D166
331
C716
  5
D167
331
C717
  5
D168
331
C718
  5
D169
331
C719
  5
D16A
331
CF5C
  5
D17C
331
CF5D
  5
D17D
331
CF5E
  5
D17E
331
CF5F
  5
D17F
331
CF60
  5
D180
331
D095
  5
8D20
331
D096
  5
8D27
331
D097
  5
8D28
331
0
  5
8FBC
331
D099
  5
921D
331
D09A
  5
921E
331
D09B
  5
921F
331
D09C
  5
9221
331
D09D
  5
B1D9
331
D09E
  5
B1DA
331
D09F
  5
B1DB
331
D0A0
  5
B1DE
331
D0A1
  5
B1DF
331
D0A2
  5
B1E4
331
D0A3
  5
B1E5
331
D0A4
  5
B1E6
331
D0A5
  5
B1E7
331
D0A6
  5
B1E8
331
D0A7
  5
B1E9
331
D0A8
  5
B1EA
331
D0A9
  5
B1EB
331
D0AA
  5
B1EC
331
D0AB
  5
B1ED
331
D0AC
  5
B1EE
331
D0AD
  5
B1EF
331
D0AE
  5
B1F0
331
D0AF
  5
B1F1
331
D0B0
  5
B1F2
331
D0B1
  5
B1F3
331
D0B2
  5
B1F4
331
D0B3
  5
B1F5
331
D0B4
  5
B1F6
331
D0B5
  5
B1F7
331
D0B6
  5
B2CD
331
D0B7
  5
B2CE
331
D0B8
  5
B2D5
331
D0B9
  5
B2D6
331
D0BA
  5
B2D7
331
D0BB
  5
B2D8
331
D0BC
  5
B2D9
331
D0BD
  5
B2DA
331
D0BE
  5
B2DD
331
D0BF
  5
B2DE
331
D0C0
  5
B2E3
331
D0C1
  5
B2E4
331
D0C2
  5
B2E5
331
D0C3
  5
B2E6
331
D0C4
  5
B2E7
331
D0C5
  5
B2E8
331
D0C6
  5
B2E9
331
D0C7
  5
B2EA
331
D0C8
  5
B2F5
331
D0C9
  5
B76F
331
D0CA
  5
B770
331
D0CB
  5
B773
331
D0CC
  5
B774
331
D0CD
  5
B778
331
D0CE
  5
D112
331
D0CF
  5
D148
331
D0D0
  5
D149
331
D0D1
  5
D14A
331
D0D2
  5
D14B
331
D0DB
  5
D16B
331
D0DC
  5
D16C
331
D0DD
  5
D16D
331
0
  5
D0D1
331
D0DF
  5
D178
331
D0E0
  5
D179
331
D0E1
  5
D17A
331
D0E2
  5
D17B
331
D0E3
  5
9213
331
D0E4
  5
9214
331
D0E5
  5
9215
331
D0E6
  5
9216
331
D0E7
  5
9217
331
D0E8
  5
9218
331
D0E9
  5
9219
331
D0EA
  5
921A
331
D0EB
  5
921B
331
D0EC
  5
921C
331
D0ED
  5
D16E
331
D0EE
  5
D16F
331
D0EF
  5
D170
331
D0F0
  5
D171
331
D0F1
  5
D172
331
D0F2
  5
D173
331
D0F3
  5
D174
331
D0F4
  5
D175
331
D0F5
  5
D176
331
D0F6
  5
D177
331
D0F7
  5
9225
331
D0F8
  5
9226
331
D0F9
  5
9227
331
0
  5
9228
331
0
  5
9229
331
0
  5
922C
331
0
  5
922E
331
D0FE
  5
ACB9
331
D0FF
  5
ACBA
331
D100
  5
ACBB
331
D101
  5
B785
331
D102
  5
B786
331
D103
  5
B78B
331
0
  5
B775
331
0
  5
B776
331
0
  5
B777
331
D107
  5
B795
331
D108
  5
B796
331
D109
  5
B797
331
0
  5
B77B
331
0
  5
B77C
331
0
  5
B77D
331
D10D
  5
B79F
331
D10E
  5
B7A0
331
D10F
  5
B7A1
331
0
  5
B781
331
0
  5
B782
331
0
  5
B783
331
D113
  5
B7A9
331
D114
  5
B7AA
331
D115
  5
B7AB
331
0
  5
B787
331
0
  5
B788
331
0
  5
B789
331
0
  5
B78A
331
D11A
  5
B7B7
331
D11B
  5
B7B8
331
D11C
  5
B7B9
331
D11D
  5
B7BA
331
0
  5
B78F
331
D11F
  5
B7BE
331
D120
  5
B7BF
331
D121
  5
B7C0
331
D122
  5
B7C1
331
0
  5
B794
331
D124
  5
B7C5
331
D125
  5
B7C6
331
D126
  5
B7C7
331
D127
  5
B7C8
331
D128
  5
B819
331
D129
  5
B81A
331
D12A
  5
B81B
331
0
  5
B7EA
331
0
  5
B7EB
331
0
  5
B7EC
331
D12E
  5
D0F0
331
D12F
  5
D0F1
331
D130
  5
D0F2
331
0
  5
D0AF
331
0
  5
D0B0
331
0
  5
D0B1
331
D134
  5
D0FA
331
D135
  5
D0FB
331
D136
  5
D0FC
331
0
  5
D0BF
331
D138
  5
D10A
331
D139
  5
D10B
331
D13A
  5
D10C
331
D13B
  5
D10D
331
0
  5
D0C4
331
D13D
  5
D111
331
D13E
  5
922F
331
D13F
  5
9230
331
D140
  5
ACB1
331
D141
  5
ACB2
331
D142
  5
ACB3
331
D143
  5
ACB4
331
D144
  5
ACB5
331
D145
  5
ACB6
331
D146
  5
ACB7
331
D147
  5
ACB8
331
D148
  5
B78C
331
D149
  5
B78D
331
D14A
  5
B78E
331
D14B
  5
B790
331
D14C
  5
B791
331
D14D
  5
B792
331
D14E
  5
B793
331
D14F
  5
B798
331
D150
  5
B799
331
D151
  5
B79A
331
D152
  5
B79B
331
D153
  5
B79C
331
D154
  5
B79D
331
D155
  5
B79E
331
D156
  5
B7A2
331
D157
  5
B7A3
331
D158
  5
B7A4
331
D159
  5
B7A5
331
D15A
  5
B7A6
331
D15B
  5
B7A7
331
D15C
  5
B7A8
331
D15D
  5
B7AC
331
D15E
  5
B7AD
331
D15F
  5
B7AE
331
D160
  5
B7AF
331
D161
  5
B7B0
331
D162
  5
B7B1
331
D163
  5
B7B2
331
D164
  5
B7B3
331
D165
  5
B7B4
331
D166
  5
B7B6
331
D167
  5
B7BB
331
D168
  5
B7BC
331
D169
  5
B7BD
331
D16A
  5
B7C2
331
D16B
  5
B7C3
331
D16C
  5
B7C4
331
D16D
  5
B81C
331
D16E
  5
B81D
331
D16F
  5
B81E
331
D170
  5
B81F
331
D171
  5
B820
331
D172
  5
B821
331
D173
  5
B822
331
D174
  5
D0F3
331
D175
  5
D0F4
331
D176
  5
D0F5
331
D177
  5
D0F6
331
D178
  5
D0F7
331
D179
  5
D0F8
331
D17A
  5
D0F9
331
D17B
  5
D107
331
D17C
  5
D108
331
D17D
  5
D109
331
D17E
  5
D10E
331
D17F
  5
D10F
331
D180
  5
D110
  0
MATERIAL
  5
A51C
102
{ACAD_REACTORS
330
658F
102
}
102
{ACAD_XDICTIONARY
360
D31F
102
}
330
658F
100
AcDbMaterial
  1
BYBLOCK
 72
     0
 73
     2
 43
0.0208333333333333
 43
0.0
 43
0.0
 43
0.0
 43
0.0
 43
0.0208333333333333
 43
0.0
 43
0.0
 43
0.0
 43
0.0
 43
1.0
 43
0.0
 43
0.0
 43
0.0
 43
0.0
 43
1.0
 77
     0
 78
     2
 47
0.0208333333333333
 47
0.0
 47
0.0
 47
0.0
 47
0.0
 47
0.0208333333333333
 47
0.0
 47
0.0
 47
0.0
 47
0.0
 47
1.0
 47
0.0
 47
0.0
 47
0.0
 47
0.0
 47
1.0
171
     0
172
     2
 49
0.0208333333333333
 49
0.0
 49
0.0
 49
0.0
 49
0.0
 49
0.0208333333333333
 49
0.0
 49
0.0
 49
0.0
 49
0.0
 49
1.0
 49
0.0
 49
0.0
 49
0.0
 49
0.0
 49
1.0
175
     0
176
     2
142
0.0208333333333333
142
0.0
142
0.0
142
0.0
142
0.0
142
0.0208333333333333
142
0.0
142
0.0
142
0.0
142
0.0
142
1.0
142
0.0
142
0.0
142
0.0
142
0.0
142
1.0
179
     0
270
     2
144
0.0208333333333333
144
0.0
144
0.0
144
0.0
144
0.0
144
0.0208333333333333
144
0.0
144
0.0
144
0.0
144
0.0
144
1.0
144
0.0
144
0.0
144
0.0
144
0.0
144
1.0
274
     2
147
0.0208333333333333
147
0.0
147
0.0
147
0.0
147
0.0
147
0.0208333333333333
147
0.0
147
0.0
147
0.0
147
0.0
147
1.0
147
0.0
147
0.0
147
0.0
147
0.0
147
1.0
  0
MATERIAL
  5
A514
102
{ACAD_REACTORS
330
658F
102
}
102
{ACAD_XDICTIONARY
360
D321
102
}
330
658F
100
AcDbMaterial
  1
BYLAYER
 72
     0
 73
     2
 43
0.0208333333333333
 43
0.0
 43
0.0
 43
0.0
 43
0.0
 43
0.0208333333333333
 43
0.0
 43
0.0
 43
0.0
 43
0.0
 43
1.0
 43
0.0
 43
0.0
 43
0.0
 43
0.0
 43
1.0
 77
     0
 78
     2
 47
0.0208333333333333
 47
0.0
 47
0.0
 47
0.0
 47
0.0
 47
0.0208333333333333
 47
0.0
 47
0.0
 47
0.0
 47
0.0
 47
1.0
 47
0.0
 47
0.0
 47
0.0
 47
0.0
 47
1.0
171
     0
172
     2
 49
0.0208333333333333
 49
0.0
 49
0.0
 49
0.0
 49
0.0
 49
0.0208333333333333
 49
0.0
 49
0.0
 49
0.0
 49
0.0
 49
1.0
 49
0.0
 49
0.0
 49
0.0
 49
0.0
 49
1.0
175
     0
176
     2
142
0.0208333333333333
142
0.0
142
0.0
142
0.0
142
0.0
142
0.0208333333333333
142
0.0
142
0.0
142
0.0
142
0.0
142
1.0
142
0.0
142
0.0
142
0.0
142
0.0
142
1.0
179
     0
270
     2
144
0.0208333333333333
144
0.0
144
0.0
144
0.0
144
0.0
144
0.0208333333333333
144
0.0
144
0.0
144
0.0
144
0.0
144
1.0
144
0.0
144
0.0
144
0.0
144
0.0
144
1.0
274
     2
147
0.0208333333333333
147
0.0
147
0.0
147
0.0
147
0.0
147
0.0208333333333333
147
0.0
147
0.0
147
0.0
147
0.0
147
1.0
147
0.0
147
0.0
147
0.0
147
0.0
147
1.0
  0
MATERIAL
  5
A524
102
{ACAD_REACTORS
330
658F
102
}
102
{ACAD_XDICTIONARY
360
D323
102
}
330
658F
100
AcDbMaterial
  1
GLOBAL
 72
     0
 73
     2
 43
0.0208333333333333
 43
0.0
 43
0.0
 43
0.0
 43
0.0
 43
0.0208333333333333
 43
0.0
 43
0.0
 43
0.0
 43
0.0
 43
1.0
 43
0.0
 43
0.0
 43
0.0
 43
0.0
 43
1.0
 77
     0
 78
     2
 47
0.0208333333333333
 47
0.0
 47
0.0
 47
0.0
 47
0.0
 47
0.0208333333333333
 47
0.0
 47
0.0
 47
0.0
 47
0.0
 47
1.0
 47
0.0
 47
0.0
 47
0.0
 47
0.0
 47
1.0
171
     0
172
     2
 49
0.0208333333333333
 49
0.0
 49
0.0
 49
0.0
 49
0.0
 49
0.0208333333333333
 49
0.0
 49
0.0
 49
0.0
 49
0.0
 49
1.0
 49
0.0
 49
0.0
 49
0.0
 49
0.0
 49
1.0
175
     0
176
     2
142
0.0208333333333333
142
0.0
142
0.0
142
0.0
142
0.0
142
0.0208333333333333
142
0.0
142
0.0
142
0.0
142
0.0
142
1.0
142
0.0
142
0.0
142
0.0
142
0.0
142
1.0
179
     0
270
     2
144
0.0208333333333333
144
0.0
144
0.0
144
0.0
144
0.0
144
0.0208333333333333
144
0.0
144
0.0
144
0.0
144
0.0
144
1.0
144
0.0
144
0.0
144
0.0
144
0.0
144
1.0
274
     2
147
0.0208333333333333
147
0.0
147
0.0
147
0.0
147
0.0
147
0.0208333333333333
147
0.0
147
0.0
147
0.0
147
0.0
147
1.0
147
0.0
147
0.0
147
0.0
147
0.0
147
1.0
  0
ACAD_PROXY_OBJECT
  5
A553
102
{ACAD_REACTORS
330
A552
102
}
330
A552
100
AcDbZombieObject
 90
      499
 91
      513
 93
      610
310
40901902A4063FBFFFFFE000000000000002040AD7A3703D0AD73F4214DD185B99185C990000000000000104090141901A00000000000004100000000000000041025764000000000000300FC0
340
12
340
0
340
F
340
0
 94
        0
1001
ACAD_MLEADERVER
1070
     2
  0
MLINESTYLE
  5
1C
102
{ACAD_REACTORS
330
1B
102
}
330
1B
100
AcDbMlineStyle
  2
STANDARD
 70
     0
  3

 62
   256
 51
90.0
 52
90.0
 71
     2
 49
0.5
 62
   256
  6
BYLAYER
 49
-0.5
 62
   256
  6
BYLAYER
  0
ACAD_PROXY_OBJECT
  5
A557
102
{ACAD_REACTORS
330
A540
102
}
330
A540
100
AcDbZombieObject
 90
      499
 91
      512
 93
      297
310
913312F31323822203D2031272D30225F58524546000000000000200FC000000000000284000
  0
ACAD_PROXY_OBJECT
  5
A55F
102
{ACAD_REACTORS
330
A540
102
}
330
A540
100
AcDbZombieObject
 90
      499
 91
      512
 93
      281
310
911332F3822203D2031272D30225F58524546000000000000360FC000000000000284000
  0
ACAD_PROXY_OBJECT
  5
A560
102
{ACAD_REACTORS
330
A540
102
}
330
A540
100
AcDbZombieObject
 90
      499
 91
      512
 93
      281
310
911312F3222203D2031272D30225F58524546000000000000380FC000000000000284000
  0
ACAD_PROXY_OBJECT
  5
A561
102
{ACAD_REACTORS
330
A540
102
}
330
A540
100
AcDbZombieObject
 90
      499
 91
      512
 93
      281
310
911332F3422203D2031272D30225F585245460000000000003A0FC000000000000284000
  0
ACAD_PROXY_OBJECT
  5
A562
102
{ACAD_REACTORS
330
A540
102
}
330
A540
100
AcDbZombieObject
 90
      499
 91
      512
 93
      201
310
90F3122203D2031272D30225F585245464000000000000284000
  0
ACAD_PROXY_OBJECT
  5
A563
102
{ACAD_REACTORS
330
A540
102
}
330
A540
100
AcDbZombieObject
 90
      499
 91
      512
 93
      297
310
913312D312F3222203D2031272D30225F585245460000000000003E0FC000000000000284000
  0
ACAD_PROXY_OBJECT
  5
A564
102
{ACAD_REACTORS
330
A540
102
}
330
A540
100
AcDbZombieObject
 90
      499
 91
      512
 93
      265
310
90F3322203D2031272D30225F5852454600000000000002100000000000000284000
  0
ACAD_PROXY_OBJECT
  5
A565
102
{ACAD_REACTORS
330
A540
102
}
330
A540
100
AcDbZombieObject
 90
      499
 91
      512
 93
      265
310
90F3622203D2031272D30225F5852454600000000000006100000000000000284000
  0
ACAD_PROXY_OBJECT
  5
A566
102
{ACAD_REACTORS
330
A540
102
}
330
A540
100
AcDbZombieObject
 90
      499
 91
      512
 93
      289
310
91231272D3022203D2031272D30225F585245460000000000000A100000000000000284000
  0
ACAD_PROXY_OBJECT
  5
A558
102
{ACAD_REACTORS
330
A540
102
}
330
A540
100
AcDbZombieObject
 90
      499
 91
      512
 93
      289
310
912312F363422203D2031272D30225F58524546000000000000240FC000000000000284000
  0
ACAD_PROXY_OBJECT
  5
A559
102
{ACAD_REACTORS
330
A540
102
}
330
A540
100
AcDbZombieObject
 90
      499
 91
      512
 93
      289
310
912312F333222203D2031272D30225F58524546000000000000280FC000000000000284000
  0
ACAD_PROXY_OBJECT
  5
A55A
102
{ACAD_REACTORS
330
A540
102
}
330
A540
100
AcDbZombieObject
 90
      499
 91
      512
 93
      289
310
912312F313622203D2031272D30225F585245460000000000002C0FC000000000000284000
  0
ACAD_PROXY_OBJECT
  5
A55B
102
{ACAD_REACTORS
330
A540
102
}
330
A540
100
AcDbZombieObject
 90
      499
 91
      512
 93
      289
310
912332F333222203D2031272D30225F585245460000000000002E0FC000000000000284000
  0
ACAD_PROXY_OBJECT
  5
A55C
102
{ACAD_REACTORS
330
A540
102
}
330
A540
100
AcDbZombieObject
 90
      499
 91
      512
 93
      281
310
911312F3822203D2031272D30225F58524546000000000000300FC000000000000284000
  0
ACAD_PROXY_OBJECT
  5
A55D
102
{ACAD_REACTORS
330
A540
102
}
330
A540
100
AcDbZombieObject
 90
      499
 91
      512
 93
      289
310
912332F313622203D2031272D30225F58524546000000000000320FC000000000000284000
  0
ACAD_PROXY_OBJECT
  5
A55E
102
{ACAD_REACTORS
330
A540
102
}
330
A540
100
AcDbZombieObject
 90
      499
 91
      512
 93
      281
310
911312F3422203D2031272D30225F58524546000000000000340FC000000000000284000
  0
ACAD_PROXY_OBJECT
  5
A541
102
{ACAD_REACTORS
330
A540
102
}
330
A540
100
AcDbZombieObject
 90
      499
 91
      512
 93
       41
310
903313A31580
  0
ACAD_PROXY_OBJECT
  5
A542
102
{ACAD_REACTORS
330
A540
102
}
330
A540
100
AcDbZombieObject
 90
      499
 91
      512
 93
      105
310
903313A324000000000000004000
  0
ACAD_PROXY_OBJECT
  5
A543
102
{ACAD_REACTORS
330
A540
102
}
330
A540
100
AcDbZombieObject
 90
      499
 91
      512
 93
      105
310
903313A344000000000000104000
  0
ACAD_PROXY_OBJECT
  5
A544
102
{ACAD_REACTORS
330
A540
102
}
330
A540
100
AcDbZombieObject
 90
      499
 91
      512
 93
      105
310
903313A354000000000000144000
  0
ACAD_PROXY_OBJECT
  5
A545
102
{ACAD_REACTORS
330
A540
102
}
330
A540
100
AcDbZombieObject
 90
      499
 91
      512
 93
      105
310
903313A384000000000000204000
  0
ACAD_PROXY_OBJECT
  5
A546
102
{ACAD_REACTORS
330
A540
102
}
330
A540
100
AcDbZombieObject
 90
      499
 91
      512
 93
      113
310
904313A31304000000000000244000
  0
ACAD_PROXY_OBJECT
  5
A547
102
{ACAD_REACTORS
330
A540
102
}
330
A540
100
AcDbZombieObject
 90
      499
 91
      512
 93
      113
310
904313A31364000000000000304000
  0
ACAD_PROXY_OBJECT
  5
A548
102
{ACAD_REACTORS
330
A540
102
}
330
A540
100
AcDbZombieObject
 90
      499
 91
      512
 93
      113
310
904313A32304000000000000344000
  0
ACAD_PROXY_OBJECT
  5
A549
102
{ACAD_REACTORS
330
A540
102
}
330
A540
100
AcDbZombieObject
 90
      499
 91
      512
 93
      113
310
904313A333040000000000003E4000
  0
ACAD_PROXY_OBJECT
  5
A54A
102
{ACAD_REACTORS
330
A540
102
}
330
A540
100
AcDbZombieObject
 90
      499
 91
      512
 93
      113
310
904313A34304000000000000444000
  0
ACAD_PROXY_OBJECT
  5
A54B
102
{ACAD_REACTORS
330
A540
102
}
330
A540
100
AcDbZombieObject
 90
      499
 91
      512
 93
      113
310
904313A35304000000000000494000
  0
ACAD_PROXY_OBJECT
  5
A54C
102
{ACAD_REACTORS
330
A540
102
}
330
A540
100
AcDbZombieObject
 90
      499
 91
      512
 93
      121
310
905313A3130304000000000000594000
  0
ACAD_PROXY_OBJECT
  5
A54D
102
{ACAD_REACTORS
330
A540
102
}
330
A540
100
AcDbZombieObject
 90
      499
 91
      512
 93
      105
310
903323A310000000000000010100
  0
ACAD_PROXY_OBJECT
  5
A54E
102
{ACAD_REACTORS
330
A540
102
}
330
A540
100
AcDbZombieObject
 90
      499
 91
      512
 93
      105
310
903343A310000000000000410100
  0
ACAD_PROXY_OBJECT
  5
A54F
102
{ACAD_REACTORS
330
A540
102
}
330
A540
100
AcDbZombieObject
 90
      499
 91
      512
 93
      105
310
903383A310000000000000810100
  0
ACAD_PROXY_OBJECT
  5
A550
102
{ACAD_REACTORS
330
A540
102
}
330
A540
100
AcDbZombieObject
 90
      499
 91
      512
 93
      113
310
90431303A310000000000000910100
  0
ACAD_PROXY_OBJECT
  5
A551
102
{ACAD_REACTORS
330
A540
102
}
330
A540
100
AcDbZombieObject
 90
      499
 91
      512
 93
      121
310
9053130303A310000000000001650100
  0
ACAD_PROXY_OBJECT
  5
A532
102
{ACAD_REACTORS
330
A52C
102
}
330
A52C
100
AcDbZombieObject
 90
      499
 91
      511
 93
      436
310
42CC9915DA5C99599C985B595049028333333333333E3BF0000000000000FB0107901411070040501600405405064090741402480A0340
1001
ACAD
1000
AcDbSavedByObjectVersion
1070
     0
  0
ACAD_PROXY_OBJECT
  5
A534
102
{ACAD_REACTORS
330
A52C
102
}
330
A52C
100
AcDbZombieObject
 90
      499
 91
      511
 93
      500
310
424CD108121A5919195B90640502408333333333333E3BF0000000000000FB01079024090700405020000000000181990200405405064090740C02480A0340
1001
ACAD
1000
AcDbSavedByObjectVersion
1070
     0
  0
ACAD_PROXY_OBJECT
  5
A533
102
{ACAD_REACTORS
330
A52C
102
}
330
A52C
100
AcDbZombieObject
 90
      499
 91
      511
 93
      436
310
42CCD915DA5C99599C985B595059028333333333333E3BF0000000000000FB0107901411070040501600405405064090741402480A0340
1001
ACAD
1000
AcDbSavedByObjectVersion
1070
     0
  0
ACAD_PROXY_OBJECT
  5
A531
102
{ACAD_REACTORS
330
A52C
102
}
330
A52C
100
AcDbZombieObject
 90
      499
 91
      511
 93
      388
310
4150985CDA58D07406404333333333333E3BF0000000000000FB0107A41107004050150841D405064090741402480A0350
1001
ACAD
1000
AcDbSavedByObjectVersion
1070
     0
  0
ACAD_PROXY_OBJECT
  5
A538
102
{ACAD_REACTORS
330
A52C
102
}
330
A52C
100
AcDbZombieObject
 90
      499
 91
      511
 93
      428
310
42109C9A59DA1D195B90C409028333333333333E3BF0000000000000FB010790141107004050150841D405064090741402480A029950
1001
ACAD
1000
AcDbSavedByObjectVersion
1070
     0
  0
ACAD_PROXY_OBJECT
  5
A53C
102
{ACAD_REACTORS
330
A52C
102
}
330
A52C
100
AcDbZombieObject
 90
      499
 91
      511
 93
      452
310
42D0DBDB1BDC90DA185B99D95104090240C333333333333E3BF0000000000000FB0108901411070040501508421405064090741402480A0350
1001
ACAD
1000
AcDbSavedByObjectVersion
1070
     0
  0
ACAD_PROXY_OBJECT
  5
A535
102
{ACAD_REACTORS
330
A52C
102
}
330
A52C
100
AcDbZombieObject
 90
      499
 91
      511
 93
      500
310
4290DBDB98D95C1D1D585B10940D028333333333333E3BF0000000000000FB0107902409070040501000000000018199010841D405064090740C02480A0340
1001
ACAD
1000
AcDbSavedByObjectVersion
1070
     0
  0
ACAD_PROXY_OBJECT
  5
A537
102
{ACAD_REACTORS
330
A52C
102
}
330
A52C
100
AcDbZombieObject
 90
      499
 91
      511
 93
      412
310
40D11A5B50B409028333333333333E3BF0000000000000FB010790141107004050150841D405064090741402480A02677FFFFFD0
1001
ACAD
1000
AcDbSavedByObjectVersion
1070
     0
  0
ACAD_PROXY_OBJECT
  5
A53F
102
{ACAD_REACTORS
330
A52C
102
}
330
A52C
100
AcDbZombieObject
 90
      499
 91
      511
 93
      452
310
43115919D950DBDB1BDC93D999916409028333333333333E3BF0000000000000FB010790141107004050150841D405064090741402480A0350
1001
ACAD
1000
AcDbSavedByObjectVersion
1070
     0
  0
ACAD_PROXY_OBJECT
  5
A53B
102
{ACAD_REACTORS
330
A52C
102
}
330
A52C
100
AcDbZombieObject
 90
      499
 91
      511
 93
      444
310
42D19858D95C185D1D195C9B90F409028333333333333E3BF0000000000000FB010790141107004050150841D405064090741402480A0350
1001
ACAD
1000
AcDbSavedByObjectVersion
1070
     0
  0
ACAD_PROXY_OBJECT
  5
A52D
102
{ACAD_REACTORS
330
A52C
102
}
330
A52C
100
AcDbZombieObject
 90
      499
 91
      511
 93
      388
310
41119B185D240901404333333333333E3BF0000000000000F9010740A41107004050150841D405064090741402480A1B50
1001
ACAD
1000
AcDbSavedByObjectVersion
1070
     0
  0
ACAD_PROXY_OBJECT
  5
A52E
102
{ACAD_REACTORS
330
A52C
102
}
330
A52C
100
AcDbZombieObject
 90
      499
 91
      511
 93
      476
310
43519B185D15DA5D1A115919D95CD0140901404333333333333E3BF0000000000000F9010740901411070040501600405405064090741402480A1B50
1001
ACAD
1000
AcDbSavedByObjectVersion
1070
     0
  0
ACAD_PROXY_OBJECT
  5
A52F
102
{ACAD_REACTORS
330
A52C
102
}
330
A52C
100
AcDbZombieObject
 90
      499
 91
      511
 93
      412
310
41D1DBDD5C985D5910240902404333333333333E3BF0000000000000F9010740A411070040501641D405064090741402480A1B50
1001
ACAD
1000
AcDbSavedByObjectVersion
1070
     0
  0
ACAD_PROXY_OBJECT
  5
A530
102
{ACAD_REACTORS
330
A52C
102
}
330
A52C
100
AcDbZombieObject
 90
      499
 91
      511
 93
      500
310
4411DBDD5C985D5915DA5D1A115919D95CD0340902404333333333333E3BF0000000000000F9010740901411070040501600405405064090741402480A1B50
1001
ACAD
1000
AcDbSavedByObjectVersion
1070
     0
  0
ACAD_PROXY_OBJECT
  5
BB88
102
{ACAD_REACTORS
330
A52C
102
}
330
A52C
100
AcDbZombieObject
 90
      499
 91
      511
 93
      476
310
41921A5919195B90640502408333333333333E3BF0000000000000FB01079024090700405020000000000001110200405405064090740C02480A0340
1001
ACAD
1000
AcDbSavedByObjectVersion
1070
     0
  0
ACAD_PROXY_OBJECT
  5
A53D
102
{ACAD_REACTORS
330
A52C
102
}
330
A52C
100
AcDbZombieObject
 90
      499
 91
      511
 93
      428
310
42529A5D1D195C93D999914409028333333333333E3BF0000000000000FB010790141107004050150A41D405064090741402480A0350
1001
ACAD
1000
AcDbSavedByObjectVersion
1070
     0
  0
ACAD_PROXY_OBJECT
  5
A53A
102
{ACAD_REACTORS
330
A52C
102
}
330
A52C
100
AcDbZombieObject
 90
      499
 91
      511
 93
      444
310
42D31A5B995C185D1D195C9B90E409028333333333333E3BF0000000000000FB010790141107004050750841D405064090741402483A0350
1001
ACAD
1000
AcDbSavedByObjectVersion
1070
     0
  0
ACAD_PROXY_OBJECT
  5
CFF8
102
{ACAD_REACTORS
330
A52C
102
}
330
A52C
100
AcDbZombieObject
 90
      499
 91
      511
 93
      484
310
42135BD9195B1A5B99D0A409038333333333333E33F0000000000000F901074090290700405010000000000201990108421405064090741402480A1B40
1001
ACAD
1000
AcDbSavedByObjectVersion
1070
     0
  0
ACAD_PROXY_OBJECT
  5
A53E
102
{ACAD_REACTORS
330
A52C
102
}
330
A52C
100
AcDbZombieObject
 90
      499
 91
      511
 93
      444
310
42D3DD995C9A185B99D3D999915409028333333333333E3BF0000000000000FB010790141107004050150941D405064090741402480A0350
1001
ACAD
1000
AcDbSavedByObjectVersion
1070
     0
  0
ACAD_PROXY_OBJECT
  5
A536
102
{ACAD_REACTORS
330
A52C
102
}
330
A52C
100
AcDbZombieObject
 90
      499
 91
      511
 93
      420
310
425499585B1A5CDD1A58D08409028333333333333E3BF0000000000000FB01079019070040501508421405064090741402480A1B40
1001
ACAD
1000
AcDbSavedByObjectVersion
1070
     0
  0
ACAD_PROXY_OBJECT
  5
BB8D
102
{ACAD_REACTORS
330
A52C
102
}
330
A52C
100
AcDbZombieObject
 90
      499
 91
      511
 93
      420
310
4194DA1859195911B40902404333333333333E3BF0000000000000F9010740A41107004050150800405405064090840C02480A0B40
1001
ACAD
1000
AcDbSavedByObjectVersion
1070
     0
  0
ACAD_PROXY_OBJECT
  5
BB8C
102
{ACAD_REACTORS
330
A52C
102
}
330
A52C
100
AcDbZombieObject
 90
      499
 91
      511
 93
      516
310
4454DA18591959081DDA5D1A08195919D95CD1A40902404333333333333E3BF0000000000000F901074090142907004050250800405405064090740C02480A0B40
1001
ACAD
1000
AcDbSavedByObjectVersion
1070
     0
  0
ACAD_PROXY_OBJECT
  5
BB89
102
{ACAD_REACTORS
330
A52C
102
}
330
A52C
100
AcDbZombieObject
 90
      499
 91
      511
 93
      532
310
4394DA1859195CC81BD98811DC985E5174090240C333333333333E3BF0000000000000FB01079024090741D01000000000000111010841D405064090740C02480A0340
1001
ACAD
1000
AcDbSavedByObjectVersion
1070
     0
  0
ACAD_PROXY_OBJECT
  5
BB8A
102
{ACAD_REACTORS
330
A52C
102
}
330
A52C
100
AcDbZombieObject
 90
      499
 91
      511
 93
      476
310
41D4DAD95D18DA1E51840502408333333333333E3BF0000000000000FB01079024090741D01000000000000111010B41D405064090741802480A0340
1001
ACAD
1000
AcDbSavedByObjectVersion
1070
     0
  0
ACAD_PROXY_OBJECT
  5
A539
102
{ACAD_REACTORS
330
A52C
102
}
330
A52C
100
AcDbZombieObject
 90
      499
 91
      511
 93
      412
310
41D51A1A58DAD95B90D409028333333333333E3BF0000000000000FB010790141107004050150C41D405064090741402480A0350
1001
ACAD
1000
AcDbSavedByObjectVersion
1070
     0
  0
ACAD_PROXY_OBJECT
  5
BB87
102
{ACAD_REACTORS
330
A52C
102
}
330
A52C
100
AcDbZombieObject
 90
      499
 91
      511
 93
      420
310
4255DA5C99599C985B595059028333333333333E3BF0000000000000FB0107901411070040501600405405064090740C02480A0340
1001
ACAD
1000
AcDbSavedByObjectVersion
1070
     0
  0
ACAD_PROXY_OBJECT
  5
BB8B
102
{ACAD_REACTORS
330
A52C
102
}
330
A52C
100
AcDbZombieObject
 90
      499
 91
      511
 93
      404
310
41560B54985E51940902404000000000000E03F0000000000000FB010740501907004050150841D405064090740C02480A1B40
1001
ACAD
1000
AcDbSavedByObjectVersion
1070
     0
  0
XRECORD
  5
D182
102
{ACAD_REACTORS
330
D181
102
}
330
D181
100
AcDbXrecord
340
6590
  0
XRECORD
  5
D183
102
{ACAD_REACTORS
330
D181
102
}
330
D181
100
AcDbXrecord
340
658F
  0
DICTIONARYVAR
  5
B088
102
{ACAD_REACTORS
330
2739
102
}
330
2739
100
DictionaryVariables
280
     0
  1
1:1
  0
DICTIONARYVAR
  5
B087
102
{ACAD_REACTORS
330
2739
102
}
330
2739
100
DictionaryVariables
280
     0
  1
Standard
  0
DICTIONARYVAR
  5
8076
102
{ACAD_REACTORS
330
2739
102
}
330
2739
100
DictionaryVariables
280
     0
  1
Standard
  0
DICTIONARYVAR
  5
3FDC
102
{ACAD_REACTORS
330
2739
102
}
330
2739
100
DictionaryVariables
280
     0
  1
-1
  0
DICTIONARYVAR
  5
7B85
102
{ACAD_REACTORS
330
2739
102
}
330
2739
100
DictionaryVariables
280
     0
  1
2
  0
DICTIONARYVAR
  5
9173
102
{ACAD_REACTORS
330
2739
102
}
330
2739
100
DictionaryVariables
280
     0
  1
1
  0
DICTIONARYVAR
  5
B08B
102
{ACAD_REACTORS
330
2739
102
}
330
2739
100
DictionaryVariables
280
     0
  1
0
  0
DICTIONARYVAR
  5
9177
102
{ACAD_REACTORS
330
2739
102
}
330
2739
100
DictionaryVariables
280
     0
  1
8
  0
DICTIONARYVAR
  5
9176
102
{ACAD_REACTORS
330
2739
102
}
330
2739
100
DictionaryVariables
280
     0
  1
1
  0
DICTIONARYVAR
  5
B089
102
{ACAD_REACTORS
330
2739
102
}
330
2739
100
DictionaryVariables
280
     0
  1
0
  0
DICTIONARYVAR
  5
B08A
102
{ACAD_REACTORS
330
2739
102
}
330
2739
100
DictionaryVariables
280
     0
  1
0
  0
DICTIONARYVAR
  5
D077
102
{ACAD_REACTORS
330
2739
102
}
330
2739
100
DictionaryVariables
280
     0
  1
0
  0
DICTIONARYVAR
  5
9174
102
{ACAD_REACTORS
330
2739
102
}
330
2739
100
DictionaryVariables
280
     0
  1
120
  0
DICTIONARYVAR
  5
9175
102
{ACAD_REACTORS
330
2739
102
}
330
2739
100
DictionaryVariables
280
     0
  1
0
  0
DICTIONARYVAR
  5
7B86
102
{ACAD_REACTORS
330
2739
102
}
330
2739
100
DictionaryVariables
280
     0
  1

  0
DICTIONARYVAR
  5
273A
102
{ACAD_REACTORS
330
2739
102
}
330
2739
100
DictionaryVariables
280
     0
  1
96
  0
DICTIONARYVAR
  5
CFF7
102
{ACAD_REACTORS
330
2739
102
}
330
2739
100
DictionaryVariables
280
     0
  1
2
  0
DICTIONARY
  5
D31F
330
A51C
100
AcDbDictionary
  3
ACAD_XREC_ROUNDTRIP
360
D320
1001
ACAD
1000
TREAT_AS_HARD
1070
     1
  0
DICTIONARY
  5
D321
330
A514
100
AcDbDictionary
  3
ACAD_XREC_ROUNDTRIP
360
D322
1001
ACAD
1000
TREAT_AS_HARD
1070
     1
  0
DICTIONARY
  5
D323
330
A524
100
AcDbDictionary
  3
ACAD_XREC_ROUNDTRIP
360
D324
1001
ACAD
1000
TREAT_AS_HARD
1070
     1
  0
XRECORD
  5
D320
102
{ACAD_REACTORS
330
D31F
102
}
330
D31F
100
AcDbXrecord
102
MATERIAL
148
0.0
149
0.0
149
0.0
 93
        0
 94
      127
282
     0
 72
     0
 77
     0
171
     0
175
     0
179
     0
273
     0
  0
XRECORD
  5
D322
102
{ACAD_REACTORS
330
D321
102
}
330
D321
100
AcDbXrecord
102
MATERIAL
148
0.0
149
0.0
149
0.0
 93
        0
 94
      127
282
     0
 72
     0
 77
     0
171
     0
175
     0
179
     0
273
     0
  0
XRECORD
  5
D324
102
{ACAD_REACTORS
330
D323
102
}
330
D323
100
AcDbXrecord
102
MATERIAL
148
0.0
149
0.0
149
0.0
 93
        0
 94
      127
282
     0
 72
     0
 77
     0
171
     0
175
     0
179
     0
273
     0
  0
ENDSEC
  0
EOF
