  0
SECTION
  2
HEADER
  9
$ACADVER
  1
AC1009
  9
$INSBASE
 10
0.0
 20
0.0
 30
0.0
  9
$EXTMIN
 10
453.94254461701883
 20
-777.36994078698501
 30
-0.0000000018214434
  9
$EXTMAX
 10
802.16819396168376
 20
-577.92418338290543
 30
0.0000000621167454
  9
$LIMMIN
 10
0.0
 20
0.0
  9
$LIMMAX
 10
12.0
 20
9.0
  9
$ORTHOMODE
 70
     0
  9
$REGENMODE
 70
     1
  9
$FILLMODE
 70
     1
  9
$QTEXTMODE
 70
     0
  9
$MIRRTEXT
 70
     0
  9
$DRAGMODE
 70
     2
  9
$LTSCALE
 40
0.5
  9
$OSMODE
 70
    63
  9
$ATTMODE
 70
     1
  9
$TEXTSIZE
 40
4.0
  9
$TRACEWID
 40
0.05
  9
$TEXTSTYLE
  7
STANDARD
  9
$CLAYER
  8
1TEXT
  9
$CELTYPE
  6
BYLAYER
  9
$CECOLOR
 62
   256
  9
$DIMSCALE
 40
1.0
  9
$DIMASZ
 40
2.0
  9
$DIMEXO
 40
0.0
  9
$DIMDLI
 40
7.0
  9
$DIMRND
 40
0.0
  9
$DIMDLE
 40
0.0
  9
$DIMEXE
 40
1.0
  9
$DIMTP
 40
0.0
  9
$DIMTM
 40
0.0
  9
$DIMTXT
 40
3.5
  9
$DIMCEN
 40
0.0
  9
$DIMTSZ
 40
0.0
  9
$DIMTOL
 70
     0
  9
$DIMLIM
 70
     0
  9
$DIMTIH
 70
     0
  9
$DIMTOH
 70
     0
  9
$DIMSE1
 70
     0
  9
$DIMSE2
 70
     0
  9
$DIMTAD
 70
     1
  9
$DIMZIN
 70
     8
  9
$DIMBLK
  1

  9
$DIMASO
 70
     1
  9
$DIMSHO
 70
     1
  9
$DIMPOST
  1
 
  9
$DIMAPOST
  1

  9
$DIMALT
 70
     0
  9
$DIMALTD
 70
     2
  9
$DIMALTF
 40
25.399999999999999
  9
$DIMLFAC
 40
1.0
  9
$DIMTOFL
 70
     1
  9
$DIMTVP
 40
0.0
  9
$DIMTIX
 70
     0
  9
$DIMSOXD
 70
     0
  9
$DIMSAH
 70
     1
  9
$DIMBLK1
  1
OPEN30
  9
$DIMBLK2
  1
OPEN30
  9
$DIMSTYLE
  2
NEWX10
  9
$DIMCLRD
 70
   256
  9
$DIMCLRE
 70
   256
  9
$DIMCLRT
 70
   201
  9
$DIMTFAC
 40
0.7
  9
$DIMGAP
 40
0.7
  9
$LUNITS
 70
     2
  9
$LUPREC
 70
     4
  9
$SKETCHINC
 40
0.1
  9
$FILLETRAD
 40
0.0
  9
$AUNITS
 70
     0
  9
$AUPREC
 70
     2
  9
$MENU
  1
acad
  9
$ELEVATION
 40
0.0
  9
$PELEVATION
 40
0.0
  9
$THICKNESS
 40
0.0
  9
$LIMCHECK
 70
     0
  9
$BLIPMODE
 70
     0
  9
$CHAMFERA
 40
0.0
  9
$CHAMFERB
 40
0.0
  9
$SKPOLY
 70
     0
  9
$TDCREATE
 40
2451024.579593021
  9
$TDUPDATE
 40
2457014.6585085648
  9
$TDINDWG
 40
1.0763740508999999
  9
$TDUSRTIMER
 40
1.0763740508999999
  9
$USRTIMER
 70
     1
  9
$ANGBASE
 50
0.0
  9
$ANGDIR
 70
     0
  9
$PDMODE
 70
     0
  9
$PDSIZE
 40
0.0
  9
$PLINEWID
 40
0.0
  9
$COORDS
 70
     0
  9
$SPLFRAME
 70
     0
  9
$SPLINETYPE
 70
     6
  9
$SPLINESEGS
 70
     8
  9
$ATTDIA
 70
     0
  9
$ATTREQ
 70
     1
  9
$HANDLING
 70
     1
  9
$HANDSEED
  5
BCE1
  9
$SURFTAB1
 70
     6
  9
$SURFTAB2
 70
     6
  9
$SURFTYPE
 70
     6
  9
$SURFU
 70
     6
  9
$SURFV
 70
     6
  9
$UCSNAME
  2

  9
$UCSORG
 10
0.0
 20
0.0
 30
0.0
  9
$UCSXDIR
 10
1.0
 20
0.0
 30
0.0
  9
$UCSYDIR
 10
0.0
 20
1.0
 30
0.0
  9
$PUCSNAME
  2

  9
$PUCSORG
 10
0.0
 20
0.0
 30
0.0
  9
$PUCSXDIR
 10
1.0
 20
0.0
 30
0.0
  9
$PUCSYDIR
 10
0.0
 20
1.0
 30
0.0
  9
$USERI1
 70
     0
  9
$USERI2
 70
     0
  9
$USERI3
 70
     0
  9
$USERI4
 70
     0
  9
$USERI5
 70
     0
  9
$USERR1
 40
0.0
  9
$USERR2
 40
0.0
  9
$USERR3
 40
0.0
  9
$USERR4
 40
0.0
  9
$USERR5
 40
0.0
  9
$WORLDVIEW
 70
     1
  9
$SHADEDGE
 70
     3
  9
$SHADEDIF
 70
    70
  9
$TILEMODE
 70
     1
  9
$MAXACTVP
 70
    48
  9
$PLIMCHECK
 70
     0
  9
$PEXTMIN
 10
1.0000000000000000E+020
 20
1.0000000000000000E+020
 30
1.0000000000000000E+020
  9
$PEXTMAX
 10
-1.0000000000000000E+020
 20
-1.0000000000000000E+020
 30
-1.0000000000000000E+020
  9
$PLIMMIN
 10
0.0
 20
0.0
  9
$PLIMMAX
 10
12.0
 20
9.0
  9
$UNITMODE
 70
     0
  9
$VISRETAIN
 70
     1
  9
$PLINEGEN
 70
     0
  9
$PSLTSCALE
 70
     1
  0
ENDSEC
  0
SECTION
  2
TABLES
  0
TABLE
  2
VPORT
 70
     1
  0
VPORT
  2
*ACTIVE
 70
     0
 10
0.0
 20
0.0
 11
1.0
 21
1.0
 12
628.05536929435129
 22
-677.64706208494522
 13
0.0
 23
0.0
 14
1.0
 24
1.0
 15
0.0
 25
0.0
 16
0.0
 26
0.0
 36
1.0
 17
0.0
 27
0.0
 37
0.0
 40
211.50381630407179
 41
2.1749379652605461
 42
50.0
 43
0.0
 44
0.0
 50
0.0
 51
0.0
 71
     0
 72
  1000
 73
     1
 74
     1
 75
     0
 76
     0
 77
     0
 78
     0
  0
ENDTAB
  0
TABLE
  2
LTYPE
 70
    12
  0
LTYPE
  2
CONTINUOUS
 70
     0
  3
Solid line
 72
    65
 73
     0
 40
0.0
  0
LTYPE
  2
XREF1|CENTER2
 70
    48
  3
Center (.5x) ___ _ ___ _ ___ _ ___ _ ___ _ ___
 72
    65
 73
     4
 40
28.574999999999999
 49
19.050000000000001
 49
-3.1749999999999989
 49
3.1749999999999989
 49
-3.1749999999999989
  0
LTYPE
  2
A3WAKUDAKE|CENTER2
 70
    48
  3
Center (.5x) ___ _ ___ _ ___ _ ___ _ ___ _ ___
 72
    65
 73
     4
 40
28.574999999999999
 49
19.050000000000001
 49
-3.1749999999999989
 49
3.1749999999999989
 49
-3.1749999999999989
  0
ENDTAB
  0
TABLE
  2
LAYER
 70
    36
  0
LAYER
  2
0
 70
     0
 62
     7
  6
CONTINUOUS
  0
LAYER
  2
1TEXT
 70
     0
 62
     7
  6
CONTINUOUS
  0
LAYER
  2
A3WAKUDAKE|THICK
 70
    48
 62
     7
  6
CONTINUOUS
  0
LAYER
  2
A3WAKUDAKE|POINT
 70
    48
 62
     7
  6
CONTINUOUS
  0
LAYER
  2
A3WAKUDAKE|1CENTER
 70
    48
 62
     7
  6
A3WAKUDAKE|CENTER2
  0
LAYER
  2
A3WAKUDAKE|0-6
 70
    48
 62
     7
  6
CONTINUOUS
  0
LAYER
  2
01
 70
     0
 62
     1
  6
CONTINUOUS
  0
LAYER
  2
A3WAKUDAKE|1DIM
 70
    48
 62
     7
  6
CONTINUOUS
  0
LAYER
  2
XREF1|1CENTER
 70
    48
 62
     7
  6
XREF1|CENTER2
  0
ENDTAB
  0
TABLE
  2
STYLE
 70
     5
  0
STYLE
  2
STANDARD
 70
     0
 40
0.0
 41
1.0
 50
0.0
 71
     0
 42
4.0
  3
romans.shx
  4
extfont2.shx
  0
ENDTAB
  0
TABLE
  2
VIEW
 70
     6
  0
VIEW
  2
A
 70
     0
 40
163.88865421183439
 10
23.75874513620715
 20
-310.52391195898861
 41
232.0683926202114
 11
0.0
 21
0.0
 31
1.0
 12
0.0
 22
0.0
 32
0.0
 42
50.0
 43
0.0
 44
0.0
 50
0.0
 71
     0
  0
ENDTAB
  0
TABLE
  2
UCS
 70
     0
  0
ENDTAB
  0
TABLE
  2
APPID
 70
    12
  0
APPID
  2
ACAD
 70
     0
  0
APPID
  2
CONTENTBLOCKICON
 70
     0
  0
APPID
  2
CONTENTBLOCKDESCRIPTION
 70
     0
  0
APPID
  2
CONTENTTABDATA
 70
     0
  0
APPID
  2
CONTENTCURRENTTAB
 70
     0
  0
APPID
  2
DRAWINGVARIABLESXDATA
 70
     0
  0
APPID
  2
CONTENTLONGBLOCKNAME
 70
     0
  0
APPID
  2
ACAD_DSTYLE_DIMTEXT_FILL
 70
     0
  0
APPID
  2
ACAD_PSEXT
 70
     0
  0
APPID
  2
ACAD_MLEADERVER
 70
     0
  0
APPID
  2
ACAD_NAV_VCDISPLAY
 70
     0
  0
APPID
  2
ACAD_EXEMPT_FROM_CAD_STANDARDS
 70
     0
  0
ENDTAB
  0
TABLE
  2
DIMSTYLE
 70
     5
  0
DIMSTYLE
  2
NEWX10
 70
     0
  3
 
  4

  5

  6
OPEN30
  7
OPEN30
 40
1.0
 41
2.0
 42
0.0
 43
7.0
 44
1.0
 45
0.0
 46
0.0
 47
0.0
 48
0.0
140
3.5
141
0.0
142
0.0
143
25.399999999999999
144
1.0
145
0.0
146
0.7
147
0.7
 71
     0
 72
     0
 73
     0
 74
     0
 75
     0
 76
     0
 77
     1
 78
     8
170
     0
171
     2
172
     1
173
     1
174
     0
175
     0
176
   256
177
   256
178
   201
  0
ENDTAB
  0
ENDSEC
  0
SECTION
  2
BLOCKS
  0
BLOCK
  8
0
  2
$MODEL_SPACE
 70
     0
 10
0.0
 20
0.0
 30
0.0
  3
$MODEL_SPACE
  1

  0
ENDBLK
  5
1A
  8
0
  0
BLOCK
 67
     1
  8
0
  2
$PAPER_SPACE
 70
     0
 10
0.0
 20
0.0
 30
0.0
  3
$PAPER_SPACE
  1

  0
ENDBLK
  5
17
 67
     1
  8
0
  0
BLOCK
  8
0
  2
XREF1
 70
    36
 10
0.0
 20
0.0
 30
0.0
  3
XREF1
  1
D:\ACLT\FORMAT\KAWAJUN(9)図面用.dwg
  0
ENDBLK
  5
37B8
  8
0
  0
BLOCK
  8
0
  2
_OPEN30
 70
     0
 10
0.0
 20
0.0
 30
0.0
  3
_OPEN30
  1

  0
LINE
  5
3854
  8
0
  6
BYBLOCK
 62
     0
 10
-1.0
 20
0.26794919
 30
0.0
 11
0.0
 21
0.0
 31
0.0
  0
LINE
  5
3855
  8
0
  6
BYBLOCK
 62
     0
 10
0.0
 20
0.0
 30
0.0
 11
-1.0
 21
-0.26794919
 31
0.0
  0
LINE
  5
3856
  8
0
  6
BYBLOCK
 62
     0
 10
0.0
 20
0.0
 30
0.0
 11
-1.0
 21
0.0
 31
0.0
  0
ENDBLK
  5
3858
  8
0
  0
BLOCK
  8
0
  2
A3WAKUDAKE
 70
    36
 10
0.0
 20
0.0
 30
0.0
  3
A3WAKUDAKE
  1
D:\ACLT\FORMAT\A3WAKUdake.dwg
  0
ENDBLK
  5
5533
  8
0
  0
ENDSEC
  0
SECTION
  2
ENTITIES
  0
TEXT
  5
8D1E
  8
01
 10
741.70146770974145
 20
-693.56859773147971
 30
-0.0000000000562575
 40
4.0
  1
付属ねじ
  0
TEXT
  5
8FBC
  8
01
 10
461.41808473851631
 20
-585.92418338290554
 30
-0.0000000000562575
 40
8.0
  1
KLM-2E-X
  0
LINE
  5
9123
  8
01
 10
657.17136485723336
 20
-588.08587177560162
 30
-0.0000000000562575
 11
657.17136485723358
 21
-602.27158217560066
 31
-0.0000000000562575
  0
LINE
  5
9211
  8
01
 10
480.44254461701922
 20
-691.17872697560176
 30
-0.0000000000562575
 11
480.44254461701922
 21
-679.17872697560176
 31
-0.0000000000562575
  0
LINE
  5
9212
  8
01
 10
474.44254461701922
 20
-685.17872697560188
 30
-0.0000000000562575
 11
486.44254461701928
 21
-685.17872697560188
 31
-0.0000000000562575
  0
LINE
  5
929D
  8
01
 10
657.17136485723336
 20
-691.17872697560108
 30
-0.0000000000562575
 11
657.17136485723336
 21
-679.17872697560119
 31
-0.0000000000562575
  0
LINE
  5
929E
  8
01
 10
651.17136485723336
 20
-685.17872697560119
 30
-0.0000000000562575
 11
663.17136485723336
 21
-685.17872697560119
 31
-0.0000000000562575
  0
LINE
  5
92AB
  8
01
 10
593.55504530132555
 20
-685.17872697560188
 30
-0.0000000000562575
 11
605.55504530132555
 21
-685.17872697560188
 31
-0.0000000000562575
  0
LINE
  5
A880
  8
01
 10
783.13705149029272
 20
-621.79981777368323
 30
-0.0000000000562575
 11
783.13705149029306
 21
-623.79981777368323
 31
-0.0000000000562575
  0
LINE
  5
A881
  8
01
 10
782.13705149029306
 20
-624.79981777368323
 30
-0.0000000000562575
 11
783.13705149029306
 21
-623.79981777368323
 31
-0.0000000000562575
  0
LINE
  5
A882
  8
01
 10
782.13705149029272
 20
-620.79981777368323
 30
-0.0000000000562575
 11
783.13705149029272
 21
-621.79981777368323
 31
-0.0000000000562575
  0
LINE
  5
A883
  8
01
 10
734.13705149029136
 20
-621.79981777368334
 30
-0.0000000000562575
 11
734.13705149029136
 21
-623.79981777368289
 31
-0.0000000000562575
  0
LINE
  5
A884
  8
01
 10
735.13705149029136
 20
-624.799817773683
 30
-0.0000000000562575
 11
782.13705149029306
 21
-624.79981777368323
 31
-0.0000000000562575
  0
LINE
  5
A885
  8
01
 10
734.13705149029136
 20
-623.79981777368289
 30
-0.0000000000562575
 11
735.13705149029136
 21
-624.799817773683
 31
-0.0000000000562575
  0
LINE
  5
A886
  8
01
 10
735.13705149029136
 20
-620.79981777368334
 30
-0.0000000000562575
 11
782.13705149029272
 21
-620.79981777368323
 31
-0.0000000000562575
  0
LINE
  5
A887
  8
01
 10
734.13705149029136
 20
-621.79981777368334
 30
-0.0000000000562575
 11
735.13705149029136
 21
-620.79981777368334
 31
-0.0000000000562575
  0
LINE
  5
A888
  8
01
 10
735.13705149029136
 20
-620.79981777368334
 30
-0.0000000000562575
 11
735.13705149029136
 21
-624.799817773683
 31
-0.0000000000562575
  0
LINE
  5
A889
  8
01
 10
782.13705149029272
 20
-620.79981777368323
 30
-0.0000000000562575
 11
782.13705149029306
 21
-624.79981777368323
 31
-0.0000000000562575
  0
LINE
  5
A8DF
  8
01
 10
557.40532887900486
 20
-664.02875365957345
 30
-0.0000000001125151
 11
557.40529543012485
 21
-706.32875369736996
 31
-0.0000000001125151
  0
LINE
  5
A8E6
  8
01
 10
557.40532887900486
 20
-664.02875365957345
 30
-0.0000000001125151
 11
549.39650554049115
 21
-664.17007950115737
 31
-0.0000000001125151
  0
ARC
  5
A8E7
  8
01
 10
549.40532730100244
 20
-664.67000167164133
 30
-0.0000000001125151
 40
0.5
 50
91.010951745492235
 51
179.99995469315749
  0
LINE
  5
A8E8
  8
01
 10
548.90532730100335
 20
-664.67000127626466
 30
-0.0000000001125151
 11
548.90529486627111
 21
-705.68749263786628
 31
-0.0000000001125151
  0
LINE
  5
A8EA
  8
01
 10
549.39647231512959
 20
-706.18741518977481
 30
-0.0000000001125151
 11
557.40529543012485
 21
-706.32875369736996
 31
-0.0000000001125151
  0
ARC
  5
A8EB
  8
01
 10
549.40529486627133
 20
-705.68749303324307
 30
-0.0000000001125151
 40
0.5
 50
179.99995469315749
 51
268.98895764083858
  0
LINE
  5
A935
  8
01
 10
547.90531500930126
 20
-672.67897080624255
 30
-0.0000000000562575
 11
547.90531500929978
 21
-697.67897080624255
 31
-0.0000000000562575
  0
LINE
  5
A936
  8
01
 10
533.90531539177516
 20
-672.67897080624255
 30
-0.0000000000562575
 11
533.90531539177562
 21
-697.67897080624289
 31
-0.0000000000562575
  0
LINE
  5
A937
  8
01
 10
534.40531539177516
 20
-672.17897080624255
 30
-0.0000000000562575
 11
548.90532136325817
 21
-672.17897080624255
 31
-0.0000000000562575
  0
ARC
  5
A938
  8
01
 10
534.40531539177516
 20
-672.67897080624255
 30
-0.0000000000562575
 40
0.5
 50
90.0
 51
180.0
  0
LINE
  5
A939
  8
01
 10
534.40531539177562
 20
-698.17897080624289
 30
-0.0000000000562575
 11
548.90530080366227
 21
-698.17897080624255
 31
-0.0000000000562575
  0
ARC
  5
A93A
  8
01
 10
534.40531539177562
 20
-697.67897080624289
 30
-0.0000000000562575
 40
0.5
 50
180.0
 51
270.0
  0
ARC
  5
A93B
  8
01
 10
548.40531500929944
 20
-672.67897080624255
 30
-0.0000000000562575
 40
0.5
 50
90.0
 51
180.0
  0
ARC
  5
A93D
  8
01
 10
548.40531500929978
 20
-697.67897080624255
 30
-0.0000000000562575
 40
0.5
 50
180.0
 51
270.0
  0
LINE
  5
A986
  8
01
 10
596.10530387928713
 20
-664.02875365957345
 30
0.0000000000562575
 11
596.10533732816714
 21
-706.32875369736996
 31
0.0000000000562575
  0
LINE
  5
A98E
  8
01
 10
596.10530387928713
 20
-664.02875365957345
 30
0.0000000000562575
 11
604.11412721780073
 21
-664.17007950115737
 31
0.0000000000562575
  0
ARC
  5
A98F
  8
01
 10
604.10530545728955
 20
-664.67000167164133
 30
0.0000000000562575
 40
0.5
 50
0.0000453068424606
 51
88.989048254507765
  0
LINE
  5
A990
  8
01
 10
604.60530545728864
 20
-664.67000127626466
 30
0.0000000000562575
 11
604.60533789202054
 21
-705.68749303324307
 31
0.0000000000562575
  0
LINE
  5
A992
  8
01
 10
604.1141604431624
 20
-706.18741518977481
 30
0.0000000000562575
 11
596.10533732816714
 21
-706.32875369736996
 31
0.0000000000562575
  0
ARC
  5
A993
  8
01
 10
604.10533789202054
 20
-705.68749303324307
 30
0.0000000000562575
 40
0.5
 50
271.01104235916131
 51
0.0000453068424606
  0
LINE
  5
AA11
  8
01
 10
605.20537359284583
 20
-684.17872686194664
 30
0.0000000001125151
 11
605.20537349449546
 21
-681.92873996396975
 31
0.0000000001125151
  0
LINE
  5
AA12
  8
01
 10
605.2053736802676
 20
-686.17872686194676
 30
0.0000000001125151
 11
605.20537377861922
 21
-688.42873996396793
 31
0.0000000001125151
  0
LINE
  5
AA13
  8
01
 10
605.20537359284583
 20
-684.17872686194664
 30
0.0000000001125151
 11
604.60532088388504
 21
-684.17872688817567
 31
0.0000000001125151
  0
LINE
  5
AA14
  8
01
 10
605.2053736802676
 20
-686.17872686194676
 30
0.0000000001125151
 11
604.60532246539231
 21
-686.1787268881759
 31
0.0000000001125151
  0
ARC
  5
AA18
  8
01
 10
604.20528306368408
 20
-688.42872747720276
 30
-0.0000000018214434
 40
1.0
 50
293.58079822713501
 51
359.99928456083438
  0
ARC
  5
AA19
  8
01
 10
604.20535810254864
 20
-681.92872747720139
 30
0.0000000621167454
 40
1.0
 50
359.99928456083438
 51
66.424304750185613
  0
LINE
  5
AA1F
  8
01
 10
453.94254461701883
 20
-664.67872697560188
 30
-0.0000000000562575
 11
453.94254461701968
 21
-705.67872697560188
 31
-0.0000000000562575
  0
LINE
  5
AA20
  8
01
 10
506.94254461701928
 20
-705.67872697560188
 30
-0.0000000000562575
 11
506.94254461701883
 21
-664.67872697560142
 31
-0.0000000000562575
  0
ARC
  5
AA21
  8
01
 10
506.44254461701928
 20
-705.67872697560188
 30
-0.0000000000562575
 40
0.5
 50
270.0
 51
0.0
  0
ARC
  5
AA22
  8
01
 10
506.44254461701883
 20
-664.67872697560142
 30
-0.0000000000562575
 40
0.5
 50
0.0
 51
90.0
  0
LINE
  5
AA23
  8
01
 10
506.44254461701928
 20
-706.17872697560188
 30
-0.0000000000562575
 11
454.44254461701968
 21
-706.17872697560188
 31
-0.0000000000562575
  0
ARC
  5
AA24
  8
01
 10
454.44254461701968
 20
-705.67872697560188
 30
-0.0000000000562575
 40
0.5
 50
180.0
 51
270.0
  0
LINE
  5
AA26
  8
01
 10
506.44254461701883
 20
-664.17872697560142
 30
-0.0000000000562575
 11
454.44254461701883
 21
-664.17872697560188
 31
-0.0000000000562575
  0
ARC
  5
AA27
  8
01
 10
454.44254461701883
 20
-664.67872697560188
 30
-0.0000000000562575
 40
0.5
 50
90.0
 51
180.0
  0
CIRCLE
  5
AA28
  8
01
 10
480.44254461701922
 20
-685.17872697560188
 30
-0.0000000000562575
 40
13.50000000000227
  0
ARC
  5
AA29
  8
01
 10
480.44254461701922
 20
-685.17872697560188
 30
-0.0000000000562575
 40
13.00000000000227
 50
257.76041684384802
 51
282.23958315615181
  0
LINE
  5
AA2A
  8
01
 10
483.59254461701931
 20
-697.39459780006609
 30
-0.0000000000562575
 11
483.59254461701931
 21
-672.9628561511372
 31
-0.0000000000562575
  0
LINE
  5
AA2B
  8
01
 10
477.29254461701868
 20
-697.39459780006609
 30
-0.0000000000562575
 11
477.29254461701868
 21
-672.96285615113754
 31
-0.0000000000562575
  0
ARC
  5
AA2C
  8
01
 10
477.79254461701868
 20
-697.39459780006609
 30
-0.0000000000562575
 40
0.5
 50
180.0
 51
257.76041684384802
  0
ARC
  5
AA2D
  8
01
 10
483.09254461701931
 20
-697.39459780006609
 30
-0.0000000000562575
 40
0.5
 50
282.23958315615181
 51
0.0
  0
ARC
  5
AA2E
  8
01
 10
477.79254461701868
 20
-672.96285615113754
 30
-0.0000000000562575
 40
0.5
 50
102.23958315615189
 51
180.0
  0
ARC
  5
AA2F
  8
01
 10
483.09254461701931
 20
-672.96285615113754
 30
-0.0000000000562575
 40
0.5
 50
0.0000000000521102
 51
77.76041684384812
  0
ARC
  5
AA40
  8
01
 10
480.44254461701922
 20
-685.17872697560188
 30
-0.0000000000562575
 40
13.00000000000227
 50
77.76041684384812
 51
102.23958315615189
  0
LINE
  5
AA4A
  8
01
 10
630.67136485723302
 20
-664.67872697560108
 30
-0.0000000000562575
 11
630.67136485723393
 21
-705.67872697560119
 31
-0.0000000000562575
  0
LINE
  5
AA4B
  8
01
 10
683.67136485723336
 20
-705.67872697560119
 30
-0.0000000000562575
 11
683.67136485723302
 21
-664.67872697560074
 31
-0.0000000000562575
  0
ARC
  5
AA4C
  8
01
 10
683.17136485723347
 20
-705.67872697560119
 30
-0.0000000000562575
 40
0.5
 50
270.0
 51
0.0
  0
ARC
  5
AA4D
  8
01
 10
683.17136485723302
 20
-664.67872697560074
 30
-0.0000000000562575
 40
0.5
 50
0.0
 51
90.0
  0
LINE
  5
AA4E
  8
01
 10
683.17136485723347
 20
-706.17872697560119
 30
-0.0000000000562575
 11
631.17136485723393
 21
-706.17872697560119
 31
-0.0000000000562575
  0
ARC
  5
AA4F
  8
01
 10
631.17136485723393
 20
-705.67872697560119
 30
-0.0000000000562575
 40
0.5
 50
180.0
 51
270.0
  0
LINE
  5
AA51
  8
01
 10
683.17136485723302
 20
-664.17872697560074
 30
-0.0000000000562575
 11
631.17136485723302
 21
-664.17872697560119
 31
-0.0000000000562575
  0
ARC
  5
AA52
  8
01
 10
631.17136485723302
 20
-664.67872697560108
 30
-0.0000000000562575
 40
0.5
 50
90.0
 51
180.0
  0
LINE
  5
AA56
  8
01
 10
661.55884783438921
 20
-684.17872697560119
 30
-0.0000000000562575
 11
652.78388188007773
 21
-684.17872697560119
 31
-0.0000000000562575
  0
LINE
  5
AA57
  8
01
 10
661.55884783438921
 20
-686.17872697560108
 30
-0.0000000000562575
 11
652.78388188007773
 21
-686.17872697560108
 31
-0.0000000000562575
  0
CIRCLE
  5
AA58
  8
01
 10
657.17136485723336
 20
-685.17872697560074
 30
-0.0000000001125151
 40
4.5000007638701609
  0
LINE
  5
AA7E
  8
01
 10
777.63705149029136
 20
-640.44968659891015
 30
-0.0000000000562575
 11
777.63705149029181
 21
-642.44968659891026
 31
-0.0000000000562575
  0
LINE
  5
AA7F
  8
01
 10
776.63705149029192
 20
-643.44968659891015
 30
-0.0000000000562575
 11
777.63705149029181
 21
-642.44968659891026
 31
-0.0000000000562575
  0
LINE
  5
AA80
  8
01
 10
776.63705149029124
 20
-639.44968659891026
 30
-0.0000000000562575
 11
777.63705149029136
 21
-640.44968659891015
 31
-0.0000000000562575
  0
LINE
  5
AA81
  8
01
 10
734.13705149029136
 20
-640.44968659891049
 30
-0.0000000000562575
 11
734.13705149029136
 21
-642.44968659891003
 31
-0.0000000000562575
  0
LINE
  5
AA82
  8
01
 10
735.13705149029136
 20
-643.44968659891003
 30
-0.0000000000562575
 11
776.63705149029192
 21
-643.44968659891015
 31
-0.0000000000562575
  0
LINE
  5
AA83
  8
01
 10
734.13705149029136
 20
-642.44968659891003
 30
-0.0000000000562575
 11
735.13705149029136
 21
-643.44968659891003
 31
-0.0000000000562575
  0
LINE
  5
AA84
  8
01
 10
735.13705149029136
 20
-639.44968659891038
 30
-0.0000000000562575
 11
776.63705149029124
 21
-639.44968659891026
 31
-0.0000000000562575
  0
LINE
  5
AA85
  8
01
 10
734.13705149029136
 20
-640.44968659891049
 30
-0.0000000000562575
 11
735.13705149029136
 21
-639.44968659891038
 31
-0.0000000000562575
  0
LINE
  5
AA86
  8
01
 10
735.13705149029136
 20
-639.44968659891038
 30
-0.0000000000562575
 11
735.13705149029136
 21
-643.44968659891003
 31
-0.0000000000562575
  0
LINE
  5
AA87
  8
01
 10
776.63705149029136
 20
-639.44968659891015
 30
-0.0000000000562575
 11
776.6370514902917
 21
-643.44968659891015
 31
-0.0000000000562575
  0
LINE
  5
B776
  8
01
 10
547.64605782255637
 20
-685.17872697560188
 30
-0.0000000001125151
 11
559.64605782255637
 21
-685.17872697560188
 31
-0.0000000001125151
  0
LINE
  5
B802
  8
01
 10
651.17136485723336
 20
-595.17872697560108
 30
-0.0000000000562575
 11
663.17136485723336
 21
-595.17872697560108
 31
-0.0000000000562575
  0
TEXT
  5
BADA
  8
01
 10
697.76819396168332
 20
-712.60391320066265
 30
-0.0000000000562575
 40
4.0
  1
材質：亜鉛ダイキャスト・真鍮・ポリアセタール
 11
697.76819396168332
 21
-710.60391320066265
 31
-0.0000000000562575
 73
     2
  0
TEXT
  5
BADB
  8
01
 10
705.4235437985908
 20
-719.86994078698501
 30
-0.0000000000562575
 40
4.0
  1
表面処理
 72
     1
 11
714.49021046525752
 21
-719.86994078698501
 31
-0.0000000000562575
  0
TEXT
  5
BADC
  8
01
 10
705.4235437985908
 20
-733.70522944650929
 30
-0.0000000000562575
 40
4.0
  1
クローム
 72
     1
 11
714.49021046525752
 21
-733.70522944650929
 31
-0.0000000000562575
  0
TEXT
  5
BADD
  8
01
 10
703.02354379859082
 20
-726.84783580696933
 30
-0.0000000000562575
 40
4.0
  1
本金メッキ
 72
     1
 11
714.49021046525752
 21
-726.84783580696933
 31
-0.0000000000562575
  0
LINE
  5
BADE
  8
01
 10
697.09021046525743
 20
-714.36994078698501
 30
-0.0000000000562575
 11
767.09021046525743
 21
-714.36994078698501
 31
-0.0000000000562575
  0
LINE
  5
BADF
  8
01
 10
697.09021046525743
 20
-728.36994078698501
 30
-0.0000000000562575
 11
767.09021046525743
 21
-728.36994078698501
 31
-0.0000000000562575
  0
LINE
  5
BAE0
  8
01
 10
697.09021046525743
 20
-721.3699407869849
 30
-0.0000000000562575
 11
767.09021046525743
 21
-721.3699407869849
 31
-0.0000000000562575
  0
LINE
  5
BAE1
  8
01
 10
697.09021046525743
 20
-735.36994078698501
 30
-0.0000000000562575
 11
767.09021046525743
 21
-735.36994078698501
 31
-0.0000000000562575
  0
LINE
  5
BAE2
  8
01
 10
697.09021046525743
 20
-735.36994078698501
 30
-0.0000000000562575
 11
767.09021046525743
 21
-735.36994078698501
 31
-0.0000000000562575
  0
LINE
  5
BAE3
  8
01
 10
732.09021046525743
 20
-714.36994078698501
 30
-0.0000000000562575
 11
732.09021046525743
 21
-777.36994078698501
 31
-0.0000000000562575
  0
TEXT
  5
BAE4
  8
01
 10
736.15687713192449
 20
-727.08429777063441
 30
-0.0000000000562575
 40
4.0
  1
KLM-2E-G
 41
0.8
 72
     1
 11
749.49021046525786
 21
-727.08429777063441
 31
-0.0000000000562575
  0
TEXT
  5
BAE5
  8
01
 10
742.82354379859078
 20
-719.86994078698501
 30
-0.0000000000562575
 40
4.0
  1
コード
 72
     1
 11
749.49021046525752
 21
-719.86994078698501
 31
-0.0000000000562575
  0
LINE
  5
BAE6
  8
01
 10
697.09021046525743
 20
-777.36994078698501
 30
-0.0000000000562575
 11
697.09021046525743
 21
-714.36994078698501
 31
-0.0000000000562575
  0
LINE
  5
BAE7
  8
01
 10
767.09021046525743
 20
-777.36994078698501
 30
-0.0000000000562575
 11
767.09021046525743
 21
-714.36994078698501
 31
-0.0000000000562575
  0
LINE
  5
BAE8
  8
01
 10
697.09021046525743
 20
-742.3699407869849
 30
-0.0000000000562575
 11
767.09021046525743
 21
-742.3699407869849
 31
-0.0000000000562575
  0
LINE
  5
BAE9
  8
01
 10
697.09021046525743
 20
-742.3699407869849
 30
-0.0000000000562575
 11
767.09021046525743
 21
-742.3699407869849
 31
-0.0000000000562575
  0
TEXT
  5
BAEA
  8
01
 10
698.22354379859087
 20
-740.70522944650941
 30
-0.0000000000562575
 40
4.0
  1
パールクローム
 72
     1
 11
714.49021046525752
 21
-740.70522944650941
 31
-0.0000000000562575
  0
LINE
  5
BAEB
  8
01
 10
697.09021046525743
 20
-756.36994078698501
 30
-0.0000000000562575
 11
767.09021046525743
 21
-756.36994078698501
 31
-0.0000000000562575
  0
LINE
  5
BAEC
  8
01
 10
697.09021046525743
 20
-756.36994078698501
 30
-0.0000000000562575
 11
767.09021046525743
 21
-756.36994078698501
 31
-0.0000000000562575
  0
LINE
  5
BAED
  8
01
 10
697.09021046525743
 20
-763.3699407869849
 30
-0.0000000000562575
 11
767.09021046525743
 21
-763.3699407869849
 31
-0.0000000000562575
  0
LINE
  5
BAEE
  8
01
 10
697.09021046525743
 20
-763.3699407869849
 30
-0.0000000000562575
 11
767.09021046525743
 21
-763.3699407869849
 31
-0.0000000000562575
  0
TEXT
  5
BAEF
  8
01
 10
698.22354379859087
 20
-747.70522944650941
 30
-0.0000000000562575
 40
4.0
  1
サテンニッケル
 72
     1
 11
714.49021046525752
 21
-747.70522944650941
 31
-0.0000000000562575
  0
TEXT
  5
BAF0
  8
01
 10
736.15687713192449
 20
-734.08429777063441
 30
-0.0000000000562575
 40
4.0
  1
KLM-2E-C
 41
0.8
 72
     1
 11
749.49021046525786
 21
-734.08429777063441
 31
-0.0000000000562575
  0
TEXT
  5
BAF1
  8
01
 10
736.15687713192449
 20
-741.08429777063441
 30
-0.0000000000562575
 40
4.0
  1
KLM-2E-B
 41
0.8
 72
     1
 11
749.49021046525786
 21
-741.08429777063441
 31
-0.0000000000562575
  0
TEXT
  5
BAF2
  8
01
 10
736.15687713192449
 20
-748.08429777063441
 30
-0.0000000000562575
 40
4.0
  1
KLM-2E-N
 41
0.8
 72
     1
 11
749.49021046525786
 21
-748.08429777063441
 31
-0.0000000000562575
  0
TEXT
  5
BAF3
  8
01
 10
734.55687713192424
 20
-776.20054746164533
 30
-0.0000000000562575
 40
4.0
  1
KLM-2E-8Q
 41
0.8
 72
     1
 11
749.49021046525752
 21
-776.20054746164533
 31
-0.0000000000562575
  0
TEXT
  5
BAF4
  8
01
 10
736.15687713192403
 20
-754.8699407869849
 30
-0.0000000000562575
 40
4.0
  1
KLM-2E-D
 41
0.8
 72
     1
 11
749.49021046525741
 21
-754.8699407869849
 31
-0.0000000000562575
  0
TEXT
  5
BAF5
  8
01
 10
734.55687713192401
 20
-761.86994078698501
 30
-0.0000000000562575
 40
4.0
  1
KLM-2E-4Q
 41
0.8
 72
     1
 11
749.49021046525729
 21
-761.86994078698501
 31
-0.0000000000562575
  0
TEXT
  5
BAF6
  8
01
 10
699.85021046525731
 20
-754.8699407869849
 30
-0.0000000000562575
 40
4.0
  1
ミラーニッケル
 41
0.9
 72
     1
 11
714.49021046525718
 21
-754.8699407869849
 31
-0.0000000000562575
  0
TEXT
  5
BAF7
  8
01
 10
698.22354379859064
 20
-761.86994078698501
 30
-0.0000000000562575
 40
4.0
  1
ダークアンバー
 72
     1
 11
714.49021046525718
 21
-761.86994078698501
 31
-0.0000000000562575
  0
LINE
  5
BAF8
  8
01
 10
697.09021046525743
 20
-770.36994078698501
 30
-0.0000000000562575
 11
767.09021046525743
 21
-770.36994078698501
 31
-0.0000000000562575
  0
LINE
  5
BAF9
  8
01
 10
697.09021046525743
 20
-777.36994078698501
 30
-0.0000000000562575
 11
767.09021046525743
 21
-777.36994078698501
 31
-0.0000000000562575
  0
TEXT
  5
BAFA
  8
01
 10
698.22354379859064
 20
-775.8699407869849
 30
-0.0000000000562575
 40
4.0
  1
ミラーブラック
 72
     1
 11
714.49021046525718
 21
-775.8699407869849
 31
-0.0000000000562575
  0
LINE
  5
BAFB
  8
01
 10
697.09021046525743
 20
-749.36994078698501
 30
-0.0000000000562575
 11
767.09021046525743
 21
-749.36994078698501
 31
-0.0000000000562575
  0
TEXT
  5
BAFC
  8
01
 10
734.48068665573373
 20
-769.20054746164533
 30
-0.0000000000562575
 40
4.0
  1
KLM-2E-GQ
 41
0.8
 72
     1
 11
749.49021046525752
 21
-769.20054746164533
 31
-0.0000000000562575
  0
TEXT
  5
BAFD
  8
01
 10
698.22354379859064
 20
-768.86994078698501
 30
-0.0000000000562575
 40
4.0
  1
パールブラック
 72
     1
 11
714.49021046525718
 21
-768.86994078698501
 31
-0.0000000000562575
  0
TEXT
  5
BBD0
  8
01
 10
607.56785203924255
 20
-657.34325255312842
 30
0.0
 40
3.5
  1
亜鉛ダイキャスト
  0
TEXT
  5
BBD5
  8
01
 10
502.80631635911573
 20
-626.19370768743704
 30
0.0
 40
3.5
  1
材質：各種材質
  0
TEXT
  5
BBD6
  8
01
 10
494.40631635911558
 20
-632.02704102077041
 30
0.0
 40
3.5
  1
仕上げ：各種メッキ
  0
TEXT
  5
BBD9
  8
01
 10
477.37514408995548
 20
-646.50335230528799
 30
0.0
 40
3.5
  1
材質：各種材質
  0
TEXT
  5
BBDA
  8
01
 10
477.37514408995548
 20
-652.33668563862125
 30
0.0
 40
3.5
  1
仕上げ：各種メッキ
  0
LINE
  5
BBDD
  8
01
 10
477.29254461701868
 20
-697.39459780006609
 30
0.0
 11
477.29254461701868
 21
-716.34301082127354
 31
0.0
  0
LINE
  5
BBDE
  8
01
 10
483.59254461701931
 20
-697.39459780006609
 30
0.0
 11
483.59254461701931
 21
-716.34301082127354
 31
0.0
  0
LINE
  5
BBDF
  8
01
 10
479.29254461701868
 20
-715.34301082127354
 30
0.0
 11
481.59254461701943
 21
-715.34301082127354
 31
0.0
  0
LINE
  5
BBE3
  8
01
 10
734.13705149029136
 20
-640.44968659891049
 30
-0.0000000000562575
 11
734.13705149029136
 21
-633.44968659891038
 31
-0.0000000000562575
  0
LINE
  5
BBE4
  8
01
 10
777.63705149029181
 20
-640.44968659891072
 30
-0.0000000000562575
 11
777.63705149029181
 21
-633.44968659891038
 31
-0.0000000000562575
  0
LINE
  5
BBE5
  8
01
 10
736.13705149029136
 20
-634.44968659891038
 30
-0.0000000000562575
 11
775.63705149029181
 21
-634.44968659891038
 31
-0.0000000000562575
  0
LINE
  5
BBE9
  8
01
 10
734.13705149029136
 20
-621.79981777368334
 30
-0.0000000000562575
 11
734.13705149029136
 21
-614.79981777368334
 31
-0.0000000000562575
  0
LINE
  5
BBEA
  8
01
 10
783.13705149029306
 20
-621.79981777368369
 30
-0.0000000000562575
 11
783.13705149029306
 21
-614.79981777368334
 31
-0.0000000000562575
  0
LINE
  5
BBEB
  8
01
 10
736.13705149029136
 20
-615.79981777368346
 30
-0.0000000000562575
 11
781.13705149029306
 21
-615.79981777368346
 31
-0.0000000000562575
  0
LINE
  5
BBEF
  8
01
 10
506.94254461701928
 20
-705.67872697560188
 30
-0.0000000000562575
 11
506.94254461701928
 21
-724.87220103485492
 31
-0.0000000000562575
  0
LINE
  5
BBF0
  8
01
 10
453.94254461701968
 20
-705.67872697560188
 30
-0.0000000000562575
 11
453.94254461701968
 21
-724.87220103485492
 31
-0.0000000000562575
  0
LINE
  5
BBF1
  8
01
 10
504.94254461701922
 20
-723.87220103485492
 30
-0.0000000000562575
 11
455.94254461701968
 21
-723.87220103485492
 31
-0.0000000000562575
  0
LINE
  5
BBF5
  8
01
 10
604.60533789202054
 20
-705.68749303324307
 30
-0.0000000000562575
 11
604.60533789202054
 21
-715.83637086914962
 31
-0.0000000000562575
  0
LINE
  5
BBF6
  8
01
 10
596.10533732816714
 20
-706.32875369736996
 30
-0.0000000000562575
 11
596.10533732816714
 21
-715.83637086914962
 31
-0.0000000000562575
  0
LINE
  5
BBF7
  8
01
 10
602.60533789202054
 20
-714.83637086914962
 30
-0.0000000000562575
 11
598.10533732816714
 21
-714.83637086914962
 31
-0.0000000000562575
  0
LINE
  5
BBF8
  8
01
 10
596.10533732816714
 20
-714.83637086914962
 30
-0.0000000000562575
 11
585.37200399483379
 21
-714.83637086914962
 31
-0.0000000000562575
  0
LINE
  5
BBFC
  8
01
 10
663.17136485723336
 20
-595.17872697560108
 30
-0.0000000000562575
 11
695.42085541259712
 21
-595.17872697560108
 31
-0.0000000000562575
  0
LINE
  5
BBFD
  8
01
 10
663.17136485723336
 20
-685.17872697560119
 30
-0.0000000000562575
 11
695.42085541259712
 21
-685.17872697560119
 31
-0.0000000000562575
  0
LINE
  5
BBFE
  8
01
 10
694.42085541259712
 20
-597.17872697560119
 30
-0.0000000000562575
 11
694.42085541259712
 21
-683.17872697560119
 31
-0.0000000000562575
  0
LINE
  5
BC02
  8
01
 10
506.44254461701883
 20
-664.17872697560142
 30
-0.0000000000562575
 11
520.13601867627233
 21
-664.17872697560142
 31
-0.0000000000562575
  0
LINE
  5
BC03
  8
01
 10
506.44254461701928
 20
-706.17872697560188
 30
-0.0000000000562575
 11
520.13601867627233
 21
-706.17872697560188
 31
-0.0000000000562575
  0
LINE
  5
BC04
  8
01
 10
519.13601867627233
 20
-666.17872697560142
 30
-0.0000000000562575
 11
519.13601867627233
 21
-704.17872697560176
 31
-0.0000000000562575
  0
LINE
  5
BC08
  8
01
 10
683.67136485723336
 20
-705.67872697560119
 30
-0.0000000000562575
 11
683.67136485723336
 21
-724.87220103485436
 31
-0.0000000000562575
  0
LINE
  5
BC09
  8
01
 10
630.67136485723393
 20
-705.67872697560119
 30
-0.0000000000562575
 11
630.67136485723393
 21
-724.87220103485436
 31
-0.0000000000562575
  0
LINE
  5
BC0A
  8
01
 10
681.67136485723336
 20
-723.87220103485436
 30
-0.0000000000562575
 11
632.67136485723393
 21
-723.87220103485436
 31
-0.0000000000562575
  0
LINE
  5
BC0E
  8
01
 10
596.10533732816714
 20
-706.32875369736996
 30
-0.0000000000562575
 11
596.10533732816714
 21
-724.87220103485492
 31
-0.0000000000562575
  0
LINE
  5
BC0F
  8
01
 10
605.20537377861922
 20
-688.42873996396793
 30
-0.0000000000562575
 11
605.20537377861922
 21
-724.87220103485492
 31
-0.0000000000562575
  0
LINE
  5
BC10
  8
01
 10
598.10533732816714
 20
-723.87220103485492
 30
-0.0000000000562575
 11
603.20537377861922
 21
-723.87220103485492
 31
-0.0000000000562575
  0
LINE
  5
BC14
  8
01
 10
557.40529543012485
 20
-706.32875369736996
 30
-0.0000000000562575
 11
557.40529543012485
 21
-716.34301082127354
 31
-0.0000000000562575
  0
LINE
  5
BC15
  8
01
 10
548.90529486627111
 20
-705.68749263786628
 30
-0.0000000000562575
 11
548.90529486627111
 21
-716.34301082127354
 31
-0.0000000000562575
  0
LINE
  5
BC16
  8
01
 10
550.90529486627111
 20
-715.34301082127354
 30
-0.0000000000562575
 11
555.40529543012485
 21
-715.34301082127354
 31
-0.0000000000562575
  0
LINE
  5
BC17
  8
01
 10
557.40529543012485
 20
-715.34301082127354
 30
-0.0000000000562575
 11
568.13862876345809
 21
-715.34301082127354
 31
-0.0000000000562575
  0
LINE
  5
BC1B
  8
01
 10
557.40529543012497
 20
-706.32875369736996
 30
-0.0000000000562575
 11
557.40529543012497
 21
-724.87220103485492
 31
-0.0000000000562575
  0
LINE
  5
BC1C
  8
01
 10
533.90531563877255
 20
-694.67872698500526
 30
-0.0000000000562575
 11
533.90531563877255
 21
-724.87220103485492
 31
-0.0000000000562575
  0
LINE
  5
BC1D
  8
01
 10
555.40529543012497
 20
-723.87220103485492
 30
-0.0000000000562575
 11
535.90531563877266
 21
-723.87220103485492
 31
-0.0000000000562575
  0
TEXT
  5
BC21
  8
01
 10
717.24822809462705
 20
-663.30538391854418
 30
-0.0000000000562575
 40
3.5
  1
SUS
  0
LINE
  5
BC24
  8
01
 10
734.13705149029136
 20
-671.75448322053455
 30
-0.0000000000562575
 11
734.13705149029136
 21
-667.63328602853494
 31
-0.0000000000562575
  0
LINE
  5
BC25
  8
01
 10
764.13705149029136
 20
-673.10448322053458
 30
-0.0000000000562575
 11
764.13705149029136
 21
-667.63328602853494
 31
-0.0000000000562575
  0
LINE
  5
BC26
  8
01
 10
736.13705149029136
 20
-668.63328602853494
 30
-0.0000000000562575
 11
762.13705149029136
 21
-668.63328602853494
 31
-0.0000000000562575
  0
LINE
  5
BC2A
  8
01
 10
765.73872649029136
 20
-674.75448322053455
 30
-0.0000000000562575
 11
732.57828259029134
 21
-674.75448322053455
 31
-0.0000000000562575
  0
LINE
  5
BC2B
  8
01
 10
764.13705149029136
 20
-673.10448322053469
 30
-0.0000000000562575
 11
735.78705149029133
 21
-673.10448322053469
 31
-0.0000000000562575
  0
LINE
  5
BC2C
  8
01
 10
764.13705149029136
 20
-676.40448322053464
 30
-0.0000000000562575
 11
735.78705149029133
 21
-676.40448322053464
 31
-0.0000000000562575
  0
LINE
  5
BC2E
  8
01
 10
763.78705149029133
 20
-672.75448322053455
 30
-0.0000000000562575
 11
763.78705149029133
 21
-676.75448322053455
 31
-0.0000000000562575
  0
LINE
  5
BC2F
  8
01
 10
734.43705150029132
 20
-671.75448322053455
 30
-0.0000000000562575
 11
734.43705150029132
 21
-677.75448322053467
 31
-0.0000000000562575
  0
LINE
  5
BC30
  8
01
 10
735.43705166436541
 20
-676.75448322053455
 30
-0.0000000000562575
 11
735.78705149029133
 21
-676.40448322053464
 31
-0.0000000000562575
  0
LINE
  5
BC31
  8
01
 10
735.78705149029133
 20
-673.10448322053469
 30
-0.0000000000562575
 11
735.43705166436541
 21
-672.75448322053455
 31
-0.0000000000562575
  0
LINE
  5
BC32
  8
01
 10
765.73872649029136
 20
-683.75448322053455
 30
-0.0000000000562575
 11
732.57828259029134
 21
-683.75448322053455
 31
-0.0000000000562575
  0
LINE
  5
BC33
  8
01
 10
764.13705149029136
 20
-682.10448322053458
 30
-0.0000000000562575
 11
735.78705149029133
 21
-682.10448322053458
 31
-0.0000000000562575
  0
LINE
  5
BC34
  8
01
 10
764.13705149029136
 20
-685.40448322053464
 30
-0.0000000000562575
 11
735.78705149029133
 21
-685.40448322053464
 31
-0.0000000000562575
  0
LINE
  5
BC36
  8
01
 10
763.78705149029133
 20
-681.75448322053467
 30
-0.0000000000562575
 11
763.78705149029133
 21
-685.75448322053467
 31
-0.0000000000562575
  0
LINE
  5
BC37
  8
01
 10
734.43705150029132
 20
-680.75448322053455
 30
-0.0000000000562575
 11
734.43705150029132
 21
-686.75448322053455
 31
-0.0000000000562575
  0
LINE
  5
BC38
  8
01
 10
735.43705166436541
 20
-685.75448322053467
 30
-0.0000000000562575
 11
735.78705149029133
 21
-685.40448322053464
 31
-0.0000000000562575
  0
LINE
  5
BC39
  8
01
 10
735.78705149029133
 20
-682.10448322053458
 30
-0.0000000000562575
 11
735.43705166436541
 21
-681.75448322053467
 31
-0.0000000000562575
  0
LINE
  5
BC3A
  8
01
 10
763.78705149029133
 20
-685.75448322053467
 30
-0.0000000000562575
 11
735.43705166436541
 21
-685.75448322053467
 31
-0.0000000000562575
  0
LINE
  5
BC3B
  8
01
 10
764.13705149029136
 20
-685.40448322053453
 30
-0.0000000000562575
 11
763.78705149029133
 21
-685.75448322053467
 31
-0.0000000000562575
  0
LINE
  5
BC3C
  8
01
 10
735.43705166436541
 20
-685.75448322053467
 30
-0.0000000000562575
 11
734.43705159029128
 21
-686.75448322053455
 31
-0.0000000000562575
  0
LINE
  5
BC3D
  8
01
 10
764.13705149029136
 20
-682.10448322053458
 30
-0.0000000000562575
 11
764.13705149029136
 21
-685.40448322053453
 31
-0.0000000000562575
  0
LINE
  5
BC3E
  8
01
 10
734.43705159029128
 20
-686.75448322053455
 30
-0.0000000000562575
 11
734.13705149029136
 21
-686.75448322053455
 31
-0.0000000000562575
  0
LINE
  5
BC3F
  8
01
 10
763.78705149029133
 20
-681.75448322053467
 30
-0.0000000000562575
 11
764.13705149029136
 21
-682.10448322053458
 31
-0.0000000000562575
  0
LINE
  5
BC40
  8
01
 10
734.13705149029136
 20
-680.75448322053455
 30
-0.0000000000562575
 11
734.13705149029136
 21
-686.75448322053455
 31
-0.0000000000562575
  0
LINE
  5
BC41
  8
01
 10
763.78705149029133
 20
-681.75448322053467
 30
-0.0000000000562575
 11
735.43705166436541
 21
-681.75448322053467
 31
-0.0000000000562575
  0
LINE
  5
BC42
  8
01
 10
734.43705150029132
 20
-680.75448322053455
 30
-0.0000000000562575
 11
734.13705149029136
 21
-680.75448322053455
 31
-0.0000000000562575
  0
LINE
  5
BC43
  8
01
 10
735.43705166436541
 20
-681.75448322053467
 30
-0.0000000000562575
 11
734.43705150029132
 21
-680.75448322053455
 31
-0.0000000000562575
  0
LINE
  5
BC44
  8
01
 10
763.78705149029133
 20
-676.75448322053455
 30
-0.0000000000562575
 11
735.43705166436541
 21
-676.75448322053455
 31
-0.0000000000562575
  0
LINE
  5
BC45
  8
01
 10
764.13705149029136
 20
-676.40448322053453
 30
-0.0000000000562575
 11
763.78705149029133
 21
-676.75448322053455
 31
-0.0000000000562575
  0
LINE
  5
BC46
  8
01
 10
735.43705166436541
 20
-676.75448322053455
 30
-0.0000000000562575
 11
734.43705159029128
 21
-677.75448322053467
 31
-0.0000000000562575
  0
LINE
  5
BC47
  8
01
 10
764.13705149029136
 20
-673.10448322053469
 30
-0.0000000000562575
 11
764.13705149029136
 21
-676.40448322053453
 31
-0.0000000000562575
  0
LINE
  5
BC48
  8
01
 10
734.43705159029128
 20
-677.75448322053467
 30
-0.0000000000562575
 11
734.13705149029136
 21
-677.75448322053467
 31
-0.0000000000562575
  0
LINE
  5
BC49
  8
01
 10
763.78705149029133
 20
-672.75448322053455
 30
-0.0000000000562575
 11
764.13705149029136
 21
-673.10448322053469
 31
-0.0000000000562575
  0
LINE
  5
BC4A
  8
01
 10
734.13705149029136
 20
-671.75448322053455
 30
-0.0000000000562575
 11
734.13705149029136
 21
-677.75448322053467
 31
-0.0000000000562575
  0
LINE
  5
BC4B
  8
01
 10
763.78705149029133
 20
-672.75448322053455
 30
-0.0000000000562575
 11
735.43705166436541
 21
-672.75448322053455
 31
-0.0000000000562575
  0
LINE
  5
BC4C
  8
01
 10
734.43705150029132
 20
-671.75448322053455
 30
-0.0000000000562575
 11
734.13705149029136
 21
-671.75448322053455
 31
-0.0000000000562575
  0
LINE
  5
BC4D
  8
01
 10
735.43705166436541
 20
-672.75448322053455
 30
-0.0000000000562575
 11
734.43705150029132
 21
-671.75448322053455
 31
-0.0000000000562575
  0
TEXT
  5
BC4E
  8
01
 10
745.80371815695787
 20
-667.93328602853489
 30
-0.0000000000562575
 40
3.5
  1
30
  0
LINE
  5
BC4F
  8
01
  6
BYBLOCK
 10
762.13705149029136
 20
-668.09738764853489
 30
-0.0000000000562575
 11
764.13705149029136
 21
-668.63328602853494
 31
-0.0000000000562575
  0
LINE
  5
BC50
  8
01
  6
BYBLOCK
 10
764.13705149029136
 20
-668.63328602853494
 30
-0.0000000000562575
 11
762.13705149029136
 21
-669.16918440853487
 31
-0.0000000000562575
  0
LINE
  5
BC51
  8
01
  6
BYBLOCK
 10
764.13705149029136
 20
-668.63328602853494
 30
-0.0000000000562575
 11
762.13705149029136
 21
-668.63328602853494
 31
-0.0000000000562575
  0
LINE
  5
BC52
  8
01
  6
BYBLOCK
 10
736.13705149029136
 20
-669.16918440853487
 30
-0.0000000000562575
 11
734.13705149029136
 21
-668.63328602853494
 31
-0.0000000000562575
  0
LINE
  5
BC53
  8
01
  6
BYBLOCK
 10
734.13705149029136
 20
-668.63328602853494
 30
-0.0000000000562575
 11
736.13705149029136
 21
-668.09738764853489
 31
-0.0000000000562575
  0
LINE
  5
BC54
  8
01
  6
BYBLOCK
 10
734.13705149029136
 20
-668.63328602853494
 30
-0.0000000000562575
 11
736.13705149029136
 21
-668.63328602853494
 31
-0.0000000000562575
  0
LINE
  5
BC55
  8
01
 10
733.34967263413034
 20
-672.93234726899038
 30
0.0
 11
729.78156142796036
 21
-664.00538391854411
 31
0.0
  0
LINE
  5
BC56
  8
01
 10
729.78156142796036
 20
-664.00538391854411
 30
0.0
 11
727.08156142796042
 21
-664.00538391854411
 31
0.0
  0
LINE
  5
BC57
  8
01
  6
BYBLOCK
 10
733.84729317401354
 20
-672.73344811873369
 30
-0.0000000000562575
 11
734.09197437520618
 21
-674.78949242357476
 31
-0.0000000000562575
  0
LINE
  5
BC58
  8
01
  6
BYBLOCK
 10
734.09197437520618
 20
-674.78949242357476
 30
-0.0000000000562575
 11
732.85205209424714
 21
-673.13124641924719
 31
-0.0000000000562575
  0
LINE
  5
BC59
  8
01
  6
BYBLOCK
 10
734.09197437520618
 20
-674.78949242357476
 30
-0.0000000000562575
 11
733.34967263413034
 21
-672.93234726899038
 31
-0.0000000000562575
  0
TEXT
  5
BC5A
  8
01
 10
539.82197220111539
 20
-723.17220103485488
 30
-0.0000000000562575
 40
3.5
  1
23.5
  0
LINE
  5
BC5B
  8
01
  6
BYBLOCK
 10
535.90531563877266
 20
-724.40809941485486
 30
-0.0000000000562575
 11
533.90531563877255
 21
-723.87220103485492
 31
-0.0000000000562575
  0
LINE
  5
BC5C
  8
01
  6
BYBLOCK
 10
533.90531563877255
 20
-723.87220103485492
 30
-0.0000000000562575
 11
535.90531563877266
 21
-723.33630265485476
 31
-0.0000000000562575
  0
LINE
  5
BC5D
  8
01
  6
BYBLOCK
 10
533.90531563877255
 20
-723.87220103485492
 30
-0.0000000000562575
 11
535.90531563877266
 21
-723.87220103485492
 31
-0.0000000000562575
  0
LINE
  5
BC5E
  8
01
  6
BYBLOCK
 10
555.40529543012497
 20
-723.33630265485476
 30
-0.0000000000562575
 11
557.40529543012497
 21
-723.87220103485492
 31
-0.0000000000562575
  0
LINE
  5
BC5F
  8
01
  6
BYBLOCK
 10
557.40529543012497
 20
-723.87220103485492
 30
-0.0000000000562575
 11
555.40529543012497
 21
-724.40809941485486
 31
-0.0000000000562575
  0
LINE
  5
BC60
  8
01
  6
BYBLOCK
 10
557.40529543012497
 20
-723.87220103485492
 30
-0.0000000000562575
 11
555.40529543012497
 21
-723.87220103485492
 31
-0.0000000000562575
  0
TEXT
  5
BC61
  8
01
 10
559.60529543012478
 20
-714.64301082127349
 30
-0.0000000000562575
 40
3.5
  1
8.5
  0
LINE
  5
BC62
  8
01
  6
BYBLOCK
 10
555.40529543012485
 20
-714.80711244127349
 30
-0.0000000000562575
 11
557.40529543012485
 21
-715.34301082127354
 31
-0.0000000000562575
  0
LINE
  5
BC63
  8
01
  6
BYBLOCK
 10
557.40529543012485
 20
-715.34301082127354
 30
-0.0000000000562575
 11
555.40529543012485
 21
-715.87890920127347
 31
-0.0000000000562575
  0
LINE
  5
BC64
  8
01
  6
BYBLOCK
 10
557.40529543012485
 20
-715.34301082127354
 30
-0.0000000000562575
 11
555.40529543012485
 21
-715.34301082127354
 31
-0.0000000000562575
  0
LINE
  5
BC65
  8
01
  6
BYBLOCK
 10
550.90529486627111
 20
-715.87890920127347
 30
-0.0000000000562575
 11
548.90529486627111
 21
-715.34301082127354
 31
-0.0000000000562575
  0
LINE
  5
BC66
  8
01
  6
BYBLOCK
 10
548.90529486627111
 20
-715.34301082127354
 30
-0.0000000000562575
 11
550.90529486627111
 21
-714.80711244127349
 31
-0.0000000000562575
  0
LINE
  5
BC67
  8
01
  6
BYBLOCK
 10
548.90529486627111
 20
-715.34301082127354
 30
-0.0000000000562575
 11
550.90529486627111
 21
-715.34301082127354
 31
-0.0000000000562575
  0
TEXT
  5
BC68
  8
01
 10
599.07202222005969
 20
-723.17220103485488
 30
-0.0000000000562575
 40
3.5
  1
9
  0
LINE
  5
BC69
  8
01
  6
BYBLOCK
 10
603.20537377861922
 20
-723.33630265485476
 30
-0.0000000000562575
 11
605.20537377861922
 21
-723.87220103485492
 31
-0.0000000000562575
  0
LINE
  5
BC6A
  8
01
  6
BYBLOCK
 10
605.20537377861922
 20
-723.87220103485492
 30
-0.0000000000562575
 11
603.20537377861922
 21
-724.40809941485486
 31
-0.0000000000562575
  0
LINE
  5
BC6B
  8
01
  6
BYBLOCK
 10
605.20537377861922
 20
-723.87220103485492
 30
-0.0000000000562575
 11
603.20537377861922
 21
-723.87220103485492
 31
-0.0000000000562575
  0
LINE
  5
BC6C
  8
01
  6
BYBLOCK
 10
598.10533732816714
 20
-724.40809941485486
 30
-0.0000000000562575
 11
596.10533732816714
 21
-723.87220103485492
 31
-0.0000000000562575
  0
LINE
  5
BC6D
  8
01
  6
BYBLOCK
 10
596.10533732816714
 20
-723.87220103485492
 30
-0.0000000000562575
 11
598.10533732816714
 21
-723.33630265485476
 31
-0.0000000000562575
  0
LINE
  5
BC6E
  8
01
  6
BYBLOCK
 10
596.10533732816714
 20
-723.87220103485492
 30
-0.0000000000562575
 11
598.10533732816714
 21
-723.87220103485492
 31
-0.0000000000562575
  0
TEXT
  5
BC6F
  8
01
 10
653.83803152390021
 20
-723.1722010348542
 30
-0.0000000000562575
 40
3.5
  1
53
  0
LINE
  5
BC70
  8
01
  6
BYBLOCK
 10
632.67136485723393
 20
-724.40809941485441
 30
-0.0000000000562575
 11
630.67136485723393
 21
-723.87220103485436
 31
-0.0000000000562575
  0
LINE
  5
BC71
  8
01
  6
BYBLOCK
 10
630.67136485723393
 20
-723.87220103485436
 30
-0.0000000000562575
 11
632.67136485723393
 21
-723.33630265485431
 31
-0.0000000000562575
  0
LINE
  5
BC72
  8
01
  6
BYBLOCK
 10
630.67136485723393
 20
-723.87220103485436
 30
-0.0000000000562575
 11
632.67136485723393
 21
-723.87220103485436
 31
-0.0000000000562575
  0
LINE
  5
BC73
  8
01
  6
BYBLOCK
 10
681.67136485723336
 20
-723.33630265485431
 30
-0.0000000000562575
 11
683.67136485723336
 21
-723.87220103485436
 31
-0.0000000000562575
  0
LINE
  5
BC74
  8
01
  6
BYBLOCK
 10
683.67136485723336
 20
-723.87220103485436
 30
-0.0000000000562575
 11
681.67136485723336
 21
-724.40809941485441
 31
-0.0000000000562575
  0
LINE
  5
BC75
  8
01
  6
BYBLOCK
 10
683.67136485723336
 20
-723.87220103485436
 30
-0.0000000000562575
 11
681.67136485723336
 21
-723.87220103485436
 31
-0.0000000000562575
  0
TEXT
  5
BC76
  8
01
 10
518.4360186762724
 20
-688.51206030893479
 30
-0.0000000000562575
 40
3.5
  1
42
 50
90.0
  0
LINE
  5
BC77
  8
01
  6
BYBLOCK
 10
519.67191705627226
 20
-704.17872697560176
 30
-0.0000000000562575
 11
519.13601867627233
 21
-706.17872697560188
 31
-0.0000000000562575
  0
LINE
  5
BC78
  8
01
  6
BYBLOCK
 10
519.13601867627233
 20
-706.17872697560188
 30
-0.0000000000562575
 11
518.60012029627228
 21
-704.17872697560176
 31
-0.0000000000562575
  0
LINE
  5
BC79
  8
01
  6
BYBLOCK
 10
519.13601867627233
 20
-706.17872697560188
 30
-0.0000000000562575
 11
519.13601867627233
 21
-704.17872697560176
 31
-0.0000000000562575
  0
LINE
  5
BC7A
  8
01
  6
BYBLOCK
 10
518.60012029627228
 20
-666.17872697560142
 30
-0.0000000000562575
 11
519.13601867627233
 21
-664.17872697560142
 31
-0.0000000000562575
  0
LINE
  5
BC7B
  8
01
  6
BYBLOCK
 10
519.13601867627233
 20
-664.17872697560142
 30
-0.0000000000562575
 11
519.67191705627226
 21
-666.17872697560142
 31
-0.0000000000562575
  0
LINE
  5
BC7C
  8
01
  6
BYBLOCK
 10
519.13601867627233
 20
-664.17872697560142
 30
-0.0000000000562575
 11
519.13601867627233
 21
-666.17872697560142
 31
-0.0000000000562575
  0
TEXT
  5
BC7D
  8
01
 10
693.72085541259707
 20
-662.22872697560103
 30
-0.0000000000562575
 40
3.5
  1
ハンドル取付位置=90
 50
90.0
  0
LINE
  5
BC7E
  8
01
  6
BYBLOCK
 10
694.95675379259717
 20
-683.17872697560119
 30
-0.0000000000562575
 11
694.42085541259712
 21
-685.17872697560119
 31
-0.0000000000562575
  0
LINE
  5
BC7F
  8
01
  6
BYBLOCK
 10
694.42085541259712
 20
-685.17872697560119
 30
-0.0000000000562575
 11
693.88495703259696
 21
-683.17872697560119
 31
-0.0000000000562575
  0
LINE
  5
BC80
  8
01
  6
BYBLOCK
 10
694.42085541259712
 20
-685.17872697560119
 30
-0.0000000000562575
 11
694.42085541259712
 21
-683.17872697560119
 31
-0.0000000000562575
  0
LINE
  5
BC81
  8
01
  6
BYBLOCK
 10
693.88495703259696
 20
-597.17872697560119
 30
-0.0000000000562575
 11
694.42085541259712
 21
-595.17872697560108
 31
-0.0000000000562575
  0
LINE
  5
BC82
  8
01
  6
BYBLOCK
 10
694.42085541259712
 20
-595.17872697560108
 30
-0.0000000000562575
 11
694.95675379259717
 21
-597.17872697560119
 31
-0.0000000000562575
  0
LINE
  5
BC83
  8
01
  6
BYBLOCK
 10
694.42085541259712
 20
-595.17872697560108
 30
-0.0000000000562575
 11
694.42085541259712
 21
-597.17872697560119
 31
-0.0000000000562575
  0
TEXT
  5
BC84
  8
01
 10
585.57200399483384
 20
-714.13637086914946
 30
-0.0000000000562575
 40
3.5
  1
8.5
  0
LINE
  5
BC85
  8
01
  6
BYBLOCK
 10
598.10533732816714
 20
-715.37226924914967
 30
-0.0000000000562575
 11
596.10533732816714
 21
-714.83637086914962
 31
-0.0000000000562575
  0
LINE
  5
BC86
  8
01
  6
BYBLOCK
 10
596.10533732816714
 20
-714.83637086914962
 30
-0.0000000000562575
 11
598.10533732816714
 21
-714.30047248914946
 31
-0.0000000000562575
  0
LINE
  5
BC87
  8
01
  6
BYBLOCK
 10
596.10533732816714
 20
-714.83637086914962
 30
-0.0000000000562575
 11
598.10533732816714
 21
-714.83637086914962
 31
-0.0000000000562575
  0
LINE
  5
BC88
  8
01
  6
BYBLOCK
 10
602.60533789202054
 20
-714.30047248914946
 30
-0.0000000000562575
 11
604.60533789202054
 21
-714.83637086914962
 31
-0.0000000000562575
  0
LINE
  5
BC89
  8
01
  6
BYBLOCK
 10
604.60533789202054
 20
-714.83637086914962
 30
-0.0000000000562575
 11
602.60533789202054
 21
-715.37226924914967
 31
-0.0000000000562575
  0
LINE
  5
BC8A
  8
01
  6
BYBLOCK
 10
604.60533789202054
 20
-714.83637086914962
 30
-0.0000000000562575
 11
602.60533789202054
 21
-714.83637086914962
 31
-0.0000000000562575
  0
TEXT
  5
BC8B
  8
01
 10
477.10921128368608
 20
-723.17220103485488
 30
-0.0000000000562575
 40
3.5
  1
53
  0
LINE
  5
BC8C
  8
01
  6
BYBLOCK
 10
455.94254461701968
 20
-724.40809941485486
 30
-0.0000000000562575
 11
453.94254461701968
 21
-723.87220103485492
 31
-0.0000000000562575
  0
LINE
  5
BC8D
  8
01
  6
BYBLOCK
 10
453.94254461701968
 20
-723.87220103485492
 30
-0.0000000000562575
 11
455.94254461701968
 21
-723.33630265485476
 31
-0.0000000000562575
  0
LINE
  5
BC8E
  8
01
  6
BYBLOCK
 10
453.94254461701968
 20
-723.87220103485492
 30
-0.0000000000562575
 11
455.94254461701968
 21
-723.87220103485492
 31
-0.0000000000562575
  0
LINE
  5
BC8F
  8
01
  6
BYBLOCK
 10
504.94254461701922
 20
-723.33630265485476
 30
-0.0000000000562575
 11
506.94254461701928
 21
-723.87220103485492
 31
-0.0000000000562575
  0
LINE
  5
BC90
  8
01
  6
BYBLOCK
 10
506.94254461701928
 20
-723.87220103485492
 30
-0.0000000000562575
 11
504.94254461701922
 21
-724.40809941485486
 31
-0.0000000000562575
  0
LINE
  5
BC91
  8
01
  6
BYBLOCK
 10
506.94254461701928
 20
-723.87220103485492
 30
-0.0000000000562575
 11
504.94254461701922
 21
-723.87220103485492
 31
-0.0000000000562575
  0
TEXT
  5
BC92
  8
01
 10
755.38705149029215
 20
-615.09981777368341
 30
-0.0000000000562575
 40
3.5
  1
49
  0
LINE
  5
BC93
  8
01
  6
BYBLOCK
 10
781.13705149029306
 20
-615.26391939368341
 30
-0.0000000000562575
 11
783.13705149029306
 21
-615.79981777368346
 31
-0.0000000000562575
  0
LINE
  5
BC94
  8
01
  6
BYBLOCK
 10
783.13705149029306
 20
-615.79981777368346
 30
-0.0000000000562575
 11
781.13705149029306
 21
-616.33571615368339
 31
-0.0000000000562575
  0
LINE
  5
BC95
  8
01
  6
BYBLOCK
 10
783.13705149029306
 20
-615.79981777368346
 30
-0.0000000000562575
 11
781.13705149029306
 21
-615.79981777368346
 31
-0.0000000000562575
  0
LINE
  5
BC96
  8
01
  6
BYBLOCK
 10
736.13705149029136
 20
-616.33571615368339
 30
-0.0000000000562575
 11
734.13705149029136
 21
-615.79981777368346
 31
-0.0000000000562575
  0
LINE
  5
BC97
  8
01
  6
BYBLOCK
 10
734.13705149029136
 20
-615.79981777368346
 30
-0.0000000000562575
 11
736.13705149029136
 21
-615.26391939368341
 31
-0.0000000000562575
  0
LINE
  5
BC98
  8
01
  6
BYBLOCK
 10
734.13705149029136
 20
-615.79981777368346
 30
-0.0000000000562575
 11
736.13705149029136
 21
-615.79981777368346
 31
-0.0000000000562575
  0
TEXT
  5
BC99
  8
01
 10
750.05371815695821
 20
-633.74968659891044
 30
-0.0000000000562575
 40
3.5
  1
43.5
  0
LINE
  5
BC9A
  8
01
  6
BYBLOCK
 10
775.63705149029181
 20
-633.91378821891044
 30
-0.0000000000562575
 11
777.63705149029181
 21
-634.44968659891038
 31
-0.0000000000562575
  0
LINE
  5
BC9B
  8
01
  6
BYBLOCK
 10
777.63705149029181
 20
-634.44968659891038
 30
-0.0000000000562575
 11
775.63705149029181
 21
-634.98558497891054
 31
-0.0000000000562575
  0
LINE
  5
BC9C
  8
01
  6
BYBLOCK
 10
777.63705149029181
 20
-634.44968659891038
 30
-0.0000000000562575
 11
775.63705149029181
 21
-634.44968659891038
 31
-0.0000000000562575
  0
LINE
  5
BC9D
  8
01
  6
BYBLOCK
 10
736.13705149029136
 20
-634.98558497891054
 30
-0.0000000000562575
 11
734.13705149029136
 21
-634.44968659891038
 31
-0.0000000000562575
  0
LINE
  5
BC9E
  8
01
  6
BYBLOCK
 10
734.13705149029136
 20
-634.44968659891038
 30
-0.0000000000562575
 11
736.13705149029136
 21
-633.91378821891044
 31
-0.0000000000562575
  0
LINE
  5
BC9F
  8
01
  6
BYBLOCK
 10
734.13705149029136
 20
-634.44968659891038
 30
-0.0000000000562575
 11
736.13705149029136
 21
-634.44968659891038
 31
-0.0000000000562575
  0
TEXT
  5
BCA0
  8
01
 10
478.692544617019
 20
-714.64301082127349
 30
0.0
 40
3.5
  1
6
  0
LINE
  5
BCA1
  8
01
  6
BYBLOCK
 10
481.59254461701943
 20
-714.80711244127349
 30
0.0
 11
483.59254461701931
 21
-715.34301082127354
 31
0.0
  0
LINE
  5
BCA2
  8
01
  6
BYBLOCK
 10
483.59254461701931
 20
-715.34301082127354
 30
0.0
 11
481.59254461701943
 21
-715.87890920127347
 31
0.0
  0
LINE
  5
BCA3
  8
01
  6
BYBLOCK
 10
483.59254461701931
 20
-715.34301082127354
 30
0.0
 11
481.59254461701943
 21
-715.34301082127354
 31
0.0
  0
LINE
  5
BCA4
  8
01
  6
BYBLOCK
 10
479.29254461701868
 20
-715.87890920127347
 30
0.0
 11
477.29254461701868
 21
-715.34301082127354
 31
0.0
  0
LINE
  5
BCA5
  8
01
  6
BYBLOCK
 10
477.29254461701868
 20
-715.34301082127354
 30
0.0
 11
479.29254461701868
 21
-714.80711244127349
 31
0.0
  0
LINE
  5
BCA6
  8
01
  6
BYBLOCK
 10
477.29254461701868
 20
-715.34301082127354
 30
0.0
 11
479.29254461701868
 21
-715.34301082127354
 31
0.0
  0
LINE
  5
BCA7
  8
01
 10
468.92734444138472
 20
-666.02877949200195
 30
0.0
 11
474.6751440899555
 21
-653.03668563862141
 31
0.0
  0
LINE
  5
BCA8
  8
01
 10
474.6751440899555
 20
-653.03668563862141
 30
0.0
 11
477.37514408995548
 21
-653.03668563862141
 31
0.0
  0
LINE
  5
BCA9
  8
01
  6
BYBLOCK
 10
469.41742435230151
 20
-666.24559451593348
 30
0.0
 11
468.11817974888697
 21
-667.85778263590726
 31
0.0
  0
LINE
  5
BCAA
  8
01
  6
BYBLOCK
 10
468.11817974888697
 20
-667.85778263590726
 30
0.0
 11
468.43726453046793
 21
-665.81196446807076
 31
0.0
  0
LINE
  5
BCAB
  8
01
  6
BYBLOCK
 10
468.11817974888697
 20
-667.85778263590726
 30
0.0
 11
468.92734444138472
 21
-666.02877949200195
 31
0.0
  0
LINE
  5
BCAC
  8
01
 10
540.97455905452864
 20
-672.76267666317358
 30
0.0
 11
533.97298302578236
 21
-632.72704102077034
 31
0.0
  0
LINE
  5
BCAD
  8
01
 10
533.97298302578236
 20
-632.72704102077034
 30
0.0
 11
531.27298302578231
 21
-632.72704102077034
 31
0.0
  0
LINE
  5
BCAE
  8
01
  6
BYBLOCK
 10
541.50244571642145
 20
-672.67035794415006
 30
0.0
 11
541.31909720754061
 21
-674.73277652387094
 31
0.0
  0
LINE
  5
BCAF
  8
01
  6
BYBLOCK
 10
541.31909720754061
 20
-674.73277652387094
 30
0.0
 11
540.44667239263572
 21
-672.85499538219744
 31
0.0
  0
LINE
  5
BCB0
  8
01
  6
BYBLOCK
 10
541.31909720754061
 20
-674.73277652387094
 30
0.0
 11
540.97455905452864
 21
-672.76267666317358
 31
0.0
  0
LINE
  5
BCB1
  8
01
 10
654.04834413941785
 20
-680.50100769937239
 30
0.0
 11
642.93451870590934
 21
-658.04325255312847
 31
0.0
  0
LINE
  5
BCB2
  8
01
 10
642.93451870590934
 20
-658.04325255312847
 30
0.0
 11
640.2345187059093
 21
-658.04325255312847
 31
0.0
  0
LINE
  5
BCB3
  8
01
  6
BYBLOCK
 10
654.52864642448219
 20
-680.26331716811671
 30
0.0
 11
654.93541728659056
 21
-682.29352024648756
 31
0.0
  0
LINE
  5
BCB4
  8
01
  6
BYBLOCK
 10
654.93541728659056
 20
-682.29352024648756
 30
0.0
 11
653.56804185435374
 21
-680.73869823062796
 31
0.0
  0
LINE
  5
BCB5
  8
01
  6
BYBLOCK
 10
654.93541728659056
 20
-682.29352024648756
 30
0.0
 11
654.04834413941785
 21
-680.50100769937239
 31
0.0
  0
VIEWPORT
  5
20C3
 67
     1
  8
0
  6
CONTINUOUS
 10
-3.7645543439106741
 20
10.089000620492961
 30
0.0
 40
583.90363108005999
 41
268.46909677725517
 68
     1
 69
     1
1001
ACAD
1000
MVIEW
1002
{
1070
    16
1010
0.0
1020
0.0
1030
0.0
1010
0.0
1020
0.0
1030
1.0
1040
0.0
1040
268.46909677725517
1040
-3.7645543439106741
1040
10.089000620492961
1040
50.0
1040
0.0
1040
0.0
1070
     0
1070
   100
1070
     1
1070
     1
1070
     0
1070
     0
1070
     0
1070
     0
1040
0.0
1040
0.0
1040
0.0
1040
1.0
1040
1.0
1040
0.0
1040
0.0
1070
     0
1002
{
1002
}
1002
}
  0
ENDSEC
  0
EOF
