  0
SECTION
  2
HEADER
  9
$ACADVER
  1
AC1009
  9
$INSBASE
 10
0.0
 20
0.0
 30
0.0
  9
$EXTMIN
 10
459.442544617019
 20
-776.27473461612612
 30
-0.0000000018076873
  9
$EXTMAX
 10
806.36061701628307
 20
-577.92418338290554
 30
0.0000000626587985
  9
$LIMMIN
 10
0.0
 20
0.0
  9
$LIMMAX
 10
12.0
 20
9.0
  9
$ORTHOMODE
 70
     0
  9
$REGENMODE
 70
     1
  9
$FILLMODE
 70
     1
  9
$QTEXTMODE
 70
     0
  9
$MIRRTEXT
 70
     0
  9
$DRAGMODE
 70
     2
  9
$LTSCALE
 40
0.5
  9
$OSMODE
 70
    63
  9
$ATTMODE
 70
     1
  9
$TEXTSIZE
 40
4.0
  9
$TRACEWID
 40
0.05
  9
$TEXTSTYLE
  7
STANDARD
  9
$CLAYER
  8
1TEXT
  9
$CELTYPE
  6
BYLAYER
  9
$CECOLOR
 62
   256
  9
$DIMSCALE
 40
1.0
  9
$DIMASZ
 40
2.0
  9
$DIMEXO
 40
0.0
  9
$DIMDLI
 40
7.0
  9
$DIMRND
 40
0.0
  9
$DIMDLE
 40
0.0
  9
$DIMEXE
 40
1.0
  9
$DIMTP
 40
0.0
  9
$DIMTM
 40
0.0
  9
$DIMTXT
 40
3.5
  9
$DIMCEN
 40
0.0
  9
$DIMTSZ
 40
0.0
  9
$DIMTOL
 70
     0
  9
$DIMLIM
 70
     0
  9
$DIMTIH
 70
     0
  9
$DIMTOH
 70
     0
  9
$DIMSE1
 70
     0
  9
$DIMSE2
 70
     0
  9
$DIMTAD
 70
     1
  9
$DIMZIN
 70
     8
  9
$DIMBLK
  1

  9
$DIMASO
 70
     1
  9
$DIMSHO
 70
     1
  9
$DIMPOST
  1
 
  9
$DIMAPOST
  1

  9
$DIMALT
 70
     0
  9
$DIMALTD
 70
     2
  9
$DIMALTF
 40
25.399999999999999
  9
$DIMLFAC
 40
1.0
  9
$DIMTOFL
 70
     1
  9
$DIMTVP
 40
0.0
  9
$DIMTIX
 70
     0
  9
$DIMSOXD
 70
     0
  9
$DIMSAH
 70
     1
  9
$DIMBLK1
  1
OPEN30
  9
$DIMBLK2
  1
OPEN30
  9
$DIMSTYLE
  2
NEWX10
  9
$DIMCLRD
 70
   256
  9
$DIMCLRE
 70
   256
  9
$DIMCLRT
 70
   201
  9
$DIMTFAC
 40
0.7
  9
$DIMGAP
 40
0.7
  9
$LUNITS
 70
     2
  9
$LUPREC
 70
     4
  9
$SKETCHINC
 40
0.1
  9
$FILLETRAD
 40
0.0
  9
$AUNITS
 70
     0
  9
$AUPREC
 70
     2
  9
$MENU
  1
acad
  9
$ELEVATION
 40
0.0
  9
$PELEVATION
 40
0.0
  9
$THICKNESS
 40
0.0
  9
$LIMCHECK
 70
     0
  9
$BLIPMODE
 70
     0
  9
$CHAMFERA
 40
0.0
  9
$CHAMFERB
 40
0.0
  9
$SKPOLY
 70
     0
  9
$TDCREATE
 40
2451024.579593021
  9
$TDUPDATE
 40
2457014.6583915632
  9
$TDINDWG
 40
1.0757494907
  9
$TDUSRTIMER
 40
1.0757494907
  9
$USRTIMER
 70
     1
  9
$ANGBASE
 50
0.0
  9
$ANGDIR
 70
     0
  9
$PDMODE
 70
     0
  9
$PDSIZE
 40
0.0
  9
$PLINEWID
 40
0.0
  9
$COORDS
 70
     0
  9
$SPLFRAME
 70
     0
  9
$SPLINETYPE
 70
     6
  9
$SPLINESEGS
 70
     8
  9
$ATTDIA
 70
     0
  9
$ATTREQ
 70
     1
  9
$HANDLING
 70
     1
  9
$HANDSEED
  5
BE02
  9
$SURFTAB1
 70
     6
  9
$SURFTAB2
 70
     6
  9
$SURFTYPE
 70
     6
  9
$SURFU
 70
     6
  9
$SURFV
 70
     6
  9
$UCSNAME
  2

  9
$UCSORG
 10
0.0
 20
0.0
 30
0.0
  9
$UCSXDIR
 10
1.0
 20
0.0
 30
0.0
  9
$UCSYDIR
 10
0.0
 20
1.0
 30
0.0
  9
$PUCSNAME
  2

  9
$PUCSORG
 10
0.0
 20
0.0
 30
0.0
  9
$PUCSXDIR
 10
1.0
 20
0.0
 30
0.0
  9
$PUCSYDIR
 10
0.0
 20
1.0
 30
0.0
  9
$USERI1
 70
     0
  9
$USERI2
 70
     0
  9
$USERI3
 70
     0
  9
$USERI4
 70
     0
  9
$USERI5
 70
     0
  9
$USERR1
 40
0.0
  9
$USERR2
 40
0.0
  9
$USERR3
 40
0.0
  9
$USERR4
 40
0.0
  9
$USERR5
 40
0.0
  9
$WORLDVIEW
 70
     1
  9
$SHADEDGE
 70
     3
  9
$SHADEDIF
 70
    70
  9
$TILEMODE
 70
     1
  9
$MAXACTVP
 70
    48
  9
$PLIMCHECK
 70
     0
  9
$PEXTMIN
 10
1.0000000000000000E+020
 20
1.0000000000000000E+020
 30
1.0000000000000000E+020
  9
$PEXTMAX
 10
-1.0000000000000000E+020
 20
-1.0000000000000000E+020
 30
-1.0000000000000000E+020
  9
$PLIMMIN
 10
0.0
 20
0.0
  9
$PLIMMAX
 10
12.0
 20
9.0
  9
$UNITMODE
 70
     0
  9
$VISRETAIN
 70
     1
  9
$PLINEGEN
 70
     0
  9
$PSLTSCALE
 70
     1
  0
ENDSEC
  0
SECTION
  2
TABLES
  0
TABLE
  2
VPORT
 70
     1
  0
VPORT
  2
*ACTIVE
 70
     0
 10
0.0
 20
0.0
 11
1.0
 21
1.0
 12
632.90158081665095
 22
-677.09945899951583
 13
0.0
 23
0.0
 14
1.0
 24
1.0
 15
0.0
 25
0.0
 16
0.0
 26
0.0
 36
1.0
 17
0.0
 27
0.0
 37
0.0
 40
210.34239633810509
 41
2.1749379652605461
 42
50.0
 43
0.0
 44
0.0
 50
0.0
 51
0.0
 71
     0
 72
  1000
 73
     1
 74
     1
 75
     0
 76
     0
 77
     0
 78
     0
  0
ENDTAB
  0
TABLE
  2
LTYPE
 70
    12
  0
LTYPE
  2
CONTINUOUS
 70
     0
  3
Solid line
 72
    65
 73
     0
 40
0.0
  0
LTYPE
  2
XREF1|CENTER2
 70
    48
  3
Center (.5x) ___ _ ___ _ ___ _ ___ _ ___ _ ___
 72
    65
 73
     4
 40
28.574999999999999
 49
19.050000000000001
 49
-3.1749999999999989
 49
3.1749999999999989
 49
-3.1749999999999989
  0
LTYPE
  2
A3WAKUDAKE|CENTER2
 70
    48
  3
Center (.5x) ___ _ ___ _ ___ _ ___ _ ___ _ ___
 72
    65
 73
     4
 40
28.574999999999999
 49
19.050000000000001
 49
-3.1749999999999989
 49
3.1749999999999989
 49
-3.1749999999999989
  0
ENDTAB
  0
TABLE
  2
LAYER
 70
    36
  0
LAYER
  2
0
 70
     0
 62
     7
  6
CONTINUOUS
  0
LAYER
  2
1TEXT
 70
     0
 62
     7
  6
CONTINUOUS
  0
LAYER
  2
A3WAKUDAKE|THICK
 70
    48
 62
     7
  6
CONTINUOUS
  0
LAYER
  2
A3WAKUDAKE|POINT
 70
    48
 62
     7
  6
CONTINUOUS
  0
LAYER
  2
A3WAKUDAKE|1CENTER
 70
    48
 62
     7
  6
A3WAKUDAKE|CENTER2
  0
LAYER
  2
A3WAKUDAKE|0-6
 70
    48
 62
     7
  6
CONTINUOUS
  0
LAYER
  2
01
 70
     0
 62
     1
  6
CONTINUOUS
  0
LAYER
  2
A3WAKUDAKE|1DIM
 70
    48
 62
     7
  6
CONTINUOUS
  0
LAYER
  2
XREF1|1CENTER
 70
    48
 62
     7
  6
XREF1|CENTER2
  0
ENDTAB
  0
TABLE
  2
STYLE
 70
     5
  0
STYLE
  2
STANDARD
 70
     0
 40
0.0
 41
1.0
 50
0.0
 71
     0
 42
4.0
  3
romans.shx
  4
extfont2.shx
  0
ENDTAB
  0
TABLE
  2
VIEW
 70
     6
  0
VIEW
  2
A
 70
     0
 40
163.88865421183439
 10
23.75874513620715
 20
-310.52391195898861
 41
232.0683926202114
 11
0.0
 21
0.0
 31
1.0
 12
0.0
 22
0.0
 32
0.0
 42
50.0
 43
0.0
 44
0.0
 50
0.0
 71
     0
  0
ENDTAB
  0
TABLE
  2
UCS
 70
     0
  0
ENDTAB
  0
TABLE
  2
APPID
 70
    12
  0
APPID
  2
ACAD
 70
     0
  0
APPID
  2
CONTENTBLOCKICON
 70
     0
  0
APPID
  2
CONTENTBLOCKDESCRIPTION
 70
     0
  0
APPID
  2
CONTENTTABDATA
 70
     0
  0
APPID
  2
CONTENTCURRENTTAB
 70
     0
  0
APPID
  2
DRAWINGVARIABLESXDATA
 70
     0
  0
APPID
  2
CONTENTLONGBLOCKNAME
 70
     0
  0
APPID
  2
ACAD_DSTYLE_DIMTEXT_FILL
 70
     0
  0
APPID
  2
ACAD_PSEXT
 70
     0
  0
APPID
  2
ACAD_MLEADERVER
 70
     0
  0
APPID
  2
ACAD_NAV_VCDISPLAY
 70
     0
  0
APPID
  2
ACAD_EXEMPT_FROM_CAD_STANDARDS
 70
     0
  0
ENDTAB
  0
TABLE
  2
DIMSTYLE
 70
     5
  0
DIMSTYLE
  2
NEWX10
 70
     0
  3
 
  4

  5

  6
OPEN30
  7
OPEN30
 40
1.0
 41
2.0
 42
0.0
 43
7.0
 44
1.0
 45
0.0
 46
0.0
 47
0.0
 48
0.0
140
3.5
141
0.0
142
0.0
143
25.399999999999999
144
1.0
145
0.0
146
0.7
147
0.7
 71
     0
 72
     0
 73
     0
 74
     0
 75
     0
 76
     0
 77
     1
 78
     8
170
     0
171
     2
172
     1
173
     1
174
     0
175
     0
176
   256
177
   256
178
   201
  0
ENDTAB
  0
ENDSEC
  0
SECTION
  2
BLOCKS
  0
BLOCK
  8
0
  2
$MODEL_SPACE
 70
     0
 10
0.0
 20
0.0
 30
0.0
  3
$MODEL_SPACE
  1

  0
ENDBLK
  5
1A
  8
0
  0
BLOCK
 67
     1
  8
0
  2
$PAPER_SPACE
 70
     0
 10
0.0
 20
0.0
 30
0.0
  3
$PAPER_SPACE
  1

  0
ENDBLK
  5
17
 67
     1
  8
0
  0
BLOCK
  8
0
  2
XREF1
 70
    36
 10
0.0
 20
0.0
 30
0.0
  3
XREF1
  1
D:\ACLT\FORMAT\KAWAJUN(9)図面用.dwg
  0
ENDBLK
  5
37B8
  8
0
  0
BLOCK
  8
0
  2
_OPEN30
 70
     0
 10
0.0
 20
0.0
 30
0.0
  3
_OPEN30
  1

  0
LINE
  5
3854
  8
0
  6
BYBLOCK
 62
     0
 10
-1.0
 20
0.26794919
 30
0.0
 11
0.0
 21
0.0
 31
0.0
  0
LINE
  5
3855
  8
0
  6
BYBLOCK
 62
     0
 10
0.0
 20
0.0
 30
0.0
 11
-1.0
 21
-0.26794919
 31
0.0
  0
LINE
  5
3856
  8
0
  6
BYBLOCK
 62
     0
 10
0.0
 20
0.0
 30
0.0
 11
-1.0
 21
0.0
 31
0.0
  0
ENDBLK
  5
3858
  8
0
  0
BLOCK
  8
0
  2
A3WAKUDAKE
 70
    36
 10
0.0
 20
0.0
 30
0.0
  3
A3WAKUDAKE
  1
D:\ACLT\FORMAT\A3WAKUdake.dwg
  0
ENDBLK
  5
5533
  8
0
  0
ENDSEC
  0
SECTION
  2
ENTITIES
  0
TEXT
  5
8D1E
  8
01
 10
741.70146770974145
 20
-693.56859773147971
 30
-0.0000000000562575
 40
4.0
  1
付属ねじ
  0
TEXT
  5
8FBC
  8
01
 10
461.41808473851631
 20
-585.92418338290554
 30
-0.0000000000562575
 40
8.0
  1
KLM-3D-X
  0
LINE
  5
9123
  8
01
 10
657.17136485723336
 20
-588.08587177560162
 30
-0.0000000000562575
 11
657.17136485723358
 21
-602.27158217560066
 31
-0.0000000000562575
  0
LINE
  5
9211
  8
01
 10
480.44254461701922
 20
-691.17872697560176
 30
-0.0000000000562575
 11
480.44254461701922
 21
-679.17872697560176
 31
-0.0000000000562575
  0
LINE
  5
9212
  8
01
 10
474.44254461701922
 20
-685.17872697560188
 30
-0.0000000000562575
 11
486.44254461701928
 21
-685.17872697560188
 31
-0.0000000000562575
  0
LINE
  5
929D
  8
01
 10
657.17136485723336
 20
-691.17872697560108
 30
-0.0000000000562575
 11
657.17136485723336
 21
-679.17872697560119
 31
-0.0000000000562575
  0
LINE
  5
929E
  8
01
 10
651.17136485723336
 20
-685.17872697560119
 30
-0.0000000000562575
 11
663.17136485723336
 21
-685.17872697560119
 31
-0.0000000000562575
  0
LINE
  5
92AB
  8
01
 10
598.55504530132555
 20
-685.17872697560188
 30
-0.0000000000562575
 11
610.55504530132555
 21
-685.17872697560188
 31
-0.0000000000562575
  0
LINE
  5
A880
  8
01
 10
783.13705149029272
 20
-621.79981777368323
 30
-0.0000000000562575
 11
783.13705149029306
 21
-623.79981777368323
 31
-0.0000000000562575
  0
LINE
  5
A881
  8
01
 10
782.13705149029306
 20
-624.79981777368323
 30
-0.0000000000562575
 11
783.13705149029306
 21
-623.79981777368323
 31
-0.0000000000562575
  0
LINE
  5
A882
  8
01
 10
782.13705149029272
 20
-620.79981777368323
 30
-0.0000000000562575
 11
783.13705149029272
 21
-621.79981777368323
 31
-0.0000000000562575
  0
LINE
  5
A883
  8
01
 10
734.13705149029136
 20
-621.79981777368334
 30
-0.0000000000562575
 11
734.13705149029136
 21
-623.79981777368289
 31
-0.0000000000562575
  0
LINE
  5
A884
  8
01
 10
735.13705149029136
 20
-624.799817773683
 30
-0.0000000000562575
 11
782.13705149029306
 21
-624.79981777368323
 31
-0.0000000000562575
  0
LINE
  5
A885
  8
01
 10
734.13705149029136
 20
-623.79981777368289
 30
-0.0000000000562575
 11
735.13705149029136
 21
-624.799817773683
 31
-0.0000000000562575
  0
LINE
  5
A886
  8
01
 10
735.13705149029136
 20
-620.79981777368334
 30
-0.0000000000562575
 11
782.13705149029272
 21
-620.79981777368323
 31
-0.0000000000562575
  0
LINE
  5
A887
  8
01
 10
734.13705149029136
 20
-621.79981777368334
 30
-0.0000000000562575
 11
735.13705149029136
 21
-620.79981777368334
 31
-0.0000000000562575
  0
LINE
  5
A888
  8
01
 10
735.13705149029136
 20
-620.79981777368334
 30
-0.0000000000562575
 11
735.13705149029136
 21
-624.799817773683
 31
-0.0000000000562575
  0
LINE
  5
A889
  8
01
 10
782.13705149029272
 20
-620.79981777368323
 30
-0.0000000000562575
 11
782.13705149029306
 21
-624.79981777368323
 31
-0.0000000000562575
  0
LINE
  5
A8DF
  8
01
 10
562.40532887900486
 20
-664.02875365957345
 30
-0.0000000001125151
 11
562.40529543012485
 21
-706.32875369736996
 31
-0.0000000001125151
  0
LINE
  5
A8E6
  8
01
 10
562.40532887900486
 20
-664.02875365957345
 30
-0.0000000001125151
 11
554.39650554049115
 21
-664.17007950115737
 31
-0.0000000001125151
  0
ARC
  5
A8E7
  8
01
 10
554.40532730100244
 20
-664.67000167164133
 30
-0.0000000001125151
 40
0.5
 50
91.010951745492235
 51
179.99995469315749
  0
LINE
  5
A8E8
  8
01
 10
553.90532730100335
 20
-664.67000127626466
 30
-0.0000000001125151
 11
553.90529486627099
 21
-705.68749263786628
 31
-0.0000000001125151
  0
LINE
  5
A8EA
  8
01
 10
554.39647231512959
 20
-706.18741518977481
 30
-0.0000000001125151
 11
562.40529543012485
 21
-706.32875369736996
 31
-0.0000000001125151
  0
ARC
  5
A8EB
  8
01
 10
554.40529486627133
 20
-705.68749303324307
 30
-0.0000000001125151
 40
0.5
 50
179.99995469315749
 51
268.98895764083858
  0
LINE
  5
A935
  8
01
 10
552.90531500930115
 20
-672.67897080624255
 30
-0.0000000000562575
 11
552.90531500929978
 21
-697.67897080624255
 31
-0.0000000000562575
  0
LINE
  5
A936
  8
01
 10
538.90531539177505
 20
-672.67897080624255
 30
-0.0000000000562575
 11
538.90531539177562
 21
-697.67897080624289
 31
-0.0000000000562575
  0
LINE
  5
A937
  8
01
 10
539.40531539177505
 20
-672.17897080624255
 30
-0.0000000000562575
 11
553.90532136325805
 21
-672.17897080624255
 31
-0.0000000000562575
  0
ARC
  5
A938
  8
01
 10
539.40531539177505
 20
-672.67897080624255
 30
-0.0000000000562575
 40
0.5
 50
90.0
 51
180.0
  0
LINE
  5
A939
  8
01
 10
539.40531539177562
 20
-698.17897080624289
 30
-0.0000000000562575
 11
553.90530080366227
 21
-698.17897080624255
 31
-0.0000000000562575
  0
ARC
  5
A93A
  8
01
 10
539.40531539177562
 20
-697.67897080624289
 30
-0.0000000000562575
 40
0.5
 50
180.0
 51
270.0
  0
ARC
  5
A93B
  8
01
 10
553.40531500929944
 20
-672.67897080624255
 30
-0.0000000000562575
 40
0.5
 50
90.0
 51
180.0
  0
ARC
  5
A93D
  8
01
 10
553.4053150092999
 20
-697.67897080624255
 30
-0.0000000000562575
 40
0.5
 50
180.0
 51
270.0
  0
LINE
  5
A986
  8
01
 10
601.10530387928713
 20
-664.02875365957345
 30
0.0000000000562575
 11
601.10533732816714
 21
-706.32875369736996
 31
0.0000000000562575
  0
LINE
  5
A98E
  8
01
 10
601.10530387928713
 20
-664.02875365957345
 30
0.0000000000562575
 11
609.11412721780073
 21
-664.17007950115737
 31
0.0000000000562575
  0
ARC
  5
A98F
  8
01
 10
609.10530545728955
 20
-664.67000167164133
 30
0.0000000000562575
 40
0.5
 50
0.0000453068424606
 51
88.989048254507765
  0
LINE
  5
A990
  8
01
 10
609.60530545728864
 20
-664.67000127626466
 30
0.0000000000562575
 11
609.60533789202054
 21
-705.68749303324307
 31
0.0000000000562575
  0
LINE
  5
A992
  8
01
 10
609.1141604431624
 20
-706.18741518977481
 30
0.0000000000562575
 11
601.10533732816714
 21
-706.32875369736996
 31
0.0000000000562575
  0
ARC
  5
A993
  8
01
 10
609.10533789202054
 20
-705.68749303324307
 30
0.0000000000562575
 40
0.5
 50
271.01104235916142
 51
0.0000453068424606
  0
LINE
  5
AA11
  8
01
 10
610.20537359284583
 20
-684.17872686194664
 30
0.0000000001125151
 11
610.20537349449557
 21
-681.92873996396975
 31
0.0000000001125151
  0
LINE
  5
AA12
  8
01
 10
610.2053736802676
 20
-686.17872686194676
 30
0.0000000001125151
 11
610.20537377861922
 21
-688.42873996396793
 31
0.0000000001125151
  0
LINE
  5
AA13
  8
01
 10
610.20537359284583
 20
-684.17872686194664
 30
0.0000000001125151
 11
609.60532088388504
 21
-684.17872688817567
 31
0.0000000001125151
  0
LINE
  5
AA14
  8
01
 10
610.2053736802676
 20
-686.17872686194676
 30
0.0000000001125151
 11
609.60532246539231
 21
-686.1787268881759
 31
0.0000000001125151
  0
ARC
  5
AA18
  8
01
 10
609.20528306368396
 20
-688.42872747720276
 30
-0.0000000018076873
 40
1.0
 50
293.58079822713501
 51
359.99928456083438
  0
ARC
  5
AA19
  8
01
 10
609.20535810254876
 20
-681.92872747720139
 30
0.0000000626587985
 40
1.0
 50
359.99928456083438
 51
66.424304750185613
  0
LINE
  5
AA7E
  8
01
 10
777.63705149029136
 20
-640.44968659891015
 30
-0.0000000000562575
 11
777.63705149029181
 21
-642.44968659891026
 31
-0.0000000000562575
  0
LINE
  5
AA7F
  8
01
 10
776.63705149029192
 20
-643.44968659891015
 30
-0.0000000000562575
 11
777.63705149029181
 21
-642.44968659891026
 31
-0.0000000000562575
  0
LINE
  5
AA80
  8
01
 10
776.63705149029124
 20
-639.44968659891026
 30
-0.0000000000562575
 11
777.63705149029136
 21
-640.44968659891015
 31
-0.0000000000562575
  0
LINE
  5
AA81
  8
01
 10
734.13705149029136
 20
-640.44968659891049
 30
-0.0000000000562575
 11
734.13705149029136
 21
-642.44968659891003
 31
-0.0000000000562575
  0
LINE
  5
AA82
  8
01
 10
735.13705149029136
 20
-643.44968659891003
 30
-0.0000000000562575
 11
776.63705149029192
 21
-643.44968659891015
 31
-0.0000000000562575
  0
LINE
  5
AA83
  8
01
 10
734.13705149029136
 20
-642.44968659891003
 30
-0.0000000000562575
 11
735.13705149029136
 21
-643.44968659891003
 31
-0.0000000000562575
  0
LINE
  5
AA84
  8
01
 10
735.13705149029136
 20
-639.44968659891038
 30
-0.0000000000562575
 11
776.63705149029124
 21
-639.44968659891026
 31
-0.0000000000562575
  0
LINE
  5
AA85
  8
01
 10
734.13705149029136
 20
-640.44968659891049
 30
-0.0000000000562575
 11
735.13705149029136
 21
-639.44968659891038
 31
-0.0000000000562575
  0
LINE
  5
AA86
  8
01
 10
735.13705149029136
 20
-639.44968659891038
 30
-0.0000000000562575
 11
735.13705149029136
 21
-643.44968659891003
 31
-0.0000000000562575
  0
LINE
  5
AA87
  8
01
 10
776.63705149029136
 20
-639.44968659891015
 30
-0.0000000000562575
 11
776.6370514902917
 21
-643.44968659891015
 31
-0.0000000000562575
  0
CIRCLE
  5
AFFB
  8
01
 10
480.44254461701922
 20
-685.17872697560188
 30
-0.0000000000562575
 40
13.50000000000227
  0
ARC
  5
AFFC
  8
01
 10
480.44254461701922
 20
-685.17872697560188
 30
-0.0000000000562575
 40
13.00000000000227
 50
257.7604168438487
 51
282.2395831561513
  0
LINE
  5
AFFD
  8
01
 10
483.59254461701931
 20
-697.39459780006609
 30
-0.0000000000562575
 11
483.59254461701931
 21
-672.9628561511372
 31
-0.0000000000562575
  0
LINE
  5
AFFE
  8
01
 10
477.29254461701868
 20
-697.39459780006609
 30
-0.0000000000562575
 11
477.29254461701868
 21
-672.96285615113754
 31
-0.0000000000562575
  0
ARC
  5
AFFF
  8
01
 10
477.79254461701868
 20
-697.39459780006609
 30
-0.0000000000562575
 40
0.5
 50
180.0
 51
257.7604168438487
  0
ARC
  5
B000
  8
01
 10
483.09254461701931
 20
-697.39459780006609
 30
-0.0000000000562575
 40
0.5
 50
282.2395831561513
 51
0.0
  0
ARC
  5
B001
  8
01
 10
477.79254461701868
 20
-672.96285615113754
 30
-0.0000000000562575
 40
0.5
 50
102.2395831561513
 51
180.0
  0
ARC
  5
B002
  8
01
 10
483.09254461701931
 20
-672.96285615113754
 30
-0.0000000000562575
 40
0.5
 50
0.0000000000521102
 51
77.760416843848702
  0
ARC
  5
B013
  8
01
 10
480.44254461701922
 20
-685.17872697560188
 30
-0.0000000000562575
 40
13.00000000000227
 50
77.760416843848702
 51
102.2395831561513
  0
LINE
  5
B019
  8
01
 10
661.55884783438921
 20
-684.17872697560119
 30
-0.0000000000562575
 11
652.78388188007773
 21
-684.17872697560119
 31
-0.0000000000562575
  0
LINE
  5
B01A
  8
01
 10
661.55884783438921
 20
-686.17872697560108
 30
-0.0000000000562575
 11
652.78388188007773
 21
-686.17872697560108
 31
-0.0000000000562575
  0
CIRCLE
  5
B01B
  8
01
 10
657.17136485723336
 20
-685.17872697560074
 30
-0.0000000001125151
 40
4.5000007638701609
  0
CIRCLE
  5
B03D
  8
01
 10
480.44254461701922
 20
-685.17872697560188
 30
-0.0000000000562575
 40
21.000000000000231
  0
CIRCLE
  5
B03E
  8
01
 10
657.17136485723336
 20
-685.17872697560074
 30
-0.0000000001125151
 40
20.999999999999769
  0
CIRCLE
  5
B055
  8
01
 10
657.17136485723336
 20
-674.17872709691392
 30
0.0
 40
2.500000593395725
  0
LINE
  5
B776
  8
01
 10
552.64605782255649
 20
-685.17872697560188
 30
-0.0000000001125151
 11
564.64605782255637
 21
-685.17872697560188
 31
-0.0000000001125151
  0
LINE
  5
B802
  8
01
 10
651.17136485723336
 20
-595.17872697560108
 30
-0.0000000000562575
 11
663.17136485723336
 21
-595.17872697560108
 31
-0.0000000000562575
  0
TEXT
  5
BBBE
  8
01
 10
701.96061701628264
 20
-711.50870702980376
 30
-0.0000000000562575
 40
4.0
  1
材質：亜鉛ダイキャスト・真鍮・ポリアセタール
 11
701.96061701628264
 21
-709.50870702980376
 31
-0.0000000000562575
 73
     2
  0
TEXT
  5
BBBF
  8
01
 10
709.61596685319012
 20
-718.77473461612612
 30
-0.0000000000562575
 40
4.0
  1
表面処理
 72
     1
 11
718.68263351985684
 21
-718.77473461612612
 31
-0.0000000000562575
  0
TEXT
  5
BBC0
  8
01
 10
709.61596685319012
 20
-732.61002327565052
 30
-0.0000000000562575
 40
4.0
  1
クローム
 72
     1
 11
718.68263351985684
 21
-732.61002327565052
 31
-0.0000000000562575
  0
TEXT
  5
BBC1
  8
01
 10
707.21596685319014
 20
-725.75262963611044
 30
-0.0000000000562575
 40
4.0
  1
本金メッキ
 72
     1
 11
718.68263351985684
 21
-725.75262963611044
 31
-0.0000000000562575
  0
LINE
  5
BBC2
  8
01
 10
701.28263351985674
 20
-713.27473461612612
 30
-0.0000000000562575
 11
771.28263351985674
 21
-713.27473461612612
 31
-0.0000000000562575
  0
LINE
  5
BBC3
  8
01
 10
701.28263351985674
 20
-727.27473461612612
 30
-0.0000000000562575
 11
771.28263351985674
 21
-727.27473461612612
 31
-0.0000000000562575
  0
LINE
  5
BBC4
  8
01
 10
701.28263351985674
 20
-720.27473461612601
 30
-0.0000000000562575
 11
771.28263351985674
 21
-720.27473461612601
 31
-0.0000000000562575
  0
LINE
  5
BBC5
  8
01
 10
701.28263351985674
 20
-734.27473461612612
 30
-0.0000000000562575
 11
771.28263351985674
 21
-734.27473461612612
 31
-0.0000000000562575
  0
LINE
  5
BBC6
  8
01
 10
701.28263351985674
 20
-734.27473461612612
 30
-0.0000000000562575
 11
771.28263351985674
 21
-734.27473461612612
 31
-0.0000000000562575
  0
LINE
  5
BBC7
  8
01
 10
736.28263351985674
 20
-713.27473461612612
 30
-0.0000000000562575
 11
736.28263351985674
 21
-776.27473461612612
 31
-0.0000000000562575
  0
TEXT
  5
BBC8
  8
01
 10
740.19691923414302
 20
-725.98909159977552
 30
-0.0000000000562575
 40
4.0
  1
KLM-3D-G
 41
0.8
 72
     1
 11
753.68263351985729
 21
-725.98909159977552
 31
-0.0000000000562575
  0
TEXT
  5
BBC9
  8
01
 10
747.01596685319021
 20
-718.77473461612612
 30
-0.0000000000562575
 40
4.0
  1
コード
 72
     1
 11
753.68263351985684
 21
-718.77473461612612
 31
-0.0000000000562575
  0
LINE
  5
BBCA
  8
01
 10
701.28263351985674
 20
-776.27473461612612
 30
-0.0000000000562575
 11
701.28263351985674
 21
-713.27473461612612
 31
-0.0000000000562575
  0
LINE
  5
BBCB
  8
01
 10
771.28263351985674
 20
-776.27473461612612
 30
-0.0000000000562575
 11
771.28263351985674
 21
-713.27473461612612
 31
-0.0000000000562575
  0
LINE
  5
BBCC
  8
01
 10
701.28263351985674
 20
-741.27473461612601
 30
-0.0000000000562575
 11
771.28263351985674
 21
-741.27473461612601
 31
-0.0000000000562575
  0
LINE
  5
BBCD
  8
01
 10
701.28263351985674
 20
-741.27473461612601
 30
-0.0000000000562575
 11
771.28263351985674
 21
-741.27473461612601
 31
-0.0000000000562575
  0
TEXT
  5
BBCE
  8
01
 10
702.41596685319007
 20
-739.61002327565052
 30
-0.0000000000562575
 40
4.0
  1
パールクローム
 72
     1
 11
718.68263351985684
 21
-739.61002327565052
 31
-0.0000000000562575
  0
LINE
  5
BBCF
  8
01
 10
701.28263351985674
 20
-755.27473461612612
 30
-0.0000000000562575
 11
771.28263351985674
 21
-755.27473461612612
 31
-0.0000000000562575
  0
LINE
  5
BBD0
  8
01
 10
701.28263351985674
 20
-755.27473461612612
 30
-0.0000000000562575
 11
771.28263351985674
 21
-755.27473461612612
 31
-0.0000000000562575
  0
LINE
  5
BBD1
  8
01
 10
701.28263351985674
 20
-762.27473461612612
 30
-0.0000000000562575
 11
771.28263351985674
 21
-762.27473461612612
 31
-0.0000000000562575
  0
LINE
  5
BBD2
  8
01
 10
701.28263351985674
 20
-762.27473461612612
 30
-0.0000000000562575
 11
771.28263351985674
 21
-762.27473461612612
 31
-0.0000000000562575
  0
TEXT
  5
BBD3
  8
01
 10
702.41596685319007
 20
-746.61002327565052
 30
-0.0000000000562575
 40
4.0
  1
サテンニッケル
 72
     1
 11
718.68263351985684
 21
-746.61002327565052
 31
-0.0000000000562575
  0
TEXT
  5
BBD4
  8
01
 10
740.19691923414302
 20
-732.98909159977552
 30
-0.0000000000562575
 40
4.0
  1
KLM-3D-C
 41
0.8
 72
     1
 11
753.68263351985729
 21
-732.98909159977552
 31
-0.0000000000562575
  0
TEXT
  5
BBD5
  8
01
 10
740.19691923414302
 20
-739.98909159977552
 30
-0.0000000000562575
 40
4.0
  1
KLM-3D-B
 41
0.8
 72
     1
 11
753.68263351985729
 21
-739.98909159977552
 31
-0.0000000000562575
  0
TEXT
  5
BBD6
  8
01
 10
740.19691923414302
 20
-746.98909159977552
 30
-0.0000000000562575
 40
4.0
  1
KLM-3D-N
 41
0.8
 72
     1
 11
753.68263351985729
 21
-746.98909159977552
 31
-0.0000000000562575
  0
TEXT
  5
BBD7
  8
01
 10
738.59691923414255
 20
-775.10534129078633
 30
-0.0000000000562575
 40
4.0
  1
KLM-3D-8Q
 41
0.8
 72
     1
 11
753.68263351985684
 21
-775.10534129078633
 31
-0.0000000000562575
  0
TEXT
  5
BBD8
  8
01
 10
740.19691923414246
 20
-753.77473461612601
 30
-0.0000000000562575
 40
4.0
  1
KLM-3D-D
 41
0.8
 72
     1
 11
753.68263351985672
 21
-753.77473461612601
 31
-0.0000000000562575
  0
TEXT
  5
BBD9
  8
01
 10
738.59691923414232
 20
-760.77473461612612
 30
-0.0000000000562575
 40
4.0
  1
KLM-3D-4Q
 41
0.8
 72
     1
 11
753.68263351985661
 21
-760.77473461612612
 31
-0.0000000000562575
  0
TEXT
  5
BBDA
  8
01
 10
704.04263351985662
 20
-753.77473461612601
 30
-0.0000000000562575
 40
4.0
  1
ミラーニッケル
 41
0.9
 72
     1
 11
718.68263351985661
 21
-753.77473461612601
 31
-0.0000000000562575
  0
TEXT
  5
BBDB
  8
01
 10
702.41596685318996
 20
-760.77473461612612
 30
-0.0000000000562575
 40
4.0
  1
ダークアンバー
 72
     1
 11
718.68263351985661
 21
-760.77473461612612
 31
-0.0000000000562575
  0
LINE
  5
BBDC
  8
01
 10
701.28263351985674
 20
-769.27473461612612
 30
-0.0000000000562575
 11
771.28263351985674
 21
-769.27473461612612
 31
-0.0000000000562575
  0
LINE
  5
BBDD
  8
01
 10
701.28263351985674
 20
-776.27473461612612
 30
-0.0000000000562575
 11
771.28263351985674
 21
-776.27473461612612
 31
-0.0000000000562575
  0
TEXT
  5
BBDE
  8
01
 10
702.41596685318996
 20
-774.77473461612612
 30
-0.0000000000562575
 40
4.0
  1
ミラーブラック
 72
     1
 11
718.68263351985661
 21
-774.77473461612612
 31
-0.0000000000562575
  0
LINE
  5
BBDF
  8
01
 10
701.28263351985674
 20
-748.27473461612612
 30
-0.0000000000562575
 11
771.28263351985674
 21
-748.27473461612612
 31
-0.0000000000562575
  0
TEXT
  5
BBE0
  8
01
 10
738.52072875795204
 20
-768.10534129078633
 30
-0.0000000000562575
 40
4.0
  1
KLM-3D-GQ
 41
0.8
 72
     1
 11
753.68263351985684
 21
-768.10534129078633
 31
-0.0000000000562575
  0
TEXT
  5
BBE1
  8
01
 10
702.41596685318996
 20
-767.77473461612612
 30
-0.0000000000562575
 40
4.0
  1
パールブラック
 72
     1
 11
718.68263351985661
 21
-767.77473461612612
 31
-0.0000000000562575
  0
TEXT
  5
BD0B
  8
01
 10
607.56785203924255
 20
-657.34325255312842
 30
0.0
 40
3.5
  1
亜鉛ダイキャスト
  0
TEXT
  5
BD10
  8
01
 10
502.80631635911573
 20
-652.01149857439214
 30
0.0
 40
3.5
  1
材質：各種材質
  0
TEXT
  5
BD11
  8
01
 10
494.40631635911558
 20
-657.84483190772551
 30
0.0
 40
3.5
  1
仕上げ：各種仕上げ
  0
TEXT
  5
BD14
  8
01
 10
568.05241810979771
 20
-646.50335230528799
 30
0.0
 40
3.5
  1
材質：各種材質
  0
TEXT
  5
BD15
  8
01
 10
568.05241810979771
 20
-652.33668563862125
 30
0.0
 40
3.5
  1
仕上げ：各種仕上げ
  0
LINE
  5
BD18
  8
01
 10
477.29254461701868
 20
-697.39459780006609
 30
0.0
 11
477.29254461701868
 21
-716.34301082127354
 31
0.0
  0
LINE
  5
BD19
  8
01
 10
483.59254461701931
 20
-697.39459780006609
 30
0.0
 11
483.59254461701931
 21
-716.34301082127354
 31
0.0
  0
LINE
  5
BD1A
  8
01
 10
479.29254461701868
 20
-715.34301082127354
 30
0.0
 11
481.59254461701943
 21
-715.34301082127354
 31
0.0
  0
LINE
  5
BD1E
  8
01
 10
734.13705149029136
 20
-640.44968659891049
 30
-0.0000000000562575
 11
734.13705149029136
 21
-633.44968659891038
 31
-0.0000000000562575
  0
LINE
  5
BD1F
  8
01
 10
777.63705149029181
 20
-640.44968659891072
 30
-0.0000000000562575
 11
777.63705149029181
 21
-633.44968659891038
 31
-0.0000000000562575
  0
LINE
  5
BD20
  8
01
 10
736.13705149029136
 20
-634.44968659891038
 30
-0.0000000000562575
 11
775.63705149029181
 21
-634.44968659891038
 31
-0.0000000000562575
  0
LINE
  5
BD24
  8
01
 10
734.13705149029136
 20
-621.79981777368334
 30
-0.0000000000562575
 11
734.13705149029136
 21
-614.79981777368334
 31
-0.0000000000562575
  0
LINE
  5
BD25
  8
01
 10
783.13705149029306
 20
-621.79981777368369
 30
-0.0000000000562575
 11
783.13705149029306
 21
-614.79981777368334
 31
-0.0000000000562575
  0
LINE
  5
BD26
  8
01
 10
736.13705149029136
 20
-615.79981777368346
 30
-0.0000000000562575
 11
781.13705149029306
 21
-615.79981777368346
 31
-0.0000000000562575
  0
LINE
  5
BD2A
  8
01
 10
609.60533789202054
 20
-705.68749303324307
 30
-0.0000000000562575
 11
609.60533789202054
 21
-715.83637086914962
 31
-0.0000000000562575
  0
LINE
  5
BD2B
  8
01
 10
601.10533732816714
 20
-706.32875369736996
 30
-0.0000000000562575
 11
601.10533732816714
 21
-715.83637086914962
 31
-0.0000000000562575
  0
LINE
  5
BD2C
  8
01
 10
607.60533789202066
 20
-714.83637086914962
 30
-0.0000000000562575
 11
603.10533732816714
 21
-714.83637086914962
 31
-0.0000000000562575
  0
LINE
  5
BD2D
  8
01
 10
601.10533732816714
 20
-714.83637086914962
 30
-0.0000000000562575
 11
590.37200399483368
 21
-714.83637086914962
 31
-0.0000000000562575
  0
LINE
  5
BD31
  8
01
 10
663.17136485723336
 20
-595.17872697560108
 30
-0.0000000000562575
 11
695.42085541259712
 21
-595.17872697560108
 31
-0.0000000000562575
  0
LINE
  5
BD32
  8
01
 10
663.17136485723336
 20
-685.17872697560119
 30
-0.0000000000562575
 11
695.42085541259712
 21
-685.17872697560119
 31
-0.0000000000562575
  0
LINE
  5
BD33
  8
01
 10
694.42085541259712
 20
-597.17872697560119
 30
-0.0000000000562575
 11
694.42085541259712
 21
-683.17872697560119
 31
-0.0000000000562575
  0
LINE
  5
BD37
  8
01
 10
480.44254461701922
 20
-664.17872697560165
 30
-0.0000000000562575
 11
520.13601867627233
 21
-664.17872697560165
 31
-0.0000000000562575
  0
LINE
  5
BD38
  8
01
 10
480.44254461701922
 20
-706.17872697560199
 30
-0.0000000000562575
 11
520.13601867627233
 21
-706.17872697560199
 31
-0.0000000000562575
  0
LINE
  5
BD39
  8
01
 10
519.13601867627233
 20
-666.17872697560165
 30
-0.0000000000562575
 11
519.13601867627233
 21
-704.1787269756021
 31
-0.0000000000562575
  0
LINE
  5
BD3D
  8
01
 10
601.10533732816714
 20
-706.32875369736996
 30
-0.0000000000562575
 11
601.10533732816714
 21
-724.87220103485492
 31
-0.0000000000562575
  0
LINE
  5
BD3E
  8
01
 10
610.20537377861922
 20
-688.42873996396793
 30
-0.0000000000562575
 11
610.20537377861922
 21
-724.87220103485492
 31
-0.0000000000562575
  0
LINE
  5
BD3F
  8
01
 10
603.10533732816714
 20
-723.87220103485492
 30
-0.0000000000562575
 11
608.20537377861922
 21
-723.87220103485492
 31
-0.0000000000562575
  0
LINE
  5
BD43
  8
01
 10
562.40529543012485
 20
-706.32875369736996
 30
-0.0000000000562575
 11
562.40529543012485
 21
-716.34301082127354
 31
-0.0000000000562575
  0
LINE
  5
BD44
  8
01
 10
553.90529486627099
 20
-705.68749263786628
 30
-0.0000000000562575
 11
553.90529486627099
 21
-716.34301082127354
 31
-0.0000000000562575
  0
LINE
  5
BD45
  8
01
 10
555.90529486627111
 20
-715.34301082127354
 30
-0.0000000000562575
 11
560.40529543012485
 21
-715.34301082127354
 31
-0.0000000000562575
  0
LINE
  5
BD46
  8
01
 10
562.40529543012485
 20
-715.34301082127354
 30
-0.0000000000562575
 11
573.1386287634582
 21
-715.34301082127354
 31
-0.0000000000562575
  0
LINE
  5
BD4A
  8
01
 10
562.40529543012508
 20
-706.32875369736996
 30
-0.0000000000562575
 11
562.40529543012508
 21
-724.87220103485492
 31
-0.0000000000562575
  0
LINE
  5
BD4B
  8
01
 10
538.90531563877255
 20
-694.67872698500526
 30
-0.0000000000562575
 11
538.90531563877255
 21
-724.87220103485492
 31
-0.0000000000562575
  0
LINE
  5
BD4C
  8
01
 10
560.40529543012497
 20
-723.87220103485492
 30
-0.0000000000562575
 11
540.90531563877255
 21
-723.87220103485492
 31
-0.0000000000562575
  0
TEXT
  5
BD50
  8
01
 10
717.24822809462705
 20
-663.30538391854418
 30
-0.0000000000562575
 40
3.5
  1
SUS
  0
LINE
  5
BD53
  8
01
 10
734.13705149029136
 20
-671.75448322053455
 30
-0.0000000000562575
 11
734.13705149029136
 21
-667.63328602853494
 31
-0.0000000000562575
  0
LINE
  5
BD54
  8
01
 10
764.13705149029136
 20
-673.10448322053458
 30
-0.0000000000562575
 11
764.13705149029136
 21
-667.63328602853494
 31
-0.0000000000562575
  0
LINE
  5
BD55
  8
01
 10
736.13705149029136
 20
-668.63328602853494
 30
-0.0000000000562575
 11
762.13705149029136
 21
-668.63328602853494
 31
-0.0000000000562575
  0
LINE
  5
BD59
  8
01
 10
765.73872649029136
 20
-674.75448322053455
 30
-0.0000000000562575
 11
732.57828259029134
 21
-674.75448322053455
 31
-0.0000000000562575
  0
LINE
  5
BD5A
  8
01
 10
764.13705149029136
 20
-673.10448322053469
 30
-0.0000000000562575
 11
735.78705149029133
 21
-673.10448322053469
 31
-0.0000000000562575
  0
LINE
  5
BD5B
  8
01
 10
764.13705149029136
 20
-676.40448322053464
 30
-0.0000000000562575
 11
735.78705149029133
 21
-676.40448322053464
 31
-0.0000000000562575
  0
LINE
  5
BD5D
  8
01
 10
763.78705149029133
 20
-672.75448322053455
 30
-0.0000000000562575
 11
763.78705149029133
 21
-676.75448322053455
 31
-0.0000000000562575
  0
LINE
  5
BD5E
  8
01
 10
734.43705150029132
 20
-671.75448322053455
 30
-0.0000000000562575
 11
734.43705150029132
 21
-677.75448322053467
 31
-0.0000000000562575
  0
LINE
  5
BD5F
  8
01
 10
735.43705166436541
 20
-676.75448322053455
 30
-0.0000000000562575
 11
735.78705149029133
 21
-676.40448322053464
 31
-0.0000000000562575
  0
LINE
  5
BD60
  8
01
 10
735.78705149029133
 20
-673.10448322053469
 30
-0.0000000000562575
 11
735.43705166436541
 21
-672.75448322053455
 31
-0.0000000000562575
  0
LINE
  5
BD61
  8
01
 10
765.73872649029136
 20
-683.75448322053455
 30
-0.0000000000562575
 11
732.57828259029134
 21
-683.75448322053455
 31
-0.0000000000562575
  0
LINE
  5
BD62
  8
01
 10
764.13705149029136
 20
-682.10448322053458
 30
-0.0000000000562575
 11
735.78705149029133
 21
-682.10448322053458
 31
-0.0000000000562575
  0
LINE
  5
BD63
  8
01
 10
764.13705149029136
 20
-685.40448322053464
 30
-0.0000000000562575
 11
735.78705149029133
 21
-685.40448322053464
 31
-0.0000000000562575
  0
LINE
  5
BD65
  8
01
 10
763.78705149029133
 20
-681.75448322053467
 30
-0.0000000000562575
 11
763.78705149029133
 21
-685.75448322053467
 31
-0.0000000000562575
  0
LINE
  5
BD66
  8
01
 10
734.43705150029132
 20
-680.75448322053455
 30
-0.0000000000562575
 11
734.43705150029132
 21
-686.75448322053455
 31
-0.0000000000562575
  0
LINE
  5
BD67
  8
01
 10
735.43705166436541
 20
-685.75448322053467
 30
-0.0000000000562575
 11
735.78705149029133
 21
-685.40448322053464
 31
-0.0000000000562575
  0
LINE
  5
BD68
  8
01
 10
735.78705149029133
 20
-682.10448322053458
 30
-0.0000000000562575
 11
735.43705166436541
 21
-681.75448322053467
 31
-0.0000000000562575
  0
LINE
  5
BD69
  8
01
 10
763.78705149029133
 20
-685.75448322053467
 30
-0.0000000000562575
 11
735.43705166436541
 21
-685.75448322053467
 31
-0.0000000000562575
  0
LINE
  5
BD6A
  8
01
 10
764.13705149029136
 20
-685.40448322053453
 30
-0.0000000000562575
 11
763.78705149029133
 21
-685.75448322053467
 31
-0.0000000000562575
  0
LINE
  5
BD6B
  8
01
 10
735.43705166436541
 20
-685.75448322053467
 30
-0.0000000000562575
 11
734.43705159029128
 21
-686.75448322053455
 31
-0.0000000000562575
  0
LINE
  5
BD6C
  8
01
 10
764.13705149029136
 20
-682.10448322053458
 30
-0.0000000000562575
 11
764.13705149029136
 21
-685.40448322053453
 31
-0.0000000000562575
  0
LINE
  5
BD6D
  8
01
 10
734.43705159029128
 20
-686.75448322053455
 30
-0.0000000000562575
 11
734.13705149029136
 21
-686.75448322053455
 31
-0.0000000000562575
  0
LINE
  5
BD6E
  8
01
 10
763.78705149029133
 20
-681.75448322053467
 30
-0.0000000000562575
 11
764.13705149029136
 21
-682.10448322053458
 31
-0.0000000000562575
  0
LINE
  5
BD6F
  8
01
 10
734.13705149029136
 20
-680.75448322053455
 30
-0.0000000000562575
 11
734.13705149029136
 21
-686.75448322053455
 31
-0.0000000000562575
  0
LINE
  5
BD70
  8
01
 10
763.78705149029133
 20
-681.75448322053467
 30
-0.0000000000562575
 11
735.43705166436541
 21
-681.75448322053467
 31
-0.0000000000562575
  0
LINE
  5
BD71
  8
01
 10
734.43705150029132
 20
-680.75448322053455
 30
-0.0000000000562575
 11
734.13705149029136
 21
-680.75448322053455
 31
-0.0000000000562575
  0
LINE
  5
BD72
  8
01
 10
735.43705166436541
 20
-681.75448322053467
 30
-0.0000000000562575
 11
734.43705150029132
 21
-680.75448322053455
 31
-0.0000000000562575
  0
LINE
  5
BD73
  8
01
 10
763.78705149029133
 20
-676.75448322053455
 30
-0.0000000000562575
 11
735.43705166436541
 21
-676.75448322053455
 31
-0.0000000000562575
  0
LINE
  5
BD74
  8
01
 10
764.13705149029136
 20
-676.40448322053453
 30
-0.0000000000562575
 11
763.78705149029133
 21
-676.75448322053455
 31
-0.0000000000562575
  0
LINE
  5
BD75
  8
01
 10
735.43705166436541
 20
-676.75448322053455
 30
-0.0000000000562575
 11
734.43705159029128
 21
-677.75448322053467
 31
-0.0000000000562575
  0
LINE
  5
BD76
  8
01
 10
764.13705149029136
 20
-673.10448322053469
 30
-0.0000000000562575
 11
764.13705149029136
 21
-676.40448322053453
 31
-0.0000000000562575
  0
LINE
  5
BD77
  8
01
 10
734.43705159029128
 20
-677.75448322053467
 30
-0.0000000000562575
 11
734.13705149029136
 21
-677.75448322053467
 31
-0.0000000000562575
  0
LINE
  5
BD78
  8
01
 10
763.78705149029133
 20
-672.75448322053455
 30
-0.0000000000562575
 11
764.13705149029136
 21
-673.10448322053469
 31
-0.0000000000562575
  0
LINE
  5
BD79
  8
01
 10
734.13705149029136
 20
-671.75448322053455
 30
-0.0000000000562575
 11
734.13705149029136
 21
-677.75448322053467
 31
-0.0000000000562575
  0
LINE
  5
BD7A
  8
01
 10
763.78705149029133
 20
-672.75448322053455
 30
-0.0000000000562575
 11
735.43705166436541
 21
-672.75448322053455
 31
-0.0000000000562575
  0
LINE
  5
BD7B
  8
01
 10
734.43705150029132
 20
-671.75448322053455
 30
-0.0000000000562575
 11
734.13705149029136
 21
-671.75448322053455
 31
-0.0000000000562575
  0
LINE
  5
BD7C
  8
01
 10
735.43705166436541
 20
-672.75448322053455
 30
-0.0000000000562575
 11
734.43705150029132
 21
-671.75448322053455
 31
-0.0000000000562575
  0
TEXT
  5
BD7D
  8
01
 10
745.80371815695787
 20
-667.93328602853489
 30
-0.0000000000562575
 40
3.5
  1
30
  0
LINE
  5
BD7E
  8
01
  6
BYBLOCK
 10
762.13705149029136
 20
-668.09738764853489
 30
-0.0000000000562575
 11
764.13705149029136
 21
-668.63328602853494
 31
-0.0000000000562575
  0
LINE
  5
BD7F
  8
01
  6
BYBLOCK
 10
764.13705149029136
 20
-668.63328602853494
 30
-0.0000000000562575
 11
762.13705149029136
 21
-669.16918440853487
 31
-0.0000000000562575
  0
LINE
  5
BD80
  8
01
  6
BYBLOCK
 10
764.13705149029136
 20
-668.63328602853494
 30
-0.0000000000562575
 11
762.13705149029136
 21
-668.63328602853494
 31
-0.0000000000562575
  0
LINE
  5
BD81
  8
01
  6
BYBLOCK
 10
736.13705149029136
 20
-669.16918440853487
 30
-0.0000000000562575
 11
734.13705149029136
 21
-668.63328602853494
 31
-0.0000000000562575
  0
LINE
  5
BD82
  8
01
  6
BYBLOCK
 10
734.13705149029136
 20
-668.63328602853494
 30
-0.0000000000562575
 11
736.13705149029136
 21
-668.09738764853489
 31
-0.0000000000562575
  0
LINE
  5
BD83
  8
01
  6
BYBLOCK
 10
734.13705149029136
 20
-668.63328602853494
 30
-0.0000000000562575
 11
736.13705149029136
 21
-668.63328602853494
 31
-0.0000000000562575
  0
LINE
  5
BD84
  8
01
 10
733.34967263413034
 20
-672.93234726899038
 30
0.0
 11
729.78156142796036
 21
-664.00538391854411
 31
0.0
  0
LINE
  5
BD85
  8
01
 10
729.78156142796036
 20
-664.00538391854411
 30
0.0
 11
727.08156142796042
 21
-664.00538391854411
 31
0.0
  0
LINE
  5
BD86
  8
01
  6
BYBLOCK
 10
733.84729317401354
 20
-672.73344811873369
 30
-0.0000000000562575
 11
734.09197437520618
 21
-674.78949242357476
 31
-0.0000000000562575
  0
LINE
  5
BD87
  8
01
  6
BYBLOCK
 10
734.09197437520618
 20
-674.78949242357476
 30
-0.0000000000562575
 11
732.85205209424714
 21
-673.13124641924719
 31
-0.0000000000562575
  0
LINE
  5
BD88
  8
01
  6
BYBLOCK
 10
734.09197437520618
 20
-674.78949242357476
 30
-0.0000000000562575
 11
733.34967263413034
 21
-672.93234726899038
 31
-0.0000000000562575
  0
TEXT
  5
BD89
  8
01
 10
544.82197220111539
 20
-723.17220103485488
 30
-0.0000000000562575
 40
3.5
  1
23.5
  0
LINE
  5
BD8A
  8
01
  6
BYBLOCK
 10
540.90531563877255
 20
-724.40809941485486
 30
-0.0000000000562575
 11
538.90531563877255
 21
-723.87220103485492
 31
-0.0000000000562575
  0
LINE
  5
BD8B
  8
01
  6
BYBLOCK
 10
538.90531563877255
 20
-723.87220103485492
 30
-0.0000000000562575
 11
540.90531563877255
 21
-723.33630265485476
 31
-0.0000000000562575
  0
LINE
  5
BD8C
  8
01
  6
BYBLOCK
 10
538.90531563877255
 20
-723.87220103485492
 30
-0.0000000000562575
 11
540.90531563877255
 21
-723.87220103485492
 31
-0.0000000000562575
  0
LINE
  5
BD8D
  8
01
  6
BYBLOCK
 10
560.40529543012497
 20
-723.33630265485476
 30
-0.0000000000562575
 11
562.40529543012508
 21
-723.87220103485492
 31
-0.0000000000562575
  0
LINE
  5
BD8E
  8
01
  6
BYBLOCK
 10
562.40529543012508
 20
-723.87220103485492
 30
-0.0000000000562575
 11
560.40529543012497
 21
-724.40809941485486
 31
-0.0000000000562575
  0
LINE
  5
BD8F
  8
01
  6
BYBLOCK
 10
562.40529543012508
 20
-723.87220103485492
 30
-0.0000000000562575
 11
560.40529543012497
 21
-723.87220103485492
 31
-0.0000000000562575
  0
TEXT
  5
BD90
  8
01
 10
564.60529543012478
 20
-714.64301082127349
 30
-0.0000000000562575
 40
3.5
  1
8.5
  0
LINE
  5
BD91
  8
01
  6
BYBLOCK
 10
560.40529543012485
 20
-714.80711244127349
 30
-0.0000000000562575
 11
562.40529543012485
 21
-715.34301082127354
 31
-0.0000000000562575
  0
LINE
  5
BD92
  8
01
  6
BYBLOCK
 10
562.40529543012485
 20
-715.34301082127354
 30
-0.0000000000562575
 11
560.40529543012485
 21
-715.87890920127347
 31
-0.0000000000562575
  0
LINE
  5
BD93
  8
01
  6
BYBLOCK
 10
562.40529543012485
 20
-715.34301082127354
 30
-0.0000000000562575
 11
560.40529543012485
 21
-715.34301082127354
 31
-0.0000000000562575
  0
LINE
  5
BD94
  8
01
  6
BYBLOCK
 10
555.90529486627111
 20
-715.87890920127347
 30
-0.0000000000562575
 11
553.90529486627099
 21
-715.34301082127354
 31
-0.0000000000562575
  0
LINE
  5
BD95
  8
01
  6
BYBLOCK
 10
553.90529486627099
 20
-715.34301082127354
 30
-0.0000000000562575
 11
555.90529486627111
 21
-714.80711244127349
 31
-0.0000000000562575
  0
LINE
  5
BD96
  8
01
  6
BYBLOCK
 10
553.90529486627099
 20
-715.34301082127354
 30
-0.0000000000562575
 11
555.90529486627111
 21
-715.34301082127354
 31
-0.0000000000562575
  0
TEXT
  5
BD97
  8
01
 10
604.07202222005969
 20
-723.17220103485488
 30
-0.0000000000562575
 40
3.5
  1
9
  0
LINE
  5
BD98
  8
01
  6
BYBLOCK
 10
608.20537377861922
 20
-723.33630265485476
 30
-0.0000000000562575
 11
610.20537377861922
 21
-723.87220103485492
 31
-0.0000000000562575
  0
LINE
  5
BD99
  8
01
  6
BYBLOCK
 10
610.20537377861922
 20
-723.87220103485492
 30
-0.0000000000562575
 11
608.20537377861922
 21
-724.40809941485486
 31
-0.0000000000562575
  0
LINE
  5
BD9A
  8
01
  6
BYBLOCK
 10
610.20537377861922
 20
-723.87220103485492
 30
-0.0000000000562575
 11
608.20537377861922
 21
-723.87220103485492
 31
-0.0000000000562575
  0
LINE
  5
BD9B
  8
01
  6
BYBLOCK
 10
603.10533732816714
 20
-724.40809941485486
 30
-0.0000000000562575
 11
601.10533732816714
 21
-723.87220103485492
 31
-0.0000000000562575
  0
LINE
  5
BD9C
  8
01
  6
BYBLOCK
 10
601.10533732816714
 20
-723.87220103485492
 30
-0.0000000000562575
 11
603.10533732816714
 21
-723.33630265485476
 31
-0.0000000000562575
  0
LINE
  5
BD9D
  8
01
  6
BYBLOCK
 10
601.10533732816714
 20
-723.87220103485492
 30
-0.0000000000562575
 11
603.10533732816714
 21
-723.87220103485492
 31
-0.0000000000562575
  0
TEXT
  5
BD9E
  8
01
 10
518.4360186762724
 20
-690.71206030893507
 30
-0.0000000000562575
 40
3.5
  1
\U+03C642
 50
90.0
  0
LINE
  5
BD9F
  8
01
  6
BYBLOCK
 10
519.67191705627226
 20
-704.1787269756021
 30
-0.0000000000562575
 11
519.13601867627233
 21
-706.17872697560199
 31
-0.0000000000562575
  0
LINE
  5
BDA0
  8
01
  6
BYBLOCK
 10
519.13601867627233
 20
-706.17872697560199
 30
-0.0000000000562575
 11
518.60012029627228
 21
-704.1787269756021
 31
-0.0000000000562575
  0
LINE
  5
BDA1
  8
01
  6
BYBLOCK
 10
519.13601867627233
 20
-706.17872697560199
 30
-0.0000000000562575
 11
519.13601867627233
 21
-704.1787269756021
 31
-0.0000000000562575
  0
LINE
  5
BDA2
  8
01
  6
BYBLOCK
 10
518.60012029627228
 20
-666.17872697560165
 30
-0.0000000000562575
 11
519.13601867627233
 21
-664.17872697560165
 31
-0.0000000000562575
  0
LINE
  5
BDA3
  8
01
  6
BYBLOCK
 10
519.13601867627233
 20
-664.17872697560165
 30
-0.0000000000562575
 11
519.67191705627226
 21
-666.17872697560165
 31
-0.0000000000562575
  0
LINE
  5
BDA4
  8
01
  6
BYBLOCK
 10
519.13601867627233
 20
-664.17872697560165
 30
-0.0000000000562575
 11
519.13601867627233
 21
-666.17872697560165
 31
-0.0000000000562575
  0
TEXT
  5
BDA5
  8
01
 10
693.72085541259707
 20
-662.22872697560103
 30
-0.0000000000562575
 40
3.5
  1
ハンドル取付位置=90
 50
90.0
  0
LINE
  5
BDA6
  8
01
  6
BYBLOCK
 10
694.95675379259717
 20
-683.17872697560119
 30
-0.0000000000562575
 11
694.42085541259712
 21
-685.17872697560119
 31
-0.0000000000562575
  0
LINE
  5
BDA7
  8
01
  6
BYBLOCK
 10
694.42085541259712
 20
-685.17872697560119
 30
-0.0000000000562575
 11
693.88495703259696
 21
-683.17872697560119
 31
-0.0000000000562575
  0
LINE
  5
BDA8
  8
01
  6
BYBLOCK
 10
694.42085541259712
 20
-685.17872697560119
 30
-0.0000000000562575
 11
694.42085541259712
 21
-683.17872697560119
 31
-0.0000000000562575
  0
LINE
  5
BDA9
  8
01
  6
BYBLOCK
 10
693.88495703259696
 20
-597.17872697560119
 30
-0.0000000000562575
 11
694.42085541259712
 21
-595.17872697560108
 31
-0.0000000000562575
  0
LINE
  5
BDAA
  8
01
  6
BYBLOCK
 10
694.42085541259712
 20
-595.17872697560108
 30
-0.0000000000562575
 11
694.95675379259717
 21
-597.17872697560119
 31
-0.0000000000562575
  0
LINE
  5
BDAB
  8
01
  6
BYBLOCK
 10
694.42085541259712
 20
-595.17872697560108
 30
-0.0000000000562575
 11
694.42085541259712
 21
-597.17872697560119
 31
-0.0000000000562575
  0
TEXT
  5
BDAC
  8
01
 10
590.57200399483384
 20
-714.13637086914946
 30
-0.0000000000562575
 40
3.5
  1
8.5
  0
LINE
  5
BDAD
  8
01
  6
BYBLOCK
 10
603.10533732816714
 20
-715.37226924914967
 30
-0.0000000000562575
 11
601.10533732816714
 21
-714.83637086914962
 31
-0.0000000000562575
  0
LINE
  5
BDAE
  8
01
  6
BYBLOCK
 10
601.10533732816714
 20
-714.83637086914962
 30
-0.0000000000562575
 11
603.10533732816714
 21
-714.30047248914946
 31
-0.0000000000562575
  0
LINE
  5
BDAF
  8
01
  6
BYBLOCK
 10
601.10533732816714
 20
-714.83637086914962
 30
-0.0000000000562575
 11
603.10533732816714
 21
-714.83637086914962
 31
-0.0000000000562575
  0
LINE
  5
BDB0
  8
01
  6
BYBLOCK
 10
607.60533789202066
 20
-714.30047248914946
 30
-0.0000000000562575
 11
609.60533789202054
 21
-714.83637086914962
 31
-0.0000000000562575
  0
LINE
  5
BDB1
  8
01
  6
BYBLOCK
 10
609.60533789202054
 20
-714.83637086914962
 30
-0.0000000000562575
 11
607.60533789202066
 21
-715.37226924914967
 31
-0.0000000000562575
  0
LINE
  5
BDB2
  8
01
  6
BYBLOCK
 10
609.60533789202054
 20
-714.83637086914962
 30
-0.0000000000562575
 11
607.60533789202066
 21
-714.83637086914962
 31
-0.0000000000562575
  0
TEXT
  5
BDB3
  8
01
 10
755.38705149029215
 20
-615.09981777368341
 30
-0.0000000000562575
 40
3.5
  1
49
  0
LINE
  5
BDB4
  8
01
  6
BYBLOCK
 10
781.13705149029306
 20
-615.26391939368341
 30
-0.0000000000562575
 11
783.13705149029306
 21
-615.79981777368346
 31
-0.0000000000562575
  0
LINE
  5
BDB5
  8
01
  6
BYBLOCK
 10
783.13705149029306
 20
-615.79981777368346
 30
-0.0000000000562575
 11
781.13705149029306
 21
-616.33571615368339
 31
-0.0000000000562575
  0
LINE
  5
BDB6
  8
01
  6
BYBLOCK
 10
783.13705149029306
 20
-615.79981777368346
 30
-0.0000000000562575
 11
781.13705149029306
 21
-615.79981777368346
 31
-0.0000000000562575
  0
LINE
  5
BDB7
  8
01
  6
BYBLOCK
 10
736.13705149029136
 20
-616.33571615368339
 30
-0.0000000000562575
 11
734.13705149029136
 21
-615.79981777368346
 31
-0.0000000000562575
  0
LINE
  5
BDB8
  8
01
  6
BYBLOCK
 10
734.13705149029136
 20
-615.79981777368346
 30
-0.0000000000562575
 11
736.13705149029136
 21
-615.26391939368341
 31
-0.0000000000562575
  0
LINE
  5
BDB9
  8
01
  6
BYBLOCK
 10
734.13705149029136
 20
-615.79981777368346
 30
-0.0000000000562575
 11
736.13705149029136
 21
-615.79981777368346
 31
-0.0000000000562575
  0
TEXT
  5
BDBA
  8
01
 10
750.05371815695821
 20
-633.74968659891044
 30
-0.0000000000562575
 40
3.5
  1
43.5
  0
LINE
  5
BDBB
  8
01
  6
BYBLOCK
 10
775.63705149029181
 20
-633.91378821891044
 30
-0.0000000000562575
 11
777.63705149029181
 21
-634.44968659891038
 31
-0.0000000000562575
  0
LINE
  5
BDBC
  8
01
  6
BYBLOCK
 10
777.63705149029181
 20
-634.44968659891038
 30
-0.0000000000562575
 11
775.63705149029181
 21
-634.98558497891054
 31
-0.0000000000562575
  0
LINE
  5
BDBD
  8
01
  6
BYBLOCK
 10
777.63705149029181
 20
-634.44968659891038
 30
-0.0000000000562575
 11
775.63705149029181
 21
-634.44968659891038
 31
-0.0000000000562575
  0
LINE
  5
BDBE
  8
01
  6
BYBLOCK
 10
736.13705149029136
 20
-634.98558497891054
 30
-0.0000000000562575
 11
734.13705149029136
 21
-634.44968659891038
 31
-0.0000000000562575
  0
LINE
  5
BDBF
  8
01
  6
BYBLOCK
 10
734.13705149029136
 20
-634.44968659891038
 30
-0.0000000000562575
 11
736.13705149029136
 21
-633.91378821891044
 31
-0.0000000000562575
  0
LINE
  5
BDC0
  8
01
  6
BYBLOCK
 10
734.13705149029136
 20
-634.44968659891038
 30
-0.0000000000562575
 11
736.13705149029136
 21
-634.44968659891038
 31
-0.0000000000562575
  0
TEXT
  5
BDC1
  8
01
 10
478.692544617019
 20
-714.64301082127349
 30
0.0
 40
3.5
  1
6
  0
LINE
  5
BDC2
  8
01
  6
BYBLOCK
 10
481.59254461701943
 20
-714.80711244127349
 30
0.0
 11
483.59254461701931
 21
-715.34301082127354
 31
0.0
  0
LINE
  5
BDC3
  8
01
  6
BYBLOCK
 10
483.59254461701931
 20
-715.34301082127354
 30
0.0
 11
481.59254461701943
 21
-715.87890920127347
 31
0.0
  0
LINE
  5
BDC4
  8
01
  6
BYBLOCK
 10
483.59254461701931
 20
-715.34301082127354
 30
0.0
 11
481.59254461701943
 21
-715.34301082127354
 31
0.0
  0
LINE
  5
BDC5
  8
01
  6
BYBLOCK
 10
479.29254461701868
 20
-715.87890920127347
 30
0.0
 11
477.29254461701868
 21
-715.34301082127354
 31
0.0
  0
LINE
  5
BDC6
  8
01
  6
BYBLOCK
 10
477.29254461701868
 20
-715.34301082127354
 30
0.0
 11
479.29254461701868
 21
-714.80711244127349
 31
0.0
  0
LINE
  5
BDC7
  8
01
  6
BYBLOCK
 10
477.29254461701868
 20
-715.34301082127354
 30
0.0
 11
479.29254461701868
 21
-715.34301082127354
 31
0.0
  0
LINE
  5
BDC8
  8
01
 10
559.60461846122689
 20
-666.02877949200195
 30
0.0
 11
565.35241810979755
 21
-653.03668563862141
 31
0.0
  0
LINE
  5
BDC9
  8
01
 10
565.35241810979755
 20
-653.03668563862141
 30
0.0
 11
568.05241810979771
 21
-653.03668563862141
 31
0.0
  0
LINE
  5
BDCA
  8
01
  6
BYBLOCK
 10
560.09469837214385
 20
-666.24559451593348
 30
0.0
 11
558.79545376872909
 21
-667.85778263590726
 31
0.0
  0
LINE
  5
BDCB
  8
01
  6
BYBLOCK
 10
558.79545376872909
 20
-667.85778263590726
 30
0.0
 11
559.11453855031004
 21
-665.81196446807076
 31
0.0
  0
LINE
  5
BDCC
  8
01
  6
BYBLOCK
 10
558.79545376872909
 20
-667.85778263590726
 30
0.0
 11
559.60461846122689
 21
-666.02877949200195
 31
0.0
  0
LINE
  5
BDCD
  8
01
 10
540.49261433210665
 20
-672.91153352618653
 30
0.0
 11
533.97298302578236
 21
-658.54483190772555
 31
0.0
  0
LINE
  5
BDCE
  8
01
 10
533.97298302578236
 20
-658.54483190772555
 30
0.0
 11
531.27298302578231
 21
-658.54483190772555
 31
0.0
  0
LINE
  5
BDCF
  8
01
  6
BYBLOCK
 10
540.98061491812928
 20
-672.69007810916514
 30
0.0
 11
541.31909720754061
 21
-674.73277652387094
 31
0.0
  0
LINE
  5
BDD0
  8
01
  6
BYBLOCK
 10
541.31909720754061
 20
-674.73277652387094
 30
0.0
 11
540.00461374608392
 21
-673.13298894320792
 31
0.0
  0
LINE
  5
BDD1
  8
01
  6
BYBLOCK
 10
541.31909720754061
 20
-674.73277652387094
 30
0.0
 11
540.49261433210665
 21
-672.91153352618653
 31
0.0
  0
LINE
  5
BDD2
  8
01
 10
654.04834413941785
 20
-680.50100769937239
 30
0.0
 11
642.93451870590934
 21
-658.04325255312847
 31
0.0
  0
LINE
  5
BDD3
  8
01
 10
642.93451870590934
 20
-658.04325255312847
 30
0.0
 11
640.2345187059093
 21
-658.04325255312847
 31
0.0
  0
LINE
  5
BDD4
  8
01
  6
BYBLOCK
 10
654.52864642448219
 20
-680.26331716811671
 30
0.0
 11
654.93541728659056
 21
-682.29352024648756
 31
0.0
  0
LINE
  5
BDD5
  8
01
  6
BYBLOCK
 10
654.93541728659056
 20
-682.29352024648756
 30
0.0
 11
653.56804185435374
 21
-680.73869823062796
 31
0.0
  0
LINE
  5
BDD6
  8
01
  6
BYBLOCK
 10
654.93541728659056
 20
-682.29352024648756
 30
0.0
 11
654.04834413941785
 21
-680.50100769937239
 31
0.0
  0
VIEWPORT
  5
20C3
 67
     1
  8
0
  6
CONTINUOUS
 10
-3.7645543439106741
 20
10.089000620492961
 30
0.0
 40
583.9556774456147
 41
268.49302682325458
 68
     1
 69
     1
1001
ACAD
1000
MVIEW
1002
{
1070
    16
1010
0.0
1020
0.0
1030
0.0
1010
0.0
1020
0.0
1030
1.0
1040
0.0
1040
268.49302682325458
1040
-3.7645543439106741
1040
10.089000620492961
1040
50.0
1040
0.0
1040
0.0
1070
     0
1070
   100
1070
     1
1070
     1
1070
     0
1070
     0
1070
     0
1070
     0
1040
0.0
1040
0.0
1040
0.0
1040
1.0
1040
1.0
1040
0.0
1040
0.0
1070
     0
1002
{
1002
}
1002
}
  0
ENDSEC
  0
EOF
