  0
SECTION
  2
HEADER
  9
$ACADVER
  1
AC1009
  9
$INSBASE
 10
0.0
 20
0.0
 30
0.0
  9
$EXTMIN
 10
460.44252789255631
 20
-763.42160869324107
 30
-0.0000000000571676
  9
$EXTMAX
 10
777.72782847709379
 20
-590.33521353920207
 30
0.0000000000562575
  9
$LIMMIN
 10
0.0
 20
0.0
  9
$LIMMAX
 10
12.0
 20
9.0
  9
$ORTHOMODE
 70
     0
  9
$REGENMODE
 70
     1
  9
$FILLMODE
 70
     1
  9
$QTEXTMODE
 70
     0
  9
$MIRRTEXT
 70
     0
  9
$DRAGMODE
 70
     2
  9
$LTSCALE
 40
0.5
  9
$OSMODE
 70
    63
  9
$ATTMODE
 70
     1
  9
$TEXTSIZE
 40
4.0
  9
$TRACEWID
 40
0.05
  9
$TEXTSTYLE
  7
STANDARD
  9
$CLAYER
  8
1TEXT
  9
$CELTYPE
  6
BYLAYER
  9
$CECOLOR
 62
   256
  9
$DIMSCALE
 40
1.0
  9
$DIMASZ
 40
2.0
  9
$DIMEXO
 40
0.0
  9
$DIMDLI
 40
7.0
  9
$DIMRND
 40
0.0
  9
$DIMDLE
 40
0.0
  9
$DIMEXE
 40
1.0
  9
$DIMTP
 40
0.0
  9
$DIMTM
 40
0.0
  9
$DIMTXT
 40
3.5
  9
$DIMCEN
 40
0.0
  9
$DIMTSZ
 40
0.0
  9
$DIMTOL
 70
     0
  9
$DIMLIM
 70
     0
  9
$DIMTIH
 70
     0
  9
$DIMTOH
 70
     0
  9
$DIMSE1
 70
     0
  9
$DIMSE2
 70
     0
  9
$DIMTAD
 70
     1
  9
$DIMZIN
 70
     8
  9
$DIMBLK
  1

  9
$DIMASO
 70
     1
  9
$DIMSHO
 70
     1
  9
$DIMPOST
  1
 
  9
$DIMAPOST
  1

  9
$DIMALT
 70
     0
  9
$DIMALTD
 70
     2
  9
$DIMALTF
 40
25.399999999999999
  9
$DIMLFAC
 40
1.0
  9
$DIMTOFL
 70
     1
  9
$DIMTVP
 40
0.0
  9
$DIMTIX
 70
     0
  9
$DIMSOXD
 70
     0
  9
$DIMSAH
 70
     1
  9
$DIMBLK1
  1
OPEN30
  9
$DIMBLK2
  1
OPEN30
  9
$DIMSTYLE
  2
NEWX10
  9
$DIMCLRD
 70
   256
  9
$DIMCLRE
 70
   256
  9
$DIMCLRT
 70
   201
  9
$DIMTFAC
 40
0.7
  9
$DIMGAP
 40
0.7
  9
$LUNITS
 70
     2
  9
$LUPREC
 70
     4
  9
$SKETCHINC
 40
0.1
  9
$FILLETRAD
 40
0.0
  9
$AUNITS
 70
     0
  9
$AUPREC
 70
     2
  9
$MENU
  1
acad
  9
$ELEVATION
 40
0.0
  9
$PELEVATION
 40
0.0
  9
$THICKNESS
 40
0.0
  9
$LIMCHECK
 70
     0
  9
$BLIPMODE
 70
     0
  9
$CHAMFERA
 40
0.0
  9
$CHAMFERB
 40
0.0
  9
$SKPOLY
 70
     0
  9
$TDCREATE
 40
2451024.579593021
  9
$TDUPDATE
 40
2457014.6582206599
  9
$TDINDWG
 40
1.0680160764
  9
$TDUSRTIMER
 40
1.0680160764
  9
$USRTIMER
 70
     1
  9
$ANGBASE
 50
0.0
  9
$ANGDIR
 70
     0
  9
$PDMODE
 70
     0
  9
$PDSIZE
 40
0.0
  9
$PLINEWID
 40
0.0
  9
$COORDS
 70
     0
  9
$SPLFRAME
 70
     0
  9
$SPLINETYPE
 70
     6
  9
$SPLINESEGS
 70
     8
  9
$ATTDIA
 70
     0
  9
$ATTREQ
 70
     1
  9
$HANDLING
 70
     1
  9
$HANDSEED
  5
A5CB
  9
$SURFTAB1
 70
     6
  9
$SURFTAB2
 70
     6
  9
$SURFTYPE
 70
     6
  9
$SURFU
 70
     6
  9
$SURFV
 70
     6
  9
$UCSNAME
  2

  9
$UCSORG
 10
0.0
 20
0.0
 30
0.0
  9
$UCSXDIR
 10
1.0
 20
0.0
 30
0.0
  9
$UCSYDIR
 10
0.0
 20
1.0
 30
0.0
  9
$PUCSNAME
  2

  9
$PUCSORG
 10
0.0
 20
0.0
 30
0.0
  9
$PUCSXDIR
 10
1.0
 20
0.0
 30
0.0
  9
$PUCSYDIR
 10
0.0
 20
1.0
 30
0.0
  9
$USERI1
 70
     0
  9
$USERI2
 70
     0
  9
$USERI3
 70
     0
  9
$USERI4
 70
     0
  9
$USERI5
 70
     0
  9
$USERR1
 40
0.0
  9
$USERR2
 40
0.0
  9
$USERR3
 40
0.0
  9
$USERR4
 40
0.0
  9
$USERR5
 40
21.0
  9
$WORLDVIEW
 70
     1
  9
$SHADEDGE
 70
     3
  9
$SHADEDIF
 70
    70
  9
$TILEMODE
 70
     1
  9
$MAXACTVP
 70
    48
  9
$PLIMCHECK
 70
     0
  9
$PEXTMIN
 10
1.0000000000000000E+020
 20
1.0000000000000000E+020
 30
1.0000000000000000E+020
  9
$PEXTMAX
 10
-1.0000000000000000E+020
 20
-1.0000000000000000E+020
 30
-1.0000000000000000E+020
  9
$PLIMMIN
 10
0.0
 20
0.0
  9
$PLIMMAX
 10
12.0
 20
9.0
  9
$UNITMODE
 70
     0
  9
$VISRETAIN
 70
     1
  9
$PLINEGEN
 70
     0
  9
$PSLTSCALE
 70
     1
  0
ENDSEC
  0
SECTION
  2
TABLES
  0
TABLE
  2
VPORT
 70
     1
  0
VPORT
  2
*ACTIVE
 70
     0
 10
0.0
 20
0.0
 11
1.0
 21
1.0
 12
619.08730304305288
 22
-676.87540557382522
 13
0.0
 23
0.0
 14
1.0
 24
1.0
 15
0.0
 25
0.0
 16
0.0
 26
0.0
 36
1.0
 17
0.0
 27
0.0
 37
0.0
 40
183.60718989131931
 41
2.1749379652605461
 42
50.0
 43
0.0
 44
0.0
 50
0.0
 51
0.0
 71
     0
 72
  1000
 73
     1
 74
     1
 75
     0
 76
     0
 77
     0
 78
     0
  0
ENDTAB
  0
TABLE
  2
LTYPE
 70
    12
  0
LTYPE
  2
CONTINUOUS
 70
     0
  3
Solid line
 72
    65
 73
     0
 40
0.0
  0
LTYPE
  2
XREF1|CENTER2
 70
    48
  3
Center (.5x) ___ _ ___ _ ___ _ ___ _ ___ _ ___
 72
    65
 73
     4
 40
28.574999999999999
 49
19.050000000000001
 49
-3.1749999999999989
 49
3.1749999999999989
 49
-3.1749999999999989
  0
LTYPE
  2
A3WAKUDAKE|CENTER2
 70
    48
  3
Center (.5x) ___ _ ___ _ ___ _ ___ _ ___ _ ___
 72
    65
 73
     4
 40
28.574999999999999
 49
19.050000000000001
 49
-3.1749999999999989
 49
3.1749999999999989
 49
-3.1749999999999989
  0
ENDTAB
  0
TABLE
  2
LAYER
 70
    87
  0
LAYER
  2
0
 70
     0
 62
     7
  6
CONTINUOUS
  0
LAYER
  2
1TEXT
 70
     0
 62
     7
  6
CONTINUOUS
  0
LAYER
  2
A3WAKUDAKE|THICK
 70
    48
 62
     7
  6
CONTINUOUS
  0
LAYER
  2
A3WAKUDAKE|POINT
 70
    48
 62
     7
  6
CONTINUOUS
  0
LAYER
  2
A3WAKUDAKE|1CENTER
 70
    48
 62
     7
  6
A3WAKUDAKE|CENTER2
  0
LAYER
  2
A3WAKUDAKE|0-6
 70
    48
 62
     7
  6
CONTINUOUS
  0
LAYER
  2
01
 70
     0
 62
     1
  6
CONTINUOUS
  0
LAYER
  2
A3WAKUDAKE|1DIM
 70
    48
 62
     7
  6
CONTINUOUS
  0
LAYER
  2
XREF1|1CENTER
 70
    48
 62
     7
  6
XREF1|CENTER2
  0
ENDTAB
  0
TABLE
  2
STYLE
 70
     5
  0
STYLE
  2
STANDARD
 70
     0
 40
0.0
 41
1.0
 50
0.0
 71
     0
 42
4.0
  3
romans.shx
  4
extfont2.shx
  0
ENDTAB
  0
TABLE
  2
VIEW
 70
     6
  0
VIEW
  2
A
 70
     0
 40
163.88865421183439
 10
23.75874513620715
 20
-310.52391195898861
 41
232.0683926202114
 11
0.0
 21
0.0
 31
1.0
 12
0.0
 22
0.0
 32
0.0
 42
50.0
 43
0.0
 44
0.0
 50
0.0
 71
     0
  0
ENDTAB
  0
TABLE
  2
UCS
 70
     0
  0
ENDTAB
  0
TABLE
  2
APPID
 70
    12
  0
APPID
  2
ACAD
 70
     0
  0
APPID
  2
CONTENTBLOCKICON
 70
     0
  0
APPID
  2
CONTENTBLOCKDESCRIPTION
 70
     0
  0
APPID
  2
CONTENTTABDATA
 70
     0
  0
APPID
  2
CONTENTCURRENTTAB
 70
     0
  0
APPID
  2
DRAWINGVARIABLESXDATA
 70
     0
  0
APPID
  2
CONTENTLONGBLOCKNAME
 70
     0
  0
APPID
  2
ACAD_DSTYLE_DIMTEXT_FILL
 70
     0
  0
APPID
  2
ACAD_PSEXT
 70
     0
  0
APPID
  2
ACAD_MLEADERVER
 70
     0
  0
APPID
  2
ACAD_NAV_VCDISPLAY
 70
     0
  0
APPID
  2
ACAD_EXEMPT_FROM_CAD_STANDARDS
 70
     0
  0
ENDTAB
  0
TABLE
  2
DIMSTYLE
 70
     5
  0
DIMSTYLE
  2
NEWX10
 70
     0
  3
 
  4

  5

  6
OPEN30
  7
OPEN30
 40
1.0
 41
2.0
 42
0.0
 43
7.0
 44
1.0
 45
0.0
 46
0.0
 47
0.0
 48
0.0
140
3.5
141
0.0
142
0.0
143
25.399999999999999
144
1.0
145
0.0
146
0.7
147
0.7
 71
     0
 72
     0
 73
     0
 74
     0
 75
     0
 76
     0
 77
     1
 78
     8
170
     0
171
     2
172
     1
173
     1
174
     0
175
     0
176
   256
177
   256
178
   201
  0
ENDTAB
  0
ENDSEC
  0
SECTION
  2
BLOCKS
  0
BLOCK
  8
0
  2
$MODEL_SPACE
 70
     0
 10
0.0
 20
0.0
 30
0.0
  3
$MODEL_SPACE
  1

  0
ENDBLK
  5
1A
  8
0
  0
BLOCK
 67
     1
  8
0
  2
$PAPER_SPACE
 70
     0
 10
0.0
 20
0.0
 30
0.0
  3
$PAPER_SPACE
  1

  0
ENDBLK
  5
17
 67
     1
  8
0
  0
BLOCK
  8
0
  2
XREF1
 70
    36
 10
0.0
 20
0.0
 30
0.0
  3
XREF1
  1
D:\ACLT\FORMAT\KAWAJUN(9)図面用.dwg
  0
ENDBLK
  5
37B8
  8
0
  0
BLOCK
  8
0
  2
_OPEN30
 70
     0
 10
0.0
 20
0.0
 30
0.0
  3
_OPEN30
  1

  0
LINE
  5
3854
  8
0
  6
BYBLOCK
 62
     0
 10
-1.0
 20
0.26794919
 30
0.0
 11
0.0
 21
0.0
 31
0.0
  0
LINE
  5
3855
  8
0
  6
BYBLOCK
 62
     0
 10
0.0
 20
0.0
 30
0.0
 11
-1.0
 21
-0.26794919
 31
0.0
  0
LINE
  5
3856
  8
0
  6
BYBLOCK
 62
     0
 10
0.0
 20
0.0
 30
0.0
 11
-1.0
 21
0.0
 31
0.0
  0
ENDBLK
  5
3858
  8
0
  0
BLOCK
  8
0
  2
A3WAKUDAKE
 70
    36
 10
0.0
 20
0.0
 30
0.0
  3
A3WAKUDAKE
  1
D:\ACLT\FORMAT\A3WAKUdake.dwg
  0
ENDBLK
  5
5533
  8
0
  0
ENDSEC
  0
SECTION
  2
ENTITIES
  0
TEXT
  5
8FBC
  8
01
 10
461.41806801405528
 20
-607.07421010467374
 30
0.0
 40
8.0
  1
KLW-2D-X
  0
LINE
  5
9123
  8
01
 10
627.17134845523242
 20
-749.23589829324203
 30
0.0
 11
627.17134845523265
 21
-763.42160869324107
 31
0.0
  0
LINE
  5
9124
  8
01
 10
620.07849325523296
 20
-756.32875349324172
 30
0.0
 11
634.264203655232
 21
-756.32875349324138
 31
0.0
  0
LINE
  5
9211
  8
01
 10
480.44252789255842
 20
-712.32875369736996
 30
0.0
 11
480.44252789255842
 21
-700.32875369737008
 31
0.0
  0
LINE
  5
9212
  8
01
 10
474.4425278925583
 20
-706.32875369736996
 30
0.0
 11
486.4425278925583
 21
-706.32875369736996
 31
0.0
  0
LINE
  5
9273
  8
01
 10
480.44252789255842
 20
-650.68077224612182
 30
0.0
 11
480.44252789255842
 21
-606.39402853200045
 31
0.0
  0
LINE
  5
9282
  8
01
 10
627.17134813277255
 20
-634.16875797154137
 30
0.0
 11
627.17134813277255
 21
-622.16875797154137
 31
0.0
  0
LINE
  5
929D
  8
01
 10
627.17134813277255
 20
-712.32875369736939
 30
0.0
 11
627.17134813277255
 21
-700.32875369736939
 31
0.0
  0
LINE
  5
929E
  8
01
 10
621.17134813277255
 20
-706.32875369736928
 30
0.0
 11
633.17134813277255
 21
-706.32875369736928
 31
0.0
  0
LINE
  5
92AA
  8
01
 10
527.58679521518593
 20
-706.32875369736996
 30
0.0
 11
555.54297950573516
 21
-706.32875369736996
 31
0.0
  0
LINE
  5
92AB
  8
01
 10
561.82967570392861
 20
-706.32875369736996
 30
0.0
 11
590.55502857686463
 21
-706.32875369736996
 31
0.0
  0
LINE
  5
946A
  8
01
 10
551.25656204557595
 20
-694.82874883317959
 30
0.0
 11
583.69923931914741
 21
-694.82874883317959
 31
0.0
  0
LINE
  5
9519
  8
01
 10
616.67134813277255
 20
-595.49539974980905
 30
0.0
 11
616.67134813277255
 21
-627.93807702338063
 31
0.0
  0
LINE
  5
9548
  8
01
 10
637.67134813277255
 20
-595.49539974980894
 30
0.0
 11
637.67134813277255
 21
-627.9380770233804
 31
0.0
  0
LINE
  5
9873
  8
01
 10
499.94254011376552
 20
-631.64414158348825
 30
0.0
 11
460.94254011376552
 21
-631.64414158348836
 31
0.0
  0
LINE
  5
9875
  8
01
 10
460.44254011376529
 20
-625.34414158348829
 30
0.0
 11
500.4425401137654
 21
-625.34414158348773
 31
0.0
  0
LINE
  5
9876
  8
01
 10
460.44254011376529
 20
-625.34414158348829
 30
0.0
 11
460.44254011376552
 21
-631.14414158348848
 31
0.0
  0
ARC
  5
9877
  8
01
 10
460.9425401137654
 20
-631.14414158348825
 30
0.0
 40
0.5
 50
180.0
 51
270.0
  0
LINE
  5
987D
  8
01
 10
500.4425401137654
 20
-625.34414158348773
 30
0.0
 11
500.4425401137654
 21
-631.14414158348825
 31
0.0
  0
ARC
  5
987E
  8
01
 10
499.94254011376552
 20
-631.14414158348825
 30
0.0
 40
0.5
 50
270.0
 51
0.0
  0
LINE
  5
987F
  8
01
 10
607.67134813277437
 20
-680.82875349324161
 30
0.0
 11
646.67134813277414
 21
-680.82875349324183
 31
0.0
  0
ARC
  5
9880
  8
01
 10
646.67134813277414
 20
-681.32875349324183
 30
0.0
 40
0.5
 50
0.0
 51
90.0
  0
LINE
  5
9881
  8
01
 10
607.67134813277426
 20
-720.82875349324161
 30
0.0
 11
646.67134813277426
 21
-720.82875349324195
 31
0.0
  0
ARC
  5
9882
  8
01
 10
607.67134813277426
 20
-720.32875349324161
 30
0.0
 40
0.5
 50
180.0
 51
270.0
  0
LINE
  5
9886
  8
01
 10
587.40530387925537
 20
-720.32874883317299
 30
0.0
 11
587.40530387925548
 21
-681.32874883317345
 31
0.0
  0
LINE
  5
9889
  8
01
 10
581.10530387925564
 20
-680.82874883317288
 30
0.0
 11
581.10530387925132
 21
-720.82874883317322
 31
0.0
  0
LINE
  5
988B
  8
01
 10
607.17134813277426
 20
-720.32875349324161
 30
0.0
 11
607.17134813277437
 21
-681.32875349324161
 31
0.0
  0
ARC
  5
988C
  8
01
 10
607.67134813277437
 20
-681.32875349324161
 30
0.0
 40
0.5
 50
90.0
 51
180.0
  0
LINE
  5
988D
  8
01
 10
581.10530387925132
 20
-720.82874883317322
 30
0.0
 11
586.90530387925548
 21
-720.82874883317299
 31
0.0
  0
ARC
  5
988E
  8
01
 10
586.90530387925548
 20
-720.32874883317299
 30
0.0
 40
0.5
 50
270.0
 51
0.0
  0
LINE
  5
9892
  8
01
 10
581.10530387925564
 20
-680.82874883317288
 30
0.0
 11
586.90530387925548
 21
-680.82874883317345
 31
0.0
  0
ARC
  5
9893
  8
01
 10
586.90530387925548
 20
-681.32874883317345
 30
0.0
 40
0.5
 50
0.0
 51
90.0
  0
LINE
  5
9896
  8
01
 10
647.17134813277426
 20
-720.32875349324195
 30
0.0
 11
647.17134813277414
 21
-681.32875349324183
 31
0.0
  0
ARC
  5
9897
  8
01
 10
646.67134813277426
 20
-720.32875349324195
 30
0.0
 40
0.5
 50
270.0
 51
0.0
  0
CIRCLE
  5
9898
  8
01
 10
627.17134845523253
 20
-698.92876328911382
 30
0.0
 40
2.5
  0
CIRCLE
  5
9899
  8
01
 10
627.17134845523253
 20
-706.32875328911371
 30
0.0
 40
3.75
  0
LINE
  5
98BD
  8
01
 10
588.80507387925581
 20
-705.32874751224222
 30
-0.0000000000563712
 11
587.40530387925537
 21
-705.32874751224233
 31
-0.0000000000563712
  0
ARC
  5
98BF
  8
01
 10
588.80507387925581
 20
-707.62874651224229
 30
-0.0000000000563712
 40
0.30000001
 50
346.8165200000056
 51
90.00000299999769
  0
ARC
  5
98C0
  8
01
 10
583.25530387925573
 20
-706.32874751224222
 30
-0.0000000000563712
 40
6.0
 50
13.1834819999982
 51
35.68533399999356
  0
ARC
  5
98C1
  8
01
 10
588.80507387925581
 20
-705.02874451224238
 30
-0.0000000000563712
 40
0.30000001
 50
270.0
 51
13.1834819999982
  0
LINE
  5
98C3
  8
01
 10
588.12870387925568
 20
-702.82874751224222
 30
-0.0000000000563712
 11
587.40530387925537
 21
-702.82874751224222
 31
-0.0000000000563712
  0
LINE
  5
98C4
  8
01
 10
588.12870387925568
 20
-709.82874751224222
 30
-0.0000000000563712
 11
587.40530387925537
 21
-709.8287475122421
 31
-0.0000000000563712
  0
ARC
  5
98C5
  8
01
 10
583.25530387925573
 20
-706.32874751224222
 30
-0.0000000000563712
 40
6.0
 50
324.31467000000117
 51
346.81651749663899
  0
LINE
  5
98C8
  8
01
 10
588.80585233865816
 20
-707.3287475122421
 30
-0.0000000000563712
 11
587.40530387925537
 21
-707.3287475122421
 31
-0.0000000000563712
  0
LINE
  5
98CC
  8
01
 10
576.90529850137921
 20
-706.32874483318039
 30
-0.0000000000562575
 11
572.15529850137921
 21
-706.32874483318051
 31
-0.0000000000562575
  0
LINE
  5
98CD
  8
01
 10
572.15529850137921
 20
-709.65716045197632
 30
-0.0000000000562575
 11
572.15529850137921
 21
-703.00029521438375
 31
-0.0000000000562575
  0
LINE
  5
98CE
  8
01
 10
571.15529850137921
 20
-709.65715645197656
 30
-0.0000000000562575
 11
571.15529850137921
 21
-703.00029521438341
 31
-0.0000000000562575
  0
LINE
  5
98CF
  8
01
 10
571.65529850137921
 20
-708.8733618331803
 30
-0.0000000000562575
 11
571.65529850137921
 21
-706.74328783318026
 31
-0.0000000000562575
  0
LINE
  5
98D0
  8
01
 10
565.65529850137909
 20
-709.65716045197655
 30
-0.0000000000562575
 11
565.65529850137909
 21
-703.00029521438341
 31
-0.0000000000562575
  0
LINE
  5
98D1
  8
01
 10
565.15529850137909
 20
-709.15717083318032
 30
-0.0000000000562575
 11
565.15529850137909
 21
-703.50031783318036
 31
-0.0000000000562575
  0
LINE
  5
98D2
  8
01
 10
565.15529850137909
 20
-709.15717083318032
 30
-0.0000000000562575
 11
565.15529850137909
 21
-703.50031783318036
 31
-0.0000000000562575
  0
LINE
  5
98D3
  8
01
 10
571.65529850137921
 20
-706.07903083318035
 30
-0.0000000000562575
 11
571.65529850137921
 21
-703.77585783318023
 31
-0.0000000000562575
  0
LINE
  5
98D4
  8
01
 10
571.15529850137921
 20
-706.32874483318051
 30
-0.0000000000562575
 11
565.15529850137909
 21
-706.32874483318051
 31
-0.0000000000562575
  0
ARC
  5
98D5
  8
01
 10
571.6553013297214
 20
-703.18779521438341
 30
-0.0000000000571676
 40
0.30000001
 50
215.2643800000061
 51
324.73561000001052
  0
LINE
  5
98D6
  8
01
 10
571.41035132972138
 20
-703.36099721438336
 30
-0.0000000000571676
 11
571.1553013297214
 21
-703.00029521438341
 31
-0.0000000000571676
  0
LINE
  5
98D7
  8
01
 10
571.9002513297213
 20
-703.36099721438336
 30
-0.0000000000571676
 11
572.1553013297214
 21
-703.00029121438342
 31
-0.0000000000571676
  0
ARC
  5
98D8
  8
01
 10
571.65529850137921
 20
-709.46966745197665
 30
-0.0000000000571676
 40
0.30000001
 50
35.26438999998944
 51
144.73561999999379
  0
LINE
  5
98D9
  8
01
 10
571.41034850137919
 20
-709.2964654519767
 30
-0.0000000000571676
 11
571.15529850137921
 21
-709.65715645197656
 31
-0.0000000000571676
  0
LINE
  5
98DA
  8
01
 10
571.90024850137922
 20
-709.29646845197647
 30
-0.0000000000571676
 11
572.15527850137914
 21
-709.65716045197655
 31
-0.0000000000571676
  0
LINE
  5
98DB
  8
01
 10
565.15529850137909
 20
-709.15717083318054
 30
-0.0000000000562575
 11
565.15529850137909
 21
-703.50031783318047
 31
-0.0000000000562575
  0
LINE
  5
98DC
  8
01
 10
565.15529850137909
 20
-709.15717083318054
 30
-0.0000000000562575
 11
565.15529850137909
 21
-703.50031783318047
 31
-0.0000000000562575
  0
LINE
  5
98DD
  8
01
 10
576.90529850137898
 20
-703.00029521438319
 30
-0.0000000000571676
 11
572.15529850137921
 21
-703.00029521438341
 31
-0.0000000000571676
  0
LINE
  5
98DE
  8
01
 10
571.1553013297214
 20
-703.00029521438341
 30
-0.0000000000571676
 11
565.65529850137909
 21
-703.00029521438341
 31
-0.0000000000571676
  0
LINE
  5
98DF
  8
01
 10
576.90529850137921
 20
-709.65716045197644
 30
-0.0000000000571676
 11
572.15527850137914
 21
-709.65716045197655
 31
-0.0000000000571676
  0
LINE
  5
98E0
  8
01
 10
571.15529850137921
 20
-709.65716045197655
 30
-0.0000000000571676
 11
565.65529850137909
 21
-709.65716045197655
 31
-0.0000000000571676
  0
LINE
  5
98E1
  8
01
 10
565.15529850137909
 20
-709.15717483318053
 30
-0.0000000000562575
 11
565.65529850137909
 21
-709.65716045197655
 31
-0.0000000000571676
  0
LINE
  5
98E2
  8
01
 10
565.15529850137909
 20
-703.50031783318047
 30
-0.0000000000562575
 11
565.65529850137909
 21
-703.00029521438341
 31
-0.0000000000571676
  0
LINE
  5
98E3
  8
01
 10
499.94252789255609
 20
-680.82875369737008
 30
0.0
 11
460.94252789255643
 21
-680.82875369737019
 31
0.0
  0
ARC
  5
98E4
  8
01
 10
460.94252789255643
 20
-681.3287536973703
 30
0.0
 40
0.5
 50
90.0
 51
180.0
  0
LINE
  5
98E5
  8
01
 10
499.94252789255631
 20
-720.82875369736996
 30
0.0
 11
460.94252789255631
 21
-720.82875369737053
 31
0.0
  0
ARC
  5
98E6
  8
01
 10
499.94252789255631
 20
-720.32875369736996
 30
0.0
 40
0.5
 50
270.0
 51
0.0
  0
LINE
  5
98E9
  8
01
 10
531.0460495472181
 20
-720.32875369736269
 30
0.0
 11
531.04604954721822
 21
-681.32875369736325
 31
0.0
  0
LINE
  5
98EC
  8
01
 10
537.34604954721817
 20
-680.8287536973628
 30
0.0
 11
537.34604954721385
 21
-720.82875369736314
 31
0.0
  0
LINE
  5
98EE
  8
01
 10
500.4425278925562
 20
-720.32875369736996
 30
0.0
 11
500.44252789255609
 21
-681.32875369736996
 31
0.0
  0
ARC
  5
98EF
  8
01
 10
499.94252789255609
 20
-681.32875369736996
 30
0.0
 40
0.5
 50
0.0
 51
90.0
  0
LINE
  5
98F1
  8
01
 10
537.34604954721385
 20
-720.82875369736314
 30
0.0
 11
531.54604954721822
 21
-720.8287536973628
 31
0.0
  0
ARC
  5
98F2
  8
01
 10
531.54604954721822
 20
-720.32875369736269
 30
0.0
 40
0.5
 50
180.0
 51
270.0
  0
LINE
  5
98F6
  8
01
 10
537.34604954721817
 20
-680.8287536973628
 30
0.0
 11
531.54604954721822
 21
-680.82875369736325
 31
0.0
  0
ARC
  5
98F7
  8
01
 10
531.54604954721822
 20
-681.32875369736325
 30
0.0
 40
0.5
 50
90.0
 51
180.0
  0
LINE
  5
98FA
  8
01
 10
460.44252789255631
 20
-720.32875369737053
 30
0.0
 11
460.44252789255643
 21
-681.3287536973703
 31
0.0
  0
ARC
  5
98FB
  8
01
 10
460.94252789255631
 20
-720.32875369737053
 30
0.0
 40
0.5
 50
180.0
 51
270.0
  0
CIRCLE
  5
9900
  8
01
 10
480.44252789255842
 20
-706.32875369736996
 30
0.0
 40
11.30000000000109
  0
LINE
  5
9909
  8
01
 10
516.34566398149661
 20
-717.3287586973621
 30
0.0
 11
531.0460495472181
 21
-717.32875869736267
 31
0.0
  0
LINE
  5
990A
  8
01
 10
529.84568692570826
 20
-695.82875869736256
 30
0.0
 11
529.84568692570349
 21
-716.82875869736245
 31
0.0
  0
LINE
  5
9913
  8
01
 10
516.34566398149855
 20
-695.32875869736313
 30
0.0
 11
531.04604954721822
 21
-695.32875869736245
 31
0.0
  0
ARC
  5
991C
  8
01
 10
516.34566398149855
 20
-696.32875869736165
 30
0.0
 40
1.0
 50
90.0
 51
180.0
  0
LINE
  5
991D
  8
01
 10
515.34566398149661
 20
-696.32875869736165
 30
0.0
 11
515.34566398149661
 21
-716.32875869735972
 31
0.0
  0
ARC
  5
991E
  8
01
 10
516.34566398149661
 20
-716.32875869735972
 30
0.0
 40
1.0
 50
180.0
 51
270.0
  0
ARC
  5
991F
  8
01
 10
530.34568692570338
 20
-695.82875869736256
 30
0.0
 40
0.5
 50
90.0
 51
179.99999999998701
  0
ARC
  5
9920
  8
01
 10
530.34568692570338
 20
-716.82875869736256
 30
0.0
 40
0.5
 50
179.99999999998701
 51
270.0
  0
LINE
  5
9925
  8
01
 10
541.54605492509461
 20
-706.32876569737005
 30
0.0000000000001125
 11
546.04568359250595
 21
-706.32876569737005
 31
0.0000000000001125
  0
LINE
  5
9926
  8
01
 10
546.04568359250595
 20
-709.65718131616597
 30
0.0000000000001125
 11
546.04568359250595
 21
-703.00031607857329
 31
0.0000000000001125
  0
LINE
  5
9927
  8
01
 10
547.04568359250595
 20
-709.65717731616598
 30
0.0000000000001125
 11
547.04568359250595
 21
-703.00031607857329
 31
0.0000000000001125
  0
LINE
  5
9928
  8
01
 10
546.54568359250595
 20
-708.87338269736995
 30
0.0000000000001125
 11
546.54568359250595
 21
-706.74330869737014
 31
0.0000000000001125
  0
LINE
  5
9929
  8
01
 10
552.54568359250595
 20
-709.65718131616632
 30
0.0000000000001125
 11
552.54568359250595
 21
-703.00031607857329
 31
0.0000000000001125
  0
LINE
  5
992A
  8
01
 10
553.04568359250595
 20
-709.15719169736997
 30
0.0000000000001125
 11
553.04568359250595
 21
-703.50033869737013
 31
0.0000000000001125
  0
LINE
  5
992B
  8
01
 10
553.04568359250595
 20
-709.15719169736997
 30
0.0000000000001125
 11
553.04568359250595
 21
-703.50033869737013
 31
0.0000000000001125
  0
LINE
  5
992C
  8
01
 10
546.54568359250595
 20
-706.07905169737001
 30
0.0000000000001125
 11
546.54568359250595
 21
-703.77587869737022
 31
0.0000000000001125
  0
LINE
  5
992D
  8
01
 10
547.04568359250595
 20
-706.32876569737005
 30
0.0000000000001125
 11
553.04568359250595
 21
-706.32876569737005
 31
0.0000000000001125
  0
ARC
  5
9930
  8
01
 10
546.54568076416365
 20
-703.18781607857329
 30
-0.0000000000007976
 40
0.30000001
 50
215.2643900000057
 51
324.7356199999939
  0
LINE
  5
9931
  8
01
 10
546.79063076416355
 20
-703.36101807857335
 30
-0.0000000000007976
 11
547.04568076416365
 21
-703.00031607857329
 31
-0.0000000000007976
  0
LINE
  5
9932
  8
01
 10
546.30073076416375
 20
-703.36101807857335
 30
-0.0000000000007976
 11
546.04568076416365
 21
-703.00031207857342
 31
-0.0000000000007976
  0
ARC
  5
9933
  8
01
 10
546.54568359250595
 20
-709.46968831616607
 30
-0.0000000000007976
 40
0.30000001
 50
35.264380000006128
 51
144.73560999999421
  0
LINE
  5
9934
  8
01
 10
546.79063359250586
 20
-709.29648631616624
 30
-0.0000000000007976
 11
547.04568359250595
 21
-709.65717731616633
 31
-0.0000000000007976
  0
LINE
  5
9935
  8
01
 10
546.30073359250594
 20
-709.29648931616634
 30
-0.0000000000007976
 11
546.0457035925059
 21
-709.65718131616632
 31
-0.0000000000007976
  0
LINE
  5
9936
  8
01
 10
553.04568359250595
 20
-709.15719169737031
 30
0.0000000000001125
 11
553.04568359250595
 21
-703.50033869737035
 31
0.0000000000001125
  0
LINE
  5
9937
  8
01
 10
553.04568359250595
 20
-709.15719169737031
 30
0.0000000000001125
 11
553.04568359250595
 21
-703.50033869737035
 31
0.0000000000001125
  0
LINE
  5
9938
  8
01
 10
541.54605492509461
 20
-703.00031607857318
 30
-0.0000000000007976
 11
546.04568359250595
 21
-703.00031607857329
 31
-0.0000000000007976
  0
LINE
  5
9939
  8
01
 10
547.04568076416365
 20
-703.00031607857329
 30
-0.0000000000007976
 11
552.54568359250595
 21
-703.00031607857329
 31
-0.0000000000007976
  0
LINE
  5
993A
  8
01
 10
541.54605492509461
 20
-709.65718131616632
 30
-0.0000000000007976
 11
546.0457035925059
 21
-709.65718131616632
 31
-0.0000000000007976
  0
LINE
  5
993B
  8
01
 10
547.04568359250595
 20
-709.65718131616632
 30
-0.0000000000007976
 11
552.54568359250595
 21
-709.65718131616632
 31
-0.0000000000007976
  0
LINE
  5
993C
  8
01
 10
553.04568359250595
 20
-709.1571956973703
 30
0.0000000000001125
 11
552.54568359250595
 21
-709.65718131616632
 31
-0.0000000000007976
  0
LINE
  5
993D
  8
01
 10
553.04568359250595
 20
-703.50033869737035
 30
0.0000000000001125
 11
552.54568359250595
 21
-703.00031607857329
 31
-0.0000000000007976
  0
LINE
  5
9940
  8
01
 10
627.17134813277323
 20
-618.71999309973353
 30
0.0
 11
627.17134813277289
 21
-620.89414158348632
 31
0.0
  0
LINE
  5
9942
  8
01
 10
613.42136067644196
 20
-598.14414158348529
 30
0.0
 11
619.92136067644208
 21
-598.14414158348575
 31
0.0
  0
LINE
  5
9943
  8
01
 10
634.42136067644196
 20
-598.14414158348677
 30
0.0
 11
640.92136067644208
 21
-598.14414158348734
 31
0.0
  0
LINE
  5
9945
  8
01
 10
634.42136067644196
 20
-598.14414158348677
 30
0.0
 11
634.42136067643867
 21
-620.34414158348818
 31
0.0
  0
LINE
  5
9946
  8
01
 10
640.92136067644208
 20
-598.14414158348734
 30
0.0
 11
640.92136067643878
 21
-620.34414158348886
 31
0.0
  0
LINE
  5
9947
  8
01
 10
619.92136067644208
 20
-598.14414158348575
 30
0.0
 11
619.92136067643855
 21
-620.34414158348682
 31
0.0
  0
LINE
  5
9948
  8
01
 10
613.42136067644196
 20
-598.14414158348529
 30
0.0
 11
613.42136067643867
 21
-620.34414158348602
 31
0.0
  0
ARC
  5
994B
  8
01
 10
480.44252789255842
 20
-706.32875369736996
 30
0.0
 40
10.999995000006949
 50
79.019419278570822
 51
100.98058072142911
  0
LINE
  5
994C
  8
01
 10
482.9425278925583
 20
-696.0209947265688
 30
0.0
 11
482.9425278925583
 21
-716.63651266817124
 31
0.0
  0
LINE
  5
994D
  8
01
 10
477.9425278925583
 20
-696.0209947265688
 30
0.0
 11
477.9425278925583
 21
-716.63651266817124
 31
0.0
  0
ARC
  5
994E
  8
01
 10
480.44252789255842
 20
-706.32875369736996
 30
0.0
 40
10.999995000006949
 50
100.98058072142911
 51
259.01941927857081
  0
ARC
  5
994F
  8
01
 10
480.44252789255842
 20
-706.32875369736996
 30
0.0
 40
10.999995000006949
 50
280.98058072142919
 51
79.019419278570822
  0
ARC
  5
9950
  8
01
 10
480.44252789255842
 20
-706.32875369736996
 30
0.0
 40
10.999995000006949
 50
259.01941927857081
 51
280.98058072142919
  0
ARC
  5
9951
  8
01
 10
478.4425278925583
 20
-696.0209947265688
 30
0.0
 40
0.5
 50
100.98058072142911
 51
180.0
  0
ARC
  5
9952
  8
01
 10
482.4425278925583
 20
-696.0209947265688
 30
0.0
 40
0.5
 50
0.0
 51
79.019419278570822
  0
ARC
  5
9953
  8
01
 10
478.4425278925583
 20
-716.63651266817124
 30
0.0
 40
0.5
 50
180.0
 51
259.01941927857081
  0
ARC
  5
9954
  8
01
 10
482.4425278925583
 20
-716.63651266817124
 30
0.0
 40
0.5
 50
280.98058072142919
 51
0.0
  0
CIRCLE
  5
9955
  8
01
 10
627.17134845523253
 20
-706.32875349324161
 30
0.0
 40
3.5000004999999992
  0
LINE
  5
9956
  8
01
 10
628.17134845523253
 20
-709.68285629324146
 30
0.0
 11
628.17134845523253
 21
-702.9746494932416
 31
0.0
  0
LINE
  5
9957
  8
01
 10
626.17134845523253
 20
-709.68285629324146
 30
0.0
 11
626.17134845523253
 21
-702.9746494932416
 31
0.0
  0
LINE
  5
9958
  8
01
 10
646.67136035397891
 20
-631.64414158349052
 30
0.0
 11
607.67136035397903
 21
-631.64414158348518
 31
0.0
  0
LINE
  5
9959
  8
01
 10
607.17136035397971
 20
-625.34414158348466
 30
0.0
 11
647.17136035397971
 21
-625.34414158349011
 31
0.0
  0
LINE
  5
995A
  8
01
 10
607.17136035397971
 20
-625.34414158348466
 30
0.0
 11
607.17136035397914
 21
-631.14414158348495
 31
0.0
  0
ARC
  5
995B
  8
01
 10
607.67136035397903
 20
-631.14414158348472
 30
0.0
 40
0.5
 50
179.99999999999139
 51
269.99999999999147
  0
LINE
  5
9961
  8
01
 10
647.17136035397971
 20
-625.34414158349011
 30
0.0
 11
647.17136035397891
 21
-631.14414158349052
 31
0.0
  0
ARC
  5
9962
  8
01
 10
646.67136035397903
 20
-631.14414158349052
 30
0.0
 40
0.5
 50
269.99999999999147
 51
359.99999999999147
  0
ARC
  5
9963
  8
01
 10
483.94252789255142
 20
-633.84413825028776
 30
0.0000000000000173
 40
1.0
 50
89.999999999986969
 51
180.0
  0
LINE
  5
9964
  8
01
 10
483.94252789255222
 20
-632.84413825028776
 30
0.0000000000000173
 11
490.94253289254999
 21
-632.84413825028935
 31
0.0000000000000173
  0
ARC
  5
9965
  8
01
 10
490.94253289255022
 20
-632.34413825028946
 30
0.0000000000000173
 40
0.5
 50
269.99999999998698
 51
0.0
  0
ARC
  5
9966
  8
01
 10
476.94252789254961
 20
-633.84413825028969
 30
0.0000000000000173
 40
1.0
 50
0.0
 51
90.000000000000028
  0
ARC
  5
9967
  8
01
 10
469.94253289255067
 20
-632.34413825028957
 30
0.0000000000000173
 40
0.5
 50
180.0
 51
270.0
  0
LINE
  5
9968
  8
01
 10
477.9425278925504
 20
-646.34416119449281
 30
0.0000000000000173
 11
477.9425278925504
 21
-633.84413825028969
 31
0.0000000000000173
  0
ARC
  5
9969
  8
01
 10
478.94252789254961
 20
-646.34416119449463
 30
0.0000000000000173
 40
1.0
 50
180.0000000000521
 51
270.0
  0
LINE
  5
996A
  8
01
 10
478.9425278925504
 20
-647.34416119449645
 30
0.0000000000000173
 11
481.94252789254949
 21
-647.34416119449645
 31
0.0000000000000173
  0
ARC
  5
996B
  8
01
 10
481.94252789254961
 20
-646.34416119449463
 30
0.0000000000000173
 40
1.0
 50
270.0
 51
0.0
  0
LINE
  5
996C
  8
01
 10
482.9425278925504
 20
-646.34416119449463
 30
0.0000000000000173
 11
482.94252789255228
 21
-633.84413825028776
 31
0.0000000000000173
  0
ARC
  5
996D
  8
01
 10
477.30157427376071
 20
-616.1441444118293
 30
0.0000000000000173
 40
0.30000001
 50
305.2643900000013
 51
54.735619999993951
  0
LINE
  5
996E
  8
01
 10
477.4747762737606
 20
-615.89919441182928
 30
0.0000000000000173
 11
477.11407427376059
 21
-615.6441444118293
 31
0.0000000000000173
  0
LINE
  5
996F
  8
01
 10
477.4747762737606
 20
-616.38909441182909
 30
0.0000000000000173
 11
477.11407427376059
 21
-616.644141583487
 31
0.0000000000000173
  0
ARC
  5
9970
  8
01
 10
483.58344651135383
 20
-616.144141583487
 30
0.0000000000000173
 40
0.30000001
 50
125.2643800000062
 51
234.7356099999989
  0
LINE
  5
9971
  8
01
 10
483.4102445113536
 20
-615.89919158348687
 30
0.0000000000000173
 11
483.77093551135363
 21
-615.64414158348688
 31
0.0000000000000173
  0
LINE
  5
9972
  8
01
 10
483.41024751135382
 20
-616.38909158348702
 30
0.0000000000000173
 11
483.7709395113535
 21
-616.64412158348705
 31
0.0000000000000173
  0
LINE
  5
9973
  8
01
 10
483.27095389255749
 20
-609.644141583487
 30
0.0000000000009273
 11
477.6140968925576
 21
-609.644141583487
 31
0.0000000000009273
  0
LINE
  5
9974
  8
01
 10
483.7709395113535
 20
-610.14414158348688
 30
0.0000000000009273
 11
477.11407427376059
 21
-610.14414158348688
 31
0.0000000000009273
  0
LINE
  5
9975
  8
01
 10
482.98714089255748
 20
-616.144141583487
 30
0.0000000000009273
 11
480.85706689255778
 21
-616.144141583487
 31
0.0000000000009273
  0
LINE
  5
9976
  8
01
 10
483.77093551135363
 20
-615.64414158348688
 30
0.0000000000009273
 11
477.11407427376059
 21
-615.64414158348688
 31
0.0000000000009273
  0
LINE
  5
9977
  8
01
 10
483.7709395113535
 20
-616.644141583487
 30
0.0000000000009273
 11
477.11407427376059
 21
-616.644141583487
 31
0.0000000000009273
  0
LINE
  5
9978
  8
01
 10
469.4425328925505
 20
-632.34413825028946
 30
0.0000000000000173
 11
469.44253289255022
 21
-631.64414158348836
 31
0.0000000000010008
  0
LINE
  5
9979
  8
01
 10
469.94253289255062
 20
-632.84413825028957
 30
0.0000000000000173
 11
476.9425278925504
 21
-632.84413825028957
 31
0.0000000000000173
  0
LINE
  5
997A
  8
01
 10
491.44253289255028
 20
-632.34413825028946
 30
0.0000000000000173
 11
491.44253289255028
 21
-631.64414158348836
 31
-0.0000000000000049
  0
LINE
  5
997B
  8
01
 10
477.11407427376059
 20
-621.144141583487
 30
0.0000000000000173
 11
477.11407427376059
 21
-616.644141583487
 31
0.0000000000000173
  0
LINE
  5
997C
  8
01
 10
477.11407427376059
 20
-615.6441444118293
 30
0.0000000000000173
 11
477.11407427376059
 21
-610.14414158348723
 31
0.0000000000000173
  0
LINE
  5
997D
  8
01
 10
483.7709395113535
 20
-621.14414158348654
 30
0.0000000000000173
 11
483.7709395113535
 21
-616.64412158348705
 31
0.0000000000000173
  0
LINE
  5
997E
  8
01
 10
483.7709395113535
 20
-615.64414158348688
 30
0.0000000000000173
 11
483.7709395113535
 21
-610.14414158348688
 31
0.0000000000000173
  0
LINE
  5
997F
  8
01
 10
483.27095389255749
 20
-609.644141583487
 30
0.0000000000009273
 11
483.7709395113535
 21
-610.14414158348688
 31
0.0000000000000173
  0
LINE
  5
9980
  8
01
 10
477.6140968925576
 20
-609.644141583487
 30
0.0000000000009273
 11
477.11407427376059
 21
-610.14414158348723
 31
0.0000000000000173
  0
LINE
  5
9981
  8
01
 10
477.89791489255839
 20
-616.144141583487
 30
0.0000000000009273
 11
480.02798889255803
 21
-616.144141583487
 31
0.0000000000009273
  0
LINE
  5
9982
  8
01
 10
626.17135081183289
 20
-633.04391696136281
 30
-0.0000000000001137
 11
626.17135081183289
 21
-631.64414158348757
 31
-0.0000000000001137
  0
ARC
  5
9983
  8
01
 10
628.47134981183297
 20
-633.04391696136315
 30
-0.0000000000001137
 40
0.30000001
 50
179.99999699998719
 51
283.18347999998588
  0
ARC
  5
9984
  8
01
 10
627.17135081183392
 20
-627.49414696136284
 30
-0.0000000000001137
 40
6.0
 50
234.31466599999601
 51
256.81651799999338
  0
ARC
  5
9985
  8
01
 10
625.87134781183306
 20
-633.04391696136281
 30
-0.0000000000001137
 40
0.30000001
 50
256.81651799999338
 51
359.99999999999147
  0
LINE
  5
9986
  8
01
 10
623.67135081183301
 20
-632.36754696136245
 30
-0.0000000000001137
 11
623.67135081183255
 21
-631.64414158348723
 31
-0.0000000000001137
  0
LINE
  5
9987
  8
01
 10
630.67135081183289
 20
-632.36754696136347
 30
-0.0000000000001137
 11
630.67135081183278
 21
-631.64414158348825
 31
-0.0000000000001137
  0
ARC
  5
9988
  8
01
 10
627.17135081183392
 20
-627.49414696136284
 30
-0.0000000000001137
 40
6.0
 50
283.1834825033531
 51
305.68532999999019
  0
LINE
  5
9989
  8
01
 10
628.17135081183289
 20
-633.04469542076561
 30
-0.0000000000001137
 11
628.17135081183312
 21
-631.64414158348802
 31
-0.0000000000001137
  0
LINE
  5
998A
  8
01
 10
627.17134813277278
 20
-621.14414158348745
 30
0.0
 11
627.17134813277357
 21
-616.39414158348643
 31
0.0
  0
LINE
  5
998B
  8
01
 10
630.4997637515695
 20
-616.39414158348688
 30
0.0
 11
623.84289851397705
 21
-616.39414158348598
 31
0.0
  0
LINE
  5
998C
  8
01
 10
630.49975975156985
 20
-615.394141583487
 30
0.0
 11
623.84289851397659
 21
-615.39414158348586
 31
0.0
  0
LINE
  5
998D
  8
01
 10
629.71596513277359
 20
-615.89414158348688
 30
0.0
 11
627.58589113277367
 21
-615.89414158348654
 31
0.0
  0
LINE
  5
998E
  8
01
 10
630.49976375157075
 20
-609.894141583487
 30
0.0
 11
623.84289851397762
 21
-609.89414158348586
 31
0.0
  0
LINE
  5
998F
  8
01
 10
629.99977413277452
 20
-609.39414158348677
 30
0.0
 11
624.34292113277445
 21
-609.39414158348598
 31
0.0
  0
LINE
  5
9990
  8
01
 10
629.99977413277452
 20
-609.39414158348677
 30
0.0
 11
624.34292113277445
 21
-609.39414158348598
 31
0.0
  0
LINE
  5
9991
  8
01
 10
626.92163413277365
 20
-615.89414158348643
 30
0.0
 11
624.61846113277352
 21
-615.89414158348609
 31
0.0
  0
LINE
  5
9992
  8
01
 10
627.17134813277369
 20
-615.39414158348643
 30
0.0
 11
627.17134813277471
 21
-609.39414158348643
 31
0.0
  0
ARC
  5
9993
  8
01
 10
624.03039851397671
 20
-615.89414441182817
 30
-0.00000000000091
 40
0.30000001
 50
305.26438999998101
 51
54.735619999985367
  0
LINE
  5
9994
  8
01
 10
624.20360051397665
 20
-615.64919441182815
 30
-0.00000000000091
 11
623.84289851397659
 21
-615.39414441182805
 31
-0.00000000000091
  0
LINE
  5
9995
  8
01
 10
624.20360051397654
 20
-616.13909441182807
 30
-0.00000000000091
 11
623.8428945139766
 21
-616.39414441182817
 31
-0.00000000000091
  0
ARC
  5
9996
  8
01
 10
630.31227075157005
 20
-615.89414158348688
 30
-0.00000000000091
 40
0.30000001
 50
125.2643799999976
 51
234.73561000000211
  0
LINE
  5
9997
  8
01
 10
630.13906875156988
 20
-615.64919158348687
 30
-0.00000000000091
 11
630.49975975156985
 21
-615.394141583487
 31
-0.00000000000091
  0
LINE
  5
9998
  8
01
 10
630.13907175156976
 20
-616.1390915834869
 30
-0.00000000000091
 11
630.49976375156973
 21
-616.39412158348694
 31
-0.00000000000091
  0
LINE
  5
9999
  8
01
 10
629.99977413277475
 20
-609.39414158348677
 30
0.0
 11
624.34292113277479
 21
-609.39414158348598
 31
0.0
  0
LINE
  5
999A
  8
01
 10
629.99977413277475
 20
-609.39414158348677
 30
0.0
 11
624.34292113277479
 21
-609.39414158348598
 31
0.0
  0
LINE
  5
999B
  8
01
 10
623.8428985139758
 20
-621.14414158348734
 30
-0.00000000000091
 11
623.84289851397659
 21
-616.39414158348598
 31
-0.00000000000091
  0
LINE
  5
999C
  8
01
 10
623.84289851397659
 20
-615.39414441182805
 30
-0.00000000000091
 11
623.84289851397762
 21
-609.89414158348586
 31
-0.00000000000091
  0
LINE
  5
999D
  8
01
 10
630.49976375156905
 20
-621.14414158348791
 30
-0.00000000000091
 11
630.49976375156973
 21
-616.39412158348694
 31
-0.00000000000091
  0
LINE
  5
999E
  8
01
 10
630.49976375156984
 20
-615.394141583487
 30
-0.00000000000091
 11
630.49976375157075
 21
-609.894141583487
 31
-0.00000000000091
  0
LINE
  5
999F
  8
01
 10
629.99977813277474
 20
-609.39414158348677
 30
0.0
 11
630.49976375157075
 21
-609.894141583487
 31
-0.00000000000091
  0
LINE
  5
99A0
  8
01
 10
624.34292113277479
 20
-609.39414158348598
 30
0.0
 11
623.84289851397762
 21
-609.89414158348586
 31
-0.00000000000091
  0
LINE
  5
99A1
  8
01
 10
480.44252789255802
 20
-621.644141583487
 30
0.0
 11
480.44252789255768
 21
-616.644141583487
 31
0.0
  0
LINE
  5
99A2
  8
01
 10
480.44252789255762
 20
-615.64414158348688
 30
0.0
 11
480.44252789255762
 21
-610.14414158348688
 31
0.0000000000009273
  0
ARC
  5
99DD
  8
01
 10
580.60530387925451
 20
-716.32877634738986
 30
0.0
 40
0.5
 50
359.99999999998698
 51
90.0
  0
LINE
  5
99EC
  8
01
 10
576.10529850137914
 20
-691.57874883318004
 30
0.0
 11
553.90530387925628
 21
-691.57874883318004
 31
0.0
  0
LINE
  5
99ED
  8
01
 10
576.90529850137887
 20
-698.07874883317982
 30
0.0
 11
553.90530387925628
 21
-698.07874883317982
 31
0.0
  0
LINE
  5
99EE
  8
01
 10
553.90530387925628
 20
-691.57874883318004
 30
0.0
 11
553.90530387925628
 21
-698.07874883317982
 31
0.0
  0
LINE
  5
99EF
  8
01
 10
576.90529850137921
 20
-715.8287763473902
 30
0.0
 11
580.60530387925451
 21
-715.82877634738986
 31
0.0
  0
ARC
  5
99F6
  8
01
 10
611.67134748785315
 20
-624.84414158348602
 30
0.0
 40
0.5
 50
269.99999999999801
 51
359.99999999999147
  0
ARC
  5
99F7
  8
01
 10
642.67134748785338
 20
-624.84414158348864
 30
0.0
 40
0.5
 50
179.99999999999139
 51
269.99999999999801
  0
LINE
  5
99F8
  8
01
 10
612.17134748785395
 20
-621.14414158348609
 30
0.0
 11
642.17134748785395
 21
-621.14414158348904
 31
0.0
  0
ARC
  5
99F9
  8
01
 10
641.72136067643862
 20
-620.34414158348898
 30
0.0
 40
0.8
 50
179.99999999999139
 51
269.99999999999147
  0
ARC
  5
99FA
  8
01
 10
633.6213606764386
 20
-620.34414158348807
 30
0.0
 40
0.8
 50
269.99999999999147
 51
359.99999999999147
  0
ARC
  5
99FB
  8
01
 10
612.6213606764386
 20
-620.34414158348591
 30
0.0
 40
0.8
 50
269.99999999999147
 51
359.99999999999147
  0
ARC
  5
99FC
  8
01
 10
620.72136067643862
 20
-620.34414158348693
 30
0.0
 40
0.8
 50
179.99999999999139
 51
269.99999999999147
  0
LINE
  5
9A10
  8
01
 10
576.90529850137898
 20
-690.02874883318032
 30
0.0
 11
576.90529850137921
 21
-715.8287763473902
 31
0.0
  0
ARC
  5
9A11
  8
01
 10
576.10529850137914
 20
-690.77874883317998
 30
0.0
 40
0.8
 50
270.0
 51
0.0
  0
LINE
  5
9A26
  8
01
 10
642.17134748785395
 20
-621.14414158348904
 30
0.0
 11
642.17134748785338
 21
-624.84414158348852
 31
0.0
  0
LINE
  5
9A27
  8
01
 10
612.17134748785395
 20
-621.14414158348609
 30
0.0
 11
612.17134748785315
 21
-624.84414158348613
 31
0.0
  0
LINE
  5
9A28
  8
01
 10
576.90529850137898
 20
-690.02874883318032
 30
0.0
 11
581.10530387925576
 21
-690.02874883318032
 31
0.0
  0
ARC
  5
9A3D
  8
01
 10
537.84604954721931
 20
-716.32878121157933
 30
0.0
 40
0.5
 50
90.0
 51
180.0
  0
LINE
  5
9A4C
  8
01
 10
541.54605492509461
 20
-715.82878121157944
 30
0.0
 11
537.84604954721931
 21
-715.82878121157933
 31
0.0
  0
ARC
  5
9A50
  8
01
 10
464.94252724763902
 20
-624.8441415834892
 30
0.0
 40
0.5
 50
270.00000000000648
 51
0.0
  0
ARC
  5
9A51
  8
01
 10
495.94252724763908
 20
-624.84414158348693
 30
0.0
 40
0.5
 50
180.0
 51
270.00000000000648
  0
LINE
  5
9A52
  8
01
 10
465.44252724763908
 20
-621.14414158348893
 30
0.0
 11
495.44252724763908
 21
-621.14414158348745
 31
0.0
  0
LINE
  5
9A64
  8
01
 10
541.54605492509472
 20
-690.02875369736944
 30
0.0
 11
541.54605492509461
 21
-715.82878121157944
 31
0.0
  0
ARC
  5
9A79
  8
01
 10
537.84604954721772
 20
-689.52875369736944
 30
0.0
 40
0.5
 50
180.0
 51
270.0
  0
LINE
  5
9A80
  8
01
 10
495.44252724763908
 20
-621.14414158348745
 30
0.0
 11
495.44252724763908
 21
-624.84414158348693
 31
0.0
  0
LINE
  5
9A81
  8
01
 10
465.44252724763908
 20
-621.14414158348893
 30
0.0
 11
465.44252724763902
 21
-624.8441415834892
 31
0.0
  0
LINE
  5
9B79
  8
01
 10
537.84604954721772
 20
-690.02875369736932
 30
0.0
 11
541.54605492509472
 21
-690.02875369736944
 31
0.0
  0
TEXT
  5
9F39
  8
01
 10
743.96264922343391
 20
-743.53969906463556
 30
0.0000000000562575
 40
4.0
  1
付属ねじ
  0
TEXT
  5
A3EB
  8
01
 10
673.32782847709325
 20
-594.33521353920253
 30
0.0000000000562575
 40
4.0
  1
材質：亜鉛ダイキャスト・真鍮・ポリアセタール
 11
673.32782847709325
 21
-592.33521353920253
 31
0.0000000000562575
 73
     2
  0
TEXT
  5
A3EC
  8
01
 10
680.98317831400084
 20
-601.60124112552467
 30
0.0000000000562575
 40
4.0
  1
表面処理
 72
     1
 11
690.04984498066756
 21
-601.60124112552467
 31
0.0000000000562575
  0
TEXT
  5
A3ED
  8
01
 10
680.98317831400084
 20
-615.43652978504917
 30
0.0000000000562575
 40
4.0
  1
クローム
 72
     1
 11
690.04984498066756
 21
-615.43652978504917
 31
0.0000000000562575
  0
TEXT
  5
A3EE
  8
01
 10
678.58317831400075
 20
-608.5791361455091
 30
0.0000000000562575
 40
4.0
  1
本金メッキ
 72
     1
 11
690.04984498066756
 21
-608.5791361455091
 31
0.0000000000562575
  0
LINE
  5
A3EF
  8
01
 10
672.64984498066735
 20
-596.10124112552467
 30
0.0000000000562575
 11
742.64984498066747
 21
-596.10124112552467
 31
0.0000000000562575
  0
LINE
  5
A3F0
  8
01
 10
672.64984498066735
 20
-610.10124112552467
 30
0.0000000000562575
 11
742.64984498066747
 21
-610.10124112552467
 31
0.0000000000562575
  0
LINE
  5
A3F1
  8
01
 10
672.64984498066735
 20
-603.10124112552478
 30
0.0000000000562575
 11
742.64984498066747
 21
-603.10124112552478
 31
0.0000000000562575
  0
LINE
  5
A3F2
  8
01
 10
672.64984498066735
 20
-617.10124112552467
 30
0.0000000000562575
 11
742.64984498066747
 21
-617.10124112552467
 31
0.0000000000562575
  0
LINE
  5
A3F3
  8
01
 10
672.64984498066735
 20
-617.10124112552467
 30
0.0000000000562575
 11
742.64984498066747
 21
-617.10124112552467
 31
0.0000000000562575
  0
LINE
  5
A3F4
  8
01
 10
707.64984498066735
 20
-596.10124112552467
 30
0.0000000000562575
 11
707.64984498066735
 21
-659.10124112552467
 31
0.0000000000562575
  0
TEXT
  5
A3F5
  8
01
 10
711.56413069495375
 20
-608.81559810917406
 30
0.0000000000562575
 40
4.0
  1
KLW-2D-G
 41
0.8
 72
     1
 11
725.04984498066801
 21
-608.81559810917406
 31
0.0000000000562575
  0
TEXT
  5
A3F6
  8
01
 10
718.38317831400093
 20
-601.60124112552467
 30
0.0000000000562575
 40
4.0
  1
コード
 72
     1
 11
725.04984498066744
 21
-601.60124112552467
 31
0.0000000000562575
  0
LINE
  5
A3F7
  8
01
 10
672.64984498066735
 20
-659.10124112552467
 30
0.0000000000562575
 11
672.64984498066735
 21
-596.10124112552467
 31
0.0000000000562575
  0
LINE
  5
A3F8
  8
01
 10
742.64984498066747
 20
-659.10124112552467
 30
0.0000000000562575
 11
742.64984498066747
 21
-596.10124112552467
 31
0.0000000000562575
  0
LINE
  5
A3F9
  8
01
 10
672.64984498066735
 20
-624.10124112552478
 30
0.0000000000562575
 11
742.64984498066747
 21
-624.10124112552478
 31
0.0000000000562575
  0
LINE
  5
A3FA
  8
01
 10
672.64984498066735
 20
-624.10124112552478
 30
0.0000000000562575
 11
742.64984498066747
 21
-624.10124112552478
 31
0.0000000000562575
  0
TEXT
  5
A3FB
  8
01
 10
673.78317831400091
 20
-622.43652978504906
 30
0.0000000000562575
 40
4.0
  1
パールクローム
 72
     1
 11
690.04984498066756
 21
-622.43652978504906
 31
0.0000000000562575
  0
LINE
  5
A3FC
  8
01
 10
672.64984498066735
 20
-638.10124112552467
 30
0.0000000000562575
 11
742.64984498066747
 21
-638.10124112552467
 31
0.0000000000562575
  0
LINE
  5
A3FD
  8
01
 10
672.64984498066735
 20
-638.10124112552467
 30
0.0000000000562575
 11
742.64984498066747
 21
-638.10124112552467
 31
0.0000000000562575
  0
LINE
  5
A3FE
  8
01
 10
672.64984498066735
 20
-645.10124112552478
 30
0.0000000000562575
 11
742.64984498066747
 21
-645.10124112552478
 31
0.0000000000562575
  0
LINE
  5
A3FF
  8
01
 10
672.64984498066735
 20
-645.10124112552478
 30
0.0000000000562575
 11
742.64984498066747
 21
-645.10124112552478
 31
0.0000000000562575
  0
TEXT
  5
A400
  8
01
 10
673.78317831400091
 20
-629.43652978504906
 30
0.0000000000562575
 40
4.0
  1
サテンニッケル
 72
     1
 11
690.04984498066756
 21
-629.43652978504906
 31
0.0000000000562575
  0
TEXT
  5
A401
  8
01
 10
711.56413069495375
 20
-615.81559810917406
 30
0.0000000000562575
 40
4.0
  1
KLW-2D-C
 41
0.8
 72
     1
 11
725.04984498066801
 21
-615.81559810917406
 31
0.0000000000562575
  0
TEXT
  5
A402
  8
01
 10
711.56413069495375
 20
-622.81559810917418
 30
0.0000000000562575
 40
4.0
  1
KLW-2D-B
 41
0.8
 72
     1
 11
725.04984498066801
 21
-622.81559810917418
 31
0.0000000000562575
  0
TEXT
  5
A403
  8
01
 10
711.56413069495375
 20
-629.81559810917406
 30
0.0000000000562575
 40
4.0
  1
KLW-2D-N
 41
0.8
 72
     1
 11
725.04984498066801
 21
-629.81559810917406
 31
0.0000000000562575
  0
TEXT
  5
A404
  8
01
 10
709.96413069495316
 20
-657.93184780018498
 30
0.0000000000562575
 40
4.0
  1
KLW-2D-8Q
 41
0.8
 72
     1
 11
725.04984498066744
 21
-657.93184780018498
 31
0.0000000000562575
  0
TEXT
  5
A405
  8
01
 10
711.56413069495306
 20
-636.60124112552478
 30
0.0000000000562575
 40
4.0
  1
KLW-2D-D
 41
0.8
 72
     1
 11
725.04984498066744
 21
-636.60124112552478
 31
0.0000000000562575
  0
TEXT
  5
A406
  8
01
 10
709.96413069495304
 20
-643.60124112552478
 30
0.0000000000562575
 40
4.0
  1
KLW-2D-4Q
 41
0.8
 72
     1
 11
725.04984498066733
 21
-643.60124112552478
 31
0.0000000000562575
  0
TEXT
  5
A407
  8
01
 10
675.40984498066734
 20
-636.60124112552478
 30
0.0000000000562575
 40
4.0
  1
ミラーニッケル
 41
0.9
 72
     1
 11
690.04984498066733
 21
-636.60124112552478
 31
0.0000000000562575
  0
TEXT
  5
A408
  8
01
 10
673.78317831400057
 20
-643.60124112552478
 30
0.0000000000562575
 40
4.0
  1
ダークアンバー
 72
     1
 11
690.04984498066733
 21
-643.60124112552478
 31
0.0000000000562575
  0
LINE
  5
A409
  8
01
 10
672.64984498066735
 20
-652.10124112552478
 30
0.0000000000562575
 11
742.64984498066747
 21
-652.10124112552478
 31
0.0000000000562575
  0
LINE
  5
A40A
  8
01
 10
672.64984498066735
 20
-659.10124112552467
 30
0.0000000000562575
 11
742.64984498066747
 21
-659.10124112552467
 31
0.0000000000562575
  0
TEXT
  5
A40B
  8
01
 10
673.78317831400057
 20
-657.60124112552478
 30
0.0000000000562575
 40
4.0
  1
ミラーブラック
 72
     1
 11
690.04984498066733
 21
-657.60124112552478
 31
0.0000000000562575
  0
LINE
  5
A40C
  8
01
 10
672.64984498066735
 20
-631.10124112552478
 30
0.0000000000562575
 11
742.64984498066747
 21
-631.10124112552478
 31
0.0000000000562575
  0
TEXT
  5
A40D
  8
01
 10
709.88794021876265
 20
-650.93184780018498
 30
0.0000000000562575
 40
4.0
  1
KLW-2D-GQ
 41
0.8
 72
     1
 11
725.04984498066744
 21
-650.93184780018498
 31
0.0000000000562575
  0
TEXT
  5
A40E
  8
01
 10
673.78317831400057
 20
-650.60124112552467
 30
0.0000000000562575
 40
4.0
  1
パールブラック
 72
     1
 11
690.04984498066733
 21
-650.60124112552467
 31
0.0000000000562575
  0
TEXT
  5
A4EB
  8
01
 10
461.65317115152283
 20
-665.34221284324894
 30
0.0
 40
3.5
  1
材質：真鍮
  0
TEXT
  5
A4EC
  8
01
 10
461.65317115152283
 20
-671.17554617658232
 30
0.0
 40
3.5
  1
仕上げ：各種仕上げ
  0
TEXT
  5
A4EF
  8
01
 10
521.97847489304672
 20
-645.29102648778041
 30
0.0
 40
3.5
  1
材質：各種材質
  0
TEXT
  5
A4F0
  8
01
 10
521.97847489304672
 20
-651.12435982111367
 30
0.0
 40
3.5
  1
仕上げ：各種仕上げ
  0
TEXT
  5
A4F1
  8
01
 10
719.50940960831952
 20
-713.27648525170014
 30
0.0000000000562575
 40
3.5
  1
SUS
  0
LINE
  5
A4F4
  8
01
 10
736.39823300398382
 20
-721.72558455369062
 30
0.0000000000562575
 11
736.39823300398382
 21
-717.6043873616909
 31
0.0000000000562575
  0
LINE
  5
A4F5
  8
01
 10
766.39823300398371
 20
-723.07558455369053
 30
0.0000000000562575
 11
766.39823300398371
 21
-717.6043873616909
 31
0.0000000000562575
  0
LINE
  5
A4F6
  8
01
 10
738.39823300398382
 20
-718.6043873616909
 30
0.0000000000562575
 11
764.39823300398382
 21
-718.6043873616909
 31
0.0000000000562575
  0
LINE
  5
A4FA
  8
01
 10
767.99990800398382
 20
-724.72558455369062
 30
0.0000000000562575
 11
734.83946410398369
 21
-724.72558455369062
 31
0.0000000000562575
  0
LINE
  5
A4FB
  8
01
 10
766.39823300398371
 20
-723.07558455369065
 30
0.0000000000562575
 11
738.04823300398368
 21
-723.07558455369065
 31
0.0000000000562575
  0
LINE
  5
A4FC
  8
01
 10
766.39823300398371
 20
-726.3755845536906
 30
0.0000000000562575
 11
738.04823300398368
 21
-726.3755845536906
 31
0.0000000000562575
  0
LINE
  5
A4FE
  8
01
 10
766.0482330039838
 20
-722.72558455369062
 30
0.0000000000562575
 11
766.0482330039838
 21
-726.72558455369062
 31
0.0000000000562575
  0
LINE
  5
A4FF
  8
01
 10
736.69823301398378
 20
-721.72558455369062
 30
0.0000000000562575
 11
736.69823301398378
 21
-727.72558455369062
 31
0.0000000000562575
  0
LINE
  5
A500
  8
01
 10
737.69823317805776
 20
-726.72558455369062
 30
0.0000000000562575
 11
738.04823300398368
 21
-726.3755845536906
 31
0.0000000000562575
  0
LINE
  5
A501
  8
01
 10
738.04823300398368
 20
-723.07558455369065
 30
0.0000000000562575
 11
737.69823317805776
 21
-722.72558455369062
 31
0.0000000000562575
  0
LINE
  5
A502
  8
01
 10
767.99990800398382
 20
-733.72558455369062
 30
0.0000000000562575
 11
734.83946410398369
 21
-733.72558455369062
 31
0.0000000000562575
  0
LINE
  5
A503
  8
01
 10
766.39823300398371
 20
-732.07558455369065
 30
0.0000000000562575
 11
738.04823300398368
 21
-732.07558455369065
 31
0.0000000000562575
  0
LINE
  5
A504
  8
01
 10
766.39823300398371
 20
-735.37558455369049
 30
0.0000000000562575
 11
738.04823300398368
 21
-735.37558455369049
 31
0.0000000000562575
  0
LINE
  5
A506
  8
01
 10
766.0482330039838
 20
-731.72558455369062
 30
0.0000000000562575
 11
766.0482330039838
 21
-735.72558455369062
 31
0.0000000000562575
  0
LINE
  5
A507
  8
01
 10
736.69823301398378
 20
-730.72558455369062
 30
0.0000000000562575
 11
736.69823301398378
 21
-736.72558455369062
 31
0.0000000000562575
  0
LINE
  5
A508
  8
01
 10
737.69823317805776
 20
-735.72558455369062
 30
0.0000000000562575
 11
738.04823300398368
 21
-735.37558455369049
 31
0.0000000000562575
  0
LINE
  5
A509
  8
01
 10
738.04823300398368
 20
-732.07558455369065
 30
0.0000000000562575
 11
737.69823317805776
 21
-731.72558455369062
 31
0.0000000000562575
  0
TEXT
  5
A50A
  8
01
 10
553.0918221454582
 20
-661.1213555773702
 30
0.0
 40
3.5
  1
材質：ポリアセタール
  0
TEXT
  5
A50D
  8
01
 10
515.00110657888081
 20
-754.08922295647619
 30
0.0
 40
3.5
  1
材質：亜鉛ダイキャスト
  0
TEXT
  5
A50E
  8
01
 10
527.60110657888083
 20
-759.92255628980945
 30
0.0
 40
3.5
  1
仕上げ：クローム
  0
LINE
  5
A511
  8
01
 10
634.264203655232
 20
-756.32875349324138
 30
0.0
 11
658.01042084469179
 21
-756.32875349324138
 31
0.0
  0
LINE
  5
A512
  8
01
 10
633.17134813277255
 20
-706.32875369736928
 30
0.0
 11
658.01042084469179
 21
-706.32875369736928
 31
0.0
  0
LINE
  5
A513
  8
01
 10
657.01042084469191
 20
-754.32875349324149
 30
0.0
 11
657.01042084469191
 21
-708.32875369736939
 31
0.0
  0
LINE
  5
A517
  8
01
 10
500.44252789256018
 20
-720.3287536973703
 30
0.0
 11
500.44252789256018
 21
-746.02222775662312
 31
0.0
  0
LINE
  5
A518
  8
01
 10
460.44252789255989
 20
-720.32875369736996
 30
0.0
 11
460.44252789255989
 21
-746.02222775662312
 31
0.0
  0
LINE
  5
A519
  8
01
 10
498.44252789256012
 20
-745.02222775662312
 30
0.0
 11
462.44252789255989
 21
-745.02222775662312
 31
0.0
  0
LINE
  5
A51D
  8
01
 10
647.17134813277437
 20
-720.32875369736973
 30
0.0
 11
647.17134813277437
 21
-746.02222775662256
 31
0.0
  0
LINE
  5
A51E
  8
01
 10
607.17134813277414
 20
-720.32875369736951
 30
0.0
 11
607.17134813277414
 21
-746.02222775662256
 31
0.0
  0
LINE
  5
A51F
  8
01
 10
645.17134813277426
 20
-745.02222775662256
 30
0.0
 11
609.17134813277414
 21
-745.02222775662256
 31
0.0
  0
LINE
  5
A523
  8
01
 10
581.10530387925405
 20
-720.82875369737019
 30
0.0
 11
581.10530387925405
 21
-736.98639759091793
 31
0.0
  0
LINE
  5
A524
  8
01
 10
587.40530387925423
 20
-720.32875369737019
 30
0.0
 11
587.40530387925423
 21
-736.98639759091793
 31
0.0
  0
LINE
  5
A525
  8
01
 10
583.10530387925405
 20
-735.98639759091793
 30
0.0
 11
585.40530387925423
 21
-735.98639759091793
 31
0.0
  0
LINE
  5
A529
  8
01
 10
581.10530387925405
 20
-720.82875369737019
 30
0.0
 11
581.10530387925405
 21
-746.02222775662312
 31
0.0
  0
LINE
  5
A52A
  8
01
 10
589.34717203412413
 20
-706.32875369736996
 30
0.0
 11
589.34717203412413
 21
-746.02222775662312
 31
0.0
  0
LINE
  5
A52B
  8
01
 10
583.10530387925405
 20
-745.02222775662312
 30
0.0
 11
587.34717203412413
 21
-745.02222775662312
 31
0.0
  0
LINE
  5
A52F
  8
01
 10
537.34604954721567
 20
-720.8287536973703
 30
0.0
 11
537.34604954721567
 21
-736.98639759091793
 31
0.0
  0
LINE
  5
A530
  8
01
 10
531.04604954721538
 20
-720.3287536973703
 30
0.0
 11
531.04604954721538
 21
-736.98639759091793
 31
0.0
  0
LINE
  5
A531
  8
01
 10
535.34604954721556
 20
-735.98639759091793
 30
0.0
 11
533.04604954721549
 21
-735.98639759091793
 31
0.0
  0
LINE
  5
A535
  8
01
 10
537.34604954721567
 20
-720.8287536973703
 30
0.0
 11
537.34604954721567
 21
-746.02222775662312
 31
0.0
  0
LINE
  5
A536
  8
01
 10
515.34602473620578
 20
-716.32875869736722
 30
0.0
 11
515.34602473620578
 21
-746.02222775662312
 31
0.0
  0
LINE
  5
A537
  8
01
 10
535.34604954721556
 20
-745.02222775662312
 30
0.0
 11
517.34602473620589
 21
-745.02222775662312
 31
0.0
  0
TEXT
  5
A53B
  8
01
 10
523.0127038083773
 20
-744.32222775662296
 30
0.0
 40
3.5
  1
22
  0
LINE
  5
A53C
  8
01
  6
BYBLOCK
 10
517.34602473620589
 20
-745.55812613662317
 30
0.0
 11
515.34602473620578
 21
-745.02222775662312
 31
0.0
  0
LINE
  5
A53D
  8
01
  6
BYBLOCK
 10
515.34602473620578
 20
-745.02222775662312
 30
0.0
 11
517.34602473620589
 21
-744.48632937662296
 31
0.0
  0
LINE
  5
A53E
  8
01
  6
BYBLOCK
 10
515.34602473620578
 20
-745.02222775662312
 30
0.0
 11
517.34602473620589
 21
-745.02222775662312
 31
0.0
  0
LINE
  5
A53F
  8
01
  6
BYBLOCK
 10
535.34604954721556
 20
-744.48632937662296
 30
0.0
 11
537.34604954721567
 21
-745.02222775662312
 31
0.0
  0
LINE
  5
A540
  8
01
  6
BYBLOCK
 10
537.34604954721567
 20
-745.02222775662312
 30
0.0
 11
535.34604954721556
 21
-745.55812613662317
 31
0.0
  0
LINE
  5
A541
  8
01
  6
BYBLOCK
 10
537.34604954721567
 20
-745.02222775662312
 30
0.0
 11
535.34604954721556
 21
-745.02222775662312
 31
0.0
  0
TEXT
  5
A542
  8
01
 10
532.44604954721547
 20
-735.28639759091789
 30
0.0
 40
3.5
  1
6
  0
LINE
  5
A543
  8
01
  6
BYBLOCK
 10
533.04604954721549
 20
-736.52229597091787
 30
0.0
 11
531.04604954721538
 21
-735.98639759091793
 31
0.0
  0
LINE
  5
A544
  8
01
  6
BYBLOCK
 10
531.04604954721538
 20
-735.98639759091793
 30
0.0
 11
533.04604954721549
 21
-735.45049921091788
 31
0.0
  0
LINE
  5
A545
  8
01
  6
BYBLOCK
 10
531.04604954721538
 20
-735.98639759091793
 30
0.0
 11
533.04604954721549
 21
-735.98639759091793
 31
0.0
  0
LINE
  5
A546
  8
01
  6
BYBLOCK
 10
535.34604954721556
 20
-735.45049921091788
 30
0.0
 11
537.34604954721567
 21
-735.98639759091793
 31
0.0
  0
LINE
  5
A547
  8
01
  6
BYBLOCK
 10
537.34604954721567
 20
-735.98639759091793
 30
0.0
 11
535.34604954721556
 21
-736.52229597091787
 31
0.0
  0
LINE
  5
A548
  8
01
  6
BYBLOCK
 10
537.34604954721567
 20
-735.98639759091793
 30
0.0
 11
535.34604954721556
 21
-735.98639759091793
 31
0.0
  0
TEXT
  5
A549
  8
01
 10
583.55957129002252
 20
-744.32222775662296
 30
0.0
 40
3.5
  1
8
  0
LINE
  5
A54A
  8
01
  6
BYBLOCK
 10
587.34717203412413
 20
-744.48632937662296
 30
0.0
 11
589.34717203412413
 21
-745.02222775662312
 31
0.0
  0
LINE
  5
A54B
  8
01
  6
BYBLOCK
 10
589.34717203412413
 20
-745.02222775662312
 30
0.0
 11
587.34717203412413
 21
-745.55812613662317
 31
0.0
  0
LINE
  5
A54C
  8
01
  6
BYBLOCK
 10
589.34717203412413
 20
-745.02222775662312
 30
0.0
 11
587.34717203412413
 21
-745.02222775662312
 31
0.0
  0
LINE
  5
A54D
  8
01
  6
BYBLOCK
 10
583.10530387925405
 20
-745.55812613662317
 30
0.0
 11
581.10530387925405
 21
-745.02222775662312
 31
0.0
  0
LINE
  5
A54E
  8
01
  6
BYBLOCK
 10
581.10530387925405
 20
-745.02222775662312
 30
0.0
 11
583.10530387925405
 21
-744.48632937662296
 31
0.0
  0
LINE
  5
A54F
  8
01
  6
BYBLOCK
 10
581.10530387925405
 20
-745.02222775662312
 30
0.0
 11
583.10530387925405
 21
-745.02222775662312
 31
0.0
  0
TEXT
  5
A550
  8
01
 10
582.50530387925414
 20
-735.28639759091789
 30
0.0
 40
3.5
  1
6
  0
LINE
  5
A551
  8
01
  6
BYBLOCK
 10
585.40530387925423
 20
-735.45049921091788
 30
0.0
 11
587.40530387925423
 21
-735.98639759091793
 31
0.0
  0
LINE
  5
A552
  8
01
  6
BYBLOCK
 10
587.40530387925423
 20
-735.98639759091793
 30
0.0
 11
585.40530387925423
 21
-736.52229597091787
 31
0.0
  0
LINE
  5
A553
  8
01
  6
BYBLOCK
 10
587.40530387925423
 20
-735.98639759091793
 30
0.0
 11
585.40530387925423
 21
-735.98639759091793
 31
0.0
  0
LINE
  5
A554
  8
01
  6
BYBLOCK
 10
583.10530387925405
 20
-736.52229597091787
 30
0.0
 11
581.10530387925405
 21
-735.98639759091793
 31
0.0
  0
LINE
  5
A555
  8
01
  6
BYBLOCK
 10
581.10530387925405
 20
-735.98639759091793
 30
0.0
 11
583.10530387925405
 21
-735.45049921091788
 31
0.0
  0
LINE
  5
A556
  8
01
  6
BYBLOCK
 10
581.10530387925405
 20
-735.98639759091793
 30
0.0
 11
583.10530387925405
 21
-735.98639759091793
 31
0.0
  0
TEXT
  5
A557
  8
01
 10
621.75468146610751
 20
-744.32222775662251
 30
0.0
 40
3.5
  1
□40
  0
LINE
  5
A558
  8
01
  6
BYBLOCK
 10
609.17134813277414
 20
-745.5581261366226
 30
0.0
 11
607.17134813277414
 21
-745.02222775662256
 31
0.0
  0
LINE
  5
A559
  8
01
  6
BYBLOCK
 10
607.17134813277414
 20
-745.02222775662256
 30
0.0
 11
609.17134813277414
 21
-744.48632937662251
 31
0.0
  0
LINE
  5
A55A
  8
01
  6
BYBLOCK
 10
607.17134813277414
 20
-745.02222775662256
 30
0.0
 11
609.17134813277414
 21
-745.02222775662256
 31
0.0
  0
LINE
  5
A55B
  8
01
  6
BYBLOCK
 10
645.17134813277426
 20
-744.48632937662251
 30
0.0
 11
647.17134813277437
 21
-745.02222775662256
 31
0.0
  0
LINE
  5
A55C
  8
01
  6
BYBLOCK
 10
647.17134813277437
 20
-745.02222775662256
 30
0.0
 11
645.17134813277426
 21
-745.5581261366226
 31
0.0
  0
LINE
  5
A55D
  8
01
  6
BYBLOCK
 10
647.17134813277437
 20
-745.02222775662256
 30
0.0
 11
645.17134813277426
 21
-745.02222775662256
 31
0.0
  0
TEXT
  5
A55E
  8
01
 10
475.02586122589338
 20
-744.32222775662296
 30
0.0
 40
3.5
  1
□40
  0
LINE
  5
A55F
  8
01
  6
BYBLOCK
 10
462.44252789255989
 20
-745.55812613662317
 30
0.0
 11
460.44252789255989
 21
-745.02222775662312
 31
0.0
  0
LINE
  5
A560
  8
01
  6
BYBLOCK
 10
460.44252789255989
 20
-745.02222775662312
 30
0.0
 11
462.44252789255989
 21
-744.48632937662296
 31
0.0
  0
LINE
  5
A561
  8
01
  6
BYBLOCK
 10
460.44252789255989
 20
-745.02222775662312
 30
0.0
 11
462.44252789255989
 21
-745.02222775662312
 31
0.0
  0
LINE
  5
A562
  8
01
  6
BYBLOCK
 10
498.44252789256012
 20
-744.48632937662296
 30
0.0
 11
500.44252789256018
 21
-745.02222775662312
 31
0.0
  0
LINE
  5
A563
  8
01
  6
BYBLOCK
 10
500.44252789256018
 20
-745.02222775662312
 30
0.0
 11
498.44252789256012
 21
-745.55812613662317
 31
0.0
  0
LINE
  5
A564
  8
01
  6
BYBLOCK
 10
500.44252789256018
 20
-745.02222775662312
 30
0.0
 11
498.44252789256012
 21
-745.02222775662312
 31
0.0
  0
TEXT
  5
A565
  8
01
 10
656.31042084469198
 20
-753.37875359530517
 30
0.0
 40
3.5
  1
ハンドル取付位置=50
 50
90.0
  0
LINE
  5
A566
  8
01
  6
BYBLOCK
 10
656.47452246469186
 20
-708.32875369736939
 30
0.0
 11
657.01042084469191
 21
-706.32875369736928
 31
0.0
  0
LINE
  5
A567
  8
01
  6
BYBLOCK
 10
657.01042084469191
 20
-706.32875369736928
 30
0.0
 11
657.54631922469196
 21
-708.32875369736939
 31
0.0
  0
LINE
  5
A568
  8
01
  6
BYBLOCK
 10
657.01042084469191
 20
-706.32875369736928
 30
0.0
 11
657.01042084469191
 21
-708.32875369736939
 31
0.0
  0
LINE
  5
A569
  8
01
  6
BYBLOCK
 10
657.54631922469196
 20
-754.32875349324149
 30
0.0
 11
657.01042084469191
 21
-756.32875349324138
 31
0.0
  0
LINE
  5
A56A
  8
01
  6
BYBLOCK
 10
657.01042084469191
 20
-756.32875349324138
 30
0.0
 11
656.47452246469186
 21
-754.32875349324149
 31
0.0
  0
LINE
  5
A56B
  8
01
  6
BYBLOCK
 10
657.01042084469191
 20
-756.32875349324138
 30
0.0
 11
657.01042084469191
 21
-754.32875349324149
 31
0.0
  0
LINE
  5
A56C
  8
01
 10
568.89318329500145
 20
-711.99669701940479
 30
0.0
 11
563.77777324554745
 21
-760.83255628980953
 31
0.0
1001
ACAD
1000
DSTYLE
1002
{
1070
    40
1040
1.3
1070
   271
1070
     1
1002
}
  0
LINE
  5
A56D
  8
01
 10
563.77777324554745
 20
-760.83255628980953
 30
0.0
 11
560.26777324554735
 21
-760.83255628980953
 31
0.0
1001
ACAD
1000
DSTYLE
1002
{
1070
    40
1040
1.3
1070
   271
1070
     1
1002
}
  0
LINE
  5
A56E
  8
01
  6
BYBLOCK
 10
568.20030613314213
 20
-711.92412021109703
 30
0.0
 11
569.16404363351467
 21
-709.41084422448
 31
0.0
  0
LINE
  5
A56F
  8
01
  6
BYBLOCK
 10
569.16404363351467
 20
-709.41084422448
 30
0.0
 11
569.58606045686065
 21
-712.06927382771255
 31
0.0
  0
LINE
  5
A570
  8
01
  6
BYBLOCK
 10
569.16404363351467
 20
-709.41084422448
 30
0.0
 11
568.89318329500145
 21
-711.99669701940479
 31
0.0
  0
LINE
  5
A571
  8
01
 10
541.16536500743098
 20
-688.65840471999115
 30
0.0
 11
549.5818221454582
 21
-662.03135557737016
 31
0.0
1001
ACAD
1000
DSTYLE
1002
{
1070
    40
1040
1.3
1002
}
  0
LINE
  5
A572
  8
01
 10
549.5818221454582
 20
-662.03135557737016
 30
0.0
 11
553.0918221454582
 21
-662.03135557737016
 31
0.0
1001
ACAD
1000
DSTYLE
1002
{
1070
    40
1040
1.3
1002
}
  0
LINE
  5
A573
  8
01
  6
BYBLOCK
 10
541.82963870725177
 20
-688.86837282770443
 30
0.0
 11
540.38175335436665
 21
-691.13750794034775
 31
0.0
  0
LINE
  5
A574
  8
01
  6
BYBLOCK
 10
540.38175335436665
 20
-691.13750794034775
 30
0.0
 11
540.50109130760995
 21
-688.4484366122781
 31
0.0
  0
LINE
  5
A575
  8
01
  6
BYBLOCK
 10
540.38175335436665
 20
-691.13750794034775
 30
0.0
 11
541.16536500743098
 21
-688.65840471999115
 31
0.0
  0
LINE
  5
A576
  8
01
 10
766.0482330039838
 20
-735.72558455369062
 30
0.0000000000562575
 11
737.69823317805776
 21
-735.72558455369062
 31
0.0000000000562575
  0
LINE
  5
A577
  8
01
 10
766.39823300398371
 20
-735.37558455369037
 30
0.0000000000562575
 11
766.0482330039838
 21
-735.72558455369062
 31
0.0000000000562575
  0
LINE
  5
A578
  8
01
 10
737.69823317805776
 20
-735.72558455369062
 30
0.0000000000562575
 11
736.69823310398385
 21
-736.72558455369062
 31
0.0000000000562575
  0
LINE
  5
A579
  8
01
 10
766.39823300398371
 20
-732.07558455369065
 30
0.0000000000562575
 11
766.39823300398371
 21
-735.37558455369037
 31
0.0000000000562575
  0
LINE
  5
A57A
  8
01
 10
736.69823310398385
 20
-736.72558455369062
 30
0.0000000000562575
 11
736.39823300398382
 21
-736.72558455369062
 31
0.0000000000562575
  0
LINE
  5
A57B
  8
01
 10
766.0482330039838
 20
-731.72558455369062
 30
0.0000000000562575
 11
766.39823300398371
 21
-732.07558455369065
 31
0.0000000000562575
  0
LINE
  5
A57C
  8
01
 10
736.39823300398382
 20
-730.72558455369062
 30
0.0000000000562575
 11
736.39823300398382
 21
-736.72558455369062
 31
0.0000000000562575
  0
LINE
  5
A57D
  8
01
 10
766.0482330039838
 20
-731.72558455369062
 30
0.0000000000562575
 11
737.69823317805776
 21
-731.72558455369062
 31
0.0000000000562575
  0
LINE
  5
A57E
  8
01
 10
736.69823301398378
 20
-730.72558455369062
 30
0.0000000000562575
 11
736.39823300398382
 21
-730.72558455369062
 31
0.0000000000562575
  0
LINE
  5
A57F
  8
01
 10
737.69823317805776
 20
-731.72558455369062
 30
0.0000000000562575
 11
736.69823301398378
 21
-730.72558455369062
 31
0.0000000000562575
  0
LINE
  5
A580
  8
01
 10
766.0482330039838
 20
-726.72558455369062
 30
0.0000000000562575
 11
737.69823317805776
 21
-726.72558455369062
 31
0.0000000000562575
  0
LINE
  5
A581
  8
01
 10
766.39823300398371
 20
-726.37558455369049
 30
0.0000000000562575
 11
766.0482330039838
 21
-726.72558455369062
 31
0.0000000000562575
  0
LINE
  5
A582
  8
01
 10
737.69823317805776
 20
-726.72558455369062
 30
0.0000000000562575
 11
736.69823310398385
 21
-727.72558455369062
 31
0.0000000000562575
  0
LINE
  5
A583
  8
01
 10
766.39823300398371
 20
-723.07558455369065
 30
0.0000000000562575
 11
766.39823300398371
 21
-726.37558455369049
 31
0.0000000000562575
  0
LINE
  5
A584
  8
01
 10
736.69823310398385
 20
-727.72558455369062
 30
0.0000000000562575
 11
736.39823300398382
 21
-727.72558455369062
 31
0.0000000000562575
  0
LINE
  5
A585
  8
01
 10
766.0482330039838
 20
-722.72558455369062
 30
0.0000000000562575
 11
766.39823300398371
 21
-723.07558455369065
 31
0.0000000000562575
  0
LINE
  5
A586
  8
01
 10
736.39823300398382
 20
-721.72558455369062
 30
0.0000000000562575
 11
736.39823300398382
 21
-727.72558455369062
 31
0.0000000000562575
  0
LINE
  5
A587
  8
01
 10
766.0482330039838
 20
-722.72558455369062
 30
0.0000000000562575
 11
737.69823317805776
 21
-722.72558455369062
 31
0.0000000000562575
  0
LINE
  5
A588
  8
01
 10
736.69823301398378
 20
-721.72558455369062
 30
0.0000000000562575
 11
736.39823300398382
 21
-721.72558455369062
 31
0.0000000000562575
  0
LINE
  5
A589
  8
01
 10
737.69823317805776
 20
-722.72558455369062
 30
0.0000000000562575
 11
736.69823301398378
 21
-721.72558455369062
 31
0.0000000000562575
  0
TEXT
  5
A58A
  8
01
 10
748.06489967065045
 20
-717.90438736169085
 30
0.0000000000562575
 40
3.5
  1
30
  0
LINE
  5
A58B
  8
01
  6
BYBLOCK
 10
764.39823300398382
 20
-718.06848898169085
 30
0.0000000000562575
 11
766.39823300398371
 21
-718.6043873616909
 31
0.0000000000562575
  0
LINE
  5
A58C
  8
01
  6
BYBLOCK
 10
766.39823300398371
 20
-718.6043873616909
 30
0.0000000000562575
 11
764.39823300398382
 21
-719.14028574169095
 31
0.0000000000562575
  0
LINE
  5
A58D
  8
01
  6
BYBLOCK
 10
766.39823300398371
 20
-718.6043873616909
 30
0.0000000000562575
 11
764.39823300398382
 21
-718.6043873616909
 31
0.0000000000562575
  0
LINE
  5
A58E
  8
01
  6
BYBLOCK
 10
738.39823300398382
 20
-719.14028574169095
 30
0.0000000000562575
 11
736.39823300398382
 21
-718.6043873616909
 31
0.0000000000562575
  0
LINE
  5
A58F
  8
01
  6
BYBLOCK
 10
736.39823300398382
 20
-718.6043873616909
 30
0.0000000000562575
 11
738.39823300398382
 21
-718.06848898169085
 31
0.0000000000562575
  0
LINE
  5
A590
  8
01
  6
BYBLOCK
 10
736.39823300398382
 20
-718.6043873616909
 30
0.0000000000562575
 11
738.39823300398382
 21
-718.6043873616909
 31
0.0000000000562575
  0
LINE
  5
A591
  8
01
 10
735.61085414782281
 20
-722.90344860214645
 30
0.0
 11
732.04274294165293
 21
-713.97648525169996
 31
0.0
  0
LINE
  5
A592
  8
01
 10
732.04274294165293
 20
-713.97648525169996
 30
0.0
 11
729.34274294165289
 21
-713.97648525169996
 31
0.0
  0
LINE
  5
A593
  8
01
  6
BYBLOCK
 10
736.10847468770612
 20
-722.70454945188965
 30
0.0000000000562575
 11
736.35315588889864
 21
-724.76059375673071
 31
0.0000000000562575
  0
LINE
  5
A594
  8
01
  6
BYBLOCK
 10
736.35315588889864
 20
-724.76059375673071
 30
0.0000000000562575
 11
735.11323360793961
 21
-723.10234775240326
 31
0.0000000000562575
  0
LINE
  5
A595
  8
01
  6
BYBLOCK
 10
736.35315588889864
 20
-724.76059375673071
 30
0.0000000000562575
 11
735.61085414782281
 21
-722.90344860214645
 31
0.0000000000562575
  0
LINE
  5
A596
  8
01
 10
527.22919651290283
 20
-695.31675174541817
 30
0.0
 11
519.27847489304656
 21
-651.82435982111383
 31
0.0
  0
LINE
  5
A597
  8
01
 10
519.27847489304656
 20
-651.82435982111383
 30
0.0
 11
558.84514155971328
 21
-651.82435982111383
 31
0.0
  0
LINE
  5
A598
  8
01
  6
BYBLOCK
 10
527.75635880229686
 20
-695.22038269267091
 30
0.0
 11
527.58885071729605
 21
-697.28414821112153
 31
0.0
  0
LINE
  5
A599
  8
01
  6
BYBLOCK
 10
527.58885071729605
 20
-697.28414821112153
 30
0.0
 11
526.70203422350869
 21
-695.41312079816544
 31
0.0
  0
LINE
  5
A59A
  8
01
  6
BYBLOCK
 10
527.58885071729605
 20
-697.28414821112153
 30
0.0
 11
527.22919651290283
 21
-695.31675174541817
 31
0.0
  0
LINE
  5
A59B
  8
01
 10
489.32325316411328
 20
-688.80637038043233
 30
0.0
 11
501.21983781818949
 21
-671.87554617658225
 31
0.0
  0
LINE
  5
A59C
  8
01
 10
501.21983781818949
 20
-671.87554617658225
 30
0.0
 11
461.65317115152283
 21
-671.87554617658225
 31
0.0
  0
LINE
  5
A59D
  8
01
  6
BYBLOCK
 10
489.76172992147082
 20
-689.114469726332
 30
0.0
 11
488.1734107410042
 21
-690.44278793167598
 31
0.0
  0
LINE
  5
A59E
  8
01
  6
BYBLOCK
 10
488.1734107410042
 20
-690.44278793167598
 30
0.0
 11
488.88477640675569
 21
-688.49827103453265
 31
0.0
  0
LINE
  5
A59F
  8
01
  6
BYBLOCK
 10
488.1734107410042
 20
-690.44278793167598
 30
0.0
 11
489.32325316411328
 21
-688.80637038043233
 31
0.0
  0
VIEWPORT
  5
20C3
 67
     1
  8
0
  6
CONTINUOUS
 10
-3.7645543439106741
 20
10.089000620492961
 30
0.0
 40
584.05711311075447
 41
268.53966524088321
 68
     1
 69
     1
1001
ACAD
1000
MVIEW
1002
{
1070
    16
1010
0.0
1020
0.0
1030
0.0
1010
0.0
1020
0.0
1030
1.0
1040
0.0
1040
268.53966524088321
1040
-3.7645543439106741
1040
10.089000620492961
1040
50.0
1040
0.0
1040
0.0
1070
     0
1070
   100
1070
     1
1070
     1
1070
     0
1070
     0
1070
     0
1070
     0
1040
0.0
1040
0.0
1040
0.0
1040
1.0
1040
1.0
1040
0.0
1040
0.0
1070
     0
1002
{
1002
}
1002
}
  0
ENDSEC
  0
EOF
