  0
SECTION
  2
HEADER
  9
$ACADVER
  1
AC1009
  9
$INSBASE
 10
0.0
 20
0.0
 30
0.0
  9
$EXTMIN
 10
458.94187753787401
 20
-776.24502156683286
 30
-0.0000000000571676
  9
$EXTMAX
 10
777.73565303245675
 20
-599.07421010467374
 30
0.0000000000562575
  9
$LIMMIN
 10
0.0
 20
0.0
  9
$LIMMAX
 10
12.0
 20
9.0
  9
$ORTHOMODE
 70
     0
  9
$REGENMODE
 70
     1
  9
$FILLMODE
 70
     1
  9
$QTEXTMODE
 70
     0
  9
$MIRRTEXT
 70
     0
  9
$DRAGMODE
 70
     2
  9
$LTSCALE
 40
0.5
  9
$OSMODE
 70
    63
  9
$ATTMODE
 70
     1
  9
$TEXTSIZE
 40
4.0
  9
$TRACEWID
 40
0.05
  9
$TEXTSTYLE
  7
STANDARD
  9
$CLAYER
  8
1TEXT
  9
$CELTYPE
  6
BYLAYER
  9
$CECOLOR
 62
   256
  9
$DIMSCALE
 40
1.0
  9
$DIMASZ
 40
2.0
  9
$DIMEXO
 40
0.0
  9
$DIMDLI
 40
7.0
  9
$DIMRND
 40
0.0
  9
$DIMDLE
 40
0.0
  9
$DIMEXE
 40
1.0
  9
$DIMTP
 40
0.0
  9
$DIMTM
 40
0.0
  9
$DIMTXT
 40
3.5
  9
$DIMCEN
 40
0.0
  9
$DIMTSZ
 40
0.0
  9
$DIMTOL
 70
     0
  9
$DIMLIM
 70
     0
  9
$DIMTIH
 70
     0
  9
$DIMTOH
 70
     0
  9
$DIMSE1
 70
     0
  9
$DIMSE2
 70
     0
  9
$DIMTAD
 70
     1
  9
$DIMZIN
 70
     8
  9
$DIMBLK
  1

  9
$DIMASO
 70
     1
  9
$DIMSHO
 70
     1
  9
$DIMPOST
  1
 
  9
$DIMAPOST
  1

  9
$DIMALT
 70
     0
  9
$DIMALTD
 70
     2
  9
$DIMALTF
 40
25.399999999999999
  9
$DIMLFAC
 40
1.0
  9
$DIMTOFL
 70
     1
  9
$DIMTVP
 40
0.0
  9
$DIMTIX
 70
     0
  9
$DIMSOXD
 70
     0
  9
$DIMSAH
 70
     1
  9
$DIMBLK1
  1
OPEN30
  9
$DIMBLK2
  1
OPEN30
  9
$DIMSTYLE
  2
NEWX10
  9
$DIMCLRD
 70
   256
  9
$DIMCLRE
 70
   256
  9
$DIMCLRT
 70
   201
  9
$DIMTFAC
 40
0.7
  9
$DIMGAP
 40
0.7
  9
$LUNITS
 70
     2
  9
$LUPREC
 70
     4
  9
$SKETCHINC
 40
0.1
  9
$FILLETRAD
 40
0.0
  9
$AUNITS
 70
     0
  9
$AUPREC
 70
     2
  9
$MENU
  1
acad
  9
$ELEVATION
 40
0.0
  9
$PELEVATION
 40
0.0
  9
$THICKNESS
 40
0.0
  9
$LIMCHECK
 70
     0
  9
$BLIPMODE
 70
     0
  9
$CHAMFERA
 40
0.0
  9
$CHAMFERB
 40
0.0
  9
$SKPOLY
 70
     0
  9
$TDCREATE
 40
2451024.579593021
  9
$TDUPDATE
 40
2457014.6581173958
  9
$TDINDWG
 40
1.0579336805999999
  9
$TDUSRTIMER
 40
1.0579336805999999
  9
$USRTIMER
 70
     1
  9
$ANGBASE
 50
0.0
  9
$ANGDIR
 70
     0
  9
$PDMODE
 70
     0
  9
$PDSIZE
 40
0.0
  9
$PLINEWID
 40
0.0
  9
$COORDS
 70
     0
  9
$SPLFRAME
 70
     0
  9
$SPLINETYPE
 70
     6
  9
$SPLINESEGS
 70
     8
  9
$ATTDIA
 70
     0
  9
$ATTREQ
 70
     1
  9
$HANDLING
 70
     1
  9
$HANDSEED
  5
A02A
  9
$SURFTAB1
 70
     6
  9
$SURFTAB2
 70
     6
  9
$SURFTYPE
 70
     6
  9
$SURFU
 70
     6
  9
$SURFV
 70
     6
  9
$UCSNAME
  2

  9
$UCSORG
 10
0.0
 20
0.0
 30
0.0
  9
$UCSXDIR
 10
1.0
 20
0.0
 30
0.0
  9
$UCSYDIR
 10
0.0
 20
1.0
 30
0.0
  9
$PUCSNAME
  2

  9
$PUCSORG
 10
0.0
 20
0.0
 30
0.0
  9
$PUCSXDIR
 10
1.0
 20
0.0
 30
0.0
  9
$PUCSYDIR
 10
0.0
 20
1.0
 30
0.0
  9
$USERI1
 70
     0
  9
$USERI2
 70
     0
  9
$USERI3
 70
     0
  9
$USERI4
 70
     0
  9
$USERI5
 70
     0
  9
$USERR1
 40
0.0
  9
$USERR2
 40
0.0
  9
$USERR3
 40
0.0
  9
$USERR4
 40
0.0
  9
$USERR5
 40
0.0
  9
$WORLDVIEW
 70
     1
  9
$SHADEDGE
 70
     3
  9
$SHADEDIF
 70
    70
  9
$TILEMODE
 70
     1
  9
$MAXACTVP
 70
    48
  9
$PLIMCHECK
 70
     0
  9
$PEXTMIN
 10
1.0000000000000000E+020
 20
1.0000000000000000E+020
 30
1.0000000000000000E+020
  9
$PEXTMAX
 10
-1.0000000000000000E+020
 20
-1.0000000000000000E+020
 30
-1.0000000000000000E+020
  9
$PLIMMIN
 10
0.0
 20
0.0
  9
$PLIMMAX
 10
12.0
 20
9.0
  9
$UNITMODE
 70
     0
  9
$VISRETAIN
 70
     1
  9
$PLINEGEN
 70
     0
  9
$PSLTSCALE
 70
     1
  0
ENDSEC
  0
SECTION
  2
TABLES
  0
TABLE
  2
VPORT
 70
     1
  0
VPORT
  2
*ACTIVE
 70
     0
 10
0.0
 20
0.0
 11
1.0
 21
1.0
 12
618.32215677076908
 22
-687.66292102566388
 13
0.0
 23
0.0
 14
1.0
 24
1.0
 15
0.0
 25
0.0
 16
0.0
 26
0.0
 36
1.0
 17
0.0
 27
0.0
 37
0.0
 40
187.92598657462591
 41
2.1749379652605461
 42
50.0
 43
0.0
 44
0.0
 50
0.0
 51
0.0
 71
     0
 72
  1000
 73
     1
 74
     1
 75
     0
 76
     0
 77
     0
 78
     0
  0
ENDTAB
  0
TABLE
  2
LTYPE
 70
    12
  0
LTYPE
  2
CONTINUOUS
 70
     0
  3
Solid line
 72
    65
 73
     0
 40
0.0
  0
LTYPE
  2
XREF1|CENTER2
 70
    48
  3
Center (.5x) ___ _ ___ _ ___ _ ___ _ ___ _ ___
 72
    65
 73
     4
 40
28.574999999999999
 49
19.050000000000001
 49
-3.1749999999999989
 49
3.1749999999999989
 49
-3.1749999999999989
  0
LTYPE
  2
A3WAKUDAKE|CENTER2
 70
    48
  3
Center (.5x) ___ _ ___ _ ___ _ ___ _ ___ _ ___
 72
    65
 73
     4
 40
28.574999999999999
 49
19.050000000000001
 49
-3.1749999999999989
 49
3.1749999999999989
 49
-3.1749999999999989
  0
ENDTAB
  0
TABLE
  2
LAYER
 70
    37
  0
LAYER
  2
0
 70
     0
 62
     7
  6
CONTINUOUS
  0
LAYER
  2
1TEXT
 70
     0
 62
     7
  6
CONTINUOUS
  0
LAYER
  2
A3WAKUDAKE|THICK
 70
    48
 62
     7
  6
CONTINUOUS
  0
LAYER
  2
A3WAKUDAKE|POINT
 70
    48
 62
     7
  6
CONTINUOUS
  0
LAYER
  2
A3WAKUDAKE|1CENTER
 70
    48
 62
     7
  6
A3WAKUDAKE|CENTER2
  0
LAYER
  2
A3WAKUDAKE|0-6
 70
    48
 62
     7
  6
CONTINUOUS
  0
LAYER
  2
A3WAKUDAKE|1DIM
 70
    48
 62
     7
  6
CONTINUOUS
  0
LAYER
  2
XREF1|1CENTER
 70
    48
 62
     7
  6
XREF1|CENTER2
  0
LAYER
  2
01
 70
     0
 62
     1
  6
CONTINUOUS
  0
ENDTAB
  0
TABLE
  2
STYLE
 70
     5
  0
STYLE
  2
STANDARD
 70
     0
 40
0.0
 41
1.0
 50
0.0
 71
     0
 42
4.0
  3
romans.shx
  4
extfont2.shx
  0
ENDTAB
  0
TABLE
  2
VIEW
 70
     6
  0
VIEW
  2
A
 70
     0
 40
163.88865421183439
 10
23.75874513620715
 20
-310.52391195898861
 41
232.0683926202114
 11
0.0
 21
0.0
 31
1.0
 12
0.0
 22
0.0
 32
0.0
 42
50.0
 43
0.0
 44
0.0
 50
0.0
 71
     0
  0
ENDTAB
  0
TABLE
  2
UCS
 70
     0
  0
ENDTAB
  0
TABLE
  2
APPID
 70
    12
  0
APPID
  2
ACAD
 70
     0
  0
APPID
  2
CONTENTBLOCKICON
 70
     0
  0
APPID
  2
CONTENTBLOCKDESCRIPTION
 70
     0
  0
APPID
  2
CONTENTTABDATA
 70
     0
  0
APPID
  2
CONTENTCURRENTTAB
 70
     0
  0
APPID
  2
DRAWINGVARIABLESXDATA
 70
     0
  0
APPID
  2
CONTENTLONGBLOCKNAME
 70
     0
  0
APPID
  2
ACAD_DSTYLE_DIMTEXT_FILL
 70
     0
  0
APPID
  2
ACAD_PSEXT
 70
     0
  0
APPID
  2
ACAD_MLEADERVER
 70
     0
  0
APPID
  2
ACAD_NAV_VCDISPLAY
 70
     0
  0
APPID
  2
ACAD_EXEMPT_FROM_CAD_STANDARDS
 70
     0
  0
ENDTAB
  0
TABLE
  2
DIMSTYLE
 70
     5
  0
DIMSTYLE
  2
NEWX10
 70
     0
  3
 
  4

  5

  6
OPEN30
  7
OPEN30
 40
1.0
 41
2.0
 42
0.0
 43
7.0
 44
1.0
 45
0.0
 46
0.0
 47
0.0
 48
0.0
140
3.5
141
0.0
142
0.0
143
25.399999999999999
144
1.0
145
0.0
146
0.7
147
0.7
 71
     0
 72
     0
 73
     0
 74
     0
 75
     0
 76
     0
 77
     1
 78
     8
170
     0
171
     2
172
     1
173
     1
174
     0
175
     0
176
   256
177
   256
178
   201
  0
ENDTAB
  0
ENDSEC
  0
SECTION
  2
BLOCKS
  0
BLOCK
  8
0
  2
$MODEL_SPACE
 70
     0
 10
0.0
 20
0.0
 30
0.0
  3
$MODEL_SPACE
  1

  0
ENDBLK
  5
1A
  8
0
  0
BLOCK
 67
     1
  8
0
  2
$PAPER_SPACE
 70
     0
 10
0.0
 20
0.0
 30
0.0
  3
$PAPER_SPACE
  1

  0
ENDBLK
  5
17
 67
     1
  8
0
  0
BLOCK
  8
0
  2
XREF1
 70
    36
 10
0.0
 20
0.0
 30
0.0
  3
XREF1
  1
D:\ACLT\FORMAT\KAWAJUN(9)図面用.dwg
  0
ENDBLK
  5
37B8
  8
0
  0
BLOCK
  8
0
  2
_OPEN30
 70
     0
 10
0.0
 20
0.0
 30
0.0
  3
_OPEN30
  1

  0
LINE
  5
3854
  8
0
  6
BYBLOCK
 62
     0
 10
-1.0
 20
0.26794919
 30
0.0
 11
0.0
 21
0.0
 31
0.0
  0
LINE
  5
3855
  8
0
  6
BYBLOCK
 62
     0
 10
0.0
 20
0.0
 30
0.0
 11
-1.0
 21
-0.26794919
 31
0.0
  0
LINE
  5
3856
  8
0
  6
BYBLOCK
 62
     0
 10
0.0
 20
0.0
 30
0.0
 11
-1.0
 21
0.0
 31
0.0
  0
ENDBLK
  5
3858
  8
0
  0
BLOCK
  8
0
  2
A3WAKUDAKE
 70
    36
 10
0.0
 20
0.0
 30
0.0
  3
A3WAKUDAKE
  1
D:\ACLT\FORMAT\A3WAKUdake.dwg
  0
ENDBLK
  5
5533
  8
0
  0
ENDSEC
  0
SECTION
  2
ENTITIES
  0
TEXT
  5
8FBC
  8
01
 10
457.41806801406449
 20
-607.07421010467385
 30
0.0
 40
8.0
  1
KLW-2E-X
  0
LINE
  5
96EE
  8
01
 10
624.35074568813775
 20
-622.21755445707777
 30
0.0
 11
623.85072306934046
 21
-622.71755445707765
 31
-0.00000000000091
  0
LINE
  5
96EF
  8
01
 10
630.00760268813758
 20
-622.21755445707856
 30
0.0
 11
630.50758830693371
 21
-622.71755445707879
 31
-0.00000000000091
  0
LINE
  5
96F0
  8
01
 10
553.05350814786891
 20
-721.98060857096198
 30
0.0000000000001125
 11
552.55350814786891
 21
-722.48059418975811
 31
-0.0000000000007976
  0
LINE
  5
96F1
  8
01
 10
553.05350814786891
 20
-716.32375157096214
 30
0.0000000000001125
 11
552.55350814786891
 21
-715.82372895216508
 31
-0.0000000000007976
  0
LINE
  5
96F2
  8
01
 10
571.16312305674205
 20
-719.1521577067723
 30
-0.0000000000562575
 11
565.16312305674217
 21
-719.1521577067723
 31
-0.0000000000562575
  0
LINE
  5
96F3
  8
01
 10
571.16312588508436
 20
-715.82370808797521
 30
-0.0000000000571676
 11
565.66312305674217
 21
-715.82370808797521
 31
-0.0000000000571676
  0
LINE
  5
96F4
  8
01
 10
571.16312305674205
 20
-722.48057332556834
 30
-0.0000000000571676
 11
565.66312305674217
 21
-722.48057332556834
 31
-0.0000000000571676
  0
LINE
  5
96F5
  8
01
 10
565.66312305674217
 20
-722.48057332556834
 30
-0.0000000000562575
 11
565.66312305674217
 21
-715.82370808797521
 31
-0.0000000000562575
  0
LINE
  5
96F6
  8
01
 10
565.16312305674217
 20
-721.98058370677199
 30
-0.0000000000562575
 11
565.16312305674217
 21
-716.32373070677215
 31
-0.0000000000562575
  0
LINE
  5
96F7
  8
01
 10
565.16312305674217
 20
-721.98058370677199
 30
-0.0000000000562575
 11
565.16312305674217
 21
-716.32373070677215
 31
-0.0000000000562575
  0
LINE
  5
96F8
  8
01
 10
565.16312305674217
 20
-721.98058370677234
 30
-0.0000000000562575
 11
565.16312305674217
 21
-716.32373070677227
 31
-0.0000000000562575
  0
LINE
  5
96F9
  8
01
 10
565.16312305674217
 20
-721.98058370677234
 30
-0.0000000000562575
 11
565.16312305674217
 21
-716.32373070677227
 31
-0.0000000000562575
  0
LINE
  5
96FA
  8
01
 10
565.16312305674217
 20
-721.98058770677233
 30
-0.0000000000562575
 11
565.66312305674217
 21
-722.48057332556834
 31
-0.0000000000571676
  0
LINE
  5
96FB
  8
01
 10
565.16312305674217
 20
-716.32373070677227
 30
-0.0000000000562575
 11
565.66312305674217
 21
-715.82370808797521
 31
-0.0000000000571676
  0
LINE
  5
96FC
  8
01
 10
572.16312305674205
 20
-722.480573325568
 30
-0.0000000000562575
 11
572.16312305674205
 21
-715.82370808797555
 31
-0.0000000000562575
  0
LINE
  5
96FD
  8
01
 10
571.16312305674205
 20
-722.48056932556835
 30
-0.0000000000562575
 11
571.16312305674205
 21
-715.82370808797521
 31
-0.0000000000562575
  0
LINE
  5
96FE
  8
01
 10
571.66312305674205
 20
-721.69677470677198
 30
-0.0000000000562575
 11
571.66312305674205
 21
-719.56670070677205
 31
-0.0000000000562575
  0
LINE
  5
96FF
  8
01
 10
576.91312305674205
 20
-722.48057332556823
 30
-0.0000000000571676
 11
572.16310305674199
 21
-722.48057332556834
 31
-0.0000000000571676
  0
ARC
  5
9700
  8
01
 10
571.66312305674205
 20
-722.29308032556844
 30
-0.0000000000571676
 40
0.30000001
 50
35.26438999998944
 51
144.73561999999379
  0
LINE
  5
9701
  8
01
 10
571.41817305674215
 20
-722.11987832556849
 30
-0.0000000000571676
 11
571.16312305674205
 21
-722.48056932556835
 31
-0.0000000000571676
  0
LINE
  5
9702
  8
01
 10
571.90807305674207
 20
-722.11988132556826
 30
-0.0000000000571676
 11
572.16310305674199
 21
-722.48057332556834
 31
-0.0000000000571676
  0
LINE
  5
9703
  8
01
 10
576.91312305674205
 20
-719.15215770677219
 30
-0.0000000000562575
 11
572.16312305674205
 21
-719.1521577067723
 31
-0.0000000000562575
  0
LINE
  5
9704
  8
01
 10
576.91312305674205
 20
-715.82370808797498
 30
-0.0000000000571676
 11
572.16312305674205
 21
-715.82370808797521
 31
-0.0000000000571676
  0
LINE
  5
9705
  8
01
 10
571.66312305674205
 20
-718.90244370677215
 30
-0.0000000000562575
 11
571.66312305674205
 21
-716.59927070677202
 31
-0.0000000000562575
  0
ARC
  5
9706
  8
01
 10
571.66312588508436
 20
-716.01120808797521
 30
-0.0000000000571676
 40
0.30000001
 50
215.2643800000061
 51
324.73561000001052
  0
LINE
  5
9707
  8
01
 10
571.41817588508434
 20
-716.18441008797515
 30
-0.0000000000571676
 11
571.16312588508436
 21
-715.82370808797521
 31
-0.0000000000571676
  0
LINE
  5
9708
  8
01
 10
571.90807588508414
 20
-716.18441008797515
 30
-0.0000000000571676
 11
572.16312588508436
 21
-715.82370408797522
 31
-0.0000000000571676
  0
ARC
  5
9709
  8
01
 10
588.81289843461866
 20
-720.45215938583397
 30
-0.0000000000563712
 40
0.30000001
 50
346.8165200000056
 51
90.00000299999769
  0
LINE
  5
970A
  8
01
 10
588.13652843461875
 20
-722.65216038583401
 30
-0.0000000000563712
 11
587.41312843461844
 21
-722.65216038583389
 31
-0.0000000000563712
  0
ARC
  5
970B
  8
01
 10
583.26312843461858
 20
-719.15216038583401
 30
-0.0000000000563712
 40
6.0
 50
324.31467000000117
 51
346.81651749663899
  0
LINE
  5
970C
  8
01
 10
588.81367689402111
 20
-720.15216038583389
 30
-0.0000000000563712
 11
587.41312843461833
 21
-720.15216038583389
 31
-0.0000000000563712
  0
LINE
  5
970D
  8
01
 10
588.81289843461866
 20
-718.15216038583401
 30
-0.0000000000563712
 11
587.41312843461844
 21
-718.15216038583412
 31
-0.0000000000563712
  0
ARC
  5
970E
  8
01
 10
583.26312843461858
 20
-719.15216038583401
 30
-0.0000000000563712
 40
6.0
 50
13.1834819999982
 51
35.68533399999356
  0
ARC
  5
970F
  8
01
 10
588.81289843461866
 20
-717.85215738583418
 30
-0.0000000000563712
 40
0.30000001
 50
270.0
 51
13.1834819999982
  0
LINE
  5
9710
  8
01
 10
588.13652843461875
 20
-715.65216038583389
 30
-0.0000000000563712
 11
587.41312843461844
 21
-715.65216038583389
 31
-0.0000000000563712
  0
LINE
  5
9711
  8
01
 10
547.05350531952649
 20
-715.82372895216508
 30
-0.0000000000007976
 11
552.55350814786891
 21
-715.82372895216508
 31
-0.0000000000007976
  0
LINE
  5
9712
  8
01
 10
547.05350814786891
 20
-722.48059418975811
 30
-0.0000000000007976
 11
552.55350814786891
 21
-722.48059418975811
 31
-0.0000000000007976
  0
LINE
  5
9713
  8
01
 10
541.55387948045745
 20
-722.48059418975811
 30
-0.0000000000007976
 11
546.05352814786875
 21
-722.48059418975811
 31
-0.0000000000007976
  0
ARC
  5
9714
  8
01
 10
546.55350814786891
 20
-722.29310118975786
 30
-0.0000000000007976
 40
0.30000001
 50
35.264380000006128
 51
144.73560999999421
  0
LINE
  5
9715
  8
01
 10
546.79845814786893
 20
-722.11989918975803
 30
-0.0000000000007976
 11
547.05350814786891
 21
-722.48059018975812
 31
-0.0000000000007976
  0
LINE
  5
9716
  8
01
 10
546.30855814786878
 20
-722.11990218975814
 30
-0.0000000000007976
 11
546.05352814786875
 21
-722.48059418975811
 31
-0.0000000000007976
  0
LINE
  5
9717
  8
01
 10
541.55387948045745
 20
-715.82372895216497
 30
-0.0000000000007976
 11
546.0535081478688
 21
-715.82372895216508
 31
-0.0000000000007976
  0
ARC
  5
9718
  8
01
 10
546.55350531952661
 20
-716.01122895216508
 30
-0.0000000000007976
 40
0.30000001
 50
215.2643900000057
 51
324.7356199999939
  0
LINE
  5
9719
  8
01
 10
546.79845531952651
 20
-716.18443095216514
 30
-0.0000000000007976
 11
547.05350531952649
 21
-715.82372895216508
 31
-0.0000000000007976
  0
LINE
  5
971A
  8
01
 10
546.30855531952682
 20
-716.18443095216514
 30
-0.0000000000007976
 11
546.05350531952661
 21
-715.82372495216509
 31
-0.0000000000007976
  0
LINE
  5
971B
  8
01
 10
630.5075883069328
 20
-628.21755445707879
 30
-0.00000000000091
 11
630.50758830693371
 21
-622.71755445707879
 31
-0.00000000000091
  0
LINE
  5
971C
  8
01
 10
623.85072306933967
 20
-628.21755728541996
 30
-0.00000000000091
 11
623.85072306934046
 21
-622.71755445707765
 31
-0.00000000000091
  0
ARC
  5
971D
  8
01
 10
627.17917536719676
 20
-640.31755983495475
 30
-0.0000000000001137
 40
6.0
 50
234.31466599999931
 51
256.8165179999923
  0
LINE
  5
971E
  8
01
 10
623.67917536719585
 20
-645.19095983495436
 30
-0.0000000000001137
 11
623.67917536719563
 21
-644.46755445707902
 31
-0.0000000000001137
  0
LINE
  5
971F
  8
01
 10
623.85072306933876
 20
-633.96755445707913
 30
-0.00000000000091
 11
623.85072306933955
 21
-629.21755445707777
 31
-0.00000000000091
  0
LINE
  5
9720
  8
01
 10
624.21142506933938
 20
-628.96250728541986
 30
-0.00000000000091
 11
623.85071906933945
 21
-629.21755728541984
 31
-0.00000000000091
  0
LINE
  5
9721
  8
01
 10
624.21142506933961
 20
-628.47260728541994
 30
-0.00000000000091
 11
623.85072306933967
 21
-628.21755728541996
 31
-0.00000000000091
  0
ARC
  5
9722
  8
01
 10
624.03822306933978
 20
-628.71755728541996
 30
-0.00000000000091
 40
0.30000001
 50
305.26438999998049
 51
54.735619999984877
  0
LINE
  5
9723
  8
01
 10
628.17917536719585
 20
-645.8681082943574
 30
-0.0000000000001137
 11
628.17917536719597
 21
-644.46755445707981
 31
-0.0000000000001137
  0
ARC
  5
9724
  8
01
 10
627.17917536719676
 20
-640.31755983495475
 30
-0.0000000000001137
 40
6.0
 50
283.1834825033539
 51
305.68532999998962
  0
LINE
  5
9725
  8
01
 10
630.67917536719585
 20
-645.19095983495527
 30
-0.0000000000001137
 11
630.67917536719585
 21
-644.46755445708004
 31
-0.0000000000001137
  0
ARC
  5
9726
  8
01
 10
625.87917236719613
 20
-645.8673298349546
 30
-0.0000000000001137
 40
0.30000001
 50
256.8165179999923
 51
359.99999999999352
  0
ARC
  5
9727
  8
01
 10
628.47917436719604
 20
-645.86732983495494
 30
-0.0000000000001137
 40
0.30000001
 50
179.99999699998921
 51
283.18347999998491
  0
LINE
  5
9728
  8
01
 10
626.17917536719585
 20
-645.8673298349546
 30
-0.0000000000001137
 11
626.17917536719597
 21
-644.46755445707925
 31
-0.0000000000001137
  0
LINE
  5
9729
  8
01
 10
630.50758830693212
 20
-633.9675544570797
 30
-0.00000000000091
 11
630.50758830693269
 21
-629.21753445707873
 31
-0.00000000000091
  0
LINE
  5
972A
  8
01
 10
630.14689630693272
 20
-628.96250445707869
 30
-0.00000000000091
 11
630.50758830693269
 21
-629.21753445707873
 31
-0.00000000000091
  0
LINE
  5
972B
  8
01
 10
630.14689330693295
 20
-628.47260445707866
 30
-0.00000000000091
 11
630.50758430693281
 21
-628.21755445707879
 31
-0.00000000000091
  0
ARC
  5
972C
  8
01
 10
630.32009530693301
 20
-628.71755445707868
 30
-0.00000000000091
 40
0.30000001
 50
125.2643799999969
 51
234.73561000000149
  0
LINE
  5
972D
  8
01
 10
607.17918490934255
 20
-638.16755445707645
 30
0.0
 11
647.17918490934267
 21
-638.16755445708191
 31
0.0
  0
LINE
  5
972E
  8
01
 10
646.67918490934176
 20
-644.46755445708231
 30
0.0
 11
607.67918490934187
 21
-644.46755445707686
 31
0.0
  0
LINE
  5
972F
  8
01
 10
607.67917268813744
 20
-693.6521663668334
 30
0.0
 11
646.67917268813699
 21
-693.65216636683363
 31
0.0
  0
LINE
  5
9730
  8
01
 10
607.67917268813721
 20
-733.65216636683328
 30
0.0
 11
646.67917268813721
 21
-733.65216636683385
 31
0.0
  0
LINE
  5
9732
  8
01
 10
483.27877844792039
 20
-622.46755445707868
 30
0.0000000000009273
 11
483.77876406671652
 21
-622.96755445707868
 31
0.0000000000000173
  0
LINE
  5
9733
  8
01
 10
477.6219214479205
 20
-622.46755445707868
 30
0.0000000000009273
 11
477.12189882912361
 21
-622.96755445707902
 31
0.0000000000000173
  0
LINE
  5
9736
  8
01
 10
500.45035244791927
 20
-733.15216657096175
 30
0.0
 11
500.45035244791899
 21
-694.15216657096175
 31
0.0
  0
LINE
  5
9737
  8
01
 10
460.45035244791922
 20
-733.15216657096221
 30
0.0
 11
460.45035244791927
 21
-694.15216657096209
 31
0.0
  0
LINE
  5
9738
  8
01
 10
499.95035244791927
 20
-733.65216657096175
 30
0.0
 11
460.95035244791922
 21
-733.65216657096232
 31
0.0
  0
ARC
  5
9739
  8
01
 10
480.45035244792132
 20
-719.15216657096175
 30
0.0
 40
10.999995000006949
 50
280.98058072142919
 51
79.019419278570822
  0
CIRCLE
  5
973A
  8
01
 10
480.45035244792132
 20
-719.15216657096175
 30
0.0
 40
11.30000000000109
  0
LINE
  5
973B
  8
01
 10
474.4503524479212
 20
-719.15216657096175
 30
0.0
 11
486.4503524479212
 21
-719.15216657096175
 31
0.0
  0
ARC
  5
973D
  8
01
 10
480.45035244792132
 20
-719.15216657096175
 30
0.0
 40
10.999995000006949
 50
100.98058072142911
 51
259.01941927857081
  0
ARC
  5
973E
  8
01
 10
460.95035244791922
 20
-733.15216657096221
 30
0.0
 40
0.5
 50
180.0
 51
270.0
  0
LINE
  5
973F
  8
01
 10
482.95035244792132
 20
-708.84440760016071
 30
0.0
 11
482.95035244792132
 21
-729.45992554176291
 31
0.0
  0
LINE
  5
9740
  8
01
 10
477.95035244792132
 20
-708.84440760016071
 30
0.0
 11
477.95035244792132
 21
-729.45992554176291
 31
0.0
  0
LINE
  5
9741
  8
01
 10
480.45035244792132
 20
-725.15216657096175
 30
0.0
 11
480.45035244792132
 21
-713.15216657096187
 31
0.0
  0
ARC
  5
9742
  8
01
 10
478.4503524479212
 20
-729.45992554176291
 30
0.0
 40
0.5
 50
180.0
 51
259.01941927857081
  0
ARC
  5
9743
  8
01
 10
480.45035244792132
 20
-719.15216657096175
 30
0.0
 40
10.999995000006949
 50
259.01941927857081
 51
280.98058072142919
  0
ARC
  5
9744
  8
01
 10
482.4503524479212
 20
-729.45992554176291
 30
0.0
 40
0.5
 50
280.98058072142919
 51
0.0
  0
ARC
  5
9745
  8
01
 10
478.4503524479212
 20
-708.84440760016071
 30
0.0
 40
0.5
 50
100.98058072142911
 51
180.0
  0
ARC
  5
9746
  8
01
 10
480.45035244792132
 20
-719.15216657096175
 30
0.0
 40
10.999995000006949
 50
79.019419278570822
 51
100.98058072142911
  0
ARC
  5
9747
  8
01
 10
482.4503524479212
 20
-708.84440760016071
 30
0.0
 40
0.5
 50
0.0
 51
79.019419278570822
  0
ARC
  5
9748
  8
01
 10
499.95035244791927
 20
-733.15216657096175
 30
0.0
 40
0.5
 50
270.0
 51
0.0
  0
LINE
  5
9749
  8
01
 10
465.45035180300198
 20
-633.96755445708072
 30
0.0
 11
495.45035180300209
 21
-633.96755445707925
 31
0.0
  0
LINE
  5
974A
  8
01
 10
483.95035244791518
 20
-645.66755112387955
 30
0.0000000000000173
 11
490.95035744791301
 21
-645.66755112388125
 31
0.0000000000000173
  0
LINE
  5
974B
  8
01
 10
460.45036466912819
 20
-638.16755445708009
 30
0.0
 11
500.45036466912842
 21
-638.16755445707952
 31
0.0
  0
LINE
  5
974C
  8
01
 10
499.95036466912842
 20
-644.46755445708004
 30
0.0
 11
460.95036466912848
 21
-644.46755445708015
 31
0.0
  0
LINE
  5
974D
  8
01
 10
499.95035244791899
 20
-693.65216657096175
 30
0.0
 11
460.95035244791927
 21
-693.65216657096198
 31
0.0
  0
LINE
  5
974E
  8
01
 10
482.95035244791342
 20
-659.16757406808642
 30
0.0000000000000173
 11
482.95035244791518
 21
-646.66755112387955
 31
0.0000000000000173
  0
LINE
  5
974F
  8
01
 10
477.9503524479133
 20
-659.16757406808449
 30
0.0000000000000173
 11
477.9503524479133
 21
-646.66755112388148
 31
0.0000000000000173
  0
ARC
  5
9750
  8
01
 10
460.95035244791927
 20
-694.15216657096209
 30
0.0
 40
0.5
 50
90.0
 51
180.0
  0
ARC
  5
9751
  8
01
 10
478.95035244791262
 20
-659.16757406808642
 30
0.0000000000000173
 40
1.0
 50
180.0000000000521
 51
270.0
  0
LINE
  5
9752
  8
01
 10
478.95035244791342
 20
-660.16757406808824
 30
0.0000000000000173
 11
481.95035244791251
 21
-660.16757406808824
 31
0.0000000000000173
  0
ARC
  5
9753
  8
01
 10
481.95035244791251
 20
-659.16757406808642
 30
0.0000000000000173
 40
1.0
 50
270.0
 51
0.0
  0
LINE
  5
9754
  8
01
 10
469.95035744791352
 20
-645.66755112388137
 30
0.0000000000000173
 11
476.95035244791342
 21
-645.66755112388137
 31
0.0000000000000173
  0
LINE
  5
9755
  8
01
 10
460.45036466912819
 20
-638.16755445708009
 30
0.0
 11
460.45036466912848
 21
-643.96755445708015
 31
0.0
  0
ARC
  5
9756
  8
01
 10
464.95035180300192
 20
-637.667554457081
 30
0.0
 40
0.5
 50
270.00000000000648
 51
0.0
  0
ARC
  5
9757
  8
01
 10
460.95036466912842
 20
-643.96755445708004
 30
0.0
 40
0.5
 50
180.0
 51
270.0
  0
LINE
  5
9758
  8
01
 10
469.45035744791352
 20
-645.16755112388125
 30
0.0000000000000173
 11
469.45035744791312
 21
-644.46755445708015
 31
0.0000000000010008
  0
ARC
  5
9759
  8
01
 10
469.95035744791358
 20
-645.16755112388137
 30
0.0000000000000173
 40
0.5
 50
180.0
 51
270.0
  0
LINE
  5
975A
  8
01
 10
465.45035180300198
 20
-633.96755445708072
 30
0.0
 11
465.45035180300192
 21
-637.667554457081
 31
0.0
  0
LINE
  5
975D
  8
01
 10
480.45035244792132
 20
-663.16238008810683
 30
0.0
 11
480.45035244792132
 21
-619.68087056185664
 31
0.0
  0
ARC
  5
975E
  8
01
 10
476.95035244791262
 20
-646.66755112388148
 30
0.0000000000000173
 40
1.0
 50
0.0
 51
90.0
  0
ARC
  5
9763
  8
01
 10
483.95035244791438
 20
-646.66755112387955
 30
0.0000000000000173
 40
1.0
 50
89.999999999986969
 51
180.0
  0
LINE
  5
9764
  8
01
 10
477.90573944792129
 20
-628.96755445707879
 30
0.0000000000009273
 11
480.03581344792099
 21
-628.96755445707879
 31
0.0000000000009273
  0
LINE
  5
9765
  8
01
 10
483.77876406671652
 20
-629.46755445707879
 30
0.0000000000009273
 11
477.12189882912361
 21
-629.46755445707879
 31
0.0000000000009273
  0
LINE
  5
9766
  8
01
 10
483.77876006671647
 20
-628.46755445707879
 30
0.0000000000009273
 11
477.12189882912361
 21
-628.46755445707879
 31
0.0000000000009273
  0
LINE
  5
9767
  8
01
 10
483.77876406671652
 20
-622.96755445707868
 30
0.0000000000009273
 11
477.12189882912361
 21
-622.96755445707868
 31
0.0000000000009273
  0
LINE
  5
9768
  8
01
 10
477.12189882912361
 20
-628.46755728542109
 30
0.0000000000000173
 11
477.12189882912361
 21
-622.96755445707902
 31
0.0000000000000173
  0
LINE
  5
9769
  8
01
 10
477.12189882912361
 20
-633.96755445707879
 30
0.0000000000000173
 11
477.12189882912361
 21
-629.46755445707879
 31
0.0000000000000173
  0
LINE
  5
976A
  8
01
 10
477.4826008291235
 20
-629.21250728542088
 30
0.0000000000000173
 11
477.12189882912361
 21
-629.46755445707879
 31
0.0000000000000173
  0
LINE
  5
976B
  8
01
 10
477.4826008291235
 20
-628.72260728542108
 30
0.0000000000000173
 11
477.12189882912361
 21
-628.46755728542109
 31
0.0000000000000173
  0
ARC
  5
976C
  8
01
 10
477.30939882912372
 20
-628.96755728542109
 30
0.0000000000000173
 40
0.30000001
 50
305.2643900000013
 51
54.735619999993823
  0
LINE
  5
976E
  8
01
 10
483.77876406671652
 20
-628.46755445707879
 30
0.0000000000000173
 11
483.77876406671652
 21
-622.96755445707868
 31
0.0000000000000173
  0
LINE
  5
976F
  8
01
 10
483.77876406671652
 20
-633.96755445707834
 30
0.0000000000000173
 11
483.77876406671652
 21
-629.46753445707884
 31
0.0000000000000173
  0
LINE
  5
9770
  8
01
 10
483.41807206671672
 20
-629.21250445707881
 30
0.0000000000000173
 11
483.77876406671652
 21
-629.46753445707884
 31
0.0000000000000173
  0
LINE
  5
9771
  8
01
 10
483.41806906671661
 20
-628.72260445707866
 30
0.0000000000000173
 11
483.77876006671647
 21
-628.46755445707879
 31
0.0000000000000173
  0
ARC
  5
9772
  8
01
 10
483.59127106671667
 20
-628.96755445707879
 30
0.0000000000000173
 40
0.30000001
 50
125.2643800000062
 51
234.7356099999989
  0
LINE
  5
9773
  8
01
 10
480.45035244792058
 20
-628.46755445707879
 30
0.0
 11
480.45035244792058
 21
-622.96755445707868
 31
0.0000000000009273
  0
LINE
  5
9774
  8
01
 10
480.45035244792098
 20
-633.96755445708015
 30
0.0
 11
480.45035244792069
 21
-629.46755445707879
 31
0.0
  0
LINE
  5
9775
  8
01
 10
482.99496544792049
 20
-628.96755445707879
 30
0.0000000000009273
 11
480.86489144792068
 21
-628.96755445707879
 31
0.0000000000009273
  0
ARC
  5
9776
  8
01
 10
499.95035244791899
 20
-694.15216657096175
 30
0.0
 40
0.5
 50
0.0
 51
90.0
  0
LINE
  5
9777
  8
01
 10
500.45036466912842
 20
-638.16755445707952
 30
0.0
 11
500.45036466912842
 21
-643.96755445708004
 31
0.0
  0
ARC
  5
9778
  8
01
 10
495.95035180300209
 20
-637.66755445707872
 30
0.0
 40
0.5
 50
180.0
 51
270.00000000000648
  0
LINE
  5
9779
  8
01
 10
491.45035744791329
 20
-645.16755112388125
 30
0.0000000000000173
 11
491.45035744791329
 21
-644.46755445708015
 31
-0.0000000000000049
  0
ARC
  5
977A
  8
01
 10
490.95035744791312
 20
-645.16755112388125
 30
0.0000000000000173
 40
0.5
 50
269.99999999998698
 51
0.0
  0
ARC
  5
977B
  8
01
 10
499.95036466912842
 20
-643.96755445708004
 30
0.0
 40
0.5
 50
270.0
 51
0.0
  0
LINE
  5
977D
  8
01
 10
495.45035180300209
 20
-633.96755445707925
 30
0.0
 11
495.45035180300209
 21
-637.66755445707872
 31
0.0
  0
LINE
  5
9782
  8
01
 10
576.11312305674198
 20
-704.40216170677184
 30
0.0
 11
553.91312843461935
 21
-704.40216170677184
 31
0.0
  0
LINE
  5
9783
  8
01
 10
576.91312305674194
 20
-710.90216170677161
 30
0.0
 11
553.91312843461935
 21
-710.90216170677161
 31
0.0
  0
LINE
  5
9786
  8
01
 10
551.26438660093891
 20
-707.65216170677138
 30
0.0
 11
583.70706387451025
 21
-707.65216170677138
 31
0.0
  0
LINE
  5
9788
  8
01
 10
561.83750025929146
 20
-719.15216657096175
 30
0.0
 11
590.56285313222759
 21
-719.15216657096175
 31
0.0
  0
LINE
  5
9789
  8
01
 10
541.55387948045757
 20
-702.85216657096123
 30
0.0
 11
541.55387948045745
 21
-728.65219408517123
 31
0.0
  0
LINE
  5
978A
  8
01
 10
531.05387410258095
 20
-733.15216657095448
 30
0.0
 11
531.05387410258106
 21
-694.15216657095505
 31
0.0
  0
LINE
  5
978B
  8
01
 10
537.35387410258113
 20
-693.65216657095459
 30
0.0
 11
537.3538741025767
 21
-733.65216657095493
 31
0.0
  0
LINE
  5
978C
  8
01
 10
537.3538741025767
 20
-733.65216657095493
 30
0.0
 11
531.55387410258106
 21
-733.65216657095459
 31
0.0
  0
LINE
  5
978D
  8
01
 10
527.59461977054877
 20
-719.15216657096175
 30
0.0
 11
555.55080406109823
 21
-719.15216657096175
 31
0.0
  0
LINE
  5
9790
  8
01
 10
516.35348853686162
 20
-708.15217157095481
 30
0.0
 11
531.05387410258106
 21
-708.15217157095435
 31
0.0
  0
LINE
  5
9791
  8
01
 10
516.35348853685946
 20
-730.15217157095401
 30
0.0
 11
531.05387410258095
 21
-730.15217157095447
 31
0.0
  0
LINE
  5
9792
  8
01
 10
515.35348853685946
 20
-709.15217157095356
 30
0.0
 11
515.35348853685946
 21
-729.15217157095151
 31
0.0
  0
ARC
  5
9793
  8
01
 10
516.35348853685946
 20
-729.15217157095151
 30
0.0
 40
1.0
 50
180.0
 51
270.0
  0
ARC
  5
9794
  8
01
 10
516.35348853686162
 20
-709.15217157095356
 30
0.0
 40
1.0
 50
90.0
 51
180.0
  0
LINE
  5
9795
  8
01
 10
529.85351148107122
 20
-708.65217157095435
 30
0.0
 11
529.85351148106645
 21
-729.65217157095424
 31
0.0
  0
ARC
  5
9796
  8
01
 10
531.55387410258106
 20
-733.15216657095448
 30
0.0
 40
0.5
 50
180.0
 51
270.0
  0
ARC
  5
9797
  8
01
 10
530.35351148106645
 20
-729.65217157095447
 30
0.0
 40
0.5
 50
179.99999999998701
 51
270.0
  0
ARC
  5
9798
  8
01
 10
530.35351148106645
 20
-708.65217157095435
 30
0.0
 40
0.5
 50
90.0
 51
179.99999999998701
  0
LINE
  5
979A
  8
01
 10
547.05350814786891
 20
-719.15217857096184
 30
0.0000000000001125
 11
553.05350814786891
 21
-719.15217857096184
 31
0.0000000000001125
  0
LINE
  5
979B
  8
01
 10
546.0535081478688
 20
-722.48059418975777
 30
0.0000000000001125
 11
546.0535081478688
 21
-715.82372895216508
 31
0.0000000000001125
  0
LINE
  5
979C
  8
01
 10
547.05350814786891
 20
-722.48059018975778
 30
0.0000000000001125
 11
547.05350814786891
 21
-715.82372895216508
 31
0.0000000000001125
  0
LINE
  5
979D
  8
01
 10
546.55350814786891
 20
-721.69679557096185
 30
0.0000000000001125
 11
546.55350814786891
 21
-719.56672157096193
 31
0.0000000000001125
  0
ARC
  5
979E
  8
01
 10
537.85387410258215
 20
-729.15219408517112
 30
0.0
 40
0.5
 50
90.0
 51
180.0
  0
LINE
  5
979F
  8
01
 10
541.55387948045745
 20
-728.65219408517123
 30
0.0
 11
537.85387410258215
 21
-728.65219408517112
 31
0.0
  0
LINE
  5
97A0
  8
01
 10
541.55387948045745
 20
-719.15217857096184
 30
0.0000000000001125
 11
546.0535081478688
 21
-719.15217857096184
 31
0.0000000000001125
  0
LINE
  5
97A1
  8
01
 10
546.55350814786891
 20
-718.9024645709618
 30
0.0000000000001125
 11
546.55350814786891
 21
-716.59929157096201
 31
0.0000000000001125
  0
LINE
  5
97A2
  8
01
 10
552.55350814786891
 20
-722.48059418975811
 30
0.0000000000001125
 11
552.55350814786891
 21
-715.82372895216508
 31
0.0000000000001125
  0
LINE
  5
97A3
  8
01
 10
553.05350814786891
 20
-721.98060457096176
 30
0.0000000000001125
 11
553.05350814786891
 21
-716.32375157096192
 31
0.0000000000001125
  0
LINE
  5
97A4
  8
01
 10
553.05350814786891
 20
-721.98060457096176
 30
0.0000000000001125
 11
553.05350814786891
 21
-716.32375157096192
 31
0.0000000000001125
  0
LINE
  5
97A5
  8
01
 10
553.05350814786891
 20
-721.9806045709621
 30
0.0000000000001125
 11
553.05350814786891
 21
-716.32375157096214
 31
0.0000000000001125
  0
LINE
  5
97A6
  8
01
 10
553.05350814786891
 20
-721.9806045709621
 30
0.0000000000001125
 11
553.05350814786891
 21
-716.32375157096214
 31
0.0000000000001125
  0
LINE
  5
97A7
  8
01
 10
553.91312843461935
 20
-704.40216170677184
 30
0.0
 11
553.91312843461935
 21
-710.90216170677161
 31
0.0
  0
LINE
  5
97A8
  8
01
 10
537.35387410258113
 20
-693.65216657095459
 30
0.0
 11
531.55387410258106
 21
-693.65216657095505
 31
0.0
  0
ARC
  5
97A9
  8
01
 10
531.55387410258106
 20
-694.15216657095505
 30
0.0
 40
0.5
 50
90.0
 51
180.0
  0
ARC
  5
97AA
  8
01
 10
537.85387410258056
 20
-702.35216657096123
 30
0.0
 40
0.5
 50
180.0
 51
270.0
  0
LINE
  5
97AB
  8
01
 10
537.85387410258056
 20
-702.85216657096112
 30
0.0
 11
541.55387948045757
 21
-702.85216657096123
 31
0.0
  0
LINE
  5
97AC
  8
01
 10
607.17917268813721
 20
-733.1521663668334
 30
0.0
 11
607.17917268813744
 21
-694.1521663668334
 31
0.0
  0
ARC
  5
97AD
  8
01
 10
576.11312305674198
 20
-703.60216170677177
 30
0.0
 40
0.8
 50
270.0
 51
0.0
  0
LINE
  5
97AE
  8
01
 10
576.91312305674205
 20
-702.85216170677199
 30
0.0
 11
576.91312305674205
 21
-728.652189220982
 31
0.0
  0
LINE
  5
97AF
  8
01
 10
587.41312843461833
 20
-733.15216170676479
 30
0.0
 11
587.41312843461856
 21
-694.15216170676524
 31
0.0
  0
LINE
  5
97B0
  8
01
 10
581.1131284346186
 20
-693.65216170676467
 30
0.0
 11
581.11312843461417
 21
-733.65216170676501
 31
0.0
  0
LINE
  5
97B3
  8
01
 10
581.11312843461417
 20
-733.65216170676501
 30
0.0
 11
586.91312843461856
 21
-733.65216170676467
 31
0.0
  0
ARC
  5
97B4
  8
01
 10
580.61312843461735
 20
-729.15218922098165
 30
0.0
 40
0.5
 50
359.99999999998698
 51
90.0
  0
LINE
  5
97B5
  8
01
 10
576.91312305674205
 20
-728.652189220982
 30
0.0
 11
580.61312843461735
 21
-728.65218922098165
 31
0.0
  0
ARC
  5
97B7
  8
01
 10
586.91312843461856
 20
-733.15216170676479
 30
0.0
 40
0.5
 50
270.0
 51
0.0
  0
ARC
  5
97B8
  8
01
 10
607.67917268813721
 20
-733.1521663668334
 30
0.0
 40
0.5
 50
180.0
 51
270.0
  0
LINE
  5
97B9
  8
01
 10
581.1131284346186
 20
-693.65216170676467
 30
0.0
 11
586.91312843461856
 21
-693.65216170676524
 31
0.0
  0
LINE
  5
97BA
  8
01
 10
576.91312305674205
 20
-702.85216170677199
 30
0.0
 11
581.11312843461872
 21
-702.85216170677199
 31
0.0
  0
ARC
  5
97BB
  8
01
 10
586.91312843461856
 20
-694.15216170676524
 30
0.0
 40
0.5
 50
0.0
 51
90.0
  0
ARC
  5
97BC
  8
01
 10
607.67917268813744
 20
-694.1521663668334
 30
0.0
 40
0.5
 50
90.0
 51
180.0
  0
LINE
  5
97BD
  8
01
 10
607.17918490934255
 20
-638.16755445707645
 30
0.0
 11
607.1791849093421
 21
-643.96755445707674
 31
0.0
  0
ARC
  5
97BE
  8
01
 10
607.67918490934187
 20
-643.96755445707652
 30
0.0
 40
0.5
 50
179.99999999999349
 51
269.99999999999022
  0
LINE
  5
97BF
  8
01
 10
483.27877844792039
 20
-622.46755445707868
 30
0.0000000000009273
 11
477.6219214479205
 21
-622.46755445707868
 31
0.0000000000009273
  0
LINE
  5
97C0
  8
01
 10
640.92918523180504
 20
-610.96755445707913
 30
0.0
 11
640.92918523180174
 21
-633.16755445708066
 31
0.0
  0
LINE
  5
97C1
  8
01
 10
634.42918523180504
 20
-610.96755445707856
 30
0.0
 11
634.42918523180174
 21
-633.16755445707997
 31
0.0
  0
LINE
  5
97C2
  8
01
 10
627.17917268813665
 20
-628.21755445707822
 30
0.0
 11
627.17917268813756
 21
-622.21755445707822
 31
0.0
  0
LINE
  5
97C3
  8
01
 10
619.92918523180504
 20
-610.96755445707765
 30
0.0
 11
619.92918523180163
 21
-633.16755445707861
 31
0.0
  0
LINE
  5
97C4
  8
01
 10
613.42918523180504
 20
-610.96755445707697
 30
0.0
 11
613.42918523180163
 21
-633.16755445707781
 31
0.0
  0
LINE
  5
97C5
  8
01
 10
637.6791726881354
 20
-608.31881262340073
 30
0.0
 11
637.6791726881354
 21
-640.76148989697219
 31
0.0
  0
LINE
  5
97C6
  8
01
 10
616.67917268813551
 20
-608.31881262340085
 30
0.0
 11
616.67917268813551
 21
-640.76148989697242
 31
0.0
  0
LINE
  5
97C8
  8
01
 10
627.17917301059526
 20
-762.05931116683382
 30
0.0
 11
627.1791730105956
 21
-776.24502156683286
 31
0.0
  0
LINE
  5
97C9
  8
01
 10
620.08631781059592
 20
-769.15216636683351
 30
0.0
 11
634.27202821059495
 21
-769.15216636683328
 31
0.0
  0
LINE
  5
97CA
  8
01
 10
647.17917268813721
 20
-733.15216636683385
 30
0.0
 11
647.17917268813699
 21
-694.15216636683363
 31
0.0
  0
CIRCLE
  5
97CB
  8
01
 10
627.17917301059538
 20
-719.1521663668334
 30
0.0
 40
3.5000004999999992
  0
CIRCLE
  5
97CC
  8
01
 10
627.17917301059538
 20
-719.1521661627055
 30
0.0
 40
3.75
  0
LINE
  5
97CE
  8
01
 10
621.1791726881354
 20
-719.15216657096107
 30
0.0
 11
633.17917268813551
 21
-719.15216657096107
 31
0.0
  0
LINE
  5
97CF
  8
01
 10
628.17917301059549
 20
-722.50626916683325
 30
0.0
 11
628.17917301059549
 21
-715.79806236683339
 31
0.0
  0
LINE
  5
97D0
  8
01
 10
626.17917301059538
 20
-722.50626916683325
 30
0.0
 11
626.17917301059538
 21
-715.79806236683339
 31
0.0
  0
LINE
  5
97D1
  8
01
 10
627.17917268813551
 20
-725.15216657096119
 30
0.0
 11
627.17917268813551
 21
-713.15216657096119
 31
0.0
  0
ARC
  5
97D2
  8
01
 10
646.67917268813721
 20
-733.15216636683385
 30
0.0
 40
0.5
 50
270.0
 51
0.0
  0
LINE
  5
97D5
  8
01
 10
612.17917204321691
 20
-633.96755445707788
 30
0.0
 11
642.17917204321679
 21
-633.96755445708095
 31
0.0
  0
LINE
  5
97D7
  8
01
 10
626.92945868813661
 20
-628.71755445707822
 30
0.0
 11
624.62628568813636
 21
-628.71755445707788
 31
0.0
  0
LINE
  5
97D8
  8
01
 10
630.50758430693281
 20
-628.21755445707879
 30
0.0
 11
623.85072306933967
 21
-628.21755445707765
 31
0.0
  0
LINE
  5
97D9
  8
01
 10
630.50758830693235
 20
-629.21755445707868
 30
0.0
 11
623.85072306934001
 21
-629.21755445707777
 31
0.0
  0
ARC
  5
97DB
  8
01
 10
611.67917204321623
 20
-637.66755445707781
 30
0.0
 40
0.5
 50
269.99999999999682
 51
359.99999999999352
  0
LINE
  5
97DF
  8
01
 10
612.17917204321691
 20
-633.96755445707788
 30
0.0
 11
612.17917204321623
 21
-637.66755445707793
 31
0.0
  0
ARC
  5
97E0
  8
01
 10
612.62918523180144
 20
-633.1675544570777
 30
0.0
 40
0.8
 50
269.99999999999022
 51
359.99999999999352
  0
ARC
  5
97E2
  8
01
 10
620.72918523180147
 20
-633.16755445707872
 30
0.0
 40
0.8
 50
179.99999999999349
 51
269.99999999999022
  0
LINE
  5
97E5
  8
01
 10
627.17917268813551
 20
-646.99217084513316
 30
0.0
 11
627.17917268813551
 21
-634.99217084513327
 31
0.0
  0
LINE
  5
97E7
  8
01
 10
629.72378968813655
 20
-628.71755445707868
 30
0.0
 11
627.59371568813663
 21
-628.71755445707834
 31
0.0
  0
LINE
  5
97E8
  8
01
 10
627.17917268813585
 20
-633.96755445707925
 30
0.0
 11
627.17917268813665
 21
-629.21755445707822
 31
0.0
  0
LINE
  5
97E9
  8
01
 10
627.17917268813608
 20
-631.54340597332532
 30
0.0
 11
627.17917268813585
 21
-633.71755445707811
 31
0.0
  0
ARC
  5
97EB
  8
01
 10
633.62918523180144
 20
-633.16755445707986
 30
0.0
 40
0.8
 50
269.99999999999022
 51
359.99999999999352
  0
ARC
  5
97EC
  8
01
 10
646.67917268813699
 20
-694.15216636683363
 30
0.0
 40
0.5
 50
0.0
 51
90.0
  0
ARC
  5
97ED
  8
01
 10
642.67917204321634
 20
-637.66755445708043
 30
0.0
 40
0.5
 50
179.99999999999349
 51
269.99999999999682
  0
LINE
  5
97EE
  8
01
 10
647.17918490934267
 20
-638.16755445708191
 30
0.0
 11
647.17918490934198
 21
-643.96755445708231
 31
0.0
  0
ARC
  5
97EF
  8
01
 10
646.67918490934198
 20
-643.96755445708231
 30
0.0
 40
0.5
 50
269.99999999999022
 51
359.99999999999352
  0
LINE
  5
97F0
  8
01
 10
642.17917204321679
 20
-633.96755445708095
 30
0.0
 11
642.17917204321634
 21
-637.66755445708031
 31
0.0
  0
ARC
  5
97F1
  8
01
 10
641.72918523180147
 20
-633.16755445708077
 30
0.0
 40
0.8
 50
179.99999999999349
 51
269.99999999999022
  0
LINE
  5
97F2
  8
01
 10
634.42918523180504
 20
-610.96755445707856
 30
0.0
 11
640.92918523180504
 21
-610.96755445707913
 31
0.0
  0
LINE
  5
97F3
  8
01
 10
630.0075986881377
 20
-622.21755445707856
 30
0.0
 11
624.35074568813775
 21
-622.21755445707777
 31
0.0
  0
LINE
  5
97F4
  8
01
 10
630.0075986881377
 20
-622.21755445707856
 30
0.0
 11
624.35074568813775
 21
-622.21755445707777
 31
0.0
  0
LINE
  5
97F5
  8
01
 10
630.00759868813736
 20
-622.21755445707856
 30
0.0
 11
624.35074568813752
 21
-622.21755445707777
 31
0.0
  0
LINE
  5
97F6
  8
01
 10
630.00759868813736
 20
-622.21755445707856
 30
0.0
 11
624.35074568813752
 21
-622.21755445707777
 31
0.0
  0
LINE
  5
97F7
  8
01
 10
630.50758830693371
 20
-622.71755445707879
 30
0.0
 11
623.85072306934046
 21
-622.71755445707765
 31
0.0
  0
LINE
  5
97F9
  8
01
 10
613.42918523180504
 20
-610.96755445707697
 30
0.0
 11
619.92918523180504
 21
-610.96755445707765
 31
0.0
  0
TEXT
  5
9BEC
  8
01
 10
743.97047345633689
 20
-756.36311234648315
 30
0.0000000000562575
 40
4.0
  1
付属ねじ
  0
TEXT
  5
9E4E
  8
01
 10
673.33565303245632
 20
-607.15862641279432
 30
0.0000000000562575
 40
4.0
  1
材質：亜鉛ダイキャスト・真鍮・ポリアセタール
 11
673.33565303245632
 21
-605.15862641279421
 31
0.0000000000562575
 73
     2
  0
TEXT
  5
9E4F
  8
01
 10
680.9910028693638
 20
-614.42465399911646
 30
0.0000000000562575
 40
4.0
  1
表面処理
 72
     1
 11
690.05766953603052
 21
-614.42465399911646
 31
0.0000000000562575
  0
TEXT
  5
9E50
  8
01
 10
680.9910028693638
 20
-628.25994265864097
 30
0.0000000000562575
 40
4.0
  1
クローム
 72
     1
 11
690.05766953603052
 21
-628.25994265864097
 31
0.0000000000562575
  0
TEXT
  5
9E51
  8
01
 10
678.59100286936382
 20
-621.40254901910089
 30
0.0000000000562575
 40
4.0
  1
本金メッキ
 72
     1
 11
690.05766953603052
 21
-621.40254901910089
 31
0.0000000000562575
  0
LINE
  5
9E52
  8
01
 10
672.65766953603043
 20
-608.92465399911646
 30
0.0000000000562575
 11
742.65766953603043
 21
-608.92465399911646
 31
0.0000000000562575
  0
LINE
  5
9E53
  8
01
 10
672.65766953603043
 20
-622.92465399911657
 30
0.0000000000562575
 11
742.65766953603043
 21
-622.92465399911657
 31
0.0000000000562575
  0
LINE
  5
9E54
  8
01
 10
672.65766953603043
 20
-615.92465399911657
 30
0.0000000000562575
 11
742.65766953603043
 21
-615.92465399911657
 31
0.0000000000562575
  0
LINE
  5
9E55
  8
01
 10
672.65766953603043
 20
-629.92465399911646
 30
0.0000000000562575
 11
742.65766953603043
 21
-629.92465399911646
 31
0.0000000000562575
  0
LINE
  5
9E56
  8
01
 10
672.65766953603043
 20
-629.92465399911646
 30
0.0000000000562575
 11
742.65766953603043
 21
-629.92465399911646
 31
0.0000000000562575
  0
LINE
  5
9E57
  8
01
 10
707.65766953603043
 20
-608.92465399911646
 30
0.0000000000562575
 11
707.65766953603043
 21
-671.92465399911646
 31
0.0000000000562575
  0
TEXT
  5
9E58
  8
01
 10
711.72433620269749
 20
-621.63901098276585
 30
0.0000000000562575
 40
4.0
  1
KLW-2E-G
 41
0.8
 72
     1
 11
725.05766953603086
 21
-621.63901098276585
 31
0.0000000000562575
  0
TEXT
  5
9E59
  8
01
 10
718.39100286936377
 20
-614.42465399911646
 30
0.0000000000562575
 40
4.0
  1
コード
 72
     1
 11
725.05766953603052
 21
-614.42465399911646
 31
0.0000000000562575
  0
LINE
  5
9E5A
  8
01
 10
672.65766953603043
 20
-671.92465399911646
 30
0.0000000000562575
 11
672.65766953603043
 21
-608.92465399911646
 31
0.0000000000562575
  0
LINE
  5
9E5B
  8
01
 10
742.65766953603043
 20
-671.92465399911646
 30
0.0000000000562575
 11
742.65766953603043
 21
-608.92465399911646
 31
0.0000000000562575
  0
LINE
  5
9E5C
  8
01
 10
672.65766953603043
 20
-636.92465399911646
 30
0.0000000000562575
 11
742.65766953603043
 21
-636.92465399911646
 31
0.0000000000562575
  0
LINE
  5
9E5D
  8
01
 10
672.65766953603043
 20
-636.92465399911646
 30
0.0000000000562575
 11
742.65766953603043
 21
-636.92465399911646
 31
0.0000000000562575
  0
TEXT
  5
9E5E
  8
01
 10
673.79100286936375
 20
-635.25994265864085
 30
0.0000000000562575
 40
4.0
  1
パールクローム
 72
     1
 11
690.05766953603052
 21
-635.25994265864085
 31
0.0000000000562575
  0
LINE
  5
9E5F
  8
01
 10
672.65766953603043
 20
-650.92465399911646
 30
0.0000000000562575
 11
742.65766953603043
 21
-650.92465399911646
 31
0.0000000000562575
  0
LINE
  5
9E60
  8
01
 10
672.65766953603043
 20
-650.92465399911646
 30
0.0000000000562575
 11
742.65766953603043
 21
-650.92465399911646
 31
0.0000000000562575
  0
LINE
  5
9E61
  8
01
 10
672.65766953603043
 20
-657.92465399911646
 30
0.0000000000562575
 11
742.65766953603043
 21
-657.92465399911646
 31
0.0000000000562575
  0
LINE
  5
9E62
  8
01
 10
672.65766953603043
 20
-657.92465399911646
 30
0.0000000000562575
 11
742.65766953603043
 21
-657.92465399911646
 31
0.0000000000562575
  0
TEXT
  5
9E63
  8
01
 10
673.79100286936375
 20
-642.25994265864085
 30
0.0000000000562575
 40
4.0
  1
サテンニッケル
 72
     1
 11
690.05766953603052
 21
-642.25994265864085
 31
0.0000000000562575
  0
TEXT
  5
9E64
  8
01
 10
711.72433620269749
 20
-628.63901098276585
 30
0.0000000000562575
 40
4.0
  1
KLW-2E-C
 41
0.8
 72
     1
 11
725.05766953603086
 21
-628.63901098276585
 31
0.0000000000562575
  0
TEXT
  5
9E65
  8
01
 10
711.72433620269749
 20
-635.63901098276597
 30
0.0000000000562575
 40
4.0
  1
KLW-2E-B
 41
0.8
 72
     1
 11
725.05766953603086
 21
-635.63901098276597
 31
0.0000000000562575
  0
TEXT
  5
9E66
  8
01
 10
711.72433620269749
 20
-642.63901098276585
 30
0.0000000000562575
 40
4.0
  1
KLW-2E-N
 41
0.8
 72
     1
 11
725.05766953603086
 21
-642.63901098276585
 31
0.0000000000562575
  0
TEXT
  5
9E67
  8
01
 10
710.12433620269724
 20
-670.75526067377677
 30
0.0000000000562575
 40
4.0
  1
KLW-2E-8Q
 41
0.8
 72
     1
 11
725.05766953603052
 21
-670.75526067377677
 31
0.0000000000562575
  0
TEXT
  5
9E68
  8
01
 10
711.72433620269703
 20
-649.42465399911646
 30
0.0000000000562575
 40
4.0
  1
KLW-2E-D
 41
0.8
 72
     1
 11
725.0576695360304
 21
-649.42465399911646
 31
0.0000000000562575
  0
TEXT
  5
9E69
  8
01
 10
710.12433620269701
 20
-656.42465399911657
 30
0.0000000000562575
 40
4.0
  1
KLW-2E-4Q
 41
0.8
 72
     1
 11
725.05766953603029
 21
-656.42465399911657
 31
0.0000000000562575
  0
TEXT
  5
9E6A
  8
01
 10
675.41766953603019
 20
-649.42465399911646
 30
0.0000000000562575
 40
4.0
  1
ミラーニッケル
 41
0.9
 72
     1
 11
690.05766953603018
 21
-649.42465399911646
 31
0.0000000000562575
  0
TEXT
  5
9E6B
  8
01
 10
673.79100286936364
 20
-656.42465399911657
 30
0.0000000000562575
 40
4.0
  1
ダークアンバー
 72
     1
 11
690.05766953603018
 21
-656.42465399911657
 31
0.0000000000562575
  0
LINE
  5
9E6C
  8
01
 10
672.65766953603043
 20
-664.92465399911657
 30
0.0000000000562575
 11
742.65766953603043
 21
-664.92465399911657
 31
0.0000000000562575
  0
LINE
  5
9E6D
  8
01
 10
672.65766953603043
 20
-671.92465399911646
 30
0.0000000000562575
 11
742.65766953603043
 21
-671.92465399911646
 31
0.0000000000562575
  0
TEXT
  5
9E6E
  8
01
 10
673.79100286936364
 20
-670.42465399911646
 30
0.0000000000562575
 40
4.0
  1
ミラーブラック
 72
     1
 11
690.05766953603018
 21
-670.42465399911646
 31
0.0000000000562575
  0
LINE
  5
9E6F
  8
01
 10
672.65766953603043
 20
-643.92465399911657
 30
0.0000000000562575
 11
742.65766953603043
 21
-643.92465399911657
 31
0.0000000000562575
  0
TEXT
  5
9E70
  8
01
 10
710.04814572650673
 20
-663.75526067377666
 30
0.0000000000562575
 40
4.0
  1
KLW-2E-GQ
 41
0.8
 72
     1
 11
725.05766953603052
 21
-663.75526067377666
 31
0.0000000000562575
  0
TEXT
  5
9E71
  8
01
 10
673.79100286936364
 20
-663.42465399911646
 30
0.0000000000562575
 40
4.0
  1
パールブラック
 72
     1
 11
690.05766953603018
 21
-663.42465399911646
 31
0.0000000000562575
  0
TEXT
  5
9F44
  8
01
 10
515.00893113424388
 20
-766.91263583006798
 30
0.0
 40
3.5
  1
材質：亜鉛ダイキャスト
  0
TEXT
  5
9F45
  8
01
 10
527.60893113424379
 20
-772.74596916340136
 30
0.0
 40
3.5
  1
仕上げ：クローム
  0
TEXT
  5
9F4C
  8
01
 10
719.51723384122238
 20
-726.09989853354762
 30
0.0000000000562575
 40
3.5
  1
SUS
  0
LINE
  5
9F4F
  8
01
 10
736.4060572368868
 20
-734.5489978355381
 30
0.0000000000562575
 11
736.4060572368868
 21
-730.42780064353826
 31
0.0000000000562575
  0
LINE
  5
9F50
  8
01
 10
766.40605723688668
 20
-735.89899783553801
 30
0.0000000000562575
 11
766.40605723688668
 21
-730.42780064353826
 31
0.0000000000562575
  0
LINE
  5
9F51
  8
01
 10
738.40605723688668
 20
-731.42780064353826
 30
0.0000000000562575
 11
764.4060572368868
 21
-731.42780064353826
 31
0.0000000000562575
  0
LINE
  5
9F55
  8
01
 10
768.0077322368868
 20
-737.5489978355381
 30
0.0000000000562575
 11
734.84728833688666
 21
-737.5489978355381
 31
0.0000000000562575
  0
LINE
  5
9F56
  8
01
 10
766.40605723688668
 20
-735.89899783553813
 30
0.0000000000562575
 11
738.05605723688666
 21
-735.89899783553813
 31
0.0000000000562575
  0
LINE
  5
9F57
  8
01
 10
766.40605723688668
 20
-739.19899783553808
 30
0.0000000000562575
 11
738.05605723688666
 21
-739.19899783553808
 31
0.0000000000562575
  0
LINE
  5
9F59
  8
01
 10
766.05605723688677
 20
-735.5489978355381
 30
0.0000000000562575
 11
766.05605723688677
 21
-739.5489978355381
 31
0.0000000000562575
  0
LINE
  5
9F5A
  8
01
 10
736.70605724688664
 20
-734.5489978355381
 30
0.0000000000562575
 11
736.70605724688664
 21
-740.54899783553799
 31
0.0000000000562575
  0
LINE
  5
9F5B
  8
01
 10
737.70605741096085
 20
-739.5489978355381
 30
0.0000000000562575
 11
738.05605723688666
 21
-739.19899783553808
 31
0.0000000000562575
  0
LINE
  5
9F5C
  8
01
 10
738.05605723688666
 20
-735.89899783553813
 30
0.0000000000562575
 11
737.70605741096085
 21
-735.5489978355381
 31
0.0000000000562575
  0
LINE
  5
9F5D
  8
01
 10
768.0077322368868
 20
-746.5489978355381
 30
0.0000000000562575
 11
734.84728833688666
 21
-746.5489978355381
 31
0.0000000000562575
  0
LINE
  5
9F5E
  8
01
 10
766.40605723688668
 20
-744.89899783553813
 30
0.0000000000562575
 11
738.05605723688666
 21
-744.89899783553813
 31
0.0000000000562575
  0
LINE
  5
9F5F
  8
01
 10
766.40605723688668
 20
-748.19899783553808
 30
0.0000000000562575
 11
738.05605723688666
 21
-748.19899783553808
 31
0.0000000000562575
  0
LINE
  5
9F61
  8
01
 10
766.05605723688677
 20
-744.54899783553799
 30
0.0000000000562575
 11
766.05605723688677
 21
-748.54899783553799
 31
0.0000000000562575
  0
LINE
  5
9F62
  8
01
 10
736.70605724688664
 20
-743.5489978355381
 30
0.0000000000562575
 11
736.70605724688664
 21
-749.54899783553799
 31
0.0000000000562575
  0
LINE
  5
9F63
  8
01
 10
737.70605741096085
 20
-748.54899783553799
 30
0.0000000000562575
 11
738.05605723688666
 21
-748.19899783553808
 31
0.0000000000562575
  0
LINE
  5
9F64
  8
01
 10
738.05605723688666
 20
-744.89899783553813
 30
0.0000000000562575
 11
737.70605741096085
 21
-744.54899783553799
 31
0.0000000000562575
  0
TEXT
  5
9F67
  8
01
 10
459.82719209748888
 20
-679.82087174263631
 30
0.0
 40
3.5
  1
材質：真鍮
  0
TEXT
  5
9F68
  8
01
 10
459.82719209748888
 20
-685.65420507596968
 30
0.0
 40
3.5
  1
仕上げ：各種仕上げ
  0
TEXT
  5
9F6B
  8
01
 10
519.20613503398226
 20
-652.3434659684491
 30
0.0
 40
3.5
  1
材質：各種材質
  0
TEXT
  5
9F6C
  8
01
 10
519.20613503398226
 20
-658.17679930178258
 30
0.0
 40
3.5
  1
仕上げ：各種仕上げ
  0
LINE
  5
9F6D
  8
01
 10
634.27202821059495
 20
-769.15216636683328
 30
0.0
 11
664.89788490193291
 21
-769.15216636683328
 31
0.0
  0
LINE
  5
9F6E
  8
01
 10
633.17917268813551
 20
-719.15216657096107
 30
0.0
 11
664.89788490193303
 21
-719.15216657096107
 31
0.0
  0
LINE
  5
9F6F
  8
01
 10
663.89788490193303
 20
-767.15216636683317
 30
0.0
 11
663.89788490193303
 21
-721.15216657096119
 31
0.0
  0
LINE
  5
9F73
  8
01
 10
581.11312843461701
 20
-733.65216657096198
 30
0.0
 11
581.11312843461701
 21
-758.84564063021492
 31
0.0
  0
LINE
  5
9F74
  8
01
 10
589.35499658948697
 20
-719.15216657096175
 30
0.0
 11
589.35499658948697
 21
-758.84564063021492
 31
0.0
  0
LINE
  5
9F75
  8
01
 10
583.1131284346169
 20
-757.84564063021492
 30
0.0
 11
587.35499658948709
 21
-757.84564063021492
 31
0.0
  0
LINE
  5
9F79
  8
01
 10
581.11312843461701
 20
-733.65216657096198
 30
0.0
 11
581.11312843461701
 21
-749.80981046450972
 31
0.0
  0
LINE
  5
9F7A
  8
01
 10
587.41312843461708
 20
-733.15216657096198
 30
0.0
 11
587.41312843461708
 21
-749.80981046450972
 31
0.0
  0
LINE
  5
9F7B
  8
01
 10
583.1131284346169
 20
-748.80981046450961
 30
0.0
 11
585.41312843461719
 21
-748.80981046450961
 31
0.0
  0
LINE
  5
9F7F
  8
01
 10
537.35387410257863
 20
-733.65216657096209
 30
0.0
 11
537.35387410257863
 21
-758.84564063021492
 31
0.0
  0
LINE
  5
9F80
  8
01
 10
515.35384929156885
 20
-729.15217157095901
 30
0.0
 11
515.35384929156885
 21
-758.84564063021492
 31
0.0
  0
LINE
  5
9F81
  8
01
 10
535.35387410257852
 20
-757.84564063021492
 30
0.0
 11
517.35384929156885
 21
-757.84564063021492
 31
0.0
  0
LINE
  5
9F85
  8
01
 10
537.35387410257863
 20
-733.65216657096209
 30
0.0
 11
537.35387410257863
 21
-749.80981046450972
 31
0.0
  0
LINE
  5
9F86
  8
01
 10
531.05387410257845
 20
-733.15216657096209
 30
0.0
 11
531.05387410257845
 21
-749.80981046450972
 31
0.0
  0
LINE
  5
9F87
  8
01
 10
535.35387410257852
 20
-748.80981046450961
 30
0.0
 11
533.05387410257845
 21
-748.80981046450961
 31
0.0
  0
TEXT
  5
9F8D
  8
01
 10
550.22429610713084
 20
-671.06941785727167
 30
0.0
 40
3.5
  1
材質：ポリアセタール
  0
LINE
  5
9F8E
  8
01
 10
500.45035244792308
 20
-733.15216657096209
 30
0.0
 11
500.45035244792308
 21
-758.84564063021492
 31
0.0
  0
LINE
  5
9F8F
  8
01
 10
460.45035244792291
 20
-733.15216657096175
 30
0.0
 11
460.45035244792291
 21
-758.84564063021492
 31
0.0
  0
LINE
  5
9F90
  8
01
 10
498.45035244792308
 20
-757.84564063021492
 30
0.0
 11
462.45035244792291
 21
-757.84564063021492
 31
0.0
  0
LINE
  5
9F94
  8
01
 10
647.17917268813733
 20
-733.15216657096153
 30
0.0
 11
647.17917268813733
 21
-758.84564063021435
 31
0.0
  0
LINE
  5
9F95
  8
01
 10
607.1791726881371
 20
-733.1521665709613
 30
0.0
 11
607.1791726881371
 21
-758.84564063021435
 31
0.0
  0
LINE
  5
9F96
  8
01
 10
645.17917268813733
 20
-757.84564063021435
 30
0.0
 11
609.17917268813699
 21
-757.84564063021435
 31
0.0
  0
TEXT
  5
9F9A
  8
01
 10
621.76250602147047
 20
-757.1456406302143
 30
0.0
 40
3.5
  1
□40
  0
LINE
  5
9F9B
  8
01
  6
BYBLOCK
 10
609.17917268813699
 20
-758.38153901021428
 30
0.0
 11
607.1791726881371
 21
-757.84564063021435
 31
0.0
  0
LINE
  5
9F9C
  8
01
  6
BYBLOCK
 10
607.1791726881371
 20
-757.84564063021435
 30
0.0
 11
609.17917268813699
 21
-757.3097422502143
 31
0.0
  0
LINE
  5
9F9D
  8
01
  6
BYBLOCK
 10
607.1791726881371
 20
-757.84564063021435
 30
0.0
 11
609.17917268813699
 21
-757.84564063021435
 31
0.0
  0
LINE
  5
9F9E
  8
01
  6
BYBLOCK
 10
645.17917268813733
 20
-757.3097422502143
 30
0.0
 11
647.17917268813733
 21
-757.84564063021435
 31
0.0
  0
LINE
  5
9F9F
  8
01
  6
BYBLOCK
 10
647.17917268813733
 20
-757.84564063021435
 30
0.0
 11
645.17917268813733
 21
-758.38153901021428
 31
0.0
  0
LINE
  5
9FA0
  8
01
  6
BYBLOCK
 10
647.17917268813733
 20
-757.84564063021435
 30
0.0
 11
645.17917268813733
 21
-757.84564063021435
 31
0.0
  0
TEXT
  5
9FA1
  8
01
 10
475.03368578125628
 20
-757.14564063021476
 30
0.0
 40
3.5
  1
□40
  0
LINE
  5
9FA2
  8
01
  6
BYBLOCK
 10
462.45035244792291
 20
-758.38153901021496
 30
0.0
 11
460.45035244792291
 21
-757.84564063021492
 31
0.0
  0
LINE
  5
9FA3
  8
01
  6
BYBLOCK
 10
460.45035244792291
 20
-757.84564063021492
 30
0.0
 11
462.45035244792291
 21
-757.30974225021475
 31
0.0
  0
LINE
  5
9FA4
  8
01
  6
BYBLOCK
 10
460.45035244792291
 20
-757.84564063021492
 30
0.0
 11
462.45035244792291
 21
-757.84564063021492
 31
0.0
  0
LINE
  5
9FA5
  8
01
  6
BYBLOCK
 10
498.45035244792308
 20
-757.30974225021475
 30
0.0
 11
500.45035244792308
 21
-757.84564063021492
 31
0.0
  0
LINE
  5
9FA6
  8
01
  6
BYBLOCK
 10
500.45035244792308
 20
-757.84564063021492
 30
0.0
 11
498.45035244792308
 21
-758.38153901021496
 31
0.0
  0
LINE
  5
9FA7
  8
01
  6
BYBLOCK
 10
500.45035244792308
 20
-757.84564063021492
 30
0.0
 11
498.45035244792308
 21
-757.84564063021492
 31
0.0
  0
LINE
  5
9FA8
  8
01
 10
540.89398938312581
 20
-701.41031910737968
 30
0.0
 11
546.71429610713085
 21
-671.97941785727176
 31
0.0
1001
ACAD
1000
DSTYLE
1002
{
1070
    40
1040
1.3
1002
}
  0
LINE
  5
9FA9
  8
01
 10
546.71429610713085
 20
-671.97941785727176
 30
0.0
 11
591.29096277379745
 21
-671.97941785727176
 31
0.0
1001
ACAD
1000
DSTYLE
1002
{
1070
    40
1040
1.3
1002
}
  0
LINE
  5
9FAA
  8
01
  6
BYBLOCK
 10
541.57742104441115
 20
-701.54547575310289
 30
0.0
 11
540.38957790972961
 21
-703.96092081393954
 31
0.0
  0
LINE
  5
9FAB
  8
01
  6
BYBLOCK
 10
540.38957790972961
 20
-703.96092081393954
 30
0.0
 11
540.21055772184059
 21
-701.27516246165635
 31
0.0
  0
LINE
  5
9FAC
  8
01
  6
BYBLOCK
 10
540.38957790972961
 20
-703.96092081393954
 30
0.0
 11
540.89398938312581
 21
-701.41031910737968
 31
0.0
  0
TEXT
  5
9FAD
  8
01
 10
532.45387410257854
 20
-748.10981046450968
 30
0.0
 40
3.5
  1
6
  0
LINE
  5
9FAE
  8
01
  6
BYBLOCK
 10
533.05387410257845
 20
-749.34570884450966
 30
0.0
 11
531.05387410257845
 21
-748.80981046450961
 31
0.0
  0
LINE
  5
9FAF
  8
01
  6
BYBLOCK
 10
531.05387410257845
 20
-748.80981046450961
 30
0.0
 11
533.05387410257845
 21
-748.27391208450967
 31
0.0
  0
LINE
  5
9FB0
  8
01
  6
BYBLOCK
 10
531.05387410257845
 20
-748.80981046450961
 30
0.0
 11
533.05387410257845
 21
-748.80981046450961
 31
0.0
  0
LINE
  5
9FB1
  8
01
  6
BYBLOCK
 10
535.35387410257852
 20
-748.27391208450967
 30
0.0
 11
537.35387410257863
 21
-748.80981046450961
 31
0.0
  0
LINE
  5
9FB2
  8
01
  6
BYBLOCK
 10
537.35387410257863
 20
-748.80981046450961
 30
0.0
 11
535.35387410257852
 21
-749.34570884450966
 31
0.0
  0
LINE
  5
9FB3
  8
01
  6
BYBLOCK
 10
537.35387410257863
 20
-748.80981046450961
 30
0.0
 11
535.35387410257852
 21
-748.80981046450961
 31
0.0
  0
TEXT
  5
9FB4
  8
01
 10
523.02052836374037
 20
-757.14564063021476
 30
0.0
 40
3.5
  1
22
  0
LINE
  5
9FB5
  8
01
  6
BYBLOCK
 10
517.35384929156885
 20
-758.38153901021496
 30
0.0
 11
515.35384929156885
 21
-757.84564063021492
 31
0.0
  0
LINE
  5
9FB6
  8
01
  6
BYBLOCK
 10
515.35384929156885
 20
-757.84564063021492
 30
0.0
 11
517.35384929156885
 21
-757.30974225021475
 31
0.0
  0
LINE
  5
9FB7
  8
01
  6
BYBLOCK
 10
515.35384929156885
 20
-757.84564063021492
 30
0.0
 11
517.35384929156885
 21
-757.84564063021492
 31
0.0
  0
LINE
  5
9FB8
  8
01
  6
BYBLOCK
 10
535.35387410257852
 20
-757.30974225021475
 30
0.0
 11
537.35387410257863
 21
-757.84564063021492
 31
0.0
  0
LINE
  5
9FB9
  8
01
  6
BYBLOCK
 10
537.35387410257863
 20
-757.84564063021492
 30
0.0
 11
535.35387410257852
 21
-758.38153901021496
 31
0.0
  0
LINE
  5
9FBA
  8
01
  6
BYBLOCK
 10
537.35387410257863
 20
-757.84564063021492
 30
0.0
 11
535.35387410257852
 21
-757.84564063021492
 31
0.0
  0
TEXT
  5
9FBB
  8
01
 10
582.5131284346171
 20
-748.10981046450968
 30
0.0
 40
3.5
  1
6
  0
LINE
  5
9FBC
  8
01
  6
BYBLOCK
 10
585.41312843461719
 20
-748.27391208450967
 30
0.0
 11
587.41312843461708
 21
-748.80981046450961
 31
0.0
  0
LINE
  5
9FBD
  8
01
  6
BYBLOCK
 10
587.41312843461708
 20
-748.80981046450961
 30
0.0
 11
585.41312843461719
 21
-749.34570884450966
 31
0.0
  0
LINE
  5
9FBE
  8
01
  6
BYBLOCK
 10
587.41312843461708
 20
-748.80981046450961
 30
0.0
 11
585.41312843461719
 21
-748.80981046450961
 31
0.0
  0
LINE
  5
9FBF
  8
01
  6
BYBLOCK
 10
583.1131284346169
 20
-749.34570884450966
 30
0.0
 11
581.11312843461701
 21
-748.80981046450961
 31
0.0
  0
LINE
  5
9FC0
  8
01
  6
BYBLOCK
 10
581.11312843461701
 20
-748.80981046450961
 30
0.0
 11
583.1131284346169
 21
-748.27391208450967
 31
0.0
  0
LINE
  5
9FC1
  8
01
  6
BYBLOCK
 10
581.11312843461701
 20
-748.80981046450961
 30
0.0
 11
583.1131284346169
 21
-748.80981046450961
 31
0.0
  0
TEXT
  5
9FC2
  8
01
 10
583.56739584538536
 20
-757.14564063021476
 30
0.0
 40
3.5
  1
8
  0
LINE
  5
9FC3
  8
01
  6
BYBLOCK
 10
587.35499658948709
 20
-757.30974225021475
 30
0.0
 11
589.35499658948697
 21
-757.84564063021492
 31
0.0
  0
LINE
  5
9FC4
  8
01
  6
BYBLOCK
 10
589.35499658948697
 20
-757.84564063021492
 30
0.0
 11
587.35499658948709
 21
-758.38153901021496
 31
0.0
  0
LINE
  5
9FC5
  8
01
  6
BYBLOCK
 10
589.35499658948697
 20
-757.84564063021492
 30
0.0
 11
587.35499658948709
 21
-757.84564063021492
 31
0.0
  0
LINE
  5
9FC6
  8
01
  6
BYBLOCK
 10
583.1131284346169
 20
-758.38153901021496
 30
0.0
 11
581.11312843461701
 21
-757.84564063021492
 31
0.0
  0
LINE
  5
9FC7
  8
01
  6
BYBLOCK
 10
581.11312843461701
 20
-757.84564063021492
 30
0.0
 11
583.1131284346169
 21
-757.30974225021475
 31
0.0
  0
LINE
  5
9FC8
  8
01
  6
BYBLOCK
 10
581.11312843461701
 20
-757.84564063021492
 30
0.0
 11
583.1131284346169
 21
-757.84564063021492
 31
0.0
  0
TEXT
  5
9FC9
  8
01
 10
663.19788490193309
 20
-764.65682674425602
 30
0.0
 40
3.5
  1
ハンドル取付位置=50
 50
90.0
  0
LINE
  5
9FCA
  8
01
  6
BYBLOCK
 10
663.36198652193298
 20
-721.15216657096119
 30
0.0
 11
663.89788490193303
 21
-719.15216657096107
 31
0.0
  0
LINE
  5
9FCB
  8
01
  6
BYBLOCK
 10
663.89788490193303
 20
-719.15216657096107
 30
0.0
 11
664.43378328193296
 21
-721.15216657096119
 31
0.0
  0
LINE
  5
9FCC
  8
01
  6
BYBLOCK
 10
663.89788490193303
 20
-719.15216657096107
 30
0.0
 11
663.89788490193303
 21
-721.15216657096119
 31
0.0
  0
LINE
  5
9FCD
  8
01
  6
BYBLOCK
 10
664.43378328193296
 20
-767.15216636683317
 30
0.0
 11
663.89788490193291
 21
-769.15216636683328
 31
0.0
  0
LINE
  5
9FCE
  8
01
  6
BYBLOCK
 10
663.89788490193291
 20
-769.15216636683328
 30
0.0
 11
663.36198652193275
 21
-767.15216636683317
 31
0.0
  0
LINE
  5
9FCF
  8
01
  6
BYBLOCK
 10
663.89788490193291
 20
-769.15216636683328
 30
0.0
 11
663.89788490193291
 21
-767.15216636683317
 31
0.0
  0
LINE
  5
9FD0
  8
01
 10
527.17351328135817
 20
-708.1528401508923
 30
0.0
 11
516.50613503398233
 21
-658.87679930178263
 31
0.0
  0
LINE
  5
9FD1
  8
01
 10
516.50613503398233
 20
-658.87679930178263
 30
0.0
 11
556.07280170064905
 21
-658.87679930178263
 31
0.0
  0
LINE
  5
9FD2
  8
01
  6
BYBLOCK
 10
527.69727917225157
 20
-708.03945423808443
 30
0.0
 11
527.59667527265913
 21
-710.10756108471332
 31
0.0
  0
LINE
  5
9FD3
  8
01
  6
BYBLOCK
 10
527.59667527265913
 20
-710.10756108471332
 30
0.0
 11
526.64974739046488
 21
-708.26622606370006
 31
0.0
  0
LINE
  5
9FD4
  8
01
  6
BYBLOCK
 10
527.59667527265913
 20
-710.10756108471332
 30
0.0
 11
527.17351328135817
 21
-708.1528401508923
 31
0.0
  0
LINE
  5
9FD5
  8
01
 10
489.28639866627049
 20
-701.59928331306139
 30
0.0
 11
499.3938587641556
 21
-686.35420507596973
 31
0.0
  0
LINE
  5
9FD6
  8
01
 10
499.3938587641556
 20
-686.35420507596973
 30
0.0
 11
459.82719209748888
 21
-686.35420507596973
 31
0.0
  0
LINE
  5
9FD7
  8
01
  6
BYBLOCK
 10
489.73304785810399
 20
-701.89541094284471
 30
0.0
 11
488.18123529636722
 21
-703.26620080526777
 31
0.0
  0
LINE
  5
9FD8
  8
01
  6
BYBLOCK
 10
488.18123529636722
 20
-703.26620080526777
 30
0.0
 11
488.83974947443699
 21
-701.30315568327819
 31
0.0
  0
LINE
  5
9FD9
  8
01
  6
BYBLOCK
 10
488.18123529636722
 20
-703.26620080526777
 30
0.0
 11
489.28639866627049
 21
-701.59928331306139
 31
0.0
  0
LINE
  5
9FDA
  8
01
 10
766.05605723688677
 20
-748.54899783553799
 30
0.0000000000562575
 11
737.70605741096085
 21
-748.54899783553799
 31
0.0000000000562575
  0
LINE
  5
9FDB
  8
01
 10
766.40605723688668
 20
-748.19899783553785
 30
0.0000000000562575
 11
766.05605723688677
 21
-748.54899783553799
 31
0.0000000000562575
  0
LINE
  5
9FDC
  8
01
 10
737.70605741096085
 20
-748.54899783553799
 30
0.0000000000562575
 11
736.70605733688683
 21
-749.54899783553799
 31
0.0000000000562575
  0
LINE
  5
9FDD
  8
01
 10
766.40605723688668
 20
-744.89899783553813
 30
0.0000000000562575
 11
766.40605723688668
 21
-748.19899783553785
 31
0.0000000000562575
  0
LINE
  5
9FDE
  8
01
 10
736.70605733688683
 20
-749.54899783553799
 30
0.0000000000562575
 11
736.4060572368868
 21
-749.54899783553799
 31
0.0000000000562575
  0
LINE
  5
9FDF
  8
01
 10
766.05605723688677
 20
-744.54899783553799
 30
0.0000000000562575
 11
766.40605723688668
 21
-744.89899783553813
 31
0.0000000000562575
  0
LINE
  5
9FE0
  8
01
 10
736.4060572368868
 20
-743.5489978355381
 30
0.0000000000562575
 11
736.4060572368868
 21
-749.54899783553799
 31
0.0000000000562575
  0
LINE
  5
9FE1
  8
01
 10
766.05605723688677
 20
-744.54899783553799
 30
0.0000000000562575
 11
737.70605741096085
 21
-744.54899783553799
 31
0.0000000000562575
  0
LINE
  5
9FE2
  8
01
 10
736.70605724688664
 20
-743.5489978355381
 30
0.0000000000562575
 11
736.4060572368868
 21
-743.5489978355381
 31
0.0000000000562575
  0
LINE
  5
9FE3
  8
01
 10
737.70605741096085
 20
-744.54899783553799
 30
0.0000000000562575
 11
736.70605724688664
 21
-743.5489978355381
 31
0.0000000000562575
  0
LINE
  5
9FE4
  8
01
 10
766.05605723688677
 20
-739.5489978355381
 30
0.0000000000562575
 11
737.70605741096085
 21
-739.5489978355381
 31
0.0000000000562575
  0
LINE
  5
9FE5
  8
01
 10
766.40605723688668
 20
-739.19899783553785
 30
0.0000000000562575
 11
766.05605723688677
 21
-739.5489978355381
 31
0.0000000000562575
  0
LINE
  5
9FE6
  8
01
 10
737.70605741096085
 20
-739.5489978355381
 30
0.0000000000562575
 11
736.70605733688683
 21
-740.54899783553799
 31
0.0000000000562575
  0
LINE
  5
9FE7
  8
01
 10
766.40605723688668
 20
-735.89899783553813
 30
0.0000000000562575
 11
766.40605723688668
 21
-739.19899783553785
 31
0.0000000000562575
  0
LINE
  5
9FE8
  8
01
 10
736.70605733688683
 20
-740.54899783553799
 30
0.0000000000562575
 11
736.4060572368868
 21
-740.54899783553799
 31
0.0000000000562575
  0
LINE
  5
9FE9
  8
01
 10
766.05605723688677
 20
-735.5489978355381
 30
0.0000000000562575
 11
766.40605723688668
 21
-735.89899783553813
 31
0.0000000000562575
  0
LINE
  5
9FEA
  8
01
 10
736.4060572368868
 20
-734.5489978355381
 30
0.0000000000562575
 11
736.4060572368868
 21
-740.54899783553799
 31
0.0000000000562575
  0
LINE
  5
9FEB
  8
01
 10
766.05605723688677
 20
-735.5489978355381
 30
0.0000000000562575
 11
737.70605741096085
 21
-735.5489978355381
 31
0.0000000000562575
  0
LINE
  5
9FEC
  8
01
 10
736.70605724688664
 20
-734.5489978355381
 30
0.0000000000562575
 11
736.4060572368868
 21
-734.5489978355381
 31
0.0000000000562575
  0
LINE
  5
9FED
  8
01
 10
737.70605741096085
 20
-735.5489978355381
 30
0.0000000000562575
 11
736.70605724688664
 21
-734.5489978355381
 31
0.0000000000562575
  0
TEXT
  5
9FEE
  8
01
 10
748.07272390355342
 20
-730.72780064353833
 30
0.0000000000562575
 40
3.5
  1
30
  0
LINE
  5
9FEF
  8
01
  6
BYBLOCK
 10
764.4060572368868
 20
-730.89190226353833
 30
0.0000000000562575
 11
766.40605723688668
 21
-731.42780064353826
 31
0.0000000000562575
  0
LINE
  5
9FF0
  8
01
  6
BYBLOCK
 10
766.40605723688668
 20
-731.42780064353826
 30
0.0000000000562575
 11
764.4060572368868
 21
-731.96369902353842
 31
0.0000000000562575
  0
LINE
  5
9FF1
  8
01
  6
BYBLOCK
 10
766.40605723688668
 20
-731.42780064353826
 30
0.0000000000562575
 11
764.4060572368868
 21
-731.42780064353826
 31
0.0000000000562575
  0
LINE
  5
9FF2
  8
01
  6
BYBLOCK
 10
738.40605723688668
 20
-731.96369902353842
 30
0.0000000000562575
 11
736.4060572368868
 21
-731.42780064353826
 31
0.0000000000562575
  0
LINE
  5
9FF3
  8
01
  6
BYBLOCK
 10
736.4060572368868
 20
-731.42780064353826
 30
0.0000000000562575
 11
738.40605723688668
 21
-730.89190226353833
 31
0.0000000000562575
  0
LINE
  5
9FF4
  8
01
  6
BYBLOCK
 10
736.4060572368868
 20
-731.42780064353826
 30
0.0000000000562575
 11
738.40605723688668
 21
-731.42780064353826
 31
0.0000000000562575
  0
LINE
  5
9FF5
  8
01
 10
735.61867838072578
 20
-735.72686188399393
 30
0.0
 11
732.05056717455591
 21
-726.79989853354755
 31
0.0
  0
LINE
  5
9FF6
  8
01
 10
732.05056717455591
 20
-726.79989853354755
 30
0.0
 11
729.35056717455575
 21
-726.79989853354755
 31
0.0
  0
LINE
  5
9FF7
  8
01
  6
BYBLOCK
 10
736.1162989206091
 20
-735.52796273373713
 30
0.0000000000562575
 11
736.36098012180162
 21
-737.58400703857808
 31
0.0000000000562575
  0
LINE
  5
9FF8
  8
01
  6
BYBLOCK
 10
736.36098012180162
 20
-737.58400703857808
 30
0.0000000000562575
 11
735.12105784084258
 21
-735.92576103425074
 31
0.0000000000562575
  0
LINE
  5
9FF9
  8
01
  6
BYBLOCK
 10
736.36098012180162
 20
-737.58400703857808
 30
0.0000000000562575
 11
735.61867838072578
 21
-735.72686188399393
 31
0.0000000000562575
  0
LINE
  5
9FFA
  8
01
 10
568.90100785036452
 20
-724.82010989299658
 30
0.0
 11
563.78559780091052
 21
-773.65596916340132
 31
0.0
1001
ACAD
1000
DSTYLE
1002
{
1070
    40
1040
1.3
1070
   271
1070
     1
1002
}
  0
LINE
  5
9FFB
  8
01
 10
563.78559780091052
 20
-773.65596916340132
 30
0.0
 11
560.27559780091053
 21
-773.65596916340132
 31
0.0
1001
ACAD
1000
DSTYLE
1002
{
1070
    40
1040
1.3
1070
   271
1070
     1
1002
}
  0
LINE
  5
9FFC
  8
01
  6
BYBLOCK
 10
568.20813068850509
 20
-724.74753308468883
 30
0.0
 11
569.17186818887774
 21
-722.23425709807179
 31
0.0
  0
LINE
  5
9FFD
  8
01
  6
BYBLOCK
 10
569.17186818887774
 20
-722.23425709807179
 30
0.0
 11
569.59388501222384
 21
-724.89268670130434
 31
0.0
  0
LINE
  5
9FFE
  8
01
  6
BYBLOCK
 10
569.17186818887774
 20
-722.23425709807179
 30
0.0
 11
568.90100785036452
 21
-724.82010989299658
 31
0.0
  0
VIEWPORT
  5
20C3
 67
     1
  8
0
  6
CONTINUOUS
 10
-3.7645543439106741
 20
10.089000620492961
 30
0.0
 40
584.09820560556705
 41
268.5585588808255
 68
     1
 69
     1
1001
ACAD
1000
MVIEW
1002
{
1070
    16
1010
0.0
1020
0.0
1030
0.0
1010
0.0
1020
0.0
1030
1.0
1040
0.0
1040
268.5585588808255
1040
-3.7645543439106741
1040
10.089000620492961
1040
50.0
1040
0.0
1040
0.0
1070
     0
1070
   100
1070
     1
1070
     1
1070
     0
1070
     0
1070
     0
1070
     0
1040
0.0
1040
0.0
1040
0.0
1040
1.0
1040
1.0
1040
0.0
1040
0.0
1070
     0
1002
{
1002
}
1002
}
  0
ENDSEC
  0
EOF
