  0
SECTION
  2
HEADER
  9
$ACADVER
  1
AC1009
  9
$INSBASE
 10
0.0
 20
0.0
 30
0.0
  9
$EXTMIN
 10
460.44252789255631
 20
-763.42160869324107
 30
-0.00000000000091
  9
$EXTMAX
 10
796.92782847709407
 20
-590.33521353920287
 30
0.0000000000562575
  9
$LIMMIN
 10
0.0
 20
0.0
  9
$LIMMAX
 10
12.0
 20
9.0
  9
$ORTHOMODE
 70
     0
  9
$REGENMODE
 70
     1
  9
$FILLMODE
 70
     1
  9
$QTEXTMODE
 70
     0
  9
$MIRRTEXT
 70
     0
  9
$DRAGMODE
 70
     2
  9
$LTSCALE
 40
0.5
  9
$OSMODE
 70
    63
  9
$ATTMODE
 70
     1
  9
$TEXTSIZE
 40
4.0
  9
$TRACEWID
 40
0.05
  9
$TEXTSTYLE
  7
STANDARD
  9
$CLAYER
  8
1TEXT
  9
$CELTYPE
  6
BYLAYER
  9
$CECOLOR
 62
   256
  9
$DIMSCALE
 40
1.0
  9
$DIMASZ
 40
2.0
  9
$DIMEXO
 40
0.0
  9
$DIMDLI
 40
7.0
  9
$DIMRND
 40
0.0
  9
$DIMDLE
 40
0.0
  9
$DIMEXE
 40
1.0
  9
$DIMTP
 40
0.0
  9
$DIMTM
 40
0.0
  9
$DIMTXT
 40
3.5
  9
$DIMCEN
 40
0.0
  9
$DIMTSZ
 40
0.0
  9
$DIMTOL
 70
     0
  9
$DIMLIM
 70
     0
  9
$DIMTIH
 70
     0
  9
$DIMTOH
 70
     0
  9
$DIMSE1
 70
     0
  9
$DIMSE2
 70
     0
  9
$DIMTAD
 70
     1
  9
$DIMZIN
 70
     8
  9
$DIMBLK
  1

  9
$DIMASO
 70
     1
  9
$DIMSHO
 70
     1
  9
$DIMPOST
  1
 
  9
$DIMAPOST
  1

  9
$DIMALT
 70
     0
  9
$DIMALTD
 70
     2
  9
$DIMALTF
 40
25.399999999999999
  9
$DIMLFAC
 40
1.0
  9
$DIMTOFL
 70
     1
  9
$DIMTVP
 40
0.0
  9
$DIMTIX
 70
     0
  9
$DIMSOXD
 70
     0
  9
$DIMSAH
 70
     1
  9
$DIMBLK1
  1
OPEN30
  9
$DIMBLK2
  1
OPEN30
  9
$DIMSTYLE
  2
NEWX10
  9
$DIMCLRD
 70
   256
  9
$DIMCLRE
 70
   256
  9
$DIMCLRT
 70
   201
  9
$DIMTFAC
 40
0.7
  9
$DIMGAP
 40
0.7
  9
$LUNITS
 70
     2
  9
$LUPREC
 70
     4
  9
$SKETCHINC
 40
0.1
  9
$FILLETRAD
 40
0.0
  9
$AUNITS
 70
     0
  9
$AUPREC
 70
     2
  9
$MENU
  1
acad
  9
$ELEVATION
 40
0.0
  9
$PELEVATION
 40
0.0
  9
$THICKNESS
 40
0.0
  9
$LIMCHECK
 70
     0
  9
$BLIPMODE
 70
     0
  9
$CHAMFERA
 40
0.0
  9
$CHAMFERB
 40
0.0
  9
$SKPOLY
 70
     0
  9
$TDCREATE
 40
2451024.579593021
  9
$TDUPDATE
 40
2457014.6580054509
  9
$TDINDWG
 40
1.0362122454
  9
$TDUSRTIMER
 40
1.0362122454
  9
$USRTIMER
 70
     1
  9
$ANGBASE
 50
0.0
  9
$ANGDIR
 70
     0
  9
$PDMODE
 70
     0
  9
$PDSIZE
 40
0.0
  9
$PLINEWID
 40
0.0
  9
$COORDS
 70
     0
  9
$SPLFRAME
 70
     0
  9
$SPLINETYPE
 70
     6
  9
$SPLINESEGS
 70
     8
  9
$ATTDIA
 70
     0
  9
$ATTREQ
 70
     1
  9
$HANDLING
 70
     1
  9
$HANDSEED
  5
A1CB
  9
$SURFTAB1
 70
     6
  9
$SURFTAB2
 70
     6
  9
$SURFTYPE
 70
     6
  9
$SURFU
 70
     6
  9
$SURFV
 70
     6
  9
$UCSNAME
  2

  9
$UCSORG
 10
0.0
 20
0.0
 30
0.0
  9
$UCSXDIR
 10
1.0
 20
0.0
 30
0.0
  9
$UCSYDIR
 10
0.0
 20
1.0
 30
0.0
  9
$PUCSNAME
  2

  9
$PUCSORG
 10
0.0
 20
0.0
 30
0.0
  9
$PUCSXDIR
 10
1.0
 20
0.0
 30
0.0
  9
$PUCSYDIR
 10
0.0
 20
1.0
 30
0.0
  9
$USERI1
 70
     0
  9
$USERI2
 70
     0
  9
$USERI3
 70
     0
  9
$USERI4
 70
     0
  9
$USERI5
 70
     0
  9
$USERR1
 40
0.0
  9
$USERR2
 40
0.0
  9
$USERR3
 40
0.0
  9
$USERR4
 40
0.0
  9
$USERR5
 40
0.0
  9
$WORLDVIEW
 70
     1
  9
$SHADEDGE
 70
     3
  9
$SHADEDIF
 70
    70
  9
$TILEMODE
 70
     1
  9
$MAXACTVP
 70
    48
  9
$PLIMCHECK
 70
     0
  9
$PEXTMIN
 10
1.0000000000000000E+020
 20
1.0000000000000000E+020
 30
1.0000000000000000E+020
  9
$PEXTMAX
 10
-1.0000000000000000E+020
 20
-1.0000000000000000E+020
 30
-1.0000000000000000E+020
  9
$PLIMMIN
 10
0.0
 20
0.0
  9
$PLIMMAX
 10
12.0
 20
9.0
  9
$UNITMODE
 70
     0
  9
$VISRETAIN
 70
     1
  9
$PLINEGEN
 70
     0
  9
$PSLTSCALE
 70
     1
  0
ENDSEC
  0
SECTION
  2
TABLES
  0
TABLE
  2
VPORT
 70
     1
  0
VPORT
  2
*ACTIVE
 70
     0
 10
0.0
 20
0.0
 11
1.0
 21
1.0
 12
628.68602501443581
 22
-676.87540557382522
 13
0.0
 23
0.0
 14
1.0
 24
1.0
 15
0.0
 25
0.0
 16
0.0
 26
0.0
 36
1.0
 17
0.0
 27
0.0
 37
0.0
 40
183.60718989131931
 41
2.1749379652605461
 42
50.0
 43
0.0
 44
0.0
 50
0.0
 51
0.0
 71
     0
 72
  1000
 73
     1
 74
     1
 75
     0
 76
     0
 77
     0
 78
     0
  0
ENDTAB
  0
TABLE
  2
LTYPE
 70
    12
  0
LTYPE
  2
CONTINUOUS
 70
     0
  3
Solid line
 72
    65
 73
     0
 40
0.0
  0
LTYPE
  2
XREF1|CENTER2
 70
    48
  3
Center (.5x) ___ _ ___ _ ___ _ ___ _ ___ _ ___
 72
    65
 73
     4
 40
28.574999999999999
 49
19.050000000000001
 49
-3.1749999999999989
 49
3.1749999999999989
 49
-3.1749999999999989
  0
LTYPE
  2
A3WAKUDAKE|CENTER2
 70
    48
  3
Center (.5x) ___ _ ___ _ ___ _ ___ _ ___ _ ___
 72
    65
 73
     4
 40
28.574999999999999
 49
19.050000000000001
 49
-3.1749999999999989
 49
3.1749999999999989
 49
-3.1749999999999989
  0
ENDTAB
  0
TABLE
  2
LAYER
 70
    38
  0
LAYER
  2
0
 70
     0
 62
     7
  6
CONTINUOUS
  0
LAYER
  2
1TEXT
 70
     0
 62
     7
  6
CONTINUOUS
  0
LAYER
  2
A3WAKUDAKE|THICK
 70
    48
 62
     7
  6
CONTINUOUS
  0
LAYER
  2
A3WAKUDAKE|POINT
 70
    48
 62
     7
  6
CONTINUOUS
  0
LAYER
  2
A3WAKUDAKE|1CENTER
 70
    48
 62
     7
  6
A3WAKUDAKE|CENTER2
  0
LAYER
  2
A3WAKUDAKE|0-6
 70
    48
 62
     7
  6
CONTINUOUS
  0
LAYER
  2
01
 70
     0
 62
     1
  6
CONTINUOUS
  0
LAYER
  2
A3WAKUDAKE|1DIM
 70
    48
 62
     7
  6
CONTINUOUS
  0
LAYER
  2
XREF1|1CENTER
 70
    48
 62
     7
  6
XREF1|CENTER2
  0
ENDTAB
  0
TABLE
  2
STYLE
 70
     5
  0
STYLE
  2
STANDARD
 70
     0
 40
0.0
 41
1.0
 50
0.0
 71
     0
 42
4.0
  3
romans.shx
  4
extfont2.shx
  0
ENDTAB
  0
TABLE
  2
VIEW
 70
     6
  0
VIEW
  2
A
 70
     0
 40
163.88865421183439
 10
23.75874513620715
 20
-310.52391195898861
 41
232.0683926202114
 11
0.0
 21
0.0
 31
1.0
 12
0.0
 22
0.0
 32
0.0
 42
50.0
 43
0.0
 44
0.0
 50
0.0
 71
     0
  0
ENDTAB
  0
TABLE
  2
UCS
 70
     0
  0
ENDTAB
  0
TABLE
  2
APPID
 70
    12
  0
APPID
  2
ACAD
 70
     0
  0
APPID
  2
CONTENTBLOCKICON
 70
     0
  0
APPID
  2
CONTENTBLOCKDESCRIPTION
 70
     0
  0
APPID
  2
CONTENTTABDATA
 70
     0
  0
APPID
  2
CONTENTCURRENTTAB
 70
     0
  0
APPID
  2
DRAWINGVARIABLESXDATA
 70
     0
  0
APPID
  2
CONTENTLONGBLOCKNAME
 70
     0
  0
APPID
  2
ACAD_DSTYLE_DIMTEXT_FILL
 70
     0
  0
APPID
  2
ACAD_PSEXT
 70
     0
  0
APPID
  2
ACAD_MLEADERVER
 70
     0
  0
APPID
  2
ACAD_NAV_VCDISPLAY
 70
     0
  0
APPID
  2
ACAD_EXEMPT_FROM_CAD_STANDARDS
 70
     0
  0
ENDTAB
  0
TABLE
  2
DIMSTYLE
 70
     5
  0
DIMSTYLE
  2
NEWX10
 70
     0
  3
 
  4

  5

  6
OPEN30
  7
OPEN30
 40
1.0
 41
2.0
 42
0.0
 43
7.0
 44
1.0
 45
0.0
 46
0.0
 47
0.0
 48
0.0
140
3.5
141
0.0
142
0.0
143
25.399999999999999
144
1.0
145
0.0
146
0.7
147
0.7
 71
     0
 72
     0
 73
     0
 74
     0
 75
     0
 76
     0
 77
     1
 78
     8
170
     0
171
     2
172
     1
173
     1
174
     0
175
     0
176
   256
177
   256
178
   201
  0
ENDTAB
  0
ENDSEC
  0
SECTION
  2
BLOCKS
  0
BLOCK
  8
0
  2
$MODEL_SPACE
 70
     0
 10
0.0
 20
0.0
 30
0.0
  3
$MODEL_SPACE
  1

  0
ENDBLK
  5
1A
  8
0
  0
BLOCK
 67
     1
  8
0
  2
$PAPER_SPACE
 70
     0
 10
0.0
 20
0.0
 30
0.0
  3
$PAPER_SPACE
  1

  0
ENDBLK
  5
17
 67
     1
  8
0
  0
BLOCK
  8
0
  2
XREF1
 70
    36
 10
0.0
 20
0.0
 30
0.0
  3
XREF1
  1
D:\ACLT\FORMAT\KAWAJUN(9)図面用.dwg
  0
ENDBLK
  5
37B8
  8
0
  0
BLOCK
  8
0
  2
_OPEN30
 70
     0
 10
0.0
 20
0.0
 30
0.0
  3
_OPEN30
  1

  0
LINE
  5
3854
  8
0
  6
BYBLOCK
 62
     0
 10
-1.0
 20
0.26794919
 30
0.0
 11
0.0
 21
0.0
 31
0.0
  0
LINE
  5
3855
  8
0
  6
BYBLOCK
 62
     0
 10
0.0
 20
0.0
 30
0.0
 11
-1.0
 21
-0.26794919
 31
0.0
  0
LINE
  5
3856
  8
0
  6
BYBLOCK
 62
     0
 10
0.0
 20
0.0
 30
0.0
 11
-1.0
 21
0.0
 31
0.0
  0
ENDBLK
  5
3858
  8
0
  0
BLOCK
  8
0
  2
A3WAKUDAKE
 70
    36
 10
0.0
 20
0.0
 30
0.0
  3
A3WAKUDAKE
  1
D:\ACLT\FORMAT\A3WAKUdake.dwg
  0
ENDBLK
  5
5533
  8
0
  0
ENDSEC
  0
SECTION
  2
ENTITIES
  0
TEXT
  5
8FBC
  8
01
 10
461.41806801405528
 20
-607.07421010467374
 30
0.0
 40
8.0
  1
KLW-3D-X
  0
LINE
  5
9123
  8
01
 10
627.17134845523242
 20
-749.23589829324203
 30
0.0
 11
627.17134845523265
 21
-763.42160869324107
 31
0.0
  0
LINE
  5
9124
  8
01
 10
620.07849325523296
 20
-756.32875349324172
 30
0.0
 11
634.264203655232
 21
-756.32875349324138
 31
0.0
  0
LINE
  5
9941
  8
01
 10
556.80493792453535
 20
-709.1571956973703
 30
0.0000000000001125
 11
556.30493792453535
 21
-709.65718131616632
 31
-0.0000000000007976
  0
LINE
  5
9942
  8
01
 10
480.44252789255762
 20
-620.64414158348632
 30
0.0
 11
480.44252789255762
 21
-615.14414158348632
 31
0.0000000000009273
  0
LINE
  5
9943
  8
01
 10
491.44253289255028
 20
-637.34413825028855
 30
0.0000000000000173
 11
491.44253289255028
 21
-636.64414158348745
 31
-0.0000000000000049
  0
LINE
  5
9944
  8
01
 10
556.80493792453535
 20
-703.50033869737035
 30
0.0000000000001125
 11
556.30493792453535
 21
-703.00031607857329
 31
-0.0000000000007976
  0
CIRCLE
  5
9945
  8
01
 10
627.17134813277255
 20
-706.32875349324206
 30
0.0
 40
3.75
  0
CIRCLE
  5
9946
  8
01
 10
627.17134781031405
 20
-700.82875369737019
 30
0.0
 40
19.99999999999962
  0
LINE
  5
9947
  8
01
 10
612.17134748785315
 20
-626.14414158348802
 30
0.0
 11
642.17134748785315
 21
-626.14414158348654
 31
0.0
  0
LINE
  5
9948
  8
01
 10
629.99977813277235
 20
-614.3941415834862
 30
0.0
 11
630.49976375156825
 21
-614.8941415834862
 31
-0.00000000000091
  0
LINE
  5
9949
  8
01
 10
630.13907175156828
 20
-621.13909158348611
 30
-0.00000000000091
 11
630.49976375156825
 21
-621.39412158348614
 31
-0.00000000000091
  0
LINE
  5
994A
  8
01
 10
630.1390687515684
 20
-620.64919158348607
 30
-0.00000000000091
 11
630.49975975156838
 21
-620.3941415834862
 31
-0.00000000000091
  0
LINE
  5
994B
  8
01
 10
630.49976375156825
 20
-614.8941415834862
 30
0.0
 11
623.84289851397523
 21
-614.8941415834862
 31
0.0
  0
LINE
  5
994C
  8
01
 10
630.49975975156838
 20
-620.3941415834862
 30
0.0
 11
623.84289851397523
 21
-620.3941415834862
 31
0.0
  0
LINE
  5
994D
  8
01
 10
630.49976375156814
 20
-621.39414158348609
 30
0.0
 11
623.84289851397568
 21
-621.39414158348609
 31
0.0
  0
ARC
  5
994E
  8
01
 10
627.17135081183415
 20
-632.49414696136262
 30
-0.0000000000001137
 40
6.0
 50
283.18348250336169
 51
305.6853299999961
  0
LINE
  5
994F
  8
01
 10
607.17136035397971
 20
-630.34414158348761
 30
0.0
 11
647.17136035397971
 21
-630.34414158348693
 31
0.0
  0
LINE
  5
9950
  8
01
 10
646.67136035397982
 20
-636.64414158348734
 30
0.0
 11
607.67136035397994
 21
-636.64414158348768
 31
0.0
  0
CIRCLE
  5
9951
  8
01
 10
627.17134813277255
 20
-706.32875369736996
 30
0.0
 40
3.5000004999999992
  0
LINE
  5
9952
  8
01
 10
620.34082815837519
 20
-706.32875369736996
 30
0.0
 11
634.52653855837434
 21
-706.32875369736996
 31
0.0
  0
LINE
  5
9953
  8
01
 10
520.10491831352795
 20
-695.32875869736313
 30
0.0
 11
534.80530387924773
 21
-695.32875869736256
 31
0.0
  0
LINE
  5
9954
  8
01
 10
520.10491831352601
 20
-717.3287586973621
 30
0.0
 11
534.80530387924773
 21
-717.3287586973629
 31
0.0
  0
LINE
  5
9955
  8
01
 10
517.33085170604579
 20
-706.32875369736996
 30
0.0
 11
559.68755176253444
 21
-706.32875369736996
 31
0.0
  0
LINE
  5
9956
  8
01
 10
480.44252789255688
 20
-610.80172982755778
 30
0.0
 11
480.44252789256001
 21
-653.72658861117418
 31
0.0
  0
LINE
  5
9957
  8
01
 10
460.44254011376529
 20
-630.3441415834875
 30
0.0
 11
500.4425401137654
 21
-630.34414158348693
 31
0.0
  0
LINE
  5
9958
  8
01
 10
499.94254011376552
 20
-636.64414158348745
 30
0.0
 11
460.94254011376552
 21
-636.64414158348757
 31
0.0
  0
LINE
  5
9959
  8
01
 10
465.44252724763908
 20
-626.14414158348814
 30
0.0
 11
495.44252724763908
 21
-626.14414158348666
 31
0.0
  0
LINE
  5
995A
  8
01
 10
465.44252724763908
 20
-626.14414158348814
 30
0.0
 11
465.44252724763902
 21
-629.84414158348841
 31
0.0
  0
ARC
  5
995B
  8
01
 10
460.9425401137654
 20
-636.14414158348745
 30
0.0
 40
0.5
 50
180.0
 51
270.0
  0
LINE
  5
995C
  8
01
 10
460.44254011376529
 20
-630.3441415834875
 30
0.0
 11
460.44254011376552
 21
-636.14414158348757
 31
0.0
  0
ARC
  5
995D
  8
01
 10
464.94252724763902
 20
-629.84414158348841
 30
0.0
 40
0.5
 50
270.00000000000648
 51
0.0
  0
LINE
  5
995E
  8
01
 10
480.44252789255802
 20
-626.6441415834862
 30
0.0
 11
480.44252789255768
 21
-621.64414158348632
 31
0.0
  0
LINE
  5
995F
  8
01
 10
495.44252724763908
 20
-626.14414158348666
 30
0.0
 11
495.44252724763908
 21
-629.84414158348613
 31
0.0
  0
ARC
  5
9960
  8
01
 10
495.94252724763908
 20
-629.84414158348613
 30
0.0
 40
0.5
 50
180.0
 51
270.00000000000648
  0
ARC
  5
9961
  8
01
 10
499.94254011376552
 20
-636.14414158348745
 30
0.0
 40
0.5
 50
270.0
 51
0.0
  0
LINE
  5
9962
  8
01
 10
500.4425401137654
 20
-630.34414158348693
 30
0.0
 11
500.4425401137654
 21
-636.14414158348745
 31
0.0
  0
CIRCLE
  5
9963
  8
01
 10
480.44252789255643
 20
-700.82875369737008
 30
0.0
 40
20.000000000000071
  0
LINE
  5
9964
  8
01
 10
480.44252789255802
 20
-723.08317935854905
 30
0.0
 11
480.44252789255819
 21
-677.84764176522344
 31
0.0
  0
CIRCLE
  5
9965
  8
01
 10
480.44252789255842
 20
-706.32875369736996
 30
0.0
 40
11.30000000000109
  0
ARC
  5
9966
  8
01
 10
480.44252789255842
 20
-706.32875369736996
 30
0.0
 40
10.999995000006949
 50
280.98058072142919
 51
79.019419278570822
  0
LINE
  5
9967
  8
01
 10
468.04222303209008
 20
-706.32875369736996
 30
0.0
 11
492.6408869672963
 21
-706.32875369736985
 31
0.0
  0
ARC
  5
9968
  8
01
 10
480.44252789255842
 20
-706.32875369736996
 30
0.0
 40
10.999995000006949
 50
100.98058072142911
 51
259.01941927857081
  0
LINE
  5
9969
  8
01
 10
477.9425278925583
 20
-696.0209947265688
 30
0.0
 11
477.9425278925583
 21
-716.63651266817124
 31
0.0
  0
LINE
  5
996A
  8
01
 10
482.9425278925583
 20
-696.0209947265688
 30
0.0
 11
482.9425278925583
 21
-716.63651266817124
 31
0.0
  0
ARC
  5
996B
  8
01
 10
480.44252789255842
 20
-706.32875369736996
 30
0.0
 40
10.999995000006949
 50
259.01941927857081
 51
280.98058072142919
  0
ARC
  5
996C
  8
01
 10
478.4425278925583
 20
-716.63651266817124
 30
0.0
 40
0.5
 50
180.0
 51
259.01941927857081
  0
ARC
  5
996D
  8
01
 10
482.4425278925583
 20
-716.63651266817124
 30
0.0
 40
0.5
 50
280.98058072142919
 51
0.0
  0
ARC
  5
996E
  8
01
 10
480.44252789255842
 20
-706.32875369736996
 30
0.0
 40
10.999995000006949
 50
79.019419278570822
 51
100.98058072142911
  0
ARC
  5
996F
  8
01
 10
478.4425278925583
 20
-696.0209947265688
 30
0.0
 40
0.5
 50
100.98058072142911
 51
180.0
  0
ARC
  5
9970
  8
01
 10
482.4425278925583
 20
-696.0209947265688
 30
0.0
 40
0.5
 50
0.0
 51
79.019419278570822
  0
LINE
  5
9971
  8
01
 10
519.10491831352601
 20
-696.32875869736165
 30
0.0
 11
519.10491831352601
 21
-716.32875869735972
 31
0.0
  0
ARC
  5
9972
  8
01
 10
520.10491831352601
 20
-716.32875869735972
 30
0.0
 40
1.0
 50
180.0
 51
270.0
  0
ARC
  5
9973
  8
01
 10
520.10491831352795
 20
-696.32875869736165
 30
0.0
 40
1.0
 50
90.0
 51
180.0
  0
LINE
  5
9974
  8
01
 10
612.17134748785315
 20
-626.14414158348802
 30
0.0
 11
612.17134748785315
 21
-629.84414158348795
 31
0.0
  0
LINE
  5
9975
  8
01
 10
627.17134813277107
 20
-612.71568636481368
 30
0.0
 11
627.17134813277323
 21
-638.30835404749928
 31
0.0
  0
LINE
  5
9976
  8
01
 10
616.67136067643742
 20
-637.55285655888406
 30
0.0
 11
616.67136067643742
 21
-600.53926283113412
 31
0.0
  0
ARC
  5
9977
  8
01
 10
607.67136035397982
 20
-636.14414158348734
 30
0.0
 40
0.5
 50
180.0
 51
270.0
  0
LINE
  5
9978
  8
01
 10
607.17136035397971
 20
-630.34414158348761
 30
0.0
 11
607.17136035397994
 21
-636.14414158348768
 31
0.0
  0
ARC
  5
9979
  8
01
 10
611.67134748785315
 20
-629.84414158348795
 30
0.0
 40
0.5
 50
270.00000000000648
 51
0.0
  0
LINE
  5
997A
  8
01
 10
628.17135081183403
 20
-638.04469542076515
 30
-0.0000000000001137
 11
628.17135081183392
 21
-636.39414158348734
 31
-0.0000000000001137
  0
LINE
  5
997B
  8
01
 10
623.67135081183403
 20
-637.36754696136279
 30
-0.0000000000001137
 11
623.67135081183335
 21
-636.39414158348734
 31
-0.0000000000001137
  0
ARC
  5
997C
  8
01
 10
625.87134781183431
 20
-638.0439169613627
 30
-0.0000000000001137
 40
0.30000001
 50
256.81651800000168
 51
0.0
  0
ARC
  5
997D
  8
01
 10
627.17135081183415
 20
-632.49414696136262
 30
-0.0000000000001137
 40
6.0
 50
234.31466600000451
 51
256.81651800000168
  0
ARC
  5
997E
  8
01
 10
628.47134981183422
 20
-638.0439169613627
 30
-0.0000000000001137
 40
0.30000001
 50
179.99999700000231
 51
283.18347999999452
  0
LINE
  5
997F
  8
01
 10
626.17135081183403
 20
-638.0439169613627
 30
-0.0000000000001137
 11
626.17135081183392
 21
-636.39414158348734
 31
-0.0000000000001137
  0
LINE
  5
9980
  8
01
 10
613.42136067643787
 20
-603.14414158348711
 30
0.0
 11
619.92136067643798
 21
-603.14414158348666
 31
0.0
  0
LINE
  5
9981
  8
01
 10
613.42136067643787
 20
-603.14414158348711
 30
0.0
 11
613.42136067643787
 21
-625.34414158348784
 31
0.0
  0
ARC
  5
9982
  8
01
 10
612.6213606764378
 20
-625.34414158348784
 30
0.0
 40
0.8
 50
270.0
 51
0.0
  0
LINE
  5
9983
  8
01
 10
619.92136067643798
 20
-603.14414158348666
 30
0.0
 11
619.92136067643776
 21
-625.34414158348761
 31
0.0
  0
ARC
  5
9984
  8
01
 10
620.72136067643783
 20
-625.34414158348761
 30
0.0
 40
0.8
 50
180.0
 51
270.0
  0
LINE
  5
9985
  8
01
 10
624.3429211327724
 20
-614.3941415834862
 30
0.0
 11
623.84289851397523
 21
-614.8941415834862
 31
-0.00000000000091
  0
LINE
  5
9986
  8
01
 10
623.84289851397523
 20
-620.39414441182828
 30
-0.00000000000091
 11
623.84289851397523
 21
-614.8941415834862
 31
-0.00000000000091
  0
LINE
  5
9987
  8
01
 10
623.842898513975
 20
-625.89414158348643
 30
-0.00000000000091
 11
623.84289851397523
 21
-621.39414158348609
 31
-0.00000000000091
  0
LINE
  5
9988
  8
01
 10
629.99977413277225
 20
-614.3941415834862
 30
0.0
 11
624.3429211327724
 21
-614.3941415834862
 31
0.0
  0
LINE
  5
9989
  8
01
 10
629.99977413277225
 20
-614.3941415834862
 30
0.0
 11
624.3429211327724
 21
-614.3941415834862
 31
0.0
  0
ARC
  5
998A
  8
01
 10
630.31227075156858
 20
-620.89414158348609
 30
-0.00000000000091
 40
0.30000001
 50
125.2643800000061
 51
234.7356100000078
  0
LINE
  5
998B
  8
01
 10
624.20360051397518
 20
-621.13909441182818
 30
-0.00000000000091
 11
623.84289451397524
 21
-621.39414441182828
 31
-0.00000000000091
  0
LINE
  5
998C
  8
01
 10
624.20360051397518
 20
-620.64919441182826
 30
-0.00000000000091
 11
623.84289851397523
 21
-620.39414441182828
 31
-0.00000000000091
  0
ARC
  5
998D
  8
01
 10
624.03039851397534
 20
-620.89414441182828
 30
-0.00000000000091
 40
0.30000001
 50
305.2643899999922
 51
54.735619999993858
  0
LINE
  5
998E
  8
01
 10
627.17134813277232
 20
-620.3941415834862
 30
0.0
 11
627.17134813277232
 21
-614.3941415834862
 31
0.0
  0
LINE
  5
998F
  8
01
 10
626.92163413277217
 20
-620.89414158348609
 30
0.0
 11
624.61846113277204
 21
-620.89414158348609
 31
0.0
  0
LINE
  5
9990
  8
01
 10
629.99977413277213
 20
-614.3941415834862
 30
0.0
 11
624.34292113277218
 21
-614.3941415834862
 31
0.0
  0
LINE
  5
9991
  8
01
 10
629.99977413277213
 20
-614.3941415834862
 30
0.0
 11
624.34292113277218
 21
-614.3941415834862
 31
0.0
  0
LINE
  5
9992
  8
01
 10
629.71596513277211
 20
-620.89414158348609
 30
0.0
 11
627.58589113277219
 21
-620.89414158348609
 31
0.0
  0
LINE
  5
9993
  8
01
 10
627.17134813277221
 20
-625.89414158348609
 30
0.0
 11
627.17134813277232
 21
-621.39414158348609
 31
0.0
  0
LINE
  5
9994
  8
01
 10
627.17134813277221
 20
-623.96999309973341
 30
0.0
 11
627.17134813277232
 21
-626.14414158348586
 31
0.0
  0
LINE
  5
9995
  8
01
 10
576.90529850138034
 20
-709.65716531616579
 30
-0.00000000000091
 11
572.15527850138051
 21
-709.65716531616613
 31
-0.00000000000091
  0
LINE
  5
9996
  8
01
 10
576.90529850138046
 20
-703.00030007857276
 30
-0.00000000000091
 11
572.15529850138046
 21
-703.00030007857299
 31
-0.00000000000091
  0
LINE
  5
9997
  8
01
 10
576.90529850138046
 20
-706.32874969736997
 30
0.0
 11
572.15529850138046
 21
-706.32874969737009
 31
0.0
  0
LINE
  5
9998
  8
01
 10
590.09063572025741
 20
-706.32875369736996
 30
0.0
 11
561.83334629128274
 21
-706.32875369736996
 31
0.0
  0
LINE
  5
9999
  8
01
 10
571.15529850138046
 20
-709.65716531616613
 30
-0.00000000000091
 11
565.65529850138057
 21
-709.65716531616613
 31
-0.00000000000091
  0
LINE
  5
999A
  8
01
 10
571.15530132972265
 20
-703.00030007857299
 30
-0.00000000000091
 11
565.65529850138057
 21
-703.00030007857299
 31
-0.00000000000091
  0
LINE
  5
999B
  8
01
 10
571.15529850138046
 20
-706.32874969737009
 30
0.0
 11
565.15529850138057
 21
-706.32874969737009
 31
0.0
  0
LINE
  5
999C
  8
01
 10
565.15529850138057
 20
-703.50032269737005
 30
0.0
 11
565.65529850138057
 21
-703.00030007857299
 31
-0.00000000000091
  0
LINE
  5
999D
  8
01
 10
565.15529850138057
 20
-709.15717969737011
 30
0.0
 11
565.65529850138057
 21
-709.65716531616613
 31
-0.00000000000091
  0
LINE
  5
999E
  8
01
 10
565.15529850138057
 20
-709.15717569737012
 30
0.0
 11
565.15529850138057
 21
-703.50032269737005
 31
0.0
  0
LINE
  5
999F
  8
01
 10
565.15529850138057
 20
-709.15717569737012
 30
0.0
 11
565.15529850138057
 21
-703.50032269737005
 31
0.0
  0
LINE
  5
99A0
  8
01
 10
565.15529850138057
 20
-709.15717569736978
 30
0.0
 11
565.15529850138057
 21
-703.50032269736994
 31
0.0
  0
LINE
  5
99A1
  8
01
 10
565.15529850138057
 20
-709.15717569736978
 30
0.0
 11
565.15529850138057
 21
-703.50032269736994
 31
0.0
  0
LINE
  5
99A2
  8
01
 10
565.65529850138057
 20
-709.65716531616613
 30
0.0
 11
565.65529850138057
 21
-703.00030007857299
 31
0.0
  0
LINE
  5
99A3
  8
01
 10
571.90024850138047
 20
-709.29647331616604
 30
-0.00000000000091
 11
572.15527850138051
 21
-709.65716531616613
 31
-0.00000000000091
  0
LINE
  5
99A4
  8
01
 10
571.41034850138055
 20
-709.29647031616616
 30
-0.00000000000091
 11
571.15529850138046
 21
-709.65716131616614
 31
-0.00000000000091
  0
ARC
  5
99A5
  8
01
 10
571.65529850138046
 20
-709.46967231616611
 30
-0.00000000000091
 40
0.30000001
 50
35.26438999998944
 51
144.73561999999379
  0
LINE
  5
99A6
  8
01
 10
571.90025132972255
 20
-703.36100207857294
 30
-0.00000000000091
 11
572.15530132972265
 21
-703.00029607857289
 31
-0.00000000000091
  0
LINE
  5
99A7
  8
01
 10
571.41035132972274
 20
-703.36100207857294
 30
-0.00000000000091
 11
571.15530132972265
 21
-703.00030007857299
 31
-0.00000000000091
  0
ARC
  5
99A8
  8
01
 10
571.65530132972265
 20
-703.18780007857299
 30
-0.00000000000091
 40
0.30000001
 50
215.2643800000061
 51
324.73561000001052
  0
LINE
  5
99A9
  8
01
 10
571.65529850138046
 20
-706.07903569737005
 30
0.0
 11
571.65529850138046
 21
-703.7758626973698
 31
0.0
  0
LINE
  5
99AA
  8
01
 10
571.65529850138046
 20
-708.87336669736976
 30
0.0
 11
571.65529850138046
 21
-706.74329269736995
 31
0.0
  0
LINE
  5
99AB
  8
01
 10
571.15529850138046
 20
-709.65716131616614
 30
0.0
 11
571.15529850138046
 21
-703.00030007857299
 31
0.0
  0
LINE
  5
99AC
  8
01
 10
572.15529850138046
 20
-709.65716531616579
 30
0.0
 11
572.15529850138046
 21
-703.00030007857345
 31
0.0
  0
LINE
  5
99AD
  8
01
 10
588.80585233865952
 20
-707.32875237643168
 30
-0.0000000000001137
 11
587.40530387925673
 21
-707.32875237643157
 31
-0.0000000000001137
  0
ARC
  5
99AE
  8
01
 10
583.25530387925699
 20
-706.32875237643179
 30
-0.0000000000001137
 40
6.0
 50
324.31467000000117
 51
346.81651749663899
  0
LINE
  5
99AF
  8
01
 10
588.12870387925705
 20
-709.82875237643179
 30
-0.0000000000001137
 11
587.40530387925685
 21
-709.82875237643191
 31
-0.0000000000001137
  0
LINE
  5
99B0
  8
01
 10
588.12870387925705
 20
-702.82875237643168
 30
-0.0000000000001137
 11
587.40530387925685
 21
-702.82875237643191
 31
-0.0000000000001137
  0
ARC
  5
99B1
  8
01
 10
588.80507387925707
 20
-705.02874937643196
 30
-0.0000000000001137
 40
0.30000001
 50
270.0
 51
13.1834819999982
  0
ARC
  5
99B2
  8
01
 10
583.25530387925699
 20
-706.32875237643179
 30
-0.0000000000001137
 40
6.0
 50
13.1834819999982
 51
35.68533399999356
  0
ARC
  5
99B3
  8
01
 10
588.80507387925707
 20
-707.62875137643175
 30
-0.0000000000001137
 40
0.30000001
 50
346.8165200000056
 51
90.00000299999769
  0
LINE
  5
99B4
  8
01
 10
588.80507387925707
 20
-705.32875237643179
 30
-0.0000000000001137
 11
587.40530387925696
 21
-705.32875237643179
 31
-0.0000000000001137
  0
LINE
  5
99B5
  8
01
 10
576.90529850138046
 20
-698.07875369736905
 30
0.0000000000562575
 11
553.90530387925776
 21
-698.07875369736905
 31
0.0000000000562575
  0
LINE
  5
99B6
  8
01
 10
576.10529850138073
 20
-691.57875369736962
 30
0.0000000000562575
 11
553.90530387925776
 21
-691.57875369736962
 31
0.0000000000562575
  0
LINE
  5
99B7
  8
01
 10
587.84182412260361
 20
-694.82875369736871
 30
0.0000000000562575
 11
552.69598460944906
 21
-694.82875369736871
 31
0.0000000000562575
  0
LINE
  5
99B8
  8
01
 10
541.10530387924746
 20
-680.8287536973628
 30
0.0
 11
541.10530387924325
 21
-720.82875369736291
 31
0.0
  0
LINE
  5
99B9
  8
01
 10
534.80530387924773
 20
-720.32875369736269
 30
0.0
 11
534.80530387924762
 21
-681.32875369736325
 31
0.0
  0
LINE
  5
99BA
  8
01
 10
550.80493792453535
 20
-709.65718131616632
 30
-0.0000000000007976
 11
556.30493792453535
 21
-709.65718131616632
 31
-0.0000000000007976
  0
LINE
  5
99BB
  8
01
 10
550.80493509619305
 20
-703.00031607857329
 30
-0.0000000000007976
 11
556.30493792453535
 21
-703.00031607857329
 31
-0.0000000000007976
  0
LINE
  5
99BC
  8
01
 10
533.60494125773755
 20
-695.82875869736256
 30
0.0
 11
533.60494125773278
 21
-716.82875869736245
 31
0.0
  0
LINE
  5
99BD
  8
01
 10
545.30530925712412
 20
-690.02875369736967
 30
0.0
 11
545.30530925712424
 21
-715.82878121157955
 31
0.0
  0
LINE
  5
99BE
  8
01
 10
541.10530387924325
 20
-720.82875369736291
 30
0.0
 11
535.3053038792475
 21
-720.8287536973628
 31
0.0
  0
ARC
  5
99BF
  8
01
 10
534.10494125773278
 20
-716.82875869736256
 30
0.0
 40
0.5
 50
179.99999999998701
 51
270.0
  0
ARC
  5
99C0
  8
01
 10
535.3053038792475
 20
-720.32875369736269
 30
0.0
 40
0.5
 50
180.0
 51
270.0
  0
LINE
  5
99C1
  8
01
 10
545.30530925712424
 20
-715.82878121157955
 30
0.0
 11
541.60530387924837
 21
-715.82878121157933
 31
0.0
  0
LINE
  5
99C2
  8
01
 10
539.60530387924916
 20
-720.82875369736962
 30
0.0
 11
541.10530387924905
 21
-720.82875369736962
 31
0.0
  0
ARC
  5
99C3
  8
01
 10
541.60530387924837
 20
-716.32878121157933
 30
0.0
 40
0.5
 50
90.0
 51
180.00000000001299
  0
LINE
  5
99C4
  8
01
 10
534.36878363590085
 20
-694.82875369736871
 30
0.0
 11
548.27091049330556
 21
-694.82875369736871
 31
0.0
  0
ARC
  5
99C5
  8
01
 10
534.10494125773278
 20
-695.82875869736256
 30
0.0
 40
0.5
 50
90.0
 51
179.99999999998701
  0
LINE
  5
99C6
  8
01
 10
545.30530925712389
 20
-709.65718131616632
 30
-0.0000000000007976
 11
549.80495792453519
 21
-709.65718131616632
 31
-0.0000000000007976
  0
LINE
  5
99C7
  8
01
 10
545.30530925712367
 20
-703.00031607857329
 30
-0.0000000000007976
 11
549.80493792453535
 21
-703.00031607857329
 31
-0.0000000000007976
  0
LINE
  5
99C8
  8
01
 10
550.05998792453533
 20
-709.29648931616634
 30
-0.0000000000007976
 11
549.80495792453519
 21
-709.65718131616632
 31
-0.0000000000007976
  0
LINE
  5
99C9
  8
01
 10
550.54988792453537
 20
-709.29648631616624
 30
-0.0000000000007976
 11
550.80493792453535
 21
-709.65717731616633
 31
-0.0000000000007976
  0
ARC
  5
99CA
  8
01
 10
550.30493792453535
 20
-709.46968831616607
 30
-0.0000000000007976
 40
0.30000001
 50
35.264380000006128
 51
144.73560999999421
  0
LINE
  5
99CB
  8
01
 10
550.05998509619315
 20
-703.36101807857335
 30
-0.0000000000007976
 11
549.80493509619305
 21
-703.00031207857342
 31
-0.0000000000007976
  0
LINE
  5
99CC
  8
01
 10
550.54988509619295
 20
-703.36101807857335
 30
-0.0000000000007976
 11
550.80493509619305
 21
-703.00031607857329
 31
-0.0000000000007976
  0
ARC
  5
99CD
  8
01
 10
550.30493509619305
 20
-703.18781607857329
 30
-0.0000000000007976
 40
0.30000001
 50
215.2643900000057
 51
324.7356199999939
  0
LINE
  5
99CE
  8
01
 10
545.30530925712412
 20
-690.02875369736967
 30
0.0
 11
541.10530387924712
 21
-690.02875369736978
 31
0.0
  0
LINE
  5
99CF
  8
01
 10
553.90530387925776
 20
-691.57875369736962
 30
0.0000000000562575
 11
553.90530387925776
 21
-698.07875369736905
 31
0.0000000000562575
  0
LINE
  5
99D0
  8
01
 10
541.10530387924746
 20
-680.8287536973628
 30
0.0
 11
535.3053038792475
 21
-680.82875369736325
 31
0.0
  0
ARC
  5
99D1
  8
01
 10
535.3053038792475
 20
-681.32875369736325
 30
0.0
 40
0.5
 50
90.0
 51
180.0
  0
LINE
  5
99D2
  8
01
 10
581.10530387925701
 20
-680.82875369736246
 30
0.0000000000562575
 11
581.1053038792528
 21
-720.8287536973628
 31
0.0000000000562575
  0
LINE
  5
99D3
  8
01
 10
587.40530387925673
 20
-720.32875369736257
 30
0.0000000000562575
 11
587.40530387925696
 21
-681.32875369736303
 31
0.0000000000562575
  0
LINE
  5
99D4
  8
01
 10
627.17134813277255
 20
-725.0481742567224
 30
0.0
 11
627.17134813277255
 21
-677.52144574278441
 31
0.0
  0
LINE
  5
99D5
  8
01
 10
576.90529850138046
 20
-690.02875369736978
 30
0.0000000000562575
 11
576.90529850138034
 21
-715.82878121157978
 31
0.0000000000562575
  0
LINE
  5
99D6
  8
01
 10
581.1053038792561
 20
-712.1754468511233
 30
0.0000000000562575
 11
581.1053038792561
 21
-714.32878121157967
 31
0.0000000000562575
  0
LINE
  5
99D7
  8
01
 10
581.1053038792528
 20
-720.8287536973628
 30
0.0000000000562575
 11
586.90530387925696
 21
-720.82875369736246
 31
0.0000000000562575
  0
LINE
  5
99D8
  8
01
 10
582.6053038792553
 20
-720.82875369736962
 30
0.0000000000562575
 11
581.10530387925542
 21
-720.82875369736962
 31
0.0000000000562575
  0
LINE
  5
99D9
  8
01
 10
576.90529850138034
 20
-715.82878121157978
 30
0.0000000000562575
 11
580.6053038792561
 21
-715.82878121157933
 31
0.0000000000562575
  0
ARC
  5
99DA
  8
01
 10
580.6053038792561
 20
-716.32878121157933
 30
0.0000000000562575
 40
0.5
 50
359.99999999998698
 51
90.0
  0
ARC
  5
99DB
  8
01
 10
586.90530387925696
 20
-720.32875369736257
 30
0.0000000000562575
 40
0.5
 50
270.0
 51
0.0
  0
LINE
  5
99DC
  8
01
 10
576.90529850138046
 20
-690.02875369736978
 30
0.0000000000562575
 11
581.10530387925587
 21
-690.02875369736978
 31
0.0000000000562575
  0
ARC
  5
99DD
  8
01
 10
576.10529850138073
 20
-690.77875369736944
 30
0.0000000000562575
 40
0.8
 50
270.0
 51
0.0
  0
CIRCLE
  5
99DE
  8
01
 10
627.17134813277255
 20
-698.92876349324229
 30
0.0
 40
2.5
  0
LINE
  5
99DF
  8
01
 10
626.17134813277255
 20
-709.68285649737004
 30
0.0
 11
626.17134813277255
 21
-702.97464969736995
 31
0.0
  0
LINE
  5
99E0
  8
01
 10
628.17134813277255
 20
-709.68285649737004
 30
0.0
 11
628.17134813277255
 21
-702.97464969736995
 31
0.0
  0
LINE
  5
99E1
  8
01
 10
581.10530387925701
 20
-680.82875369736246
 30
0.0000000000562575
 11
586.90530387925696
 21
-680.82875369736291
 31
0.0000000000562575
  0
ARC
  5
99E2
  8
01
 10
586.90530387925696
 20
-681.32875369736303
 30
0.0000000000562575
 40
0.5
 50
0.0
 51
90.0
  0
LINE
  5
99E3
  8
01
 10
642.17134748785315
 20
-626.14414158348654
 30
0.0
 11
642.17134748785315
 21
-629.84414158348602
 31
0.0
  0
LINE
  5
99E4
  8
01
 10
637.67136067643844
 20
-637.55285655888406
 30
0.0
 11
637.67136067643844
 21
-600.53926283113412
 31
0.0
  0
LINE
  5
99E5
  8
01
 10
630.67135081183403
 20
-637.36754696136279
 30
-0.0000000000001137
 11
630.67135081183369
 21
-636.39414158348745
 31
-0.0000000000001137
  0
ARC
  5
99E6
  8
01
 10
642.67134748785315
 20
-629.84414158348602
 30
0.0
 40
0.5
 50
180.0
 51
270.00000000000648
  0
ARC
  5
99E7
  8
01
 10
646.67136035397982
 20
-636.14414158348734
 30
0.0
 40
0.5
 50
270.0
 51
0.0
  0
LINE
  5
99E8
  8
01
 10
647.17136035397971
 20
-630.34414158348693
 30
0.0
 11
647.17136035397971
 21
-636.14414158348734
 31
0.0
  0
LINE
  5
99E9
  8
01
 10
640.92136067643798
 20
-603.14414158348507
 30
0.0
 11
640.92136067643798
 21
-625.3441415834867
 31
0.0
  0
LINE
  5
99EA
  8
01
 10
634.42136067643787
 20
-603.14414158348552
 30
0.0
 11
634.42136067643787
 21
-625.34414158348693
 31
0.0
  0
ARC
  5
99EB
  8
01
 10
633.6213606764378
 20
-625.34414158348693
 30
0.0
 40
0.8
 50
270.0
 51
0.0
  0
LINE
  5
99EC
  8
01
 10
630.49976375156825
 20
-620.3941415834862
 30
-0.00000000000091
 11
630.49976375156825
 21
-614.8941415834862
 31
-0.00000000000091
  0
LINE
  5
99ED
  8
01
 10
630.49976375156825
 20
-625.89414158348586
 30
-0.00000000000091
 11
630.49976375156825
 21
-621.39412158348614
 31
-0.00000000000091
  0
ARC
  5
99EE
  8
01
 10
641.72136067643783
 20
-625.3441415834867
 30
0.0
 40
0.8
 50
180.0
 51
270.0
  0
LINE
  5
99EF
  8
01
 10
634.42136067643787
 20
-603.14414158348552
 30
0.0
 11
640.92136067643798
 21
-603.14414158348507
 31
0.0
  0
LINE
  5
99F0
  8
01
 10
483.94252789255222
 20
-637.84413825028707
 30
0.0000000000000173
 11
490.94253289254999
 21
-637.84413825028855
 31
0.0000000000000173
  0
LINE
  5
99F1
  8
01
 10
482.9425278925504
 20
-651.34416119449384
 30
0.0000000000000173
 11
482.94252789255228
 21
-638.84413825028719
 31
0.0000000000000173
  0
LINE
  5
99F2
  8
01
 10
477.9425278925504
 20
-651.3441611944919
 30
0.0000000000000173
 11
477.9425278925504
 21
-638.84413825028901
 31
0.0000000000000173
  0
LINE
  5
99F3
  8
01
 10
478.9425278925504
 20
-652.34416119449565
 30
0.0000000000000173
 11
481.94252789254949
 21
-652.34416119449565
 31
0.0000000000000173
  0
ARC
  5
99F4
  8
01
 10
478.94252789254961
 20
-651.34416119449384
 30
0.0000000000000173
 40
1.0
 50
180.0000000000521
 51
270.0
  0
ARC
  5
99F5
  8
01
 10
481.94252789254961
 20
-651.34416119449384
 30
0.0000000000000173
 40
1.0
 50
270.0
 51
0.0
  0
LINE
  5
99F6
  8
01
 10
469.94253289255062
 20
-637.84413825028901
 30
0.0000000000000173
 11
476.9425278925504
 21
-637.84413825028901
 31
0.0000000000000173
  0
LINE
  5
99F7
  8
01
 10
469.4425328925505
 20
-637.34413825028855
 30
0.0000000000000173
 11
469.44253289255022
 21
-636.64414158348745
 31
0.0000000000010008
  0
ARC
  5
99F8
  8
01
 10
469.94253289255067
 20
-637.34413825028901
 30
0.0000000000000173
 40
0.5
 50
180.0
 51
270.0
  0
ARC
  5
99F9
  8
01
 10
476.94252789254961
 20
-638.84413825028901
 30
0.0000000000000173
 40
1.0
 50
0.0
 51
90.0
  0
ARC
  5
99FA
  8
01
 10
483.94252789255142
 20
-638.84413825028719
 30
0.0000000000000173
 40
1.0
 50
89.999999999986969
 51
180.0
  0
LINE
  5
99FB
  8
01
 10
483.7709395113535
 20
-621.64414158348632
 30
0.0000000000009273
 11
477.11407427376059
 21
-621.64414158348632
 31
0.0000000000009273
  0
LINE
  5
99FC
  8
01
 10
483.77093551135363
 20
-620.64414158348632
 30
0.0000000000009273
 11
477.11407427376059
 21
-620.64414158348632
 31
0.0000000000009273
  0
LINE
  5
99FD
  8
01
 10
483.7709395113535
 20
-615.14414158348632
 30
0.0000000000009273
 11
477.11407427376059
 21
-615.14414158348632
 31
0.0000000000009273
  0
LINE
  5
99FE
  8
01
 10
483.27095389255749
 20
-614.64414158348632
 30
0.0000000000009273
 11
477.6140968925576
 21
-614.64414158348632
 31
0.0000000000009273
  0
LINE
  5
99FF
  8
01
 10
477.89791489255839
 20
-621.14414158348632
 30
0.0000000000009273
 11
480.02798889255803
 21
-621.14414158348632
 31
0.0000000000009273
  0
LINE
  5
9A00
  8
01
 10
477.6140968925576
 20
-614.64414158348632
 30
0.0000000000009273
 11
477.11407427376059
 21
-615.14414158348632
 31
0.0000000000000173
  0
LINE
  5
9A01
  8
01
 10
477.11407427376059
 20
-620.64414441182839
 30
0.0000000000000173
 11
477.11407427376059
 21
-615.14414158348632
 31
0.0000000000000173
  0
LINE
  5
9A02
  8
01
 10
477.11407427376059
 20
-626.1441415834862
 30
0.0000000000000173
 11
477.11407427376059
 21
-621.64414158348632
 31
0.0000000000000173
  0
LINE
  5
9A03
  8
01
 10
477.4747762737606
 20
-621.38909441182818
 30
0.0000000000000173
 11
477.11407427376059
 21
-621.64414158348632
 31
0.0000000000000173
  0
LINE
  5
9A04
  8
01
 10
477.4747762737606
 20
-620.89919441182849
 30
0.0000000000000173
 11
477.11407427376059
 21
-620.64414441182839
 31
0.0000000000000173
  0
ARC
  5
9A05
  8
01
 10
477.30157427376071
 20
-621.14414441182839
 30
0.0000000000000173
 40
0.30000001
 50
305.26439000000119
 51
54.735619999993872
  0
LINE
  5
9A06
  8
01
 10
483.27095389255749
 20
-614.64414158348632
 30
0.0000000000009273
 11
483.7709395113535
 21
-615.14414158348632
 31
0.0000000000000173
  0
LINE
  5
9A07
  8
01
 10
483.7709395113535
 20
-620.64414158348632
 30
0.0000000000000173
 11
483.7709395113535
 21
-615.14414158348632
 31
0.0000000000000173
  0
LINE
  5
9A08
  8
01
 10
483.7709395113535
 20
-626.14414158348575
 30
0.0000000000000173
 11
483.7709395113535
 21
-621.64412158348625
 31
0.0000000000000173
  0
LINE
  5
9A09
  8
01
 10
482.98714089255748
 20
-621.14414158348632
 30
0.0000000000009273
 11
480.85706689255778
 21
-621.14414158348632
 31
0.0000000000009273
  0
LINE
  5
9A0A
  8
01
 10
483.41024751135382
 20
-621.38909158348611
 30
0.0000000000000173
 11
483.7709395113535
 21
-621.64412158348625
 31
0.0000000000000173
  0
LINE
  5
9A0B
  8
01
 10
483.4102445113536
 20
-620.89919158348596
 30
0.0000000000000173
 11
483.77093551135363
 21
-620.64414158348632
 31
0.0000000000000173
  0
ARC
  5
9A0C
  8
01
 10
483.58344651135383
 20
-621.14414158348632
 30
0.0000000000000173
 40
0.30000001
 50
125.2643800000061
 51
234.73560999999879
  0
ARC
  5
9A0D
  8
01
 10
490.94253289255022
 20
-637.34413825028855
 30
0.0000000000000173
 40
0.5
 50
269.99999999998698
 51
0.0
  0
LINE
  5
9A0E
  8
01
 10
550.80493792453535
 20
-706.32876569737005
 30
0.0000000000001125
 11
556.80493792453535
 21
-706.32876569737005
 31
0.0000000000001125
  0
LINE
  5
9A0F
  8
01
 10
550.30493792453535
 20
-706.07905169737001
 30
0.0000000000001125
 11
550.30493792453535
 21
-703.77587869737022
 31
0.0000000000001125
  0
LINE
  5
9A10
  8
01
 10
550.30493792453535
 20
-708.87338269736995
 30
0.0000000000001125
 11
550.30493792453535
 21
-706.74330869737014
 31
0.0000000000001125
  0
LINE
  5
9A11
  8
01
 10
550.80493792453535
 20
-709.65717731616598
 30
0.0000000000001125
 11
550.80493792453535
 21
-703.00031607857329
 31
0.0000000000001125
  0
LINE
  5
9A12
  8
01
 10
549.80493792453535
 20
-709.65718131616597
 30
0.0000000000001125
 11
549.80493792453535
 21
-703.00031607857329
 31
0.0000000000001125
  0
LINE
  5
9A13
  8
01
 10
545.30530925712412
 20
-706.32876569737005
 30
0.0000000000001125
 11
549.80493792453535
 21
-706.32876569737005
 31
0.0000000000001125
  0
LINE
  5
9A14
  8
01
 10
556.80493792453535
 20
-709.15719169737031
 30
0.0000000000001125
 11
556.80493792453535
 21
-703.50033869737035
 31
0.0000000000001125
  0
LINE
  5
9A15
  8
01
 10
556.80493792453535
 20
-709.15719169737031
 30
0.0000000000001125
 11
556.80493792453535
 21
-703.50033869737035
 31
0.0000000000001125
  0
LINE
  5
9A16
  8
01
 10
556.80493792453535
 20
-709.15719169736997
 30
0.0000000000001125
 11
556.80493792453535
 21
-703.50033869737013
 31
0.0000000000001125
  0
LINE
  5
9A17
  8
01
 10
556.80493792453535
 20
-709.15719169736997
 30
0.0000000000001125
 11
556.80493792453535
 21
-703.50033869737013
 31
0.0000000000001125
  0
LINE
  5
9A18
  8
01
 10
556.30493792453535
 20
-709.65718131616632
 30
0.0000000000001125
 11
556.30493792453535
 21
-703.00031607857329
 31
0.0000000000001125
  0
TEXT
  5
9CA7
  8
01
 10
743.96264922343391
 20
-743.53969906463635
 30
0.0000000000562575
 40
4.0
  1
付属ねじ
  0
TEXT
  5
9FF1
  8
01
 10
673.32782847709325
 20
-594.3352135392031
 30
0.0000000000562575
 40
4.0
  1
材質：亜鉛ダイキャスト・真鍮・アルミ・ポリアセタール
 11
673.32782847709325
 21
-592.33521353920321
 31
0.0000000000562575
 73
     2
  0
TEXT
  5
9FF2
  8
01
 10
730.98317831400061
 20
-601.60124112552535
 30
0.0000000000562575
 40
4.0
  1
表面処理
 72
     1
 11
740.04984498066733
 21
-601.60124112552535
 31
0.0000000000562575
  0
TEXT
  5
9FF3
  8
01
 10
730.98317831400061
 20
-615.43652978504986
 30
0.0000000000562575
 40
4.0
  1
クローム
 72
     1
 11
740.04984498066733
 21
-615.43652978504986
 31
0.0000000000562575
  0
TEXT
  5
9FF4
  8
01
 10
728.58317831400063
 20
-608.57913614550978
 30
0.0000000000562575
 40
4.0
  1
本金メッキ
 72
     1
 11
740.04984498066733
 21
-608.57913614550978
 31
0.0000000000562575
  0
LINE
  5
9FF5
  8
01
 10
672.64984498066735
 20
-596.10124112552535
 30
0.0000000000562575
 11
792.64984498066724
 21
-596.10124112552535
 31
0.0000000000562575
  0
LINE
  5
9FF6
  8
01
 10
722.64984498066724
 20
-610.10124112552535
 30
0.0000000000562575
 11
792.64984498066724
 21
-610.10124112552535
 31
0.0000000000562575
  0
LINE
  5
9FF7
  8
01
 10
672.64984498066735
 20
-603.10124112552535
 30
0.0000000000562575
 11
792.64984498066724
 21
-603.10124112552535
 31
0.0000000000562575
  0
LINE
  5
9FF8
  8
01
 10
722.64984498066724
 20
-617.10124112552535
 30
0.0000000000562575
 11
792.64984498066724
 21
-617.10124112552535
 31
0.0000000000562575
  0
LINE
  5
9FF9
  8
01
 10
722.64984498066724
 20
-617.10124112552535
 30
0.0000000000562575
 11
792.64984498066724
 21
-617.10124112552535
 31
0.0000000000562575
  0
LINE
  5
9FFA
  8
01
 10
757.64984498066724
 20
-596.10124112552535
 30
0.0000000000562575
 11
757.64984498066735
 21
-673.1012411255258
 31
0.0000000000562575
  0
TEXT
  5
9FFB
  8
01
 10
758.1927021235249
 20
-608.81559810917474
 30
0.0000000000562575
 40
4.0
  1
KLW-3D-G
 72
     1
 11
775.04984498066779
 21
-608.81559810917474
 31
0.0000000000562575
  0
TEXT
  5
9FFC
  8
01
 10
768.3831783140007
 20
-601.60124112552535
 30
0.0000000000562575
 40
4.0
  1
コード
 72
     1
 11
775.04984498066733
 21
-601.60124112552535
 31
0.0000000000562575
  0
LINE
  5
9FFD
  8
01
 10
722.64984498066724
 20
-673.10124112552569
 30
0.0000000000562575
 11
722.64984498066724
 21
-596.10124112552535
 31
0.0000000000562575
  0
LINE
  5
9FFE
  8
01
 10
697.64984498066735
 20
-673.10124112552569
 30
0.0000000000562575
 11
697.64984498066735
 21
-596.10124112552535
 31
0.0000000000562575
  0
LINE
  5
9FFF
  8
01
 10
792.64984498066724
 20
-673.1012411255258
 30
0.0000000000562575
 11
792.64984498066724
 21
-596.10124112552535
 31
0.0000000000562575
  0
LINE
  5
A000
  8
01
 10
722.64984498066724
 20
-624.10124112552546
 30
0.0000000000562575
 11
792.64984498066724
 21
-624.10124112552546
 31
0.0000000000562575
  0
LINE
  5
A001
  8
01
 10
722.64984498066724
 20
-624.10124112552546
 30
0.0000000000562575
 11
792.64984498066724
 21
-624.10124112552546
 31
0.0000000000562575
  0
LINE
  5
A002
  8
01
 10
722.64984498066724
 20
-631.10124112552535
 30
0.0000000000562575
 11
792.64984498066724
 21
-631.10124112552535
 31
0.0000000000562575
  0
LINE
  5
A003
  8
01
 10
722.64984498066724
 20
-631.10124112552535
 30
0.0000000000562575
 11
792.64984498066724
 21
-631.10124112552535
 31
0.0000000000562575
  0
TEXT
  5
A004
  8
01
 10
723.78317831400057
 20
-629.43652978504986
 30
0.0000000000562575
 40
4.0
  1
サテンニッケル
 72
     1
 11
740.04984498066733
 21
-629.43652978504986
 31
0.0000000000562575
  0
LINE
  5
A005
  8
01
 10
722.64984498066724
 20
-638.10124112552535
 30
0.0000000000562575
 11
792.64984498066724
 21
-638.10124112552535
 31
0.0000000000562575
  0
LINE
  5
A006
  8
01
 10
722.64984498066724
 20
-638.10124112552535
 30
0.0000000000562575
 11
792.64984498066724
 21
-638.10124112552535
 31
0.0000000000562575
  0
TEXT
  5
A007
  8
01
 10
723.78317831400057
 20
-622.43652978504986
 30
0.0000000000562575
 40
4.0
  1
パールクローム
 72
     1
 11
740.04984498066733
 21
-622.43652978504986
 31
0.0000000000562575
  0
TEXT
  5
A008
  8
01
 10
758.1927021235249
 20
-615.81559810917474
 30
0.0000000000562575
 40
4.0
  1
KLW-3D-C
 72
     1
 11
775.04984498066779
 21
-615.81559810917474
 31
0.0000000000562575
  0
TEXT
  5
A009
  8
01
 10
758.1927021235249
 20
-629.81559810917474
 30
0.0000000000562575
 40
4.0
  1
KLW-3D-N
 72
     1
 11
775.04984498066779
 21
-629.81559810917474
 31
0.0000000000562575
  0
TEXT
  5
A00A
  8
01
 10
758.1927021235249
 20
-622.81559810917474
 30
0.0000000000562575
 40
4.0
  1
KLW-3D-B
 72
     1
 11
775.04984498066779
 21
-622.81559810917474
 31
0.0000000000562575
  0
TEXT
  5
A00B
  8
01
 10
758.07841640923846
 20
-643.60124112552535
 30
0.0000000000562575
 40
4.0
  1
KLW-3D-4Q
 41
0.9
 72
     1
 11
775.0498449806671
 21
-643.60124112552535
 31
0.0000000000562575
  0
TEXT
  5
A00C
  8
01
 10
723.78317831400045
 20
-643.60124112552535
 30
0.0000000000562575
 40
4.0
  1
ダークアンバー
 72
     1
 11
740.04984498066699
 21
-643.60124112552535
 31
0.0000000000562575
  0
LINE
  5
A00D
  8
01
 10
722.64984498066724
 20
-645.10124112552546
 30
0.0000000000562575
 11
792.64984498066724
 21
-645.10124112552546
 31
0.0000000000562575
  0
LINE
  5
A00E
  8
01
 10
722.64984498066724
 20
-652.10124112552558
 30
0.0000000000562575
 11
792.64984498066724
 21
-652.10124112552558
 31
0.0000000000562575
  0
TEXT
  5
A00F
  8
01
 10
758.19270212352421
 20
-636.60124112552546
 30
0.0000000000562575
 40
4.0
  1
KLW-3D-D
 72
     1
 11
775.0498449806671
 21
-636.60124112552546
 31
0.0000000000562575
  0
TEXT
  5
A010
  8
01
 10
723.78317831400045
 20
-636.60124112552546
 30
0.0000000000562575
 40
4.0
  1
ミラーニッケル
 72
     1
 11
740.04984498066699
 21
-636.60124112552546
 31
0.0000000000562575
  0
TEXT
  5
A011
  8
01
 10
757.99270212352417
 20
-650.60124112552546
 30
0.0000000000562575
 40
4.0
  1
KLW-3D-GQ
 41
0.9
 72
     1
 11
775.0498449806671
 21
-650.60124112552546
 31
0.0000000000562575
  0
TEXT
  5
A012
  8
01
 10
723.78317831400045
 20
-650.60124112552546
 30
0.0000000000562575
 40
4.0
  1
パールブラック
 72
     1
 11
740.04984498066699
 21
-650.60124112552546
 31
0.0000000000562575
  0
TEXT
  5
A013
  8
01
 10
698.94984498066731
 20
-601.60124112552535
 30
0.0000000000562575
 40
4.0
  1
材質：サムターン
 41
0.6
 72
     4
 11
710.14984498066735
 21
-599.60124112552546
 31
0.0000000000562575
  0
TEXT
  5
A014
  8
01
 10
705.74984498066715
 20
-631.5426088715617
 30
0.0000000000562575
 40
4.0
  1
亜鉛
 72
     4
 11
710.14984498066724
 21
-629.5426088715617
 31
0.0000000000562575
  0
TEXT
  5
A015
  8
01
 10
699.05651164733376
 20
-636.48829208077825
 30
0.0000000000562575
 40
4.0
  1
ダイキャスト
 41
0.8
 72
     4
 11
710.14984498066724
 21
-634.61375139836355
 31
0.0000000000562575
  0
LINE
  5
A016
  8
01
 10
672.64984498066735
 20
-673.10124112552558
 30
0.0000000000562575
 11
672.64984498066735
 21
-596.10124112552535
 31
0.0000000000562575
  0
TEXT
  5
A017
  8
01
 10
675.21460688542925
 20
-601.60124112552535
 30
0.0000000000562575
 40
4.0
  1
材質:カバー
 41
0.8
 72
     4
 11
685.14984498066735
 21
-599.60124112552546
 31
0.0000000000562575
  0
TEXT
  5
A018
  8
01
 10
680.8831783140007
 20
-631.98569985962536
 30
0.0000000000562575
 40
4.0
  1
真鍮
 72
     4
 11
685.14984498066735
 21
-629.98569985962536
 31
0.0000000000562575
  0
TEXT
  5
A019
  8
01
 10
758.07841640923846
 20
-657.60124112552558
 30
0.0000000000562575
 40
4.0
  1
KLW-3D-8Q
 41
0.9
 72
     1
 11
775.0498449806671
 21
-657.60124112552558
 31
0.0000000000562575
  0
TEXT
  5
A01A
  8
01
 10
723.78317831400045
 20
-657.60124112552558
 30
0.0000000000562575
 40
4.0
  1
ミラーブラック
 72
     1
 11
740.04984498066699
 21
-657.60124112552558
 31
0.0000000000562575
  0
LINE
  5
A01B
  8
01
 10
672.64984498066735
 20
-659.10124112552535
 30
0.0000000000562575
 11
792.64984498066713
 21
-659.10124112552546
 31
0.0000000000562575
  0
LINE
  5
A01C
  8
01
 10
722.64984498066713
 20
-666.10124112552558
 30
0.0000000000562575
 11
792.64984498066713
 21
-666.10124112552558
 31
0.0000000000562575
  0
TEXT
  5
A01D
  8
01
 10
758.42127355209561
 20
-664.60124112552569
 30
0.0000000000562575
 40
4.0
  1
KLW-3D-AS
 41
0.9
 72
     1
 11
775.04984498066699
 21
-664.60124112552569
 31
0.0000000000562575
  0
TEXT
  5
A01E
  8
01
 10
725.1165116473336
 20
-664.60124112552569
 30
0.0000000000562575
 40
4.0
  1
ブラストシルバー
 41
0.8
 72
     1
 11
740.04984498066688
 21
-664.60124112552569
 31
0.0000000000562575
  0
TEXT
  5
A01F
  8
01
 10
758.33555926638132
 20
-671.60124112552558
 30
0.0000000000562575
 40
4.0
  1
KLW-3D-AK
 41
0.9
 72
     1
 11
775.04984498066699
 21
-671.60124112552558
 31
0.0000000000562575
  0
TEXT
  5
A020
  8
01
 10
725.1165116473336
 20
-671.60124112552558
 30
0.0000000000562575
 40
4.0
  1
ブラストブラック
 41
0.8
 72
     1
 11
740.04984498066688
 21
-671.60124112552558
 31
0.0000000000562575
  0
LINE
  5
A021
  8
01
 10
672.64984498066724
 20
-673.10124112552535
 30
0.0000000000562575
 11
792.64984498066701
 21
-673.10124112552569
 31
0.0000000000562575
  0
TEXT
  5
A022
  8
01
 10
678.48317831400072
 20
-668.22750850356215
 30
0.0000000000562575
 40
4.0
  1
アルミ
 72
     4
 11
685.14984498066735
 21
-666.55060561642301
 31
0.0000000000562575
  0
TEXT
  5
A023
  8
01
 10
703.48317831400061
 20
-668.22750850356215
 30
0.0000000000562575
 40
4.0
  1
アルミ
 72
     4
 11
710.14984498066724
 21
-666.55060561642313
 31
0.0000000000562575
  0
TEXT
  5
A0F2
  8
01
 10
515.00110657888081
 20
-754.08922295647619
 30
0.0
 40
3.5
  1
材質：亜鉛ダイキャスト
  0
TEXT
  5
A0F3
  8
01
 10
527.60110657888083
 20
-759.92255628980945
 30
0.0
 40
3.5
  1
仕上げ：クローム
  0
TEXT
  5
A0FC
  8
01
 10
473.57344655312602
 20
-668.14126794088645
 30
0.0
 40
3.5
  1
材質：各種材質
  0
TEXT
  5
A0FD
  8
01
 10
465.17344655312598
 20
-673.97460127421982
 30
0.0
 40
3.5
  1
仕上げ：各種仕上げ
  0
TEXT
  5
A100
  8
01
 10
521.59202747529639
 20
-648.45352654539761
 30
0.0
 40
3.5
  1
材質：各種材質
  0
TEXT
  5
A101
  8
01
 10
521.59202747529639
 20
-654.28685987873087
 30
0.0
 40
3.5
  1
仕上げ：各種仕上げ
  0
TEXT
  5
A102
  8
01
 10
719.50940960831952
 20
-713.27648525170071
 30
0.0000000000562575
 40
3.5
  1
SUS
  0
LINE
  5
A105
  8
01
 10
736.39823300398382
 20
-721.72558455369131
 30
0.0000000000562575
 11
736.39823300398382
 21
-717.60438736169147
 31
0.0000000000562575
  0
LINE
  5
A106
  8
01
 10
766.39823300398371
 20
-723.0755845536911
 30
0.0000000000562575
 11
766.39823300398371
 21
-717.60438736169147
 31
0.0000000000562575
  0
LINE
  5
A107
  8
01
 10
738.39823300398382
 20
-718.60438736169158
 30
0.0000000000562575
 11
764.39823300398382
 21
-718.60438736169158
 31
0.0000000000562575
  0
LINE
  5
A10B
  8
01
 10
767.99990800398382
 20
-724.72558455369131
 30
0.0000000000562575
 11
734.83946410398369
 21
-724.72558455369131
 31
0.0000000000562575
  0
LINE
  5
A10C
  8
01
 10
766.39823300398371
 20
-723.07558455369133
 30
0.0000000000562575
 11
738.04823300398368
 21
-723.07558455369133
 31
0.0000000000562575
  0
LINE
  5
A10D
  8
01
 10
766.39823300398371
 20
-726.37558455369128
 30
0.0000000000562575
 11
738.04823300398368
 21
-726.37558455369128
 31
0.0000000000562575
  0
LINE
  5
A10F
  8
01
 10
766.0482330039838
 20
-722.72558455369119
 30
0.0000000000562575
 11
766.0482330039838
 21
-726.72558455369119
 31
0.0000000000562575
  0
LINE
  5
A110
  8
01
 10
736.69823301398378
 20
-721.72558455369131
 30
0.0000000000562575
 11
736.69823301398378
 21
-727.72558455369131
 31
0.0000000000562575
  0
LINE
  5
A111
  8
01
 10
737.69823317805776
 20
-726.72558455369119
 30
0.0000000000562575
 11
738.04823300398368
 21
-726.37558455369128
 31
0.0000000000562575
  0
LINE
  5
A112
  8
01
 10
738.04823300398368
 20
-723.07558455369133
 30
0.0000000000562575
 11
737.69823317805776
 21
-722.72558455369119
 31
0.0000000000562575
  0
LINE
  5
A113
  8
01
 10
767.99990800398382
 20
-733.72558455369131
 30
0.0000000000562575
 11
734.83946410398369
 21
-733.72558455369131
 31
0.0000000000562575
  0
LINE
  5
A114
  8
01
 10
766.39823300398371
 20
-732.07558455369133
 30
0.0000000000562575
 11
738.04823300398368
 21
-732.07558455369133
 31
0.0000000000562575
  0
LINE
  5
A115
  8
01
 10
766.39823300398371
 20
-735.37558455369117
 30
0.0000000000562575
 11
738.04823300398368
 21
-735.37558455369117
 31
0.0000000000562575
  0
LINE
  5
A117
  8
01
 10
766.0482330039838
 20
-731.72558455369119
 30
0.0000000000562575
 11
766.0482330039838
 21
-735.72558455369119
 31
0.0000000000562575
  0
LINE
  5
A118
  8
01
 10
736.69823301398378
 20
-730.72558455369119
 30
0.0000000000562575
 11
736.69823301398378
 21
-736.72558455369131
 31
0.0000000000562575
  0
LINE
  5
A119
  8
01
 10
737.69823317805776
 20
-735.72558455369119
 30
0.0000000000562575
 11
738.04823300398368
 21
-735.37558455369117
 31
0.0000000000562575
  0
LINE
  5
A11A
  8
01
 10
738.04823300398368
 20
-732.07558455369133
 30
0.0000000000562575
 11
737.69823317805776
 21
-731.72558455369119
 31
0.0000000000562575
  0
TEXT
  5
A11B
  8
01
 10
552.82415380952318
 20
-670.4227615364523
 30
0.0
 40
3.5
  1
材質：ポリアセタール
  0
LINE
  5
A11E
  8
01
 10
460.44252789256109
 20
-700.82875369737008
 30
0.0
 11
460.44252789256109
 21
-746.02222775662312
 31
0.0
  0
LINE
  5
A11F
  8
01
 10
500.44252789255529
 20
-700.82875369737008
 30
0.0
 11
500.44252789255529
 21
-746.02222775662312
 31
0.0
  0
LINE
  5
A120
  8
01
 10
462.44252789256109
 20
-745.02222775662312
 30
0.0
 11
498.44252789255529
 21
-745.02222775662312
 31
0.0
  0
LINE
  5
A124
  8
01
 10
634.264203655232
 20
-756.32875349324138
 30
0.0
 11
664.43794494644919
 21
-756.32875349324138
 31
0.0
  0
LINE
  5
A125
  8
01
 10
633.17134813277255
 20
-706.32875369736928
 30
0.0
 11
664.43794494644919
 21
-706.32875369736928
 31
0.0
  0
LINE
  5
A126
  8
01
 10
663.43794494644919
 20
-754.32875349324149
 30
0.0
 11
663.43794494644919
 21
-708.32875369736939
 31
0.0
  0
LINE
  5
A12A
  8
01
 10
581.10530387925405
 20
-720.82875369737019
 30
0.0
 11
581.10530387925405
 21
-736.98639759091793
 31
0.0
  0
LINE
  5
A12B
  8
01
 10
587.40530387925423
 20
-720.32875369737019
 30
0.0
 11
587.40530387925423
 21
-736.98639759091793
 31
0.0
  0
LINE
  5
A12C
  8
01
 10
583.10530387925405
 20
-735.98639759091793
 30
0.0
 11
585.40530387925423
 21
-735.98639759091793
 31
0.0
  0
LINE
  5
A130
  8
01
 10
581.10530387925405
 20
-720.82875369737019
 30
0.0
 11
581.10530387925405
 21
-746.02222775662312
 31
0.0
  0
LINE
  5
A131
  8
01
 10
589.34717203412413
 20
-706.32875369736996
 30
0.0
 11
589.34717203412413
 21
-746.02222775662312
 31
0.0
  0
LINE
  5
A132
  8
01
 10
583.10530387925405
 20
-745.02222775662312
 30
0.0
 11
587.34717203412413
 21
-745.02222775662312
 31
0.0
  0
LINE
  5
A136
  8
01
 10
541.10530387924507
 20
-720.8287536973703
 30
0.0
 11
541.10530387924507
 21
-736.98639759091793
 31
0.0
  0
LINE
  5
A137
  8
01
 10
534.805303879245
 20
-720.3287536973703
 30
0.0
 11
534.805303879245
 21
-736.98639759091793
 31
0.0
  0
LINE
  5
A138
  8
01
 10
539.10530387924518
 20
-735.98639759091793
 30
0.0
 11
536.80530387924489
 21
-735.98639759091793
 31
0.0
  0
LINE
  5
A13C
  8
01
 10
541.10530387924507
 20
-720.8287536973703
 30
0.0
 11
541.10530387924507
 21
-746.02222775662312
 31
0.0
  0
LINE
  5
A13D
  8
01
 10
519.1052790682354
 20
-716.32875869736722
 30
0.0
 11
519.1052790682354
 21
-746.02222775662312
 31
0.0
  0
LINE
  5
A13E
  8
01
 10
539.10530387924518
 20
-745.02222775662312
 30
0.0
 11
521.10527906823529
 21
-745.02222775662312
 31
0.0
  0
TEXT
  5
A142
  8
01
 10
526.77195814040692
 20
-744.32222775662296
 30
0.0
 40
3.5
  1
22
  0
LINE
  5
A143
  8
01
  6
BYBLOCK
 10
521.10527906823529
 20
-745.55812613662317
 30
0.0
 11
519.1052790682354
 21
-745.02222775662312
 31
0.0
  0
LINE
  5
A144
  8
01
  6
BYBLOCK
 10
519.1052790682354
 20
-745.02222775662312
 30
0.0
 11
521.10527906823529
 21
-744.48632937662296
 31
0.0
  0
LINE
  5
A145
  8
01
  6
BYBLOCK
 10
519.1052790682354
 20
-745.02222775662312
 30
0.0
 11
521.10527906823529
 21
-745.02222775662312
 31
0.0
  0
LINE
  5
A146
  8
01
  6
BYBLOCK
 10
539.10530387924518
 20
-744.48632937662296
 30
0.0
 11
541.10530387924507
 21
-745.02222775662312
 31
0.0
  0
LINE
  5
A147
  8
01
  6
BYBLOCK
 10
541.10530387924507
 20
-745.02222775662312
 30
0.0
 11
539.10530387924518
 21
-745.55812613662317
 31
0.0
  0
LINE
  5
A148
  8
01
  6
BYBLOCK
 10
541.10530387924507
 20
-745.02222775662312
 30
0.0
 11
539.10530387924518
 21
-745.02222775662312
 31
0.0
  0
TEXT
  5
A149
  8
01
 10
536.20530387924509
 20
-735.28639759091789
 30
0.0
 40
3.5
  1
6
  0
LINE
  5
A14A
  8
01
  6
BYBLOCK
 10
536.80530387924489
 20
-736.52229597091787
 30
0.0
 11
534.805303879245
 21
-735.98639759091793
 31
0.0
  0
LINE
  5
A14B
  8
01
  6
BYBLOCK
 10
534.805303879245
 20
-735.98639759091793
 30
0.0
 11
536.80530387924489
 21
-735.45049921091788
 31
0.0
  0
LINE
  5
A14C
  8
01
  6
BYBLOCK
 10
534.805303879245
 20
-735.98639759091793
 30
0.0
 11
536.80530387924489
 21
-735.98639759091793
 31
0.0
  0
LINE
  5
A14D
  8
01
  6
BYBLOCK
 10
539.10530387924518
 20
-735.45049921091788
 30
0.0
 11
541.10530387924507
 21
-735.98639759091793
 31
0.0
  0
LINE
  5
A14E
  8
01
  6
BYBLOCK
 10
541.10530387924507
 20
-735.98639759091793
 30
0.0
 11
539.10530387924518
 21
-736.52229597091787
 31
0.0
  0
LINE
  5
A14F
  8
01
  6
BYBLOCK
 10
541.10530387924507
 20
-735.98639759091793
 30
0.0
 11
539.10530387924518
 21
-735.98639759091793
 31
0.0
  0
TEXT
  5
A150
  8
01
 10
583.55957129002252
 20
-744.32222775662296
 30
0.0
 40
3.5
  1
8
  0
LINE
  5
A151
  8
01
  6
BYBLOCK
 10
587.34717203412413
 20
-744.48632937662296
 30
0.0
 11
589.34717203412413
 21
-745.02222775662312
 31
0.0
  0
LINE
  5
A152
  8
01
  6
BYBLOCK
 10
589.34717203412413
 20
-745.02222775662312
 30
0.0
 11
587.34717203412413
 21
-745.55812613662317
 31
0.0
  0
LINE
  5
A153
  8
01
  6
BYBLOCK
 10
589.34717203412413
 20
-745.02222775662312
 30
0.0
 11
587.34717203412413
 21
-745.02222775662312
 31
0.0
  0
LINE
  5
A154
  8
01
  6
BYBLOCK
 10
583.10530387925405
 20
-745.55812613662317
 30
0.0
 11
581.10530387925405
 21
-745.02222775662312
 31
0.0
  0
LINE
  5
A155
  8
01
  6
BYBLOCK
 10
581.10530387925405
 20
-745.02222775662312
 30
0.0
 11
583.10530387925405
 21
-744.48632937662296
 31
0.0
  0
LINE
  5
A156
  8
01
  6
BYBLOCK
 10
581.10530387925405
 20
-745.02222775662312
 30
0.0
 11
583.10530387925405
 21
-745.02222775662312
 31
0.0
  0
TEXT
  5
A157
  8
01
 10
582.50530387925414
 20
-735.28639759091789
 30
0.0
 40
3.5
  1
6
  0
LINE
  5
A158
  8
01
  6
BYBLOCK
 10
585.40530387925423
 20
-735.45049921091788
 30
0.0
 11
587.40530387925423
 21
-735.98639759091793
 31
0.0
  0
LINE
  5
A159
  8
01
  6
BYBLOCK
 10
587.40530387925423
 20
-735.98639759091793
 30
0.0
 11
585.40530387925423
 21
-736.52229597091787
 31
0.0
  0
LINE
  5
A15A
  8
01
  6
BYBLOCK
 10
587.40530387925423
 20
-735.98639759091793
 30
0.0
 11
585.40530387925423
 21
-735.98639759091793
 31
0.0
  0
LINE
  5
A15B
  8
01
  6
BYBLOCK
 10
583.10530387925405
 20
-736.52229597091787
 30
0.0
 11
581.10530387925405
 21
-735.98639759091793
 31
0.0
  0
LINE
  5
A15C
  8
01
  6
BYBLOCK
 10
581.10530387925405
 20
-735.98639759091793
 30
0.0
 11
583.10530387925405
 21
-735.45049921091788
 31
0.0
  0
LINE
  5
A15D
  8
01
  6
BYBLOCK
 10
581.10530387925405
 20
-735.98639759091793
 30
0.0
 11
583.10530387925405
 21
-735.98639759091793
 31
0.0
  0
TEXT
  5
A15E
  8
01
 10
662.73794494644915
 20
-753.37875359530517
 30
0.0
 40
3.5
  1
ハンドル取付位置=50
 50
90.0
  0
LINE
  5
A15F
  8
01
  6
BYBLOCK
 10
662.90204656644914
 20
-708.32875369736939
 30
0.0
 11
663.43794494644919
 21
-706.32875369736928
 31
0.0
  0
LINE
  5
A160
  8
01
  6
BYBLOCK
 10
663.43794494644919
 20
-706.32875369736928
 30
0.0
 11
663.97384332644924
 21
-708.32875369736939
 31
0.0
  0
LINE
  5
A161
  8
01
  6
BYBLOCK
 10
663.43794494644919
 20
-706.32875369736928
 30
0.0
 11
663.43794494644919
 21
-708.32875369736939
 31
0.0
  0
LINE
  5
A162
  8
01
  6
BYBLOCK
 10
663.97384332644924
 20
-754.32875349324149
 30
0.0
 11
663.43794494644919
 21
-756.32875349324138
 31
0.0
  0
LINE
  5
A163
  8
01
  6
BYBLOCK
 10
663.43794494644919
 20
-756.32875349324138
 30
0.0
 11
662.90204656644914
 21
-754.32875349324149
 31
0.0
  0
LINE
  5
A164
  8
01
  6
BYBLOCK
 10
663.43794494644919
 20
-756.32875349324138
 30
0.0
 11
663.43794494644919
 21
-754.32875349324149
 31
0.0
  0
TEXT
  5
A165
  8
01
 10
474.90919455922489
 20
-744.32222775662296
 30
0.0
 40
3.5
  1
\U+03C640
  0
LINE
  5
A166
  8
01
  6
BYBLOCK
 10
498.44252789255529
 20
-744.48632937662296
 30
0.0
 11
500.44252789255529
 21
-745.02222775662312
 31
0.0
  0
LINE
  5
A167
  8
01
  6
BYBLOCK
 10
500.44252789255529
 20
-745.02222775662312
 30
0.0
 11
498.44252789255529
 21
-745.55812613662317
 31
0.0
  0
LINE
  5
A168
  8
01
  6
BYBLOCK
 10
500.44252789255529
 20
-745.02222775662312
 30
0.0
 11
498.44252789255529
 21
-745.02222775662312
 31
0.0
  0
LINE
  5
A169
  8
01
  6
BYBLOCK
 10
462.44252789256109
 20
-745.55812613662317
 30
0.0
 11
460.44252789256109
 21
-745.02222775662312
 31
0.0
  0
LINE
  5
A16A
  8
01
  6
BYBLOCK
 10
460.44252789256109
 20
-745.02222775662312
 30
0.0
 11
462.44252789256109
 21
-744.48632937662296
 31
0.0
  0
LINE
  5
A16B
  8
01
  6
BYBLOCK
 10
460.44252789256109
 20
-745.02222775662312
 30
0.0
 11
462.44252789256109
 21
-745.02222775662312
 31
0.0
  0
LINE
  5
A16C
  8
01
 10
544.93373498043638
 20
-689.56184142899986
 30
0.0
 11
550.12415380952325
 21
-671.12276153645234
 31
0.0
  0
LINE
  5
A16D
  8
01
 10
550.12415380952325
 20
-671.12276153645234
 30
0.0
 11
552.82415380952318
 21
-671.12276153645234
 31
0.0
  0
LINE
  5
A16E
  8
01
  6
BYBLOCK
 10
545.44958576322222
 20
-689.70704832823628
 30
0.0
 11
544.39181544995927
 21
-691.48702277694804
 31
0.0
  0
LINE
  5
A16F
  8
01
  6
BYBLOCK
 10
544.39181544995927
 20
-691.48702277694804
 30
0.0
 11
544.41788419765055
 21
-689.41663452976331
 31
0.0
  0
LINE
  5
A170
  8
01
  6
BYBLOCK
 10
544.39181544995927
 20
-691.48702277694804
 30
0.0
 11
544.93373498043638
 21
-689.56184142899986
 31
0.0
  0
LINE
  5
A171
  8
01
 10
766.0482330039838
 20
-735.72558455369119
 30
0.0000000000562575
 11
737.69823317805776
 21
-735.72558455369119
 31
0.0000000000562575
  0
LINE
  5
A172
  8
01
 10
766.39823300398371
 20
-735.37558455369117
 30
0.0000000000562575
 11
766.0482330039838
 21
-735.72558455369119
 31
0.0000000000562575
  0
LINE
  5
A173
  8
01
 10
737.69823317805776
 20
-735.72558455369119
 30
0.0000000000562575
 11
736.69823310398385
 21
-736.72558455369131
 31
0.0000000000562575
  0
LINE
  5
A174
  8
01
 10
766.39823300398371
 20
-732.07558455369133
 30
0.0000000000562575
 11
766.39823300398371
 21
-735.37558455369117
 31
0.0000000000562575
  0
LINE
  5
A175
  8
01
 10
736.69823310398385
 20
-736.72558455369131
 30
0.0000000000562575
 11
736.39823300398382
 21
-736.72558455369131
 31
0.0000000000562575
  0
LINE
  5
A176
  8
01
 10
766.0482330039838
 20
-731.72558455369119
 30
0.0000000000562575
 11
766.39823300398371
 21
-732.07558455369133
 31
0.0000000000562575
  0
LINE
  5
A177
  8
01
 10
736.39823300398382
 20
-730.72558455369119
 30
0.0000000000562575
 11
736.39823300398382
 21
-736.72558455369131
 31
0.0000000000562575
  0
LINE
  5
A178
  8
01
 10
766.0482330039838
 20
-731.72558455369119
 30
0.0000000000562575
 11
737.69823317805776
 21
-731.72558455369119
 31
0.0000000000562575
  0
LINE
  5
A179
  8
01
 10
736.69823301398378
 20
-730.72558455369119
 30
0.0000000000562575
 11
736.39823300398382
 21
-730.72558455369119
 31
0.0000000000562575
  0
LINE
  5
A17A
  8
01
 10
737.69823317805776
 20
-731.72558455369119
 30
0.0000000000562575
 11
736.69823301398378
 21
-730.72558455369119
 31
0.0000000000562575
  0
LINE
  5
A17B
  8
01
 10
766.0482330039838
 20
-726.72558455369119
 30
0.0000000000562575
 11
737.69823317805776
 21
-726.72558455369119
 31
0.0000000000562575
  0
LINE
  5
A17C
  8
01
 10
766.39823300398371
 20
-726.37558455369117
 30
0.0000000000562575
 11
766.0482330039838
 21
-726.72558455369119
 31
0.0000000000562575
  0
LINE
  5
A17D
  8
01
 10
737.69823317805776
 20
-726.72558455369119
 30
0.0000000000562575
 11
736.69823310398385
 21
-727.72558455369131
 31
0.0000000000562575
  0
LINE
  5
A17E
  8
01
 10
766.39823300398371
 20
-723.07558455369133
 30
0.0000000000562575
 11
766.39823300398371
 21
-726.37558455369117
 31
0.0000000000562575
  0
LINE
  5
A17F
  8
01
 10
736.69823310398385
 20
-727.72558455369131
 30
0.0000000000562575
 11
736.39823300398382
 21
-727.72558455369131
 31
0.0000000000562575
  0
LINE
  5
A180
  8
01
 10
766.0482330039838
 20
-722.72558455369119
 30
0.0000000000562575
 11
766.39823300398371
 21
-723.07558455369133
 31
0.0000000000562575
  0
LINE
  5
A181
  8
01
 10
736.39823300398382
 20
-721.72558455369131
 30
0.0000000000562575
 11
736.39823300398382
 21
-727.72558455369131
 31
0.0000000000562575
  0
LINE
  5
A182
  8
01
 10
766.0482330039838
 20
-722.72558455369119
 30
0.0000000000562575
 11
737.69823317805776
 21
-722.72558455369119
 31
0.0000000000562575
  0
LINE
  5
A183
  8
01
 10
736.69823301398378
 20
-721.72558455369131
 30
0.0000000000562575
 11
736.39823300398382
 21
-721.72558455369131
 31
0.0000000000562575
  0
LINE
  5
A184
  8
01
 10
737.69823317805776
 20
-722.72558455369119
 30
0.0000000000562575
 11
736.69823301398378
 21
-721.72558455369131
 31
0.0000000000562575
  0
TEXT
  5
A185
  8
01
 10
748.06489967065045
 20
-717.90438736169153
 30
0.0000000000562575
 40
3.5
  1
30
  0
LINE
  5
A186
  8
01
  6
BYBLOCK
 10
764.39823300398382
 20
-718.06848898169153
 30
0.0000000000562575
 11
766.39823300398371
 21
-718.60438736169158
 31
0.0000000000562575
  0
LINE
  5
A187
  8
01
  6
BYBLOCK
 10
766.39823300398371
 20
-718.60438736169158
 30
0.0000000000562575
 11
764.39823300398382
 21
-719.14028574169163
 31
0.0000000000562575
  0
LINE
  5
A188
  8
01
  6
BYBLOCK
 10
766.39823300398371
 20
-718.60438736169158
 30
0.0000000000562575
 11
764.39823300398382
 21
-718.60438736169158
 31
0.0000000000562575
  0
LINE
  5
A189
  8
01
  6
BYBLOCK
 10
738.39823300398382
 20
-719.14028574169163
 30
0.0000000000562575
 11
736.39823300398382
 21
-718.60438736169158
 31
0.0000000000562575
  0
LINE
  5
A18A
  8
01
  6
BYBLOCK
 10
736.39823300398382
 20
-718.60438736169158
 30
0.0000000000562575
 11
738.39823300398382
 21
-718.06848898169153
 31
0.0000000000562575
  0
LINE
  5
A18B
  8
01
  6
BYBLOCK
 10
736.39823300398382
 20
-718.60438736169158
 30
0.0000000000562575
 11
738.39823300398382
 21
-718.60438736169158
 31
0.0000000000562575
  0
LINE
  5
A18C
  8
01
 10
735.61085414782281
 20
-722.90344860214714
 30
0.0
 11
732.04274294165293
 21
-713.97648525170075
 31
0.0
  0
LINE
  5
A18D
  8
01
 10
732.04274294165293
 20
-713.97648525170075
 30
0.0
 11
729.34274294165289
 21
-713.97648525170075
 31
0.0
  0
LINE
  5
A18E
  8
01
  6
BYBLOCK
 10
736.10847468770612
 20
-722.70454945189033
 30
0.0000000000562575
 11
736.35315588889864
 21
-724.7605937567314
 31
0.0000000000562575
  0
LINE
  5
A18F
  8
01
  6
BYBLOCK
 10
736.35315588889864
 20
-724.7605937567314
 30
0.0000000000562575
 11
735.11323360793961
 21
-723.10234775240394
 31
0.0000000000562575
  0
LINE
  5
A190
  8
01
  6
BYBLOCK
 10
736.35315588889864
 20
-724.7605937567314
 30
0.0000000000562575
 11
735.61085414782281
 21
-722.90344860214714
 31
0.0000000000562575
  0
LINE
  5
A191
  8
01
 10
527.18605328175556
 20
-695.32512952159357
 30
0.0
 11
518.89202747529635
 21
-654.98685987873102
 31
0.0
  0
LINE
  5
A192
  8
01
 10
518.89202747529635
 20
-654.98685987873102
 30
0.0
 11
558.45869414196295
 21
-654.98685987873102
 31
0.0
  0
LINE
  5
A193
  8
01
  6
BYBLOCK
 10
527.71097075280954
 20
-695.21720027500646
 30
0.0
 11
527.58885071729605
 21
-697.2841482111221
 31
0.0
  0
LINE
  5
A194
  8
01
  6
BYBLOCK
 10
527.58885071729605
 20
-697.2841482111221
 30
0.0
 11
526.66113581070169
 21
-695.4330587681809
 31
0.0
  0
LINE
  5
A195
  8
01
  6
BYBLOCK
 10
527.58885071729605
 20
-697.2841482111221
 30
0.0
 11
527.18605328175556
 21
-695.32512952159357
 31
0.0
  0
LINE
  5
A196
  8
01
 10
489.62210688045678
 20
-689.06391901276709
 30
0.0
 11
504.74011321979259
 21
-674.67460127421987
 31
0.0
  0
LINE
  5
A197
  8
01
 10
504.74011321979259
 20
-674.67460127421987
 30
0.0
 11
465.17344655312598
 21
-674.67460127421987
 31
0.0
  0
LINE
  5
A198
  8
01
  6
BYBLOCK
 10
489.99157369039477
 20
-689.45209596988946
 30
0.0
 11
488.1734107410042
 21
-690.44278793167666
 31
0.0
  0
LINE
  5
A199
  8
01
  6
BYBLOCK
 10
488.1734107410042
 20
-690.44278793167666
 30
0.0
 11
489.25264007051879
 21
-688.67574205564449
 31
0.0
  0
LINE
  5
A19A
  8
01
  6
BYBLOCK
 10
488.1734107410042
 20
-690.44278793167666
 30
0.0
 11
489.62210688045678
 21
-689.06391901276709
 31
0.0
  0
LINE
  5
A19B
  8
01
 10
568.89318329500145
 20
-711.99669701940479
 30
0.0
 11
563.77777324554745
 21
-760.83255628980953
 31
0.0
1001
ACAD
1000
DSTYLE
1002
{
1070
    40
1040
1.3
1070
   271
1070
     1
1002
}
  0
LINE
  5
A19C
  8
01
 10
563.77777324554745
 20
-760.83255628980953
 30
0.0
 11
560.26777324554735
 21
-760.83255628980953
 31
0.0
1001
ACAD
1000
DSTYLE
1002
{
1070
    40
1040
1.3
1070
   271
1070
     1
1002
}
  0
LINE
  5
A19D
  8
01
  6
BYBLOCK
 10
568.20030613314213
 20
-711.92412021109703
 30
0.0
 11
569.16404363351467
 21
-709.41084422448
 31
0.0
  0
LINE
  5
A19E
  8
01
  6
BYBLOCK
 10
569.16404363351467
 20
-709.41084422448
 30
0.0
 11
569.58606045686065
 21
-712.06927382771255
 31
0.0
  0
LINE
  5
A19F
  8
01
  6
BYBLOCK
 10
569.16404363351467
 20
-709.41084422448
 30
0.0
 11
568.89318329500145
 21
-711.99669701940479
 31
0.0
  0
VIEWPORT
  5
20C3
 67
     1
  8
0
  6
CONTINUOUS
 10
-3.7645543439106741
 20
10.089000620492961
 30
0.0
 40
584.19496197465674
 41
268.60304583660769
 68
     1
 69
     1
1001
ACAD
1000
MVIEW
1002
{
1070
    16
1010
0.0
1020
0.0
1030
0.0
1010
0.0
1020
0.0
1030
1.0
1040
0.0
1040
268.60304583660769
1040
-3.7645543439106741
1040
10.089000620492961
1040
50.0
1040
0.0
1040
0.0
1070
     0
1070
   100
1070
     1
1070
     1
1070
     0
1070
     0
1070
     0
1070
     0
1040
0.0
1040
0.0
1040
0.0
1040
1.0
1040
1.0
1040
0.0
1040
0.0
1070
     0
1002
{
1002
}
1002
}
  0
ENDSEC
  0
EOF
