  0
SECTION
  2
HEADER
  9
$ACADVER
  1
AC1012
  9
$DWGCODEPAGE
  3
ansi_932
  9
$INSBASE
 10
0.0
 20
0.0
 30
0.0
  9
$EXTMIN
 10
457.0613551893543
 20
-785.7574838637602
 30
-0.0000000000571676
  9
$EXTMAX
 10
795.1999635722733
 20
-599.0742101046737
 30
0.0
  9
$LIMMIN
 10
0.0
 20
0.0
  9
$LIMMAX
 10
12.0
 20
9.0
  9
$ORTHOMODE
 70
     0
  9
$REGENMODE
 70
     1
  9
$FILLMODE
 70
     1
  9
$QTEXTMODE
 70
     0
  9
$MIRRTEXT
 70
     0
  9
$DRAGMODE
 70
     2
  9
$LTSCALE
 40
0.5
  9
$OSMODE
 70
 16383
  9
$ATTMODE
 70
     1
  9
$TEXTSIZE
 40
4.0
  9
$TRACEWID
 40
0.05
  9
$TEXTSTYLE
  7
STANDARD
  9
$CLAYER
  8
1TEXT
  9
$CELTYPE
  6
BYLAYER
  9
$CECOLOR
 62
   256
  9
$CELTSCALE
 40
1.0
  9
$DELOBJ
 70
     1
  9
$DISPSILH
 70
     0
  9
$DIMSCALE
 40
1.0
  9
$DIMASZ
 40
2.0
  9
$DIMEXO
 40
0.0
  9
$DIMDLI
 40
7.0
  9
$DIMRND
 40
0.0
  9
$DIMDLE
 40
0.0
  9
$DIMEXE
 40
1.0
  9
$DIMTP
 40
0.0
  9
$DIMTM
 40
0.0
  9
$DIMTXT
 40
3.5
  9
$DIMCEN
 40
0.0
  9
$DIMTSZ
 40
0.0
  9
$DIMTOL
 70
     0
  9
$DIMLIM
 70
     0
  9
$DIMTIH
 70
     0
  9
$DIMTOH
 70
     0
  9
$DIMSE1
 70
     0
  9
$DIMSE2
 70
     0
  9
$DIMTAD
 70
     1
  9
$DIMZIN
 70
     8
  9
$DIMBLK
  1

  9
$DIMASO
 70
     1
  9
$DIMSHO
 70
     1
  9
$DIMPOST
  1
 
  9
$DIMAPOST
  1

  9
$DIMALT
 70
     0
  9
$DIMALTD
 70
     2
  9
$DIMALTF
 40
25.4
  9
$DIMLFAC
 40
1.0
  9
$DIMTOFL
 70
     1
  9
$DIMTVP
 40
0.0
  9
$DIMTIX
 70
     0
  9
$DIMSOXD
 70
     0
  9
$DIMSAH
 70
     1
  9
$DIMBLK1
  1
OPEN30
  9
$DIMBLK2
  1
OPEN30
  9
$DIMSTYLE
  2
NEWX10
  9
$DIMCLRD
 70
   256
  9
$DIMCLRE
 70
   256
  9
$DIMCLRT
 70
   201
  9
$DIMTFAC
 40
0.7
  9
$DIMGAP
 40
0.7
  9
$DIMJUST
 70
     0
  9
$DIMSD1
 70
     0
  9
$DIMSD2
 70
     0
  9
$DIMTOLJ
 70
     1
  9
$DIMTZIN
 70
     8
  9
$DIMALTZ
 70
     0
  9
$DIMALTTZ
 70
     0
  9
$DIMFIT
 70
     2
  9
$DIMUPT
 70
     0
  9
$DIMUNIT
 70
     2
  9
$DIMDEC
 70
     2
  9
$DIMTDEC
 70
     4
  9
$DIMALTU
 70
     2
  9
$DIMALTTD
 70
     2
  9
$DIMTXSTY
  7
STANDARD
  9
$DIMAUNIT
 70
     0
  9
$LUNITS
 70
     2
  9
$LUPREC
 70
     4
  9
$SKETCHINC
 40
0.1
  9
$FILLETRAD
 40
0.0
  9
$AUNITS
 70
     0
  9
$AUPREC
 70
     2
  9
$MENU
  1
acad
  9
$ELEVATION
 40
0.0
  9
$PELEVATION
 40
0.0
  9
$THICKNESS
 40
0.0
  9
$LIMCHECK
 70
     0
  9
$CHAMFERA
 40
0.0
  9
$CHAMFERB
 40
0.0
  9
$CHAMFERC
 40
0.0
  9
$CHAMFERD
 40
0.0
  9
$SKPOLY
 70
     0
  9
$TDCREATE
 40
2451024.579593021
  9
$TDUPDATE
 40
2458894.480208113
  9
$TDINDWG
 40
1.0268509144
  9
$TDUSRTIMER
 40
1.0268509144
  9
$USRTIMER
 70
     1
  9
$ANGBASE
 50
0.0
  9
$ANGDIR
 70
     0
  9
$PDMODE
 70
     0
  9
$PDSIZE
 40
0.0
  9
$PLINEWID
 40
0.0
  9
$COORDS
 70
     2
  9
$SPLFRAME
 70
     0
  9
$SPLINETYPE
 70
     6
  9
$SPLINESEGS
 70
     8
  9
$ATTDIA
 70
     0
  9
$ATTREQ
 70
     1
  9
$HANDLING
 70
     1
  9
$HANDSEED
  5
A25E
  9
$SURFTAB1
 70
     6
  9
$SURFTAB2
 70
     6
  9
$SURFTYPE
 70
     6
  9
$SURFU
 70
     6
  9
$SURFV
 70
     6
  9
$UCSNAME
  2

  9
$UCSORG
 10
0.0
 20
0.0
 30
0.0
  9
$UCSXDIR
 10
1.0
 20
0.0
 30
0.0
  9
$UCSYDIR
 10
0.0
 20
1.0
 30
0.0
  9
$PUCSNAME
  2

  9
$PUCSORG
 10
0.0
 20
0.0
 30
0.0
  9
$PUCSXDIR
 10
1.0
 20
0.0
 30
0.0
  9
$PUCSYDIR
 10
0.0
 20
1.0
 30
0.0
  9
$USERI1
 70
     0
  9
$USERI2
 70
     0
  9
$USERI3
 70
     0
  9
$USERI4
 70
     0
  9
$USERI5
 70
     0
  9
$USERR1
 40
0.0
  9
$USERR2
 40
0.0
  9
$USERR3
 40
0.0
  9
$USERR4
 40
0.0
  9
$USERR5
 40
0.0
  9
$WORLDVIEW
 70
     1
  9
$SHADEDGE
 70
     3
  9
$SHADEDIF
 70
    70
  9
$TILEMODE
 70
     1
  9
$MAXACTVP
 70
    48
  9
$PINSBASE
 10
0.0
 20
0.0
 30
0.0
  9
$PLIMCHECK
 70
     0
  9
$PEXTMIN
 10
1.000000000000000E+20
 20
1.000000000000000E+20
 30
1.000000000000000E+20
  9
$PEXTMAX
 10
-1.000000000000000E+20
 20
-1.000000000000000E+20
 30
-1.000000000000000E+20
  9
$PLIMMIN
 10
0.0
 20
0.0
  9
$PLIMMAX
 10
12.0
 20
9.0
  9
$UNITMODE
 70
     0
  9
$VISRETAIN
 70
     1
  9
$PLINEGEN
 70
     0
  9
$PSLTSCALE
 70
     1
  9
$TREEDEPTH
 70
  3020
  9
$PICKSTYLE
 70
     1
  9
$CMLSTYLE
  2
STANDARD
  9
$CMLJUST
 70
     0
  9
$CMLSCALE
 40
1.0
  9
$SAVEIMAGES
 70
     1
  0
ENDSEC
  0
SECTION
  2
CLASSES
  0
CLASS
  1
IDBUFFER
  2
AcDbIdBuffer
  3
ObjectDBX Classes
 90
    32768
280
     0
281
     0
  0
CLASS
  1
LWPOLYLINE
  2
AcDbPolyline
  3
ObjectDBX Classes
 90
    32768
280
     0
281
     1
  0
CLASS
  1
DICTIONARYVAR
  2
AcDbDictionaryVar
  3
ObjectDBX Classes
 90
        0
280
     0
281
     0
  0
CLASS
  1
HATCH
  2
AcDbHatch
  3
ObjectDBX Classes
 90
    32768
280
     0
281
     1
  0
CLASS
  1
ACDBDICTIONARYWDFLT
  2
AcDbDictionaryWithDefault
  3
ObjectDBX Classes
 90
    32768
280
     0
281
     0
  0
CLASS
  1
ACDBPLACEHOLDER
  2
AcDbPlaceHolder
  3
ObjectDBX Classes
 90
        0
280
     0
281
     0
  0
CLASS
  1
LAYOUT
  2
AcDbLayout
  3
ObjectDBX Classes
 90
        0
280
     0
281
     0
  0
CLASS
  1
TABLESTYLE
  2
AcDbTableStyle
  3
ObjectDBX Classes
 90
     4095
280
     0
281
     0
  0
CLASS
  1
SORTENTSTABLE
  2
AcDbSortentsTable
  3
ObjectDBX Classes
 90
    32768
280
     0
281
     0
  0
CLASS
  1
DIMASSOC
  2
AcDbDimAssoc
  3
"AcDbDimAssoc|Product Desc:     AcDim ARX App For Dimension|Company:          Autodesk, Inc.|WEB Address:      www.autodesk.com"
 90
        0
280
     0
281
     0
  0
CLASS
  1
MATERIAL
  2
AcDbMaterial
  3
ObjectDBX Classes
 90
     1153
280
     0
281
     0
  0
CLASS
  1
VISUALSTYLE
  2
AcDbVisualStyle
  3
ObjectDBX Classes
 90
     4095
280
     0
281
     0
  0
CLASS
  1
SCALE
  2
AcDbScale
  3
ObjectDBX Classes
 90
     1153
280
     0
281
     0
  0
CLASS
  1
MLEADERSTYLE
  2
AcDbMLeaderStyle
  3
ACDB_MLEADERSTYLE_CLASS
 90
     4095
280
     0
281
     0
  0
CLASS
  1
CELLSTYLEMAP
  2
AcDbCellStyleMap
  3
ObjectDBX Classes
 90
     1152
280
     0
281
     0
  0
CLASS
  1
SUN
  2
AcDbSun
  3
SCENEOE
 90
     1153
280
     0
281
     0
  0
CLASS
  1
XRECORD
  2
AcDbXrecord
  3
ObjectDBX Classes
 90
    32768
280
     0
281
     0
  0
ENDSEC
  0
SECTION
  2
TABLES
  0
TABLE
  2
VPORT
  5
8
330
0
100
AcDbSymbolTable
 70
     1
  0
VPORT
  5
9B8E
330
8
100
AcDbSymbolTableRecord
100
AcDbViewportTableRecord
  2
*ACTIVE
 70
     0
 10
0.0
 20
0.0
 11
1.0
 21
1.0
 12
626.1306593808138
 22
-692.415846984217
 13
0.0
 23
0.0
 14
1.0
 24
1.0
 15
0.0
 25
0.0
 16
0.0
 26
0.0
 36
1.0
 17
0.0
 27
0.0
 37
0.0
 40
201.3537370189595
 41
1.803066037735849
 42
50.0
 43
0.0
 44
0.0
 50
0.0
 51
0.0
 71
    16
 72
  1000
 73
     1
 74
     1
 75
     0
 76
     0
 77
     0
 78
     0
1001
ACAD_NAV_VCDISPLAY
1070
     3
  0
ENDTAB
  0
TABLE
  2
LTYPE
  5
5
330
0
100
AcDbSymbolTable
 70
     4
  0
LTYPE
  5
12
330
5
100
AcDbSymbolTableRecord
100
AcDbLinetypeTableRecord
  2
BYBLOCK
 70
     0
  3

 72
    65
 73
     0
 40
0.0
  0
LTYPE
  5
13
330
5
100
AcDbSymbolTableRecord
100
AcDbLinetypeTableRecord
  2
BYLAYER
 70
     0
  3

 72
    65
 73
     0
 40
0.0
  0
LTYPE
  5
14
330
5
100
AcDbSymbolTableRecord
100
AcDbLinetypeTableRecord
  2
CONTINUOUS
 70
     0
  3
Solid line
 72
    65
 73
     0
 40
0.0
  0
LTYPE
  5
1C04
330
5
100
AcDbSymbolTableRecord
100
AcDbLinetypeTableRecord
  2
CENTER2
 70
     0
  3
Center (.5x) ___ _ ___ _ ___ _ ___ _ ___ _ ___
 72
    65
 73
     4
 40
28.575
 49
19.05
 74
     0
 49
-3.175
 74
     0
 49
3.175
 74
     0
 49
-3.175
 74
     0
  0
LTYPE
  5
37C1
330
5
100
AcDbSymbolTableRecord
100
AcDbLinetypeTableRecord
  2
XREF1|CENTER2
 70
    48
  3
Center (.5x) ___ _ ___ _ ___ _ ___ _ ___ _ ___
 72
    65
 73
     4
 40
28.575
 49
19.05
 74
     0
 49
-3.175
 74
     0
 49
3.175
 74
     0
 49
-3.175
 74
     0
  0
LTYPE
  5
5538
330
5
100
AcDbSymbolTableRecord
100
AcDbLinetypeTableRecord
  2
A3WAKUDAKE|CENTER2
 70
    48
  3
Center (.5x) ___ _ ___ _ ___ _ ___ _ ___ _ ___
 72
    65
 73
     4
 40
28.575
 49
19.05
 74
     0
 49
-3.175
 74
     0
 49
3.175
 74
     0
 49
-3.175
 74
     0
  0
ENDTAB
  0
TABLE
  2
LAYER
  5
2
102
{ACAD_XDICTIONARY
360
83EE
102
}
330
0
100
AcDbSymbolTable
 70
    10
  0
LAYER
  5
E
102
{ACAD_XDICTIONARY
360
9BF8
102
}
330
2
100
AcDbSymbolTableRecord
100
AcDbLayerTableRecord
  2
0
 70
     0
 62
     7
  6
CONTINUOUS
  0
LAYER
  5
1C0B
102
{ACAD_XDICTIONARY
360
9BFA
102
}
330
2
100
AcDbSymbolTableRecord
100
AcDbLayerTableRecord
  2
1CENTER
 70
     0
 62
     7
  6
CENTER2
  0
LAYER
  5
1C0C
102
{ACAD_XDICTIONARY
360
9BFC
102
}
330
2
100
AcDbSymbolTableRecord
100
AcDbLayerTableRecord
  2
1DIM
 70
     0
 62
     7
  6
CONTINUOUS
  0
LAYER
  5
1C0E
102
{ACAD_XDICTIONARY
360
9BFE
102
}
330
2
100
AcDbSymbolTableRecord
100
AcDbLayerTableRecord
  2
1TEXT
 70
     0
 62
     7
  6
CONTINUOUS
  0
LAYER
  5
37AE
102
{ACAD_XDICTIONARY
360
9C04
102
}
330
2
100
AcDbSymbolTableRecord
100
AcDbLayerTableRecord
  2
1HATCH
 70
     0
 62
     7
  6
CONTINUOUS
  0
LAYER
  5
5534
102
{ACAD_XDICTIONARY
360
9C06
102
}
330
2
100
AcDbSymbolTableRecord
100
AcDbLayerTableRecord
  2
A3WAKUDAKE|THICK
 70
    48
 62
     7
  6
CONTINUOUS
  0
LAYER
  5
5535
102
{ACAD_XDICTIONARY
360
9C08
102
}
330
2
100
AcDbSymbolTableRecord
100
AcDbLayerTableRecord
  2
A3WAKUDAKE|POINT
 70
    48
 62
     7
  6
CONTINUOUS
  0
LAYER
  5
5536
102
{ACAD_XDICTIONARY
360
9C0A
102
}
330
2
100
AcDbSymbolTableRecord
100
AcDbLayerTableRecord
  2
A3WAKUDAKE|1CENTER
 70
    48
 62
     7
  6
A3WAKUDAKE|CENTER2
  0
LAYER
  5
6599
102
{ACAD_XDICTIONARY
360
9C0C
102
}
330
2
100
AcDbSymbolTableRecord
100
AcDbLayerTableRecord
  2
A3WAKUDAKE|0-6
 70
    48
 62
     7
  6
CONTINUOUS
  0
LAYER
  5
93A7
102
{ACAD_XDICTIONARY
360
9C16
102
}
330
2
100
AcDbSymbolTableRecord
100
AcDbLayerTableRecord
  2
01
 70
     0
 62
     1
  6
CONTINUOUS
  0
ENDTAB
  0
TABLE
  2
STYLE
  5
3
330
0
100
AcDbSymbolTable
 70
     3
  0
STYLE
  5
F
330
3
100
AcDbSymbolTableRecord
100
AcDbTextStyleTableRecord
  2
STANDARD
 70
     0
 40
0.0
 41
1.0
 50
0.0
 71
     0
 42
4.0
  3
txt.shx
  4
extfont.shx
  0
STYLE
  5
A051
330
3
100
AcDbSymbolTableRecord
100
AcDbTextStyleTableRecord
  2
A3WAKUDAKE|STANDARD
 70
    48
 40
0.0
 41
1.0
 50
0.0
 71
     0
 42
4.0
  3
romans.shx
  4
extfont.shx
  0
STYLE
  5
A079
330
3
100
AcDbSymbolTableRecord
100
AcDbTextStyleTableRecord
  2
XREF1|STANDARD
 70
    48
 40
0.0
 41
1.0
 50
0.0
 71
     0
 42
4.0
  3
romans.shx
  4
extfont.shx
  0
ENDTAB
  0
TABLE
  2
VIEW
  5
6
330
0
100
AcDbSymbolTable
 70
     1
  0
VIEW
  5
2071
330
6
100
AcDbSymbolTableRecord
100
AcDbViewTableRecord
  2
A
 70
     0
 40
163.8886542118344
 10
23.75874513620715
 20
-310.5239119589886
 41
232.0683926202114
 11
0.0
 21
0.0
 31
1.0
 12
0.0
 22
0.0
 32
0.0
 42
50.0
 43
0.0
 44
0.0
 50
0.0
 71
     0
  0
ENDTAB
  0
TABLE
  2
UCS
  5
7
330
0
100
AcDbSymbolTable
 70
     0
  0
ENDTAB
  0
TABLE
  2
APPID
  5
9
330
0
100
AcDbSymbolTable
 70
    11
  0
APPID
  5
10
330
9
100
AcDbSymbolTableRecord
100
AcDbRegAppTableRecord
  2
ACAD
 70
     0
  0
APPID
  5
1BDB
330
9
100
AcDbSymbolTableRecord
100
AcDbRegAppTableRecord
  2
CONTENTBLOCKICON
 70
     0
  0
APPID
  5
1BDC
330
9
100
AcDbSymbolTableRecord
100
AcDbRegAppTableRecord
  2
CONTENTBLOCKDESCRIPTION
 70
     0
  0
APPID
  5
1BED
330
9
100
AcDbSymbolTableRecord
100
AcDbRegAppTableRecord
  2
CONTENTTABDATA
 70
     0
  0
APPID
  5
1BEE
330
9
100
AcDbSymbolTableRecord
100
AcDbRegAppTableRecord
  2
CONTENTCURRENTTAB
 70
     0
  0
APPID
  5
37BE
330
9
100
AcDbSymbolTableRecord
100
AcDbRegAppTableRecord
  2
DRAWINGVARIABLESXDATA
 70
     0
  0
APPID
  5
37BF
330
9
100
AcDbSymbolTableRecord
100
AcDbRegAppTableRecord
  2
CONTENTLONGBLOCKNAME
 70
     0
  0
APPID
  5
8492
330
9
100
AcDbSymbolTableRecord
100
AcDbRegAppTableRecord
  2
ACAD_DSTYLE_DIMTEXT_FILL
 70
     0
  0
APPID
  5
91C7
330
9
100
AcDbSymbolTableRecord
100
AcDbRegAppTableRecord
  2
ACAD_PSEXT
 70
     0
  0
APPID
  5
9BF3
330
9
100
AcDbSymbolTableRecord
100
AcDbRegAppTableRecord
  2
ACAD_MLEADERVER
 70
     0
  0
APPID
  5
9F33
330
9
100
AcDbSymbolTableRecord
100
AcDbRegAppTableRecord
  2
ACAD_NAV_VCDISPLAY
 70
     0
  0
ENDTAB
  0
TABLE
  2
DIMSTYLE
  5
A
330
0
100
AcDbSymbolTable
 70
     1
  0
DIMSTYLE
105
37CD
102
{ACAD_REACTORS
102
}
330
A
100
AcDbSymbolTableRecord
100
AcDbDimStyleTableRecord
  2
NEWX10
 70
     0
  3
 
  4

  5

  6
OPEN30
  7
OPEN30
 40
1.0
 41
2.0
 42
0.0
 43
7.0
 44
1.0
 45
0.0
 46
0.0
 47
0.0
 48
0.0
140
3.5
141
0.0
142
0.0
143
25.4
144
1.0
145
0.0
146
0.7
147
0.7
 71
     0
 72
     0
 73
     0
 74
     0
 75
     0
 76
     0
 77
     1
 78
     8
170
     0
171
     2
172
     1
173
     1
174
     0
175
     0
176
   256
177
   256
178
   201
179
     2
270
     2
271
     2
272
     4
273
     2
274
     2
340
F
275
     0
280
     0
281
     0
282
     0
283
     1
284
     8
285
     0
286
     0
287
     2
288
     0
  0
ENDTAB
  0
TABLE
  2
BLOCK_RECORD
  5
1
330
0
100
AcDbSymbolTable
 70
     3
  0
BLOCK_RECORD
  5
18
102
{ACAD_XDICTIONARY
360
9CD1
102
}
330
1
100
AcDbSymbolTableRecord
100
AcDbBlockTableRecord
  2
*MODEL_SPACE
  0
BLOCK_RECORD
  5
15
330
1
100
AcDbSymbolTableRecord
100
AcDbBlockTableRecord
  2
*PAPER_SPACE
  0
BLOCK_RECORD
  5
37B6
330
1
100
AcDbSymbolTableRecord
100
AcDbBlockTableRecord
  2
XREF1
  0
BLOCK_RECORD
  5
3853
330
1
100
AcDbSymbolTableRecord
100
AcDbBlockTableRecord
  2
_OPEN30
  0
BLOCK_RECORD
  5
5531
330
1
100
AcDbSymbolTableRecord
100
AcDbBlockTableRecord
  2
A3WAKUDAKE
  0
ENDTAB
  0
ENDSEC
  0
SECTION
  2
BLOCKS
  0
BLOCK
  5
19
330
18
100
AcDbEntity
  8
0
100
AcDbBlockBegin
  2
*MODEL_SPACE
 70
     0
 10
0.0
 20
0.0
 30
0.0
  3
*MODEL_SPACE
  1

  0
ENDBLK
  5
1A
330
18
100
AcDbEntity
  8
0
100
AcDbBlockEnd
  0
BLOCK
  5
16
330
15
100
AcDbEntity
 67
     1
  8
0
100
AcDbBlockBegin
  2
*PAPER_SPACE
 70
     0
 10
0.0
 20
0.0
 30
0.0
  3
*PAPER_SPACE
  1

  0
ENDBLK
  5
17
330
15
100
AcDbEntity
 67
     1
  8
0
100
AcDbBlockEnd
  0
BLOCK
  5
37B7
330
37B6
100
AcDbEntity
  8
0
100
AcDbBlockBegin
  2
XREF1
 70
    36
 10
0.0
 20
0.0
 30
0.0
  3
XREF1
  1
D:\ACLT\FORMAT\KAWAJUN(9)図面用.dwg
  0
ENDBLK
  5
37B8
330
37B6
100
AcDbEntity
  8
0
100
AcDbBlockEnd
  0
BLOCK
  5
3857
330
3853
100
AcDbEntity
  8
0
100
AcDbBlockBegin
  2
_OPEN30
 70
     0
 10
0.0
 20
0.0
 30
0.0
  3
_OPEN30
  1

  0
LINE
  5
3854
330
3853
100
AcDbEntity
  8
0
  6
BYBLOCK
 62
     0
100
AcDbLine
 10
-1.0
 20
0.26794919
 30
0.0
 11
0.0
 21
0.0
 31
0.0
  0
LINE
  5
3855
330
3853
100
AcDbEntity
  8
0
  6
BYBLOCK
 62
     0
100
AcDbLine
 10
0.0
 20
0.0
 30
0.0
 11
-1.0
 21
-0.26794919
 31
0.0
  0
LINE
  5
3856
330
3853
100
AcDbEntity
  8
0
  6
BYBLOCK
 62
     0
100
AcDbLine
 10
0.0
 20
0.0
 30
0.0
 11
-1.0
 21
0.0
 31
0.0
  0
ENDBLK
  5
3858
330
3853
100
AcDbEntity
  8
0
100
AcDbBlockEnd
  0
BLOCK
  5
5532
330
5531
100
AcDbEntity
  8
0
100
AcDbBlockBegin
  2
A3WAKUDAKE
 70
   100
 10
0.0
 20
0.0
 30
0.0
  3
A3WAKUDAKE
  1
D:\ACLT\FORMAT\A3WAKUdake.dwg
  0
ENDBLK
  5
5533
330
5531
100
AcDbEntity
  8
0
100
AcDbBlockEnd
  0
ENDSEC
  0
SECTION
  2
ENTITIES
  0
TEXT
  5
8D1E
330
18
100
AcDbEntity
  8
1TEXT
100
AcDbText
 10
741.7014509852805
 20
-765.8755742351553
 30
0.0
 40
4.0
  1
付属ねじ
100
AcDbText
  0
TEXT
  5
8FBC
330
18
100
AcDbEntity
  8
1TEXT
100
AcDbText
 10
461.4180680140553
 20
-607.0742101046737
 30
0.0
 40
8.0
  1
KLW-3E-X
100
AcDbText
  0
LINE
  5
99A6
330
18
100
AcDbEntity
  8
01
100
AcDbLine
 10
604.9101621158263
 20
-647.6800167540066
 30
-0.0000000000562575
 11
644.9101621158263
 21
-647.6800167540059
 31
-0.0000000000562575
  0
LINE
  5
99A7
330
18
100
AcDbEntity
  8
01
100
AcDbLine
 10
644.4101621158264
 20
-653.9800167540063
 30
-0.0000000000562575
 11
605.4101621158266
 21
-653.9800167540068
 31
-0.0000000000562575
  0
CIRCLE
  5
99A8
330
18
100
AcDbEntity
  8
01
100
AcDbCircle
 10
624.9101495721607
 20
-723.1646288678893
 30
-0.0000000000562575
 40
19.99999999999963
  0
LINE
  5
99A9
330
18
100
AcDbEntity
  8
01
100
AcDbLine
 10
481.0097556544042
 20
-631.9800167540053
 30
-0.0000000000553302
 11
481.5097412732002
 21
-632.4800167540053
 31
-0.0000000000562403
  0
LINE
  5
99AA
330
18
100
AcDbEntity
  8
01
100
AcDbLine
 10
475.3528986544042
 20
-631.9800167540053
 30
-0.0000000000553302
 11
474.8528760356073
 21
-632.4800167540053
 31
-0.0000000000562403
  0
LINE
  5
99AB
330
18
100
AcDbEntity
  8
1CENTER
100
AcDbLine
 10
478.1813296544036
 20
-628.1376049980769
 30
-0.0000000000562575
 11
478.1813296544066
 21
-671.0624637816933
 31
-0.0000000000562575
  0
CIRCLE
  5
99B0
330
18
100
AcDbEntity
  8
01
100
AcDbCircle
 10
478.181329654403
 20
-723.1646288678891
 30
-0.0000000000562575
 40
20.00000000000007
  0
LINE
  5
99B1
330
18
100
AcDbEntity
  8
1CENTER
100
AcDbLine
 10
478.1813296544046
 20
-745.4190545290681
 30
-0.0000000000562575
 11
478.1813296544049
 21
-700.1835169357424
 31
-0.0000000000562575
  0
ARC
  5
99B3
330
18
100
AcDbEntity
  8
01
100
AcDbCircle
 10
478.181329654405
 20
-728.6646288678891
 30
-0.0000000000562575
 40
10.99999500000695
100
AcDbArc
 50
280.9805807214292
 51
79.01941927857082
  0
CIRCLE
  5
99B4
330
18
100
AcDbEntity
  8
01
100
AcDbCircle
 10
478.181329654405
 20
-728.6646288678891
 30
-0.0000000000562575
 40
11.30000000000109
  0
LINE
  5
99B5
330
18
100
AcDbEntity
  8
1CENTER
100
AcDbLine
 10
465.7810247939368
 20
-728.6646288678891
 30
-0.0000000000562575
 11
490.3796887291429
 21
-728.6646288678888
 31
-0.0000000000562575
  0
ARC
  5
99B6
330
18
100
AcDbEntity
  8
01
100
AcDbCircle
 10
478.181329654405
 20
-728.6646288678891
 30
-0.0000000000562575
 40
10.99999500000695
100
AcDbArc
 50
100.9805807214292
 51
259.0194192785708
  0
LINE
  5
99B7
330
18
100
AcDbEntity
  8
01
100
AcDbLine
 10
480.681329654405
 20
-718.3568698970879
 30
-0.0000000000562575
 11
480.681329654405
 21
-738.9723878386902
 31
-0.0000000000562575
  0
LINE
  5
99B8
330
18
100
AcDbEntity
  8
01
100
AcDbLine
 10
475.681329654405
 20
-718.3568698970879
 30
-0.0000000000562575
 11
475.681329654405
 21
-738.9723878386902
 31
-0.0000000000562575
  0
ARC
  5
99B9
330
18
100
AcDbEntity
  8
01
100
AcDbCircle
 10
476.181329654405
 20
-738.9723878386902
 30
-0.0000000000562575
 40
0.5
100
AcDbArc
 50
180.0
 51
259.0194192785708
  0
ARC
  5
99BA
330
18
100
AcDbEntity
  8
01
100
AcDbCircle
 10
480.181329654405
 20
-738.9723878386902
 30
-0.0000000000562575
 40
0.5
100
AcDbArc
 50
280.9805807214292
 51
0.0
  0
ARC
  5
99BB
330
18
100
AcDbEntity
  8
01
100
AcDbCircle
 10
478.181329654405
 20
-728.6646288678891
 30
-0.0000000000562575
 40
10.99999500000695
100
AcDbArc
 50
259.0194192785708
 51
280.9805807214292
  0
ARC
  5
99BC
330
18
100
AcDbEntity
  8
01
100
AcDbCircle
 10
476.181329654405
 20
-718.3568698970879
 30
-0.0000000000562575
 40
0.5
100
AcDbArc
 50
100.9805807214292
 51
180.0
  0
ARC
  5
99BD
330
18
100
AcDbEntity
  8
01
100
AcDbCircle
 10
480.181329654405
 20
-718.3568698970879
 30
-0.0000000000562575
 40
0.5
100
AcDbArc
 50
0.0
 51
79.01941927857082
  0
ARC
  5
99BE
330
18
100
AcDbEntity
  8
01
100
AcDbCircle
 10
478.181329654405
 20
-728.6646288678891
 30
-0.0000000000562575
 40
10.99999500000695
100
AcDbArc
 50
79.01941927857082
 51
100.9805807214292
  0
LINE
  5
99BF
330
18
100
AcDbEntity
  8
01
100
AcDbLine
 10
481.6813296543989
 20
-655.1800134208062
 30
-0.0000000000562403
 11
488.6813346543967
 21
-655.1800134208075
 31
-0.0000000000562403
  0
LINE
  5
99C0
330
18
100
AcDbEntity
  8
01
100
AcDbLine
 10
458.181341875612
 20
-647.6800167540065
 30
-0.0000000000562575
 11
498.1813418756121
 21
-647.6800167540059
 31
-0.0000000000562575
  0
LINE
  5
99C1
330
18
100
AcDbEntity
  8
01
100
AcDbLine
 10
497.6813418756121
 20
-653.9800167540064
 30
-0.0000000000562575
 11
458.6813418756122
 21
-653.9800167540067
 31
-0.0000000000562575
  0
LINE
  5
99C2
330
18
100
AcDbEntity
  8
01
100
AcDbLine
 10
463.1813290094858
 20
-643.4800167540071
 30
-0.0000000000562575
 11
493.1813290094858
 21
-643.4800167540058
 31
-0.0000000000562575
  0
LINE
  5
99C3
330
18
100
AcDbEntity
  8
01
100
AcDbLine
 10
480.6813296543971
 20
-668.6800363650128
 30
-0.0000000000562403
 11
480.6813296543989
 21
-656.1800134208062
 31
-0.0000000000562403
  0
LINE
  5
99C4
330
18
100
AcDbEntity
  8
01
100
AcDbLine
 10
475.6813296543971
 20
-668.680036365011
 30
-0.0000000000562403
 11
475.6813296543971
 21
-656.180013420808
 31
-0.0000000000562403
  0
ARC
  5
99C5
330
18
100
AcDbEntity
  8
01
100
AcDbCircle
 10
476.6813296543963
 20
-668.6800363650128
 30
-0.0000000000562403
 40
1.0
100
AcDbArc
 50
180.0000000000521
 51
270.0
  0
ARC
  5
99C6
330
18
100
AcDbEntity
  8
01
100
AcDbCircle
 10
479.6813296543963
 20
-668.6800363650128
 30
-0.0000000000562403
 40
1.0
100
AcDbArc
 50
270.0
 51
0.0
  0
LINE
  5
99C7
330
18
100
AcDbEntity
  8
01
100
AcDbLine
 10
476.6813296543971
 20
-669.6800363650146
 30
-0.0000000000562403
 11
479.6813296543962
 21
-669.6800363650146
 31
-0.0000000000562403
  0
LINE
  5
99C8
330
18
100
AcDbEntity
  8
01
100
AcDbLine
 10
467.6813346543972
 20
-655.180013420808
 30
-0.0000000000562403
 11
474.6813296543971
 21
-655.180013420808
 31
-0.0000000000562403
  0
ARC
  5
99C9
330
18
100
AcDbEntity
  8
01
100
AcDbCircle
 10
462.6813290094856
 20
-647.1800167540074
 30
-0.0000000000562575
 40
0.5
100
AcDbArc
 50
270.0000000000065
 51
0.0
  0
LINE
  5
99CA
330
18
100
AcDbEntity
  8
01
100
AcDbLine
 10
458.181341875612
 20
-647.6800167540065
 30
-0.0000000000562575
 11
458.1813418756122
 21
-653.4800167540067
 31
-0.0000000000562575
  0
ARC
  5
99CB
330
18
100
AcDbEntity
  8
01
100
AcDbCircle
 10
458.6813418756121
 20
-653.4800167540064
 30
-0.0000000000562575
 40
0.5
100
AcDbArc
 50
180.0
 51
270.0
  0
LINE
  5
99CC
330
18
100
AcDbEntity
  8
01
100
AcDbLine
 10
467.1813346543972
 20
-654.6800134208075
 30
-0.0000000000562403
 11
467.1813346543968
 21
-653.9800167540066
 31
-0.0000000000552568
  0
ARC
  5
99CD
330
18
100
AcDbEntity
  8
01
100
AcDbCircle
 10
467.6813346543973
 20
-654.680013420808
 30
-0.0000000000562403
 40
0.5
100
AcDbArc
 50
180.0
 51
270.0
  0
LINE
  5
99CE
330
18
100
AcDbEntity
  8
01
100
AcDbLine
 10
463.1813290094858
 20
-643.4800167540071
 30
-0.0000000000562575
 11
463.1813290094856
 21
-647.1800167540074
 31
-0.0000000000562575
  0
ARC
  5
99CF
330
18
100
AcDbEntity
  8
01
100
AcDbCircle
 10
474.6813296543963
 20
-656.180013420808
 30
-0.0000000000562403
 40
1.0
100
AcDbArc
 50
0.0
 51
90.0
  0
ARC
  5
99D0
330
18
100
AcDbEntity
  8
01
100
AcDbCircle
 10
481.6813296543981
 20
-656.1800134208062
 30
-0.0000000000562403
 40
1.0
100
AcDbArc
 50
89.99999999998697
 51
180.0
  0
LINE
  5
99D1
330
18
100
AcDbEntity
  8
01
100
AcDbLine
 10
481.5097412732002
 20
-638.9800167540053
 30
-0.0000000000553302
 11
474.8528760356073
 21
-638.9800167540053
 31
-0.0000000000553302
  0
LINE
  5
99D2
330
18
100
AcDbEntity
  8
01
100
AcDbLine
 10
481.5097372732002
 20
-637.9800167540053
 30
-0.0000000000553302
 11
474.8528760356073
 21
-637.9800167540053
 31
-0.0000000000553302
  0
LINE
  5
99D3
330
18
100
AcDbEntity
  8
01
100
AcDbLine
 10
481.5097412732002
 20
-632.4800167540053
 30
-0.0000000000553302
 11
474.8528760356073
 21
-632.4800167540053
 31
-0.0000000000553302
  0
LINE
  5
99D4
330
18
100
AcDbEntity
  8
01
100
AcDbLine
 10
475.636716654405
 20
-638.4800167540053
 30
-0.0000000000553302
 11
477.7667906544047
 21
-638.4800167540053
 31
-0.0000000000553302
  0
LINE
  5
99D5
330
18
100
AcDbEntity
  8
01
100
AcDbLine
 10
474.8528760356073
 20
-643.4800167540052
 30
-0.0000000000562403
 11
474.8528760356073
 21
-638.9800167540053
 31
-0.0000000000562403
  0
LINE
  5
99D6
330
18
100
AcDbEntity
  8
01
100
AcDbLine
 10
475.2135780356072
 20
-638.7249695823472
 30
-0.0000000000562403
 11
474.8528760356073
 21
-638.9800167540053
 31
-0.0000000000562403
  0
LINE
  5
99D7
330
18
100
AcDbEntity
  8
01
100
AcDbLine
 10
475.2135780356072
 20
-638.2350695823476
 30
-0.0000000000562403
 11
474.8528760356073
 21
-637.9800195823474
 31
-0.0000000000562403
  0
ARC
  5
99D8
330
18
100
AcDbEntity
  8
01
100
AcDbCircle
 10
475.0403760356074
 20
-638.4800195823474
 30
-0.0000000000562403
 40
0.30000001
100
AcDbArc
 50
305.2643900000012
 51
54.73561999999382
  0
LINE
  5
99D9
330
18
100
AcDbEntity
  8
01
100
AcDbLine
 10
474.8528760356073
 20
-637.9800195823474
 30
-0.0000000000562403
 11
474.8528760356073
 21
-632.4800167540053
 31
-0.0000000000562403
  0
LINE
  5
99DA
330
18
100
AcDbEntity
  8
01
100
AcDbLine
 10
478.1813296544047
 20
-643.9800167540052
 30
-0.0000000000562575
 11
478.1813296544044
 21
-638.9800167540053
 31
-0.0000000000562575
  0
LINE
  5
99DB
330
18
100
AcDbEntity
  8
01
100
AcDbLine
 10
481.5097412732002
 20
-643.4800167540047
 30
-0.0000000000562403
 11
481.5097412732002
 21
-638.9799967540054
 31
-0.0000000000562403
  0
LINE
  5
99DC
330
18
100
AcDbEntity
  8
01
100
AcDbLine
 10
480.7259426544042
 20
-638.4800167540053
 30
-0.0000000000553302
 11
478.5958686544045
 21
-638.4800167540053
 31
-0.0000000000553302
  0
LINE
  5
99DD
330
18
100
AcDbEntity
  8
01
100
AcDbLine
 10
481.1490492732004
 20
-638.7249667540051
 30
-0.0000000000562403
 11
481.5097412732002
 21
-638.9799967540054
 31
-0.0000000000562403
  0
LINE
  5
99DE
330
18
100
AcDbEntity
  8
01
100
AcDbLine
 10
481.1490462732003
 20
-638.2350667540051
 30
-0.0000000000562403
 11
481.5097372732002
 21
-637.9800167540053
 31
-0.0000000000562403
  0
ARC
  5
99DF
330
18
100
AcDbEntity
  8
01
100
AcDbCircle
 10
481.3222482732004
 20
-638.4800167540053
 30
-0.0000000000562403
 40
0.30000001
100
AcDbArc
 50
125.2643800000062
 51
234.7356099999989
  0
LINE
  5
99E0
330
18
100
AcDbEntity
  8
01
100
AcDbLine
 10
478.1813296544042
 20
-637.9800167540053
 30
-0.0000000000562575
 11
478.1813296544042
 21
-632.4800167540053
 31
-0.0000000000553302
  0
LINE
  5
99E1
330
18
100
AcDbEntity
  8
01
100
AcDbLine
 10
481.5097412732002
 20
-637.9800167540053
 30
-0.0000000000562403
 11
481.5097412732002
 21
-632.4800167540053
 31
-0.0000000000562403
  0
ARC
  5
99E2
330
18
100
AcDbEntity
  8
01
100
AcDbCircle
 10
493.6813290094858
 20
-647.1800167540051
 30
-0.0000000000562575
 40
0.5
100
AcDbArc
 50
180.0
 51
270.0000000000065
  0
LINE
  5
99E3
330
18
100
AcDbEntity
  8
01
100
AcDbLine
 10
498.1813418756121
 20
-647.6800167540059
 30
-0.0000000000562575
 11
498.1813418756121
 21
-653.4800167540064
 31
-0.0000000000562575
  0
LINE
  5
99E4
330
18
100
AcDbEntity
  8
01
100
AcDbLine
 10
489.1813346543969
 20
-654.6800134208075
 30
-0.0000000000562403
 11
489.1813346543969
 21
-653.9800167540066
 31
-0.0000000000562624
  0
ARC
  5
99E5
330
18
100
AcDbEntity
  8
01
100
AcDbCircle
 10
488.6813346543968
 20
-654.6800134208075
 30
-0.0000000000562403
 40
0.5
100
AcDbArc
 50
269.999999999987
 51
0.0
  0
ARC
  5
99E6
330
18
100
AcDbEntity
  8
01
100
AcDbCircle
 10
497.6813418756121
 20
-653.4800167540064
 30
-0.0000000000562575
 40
0.5
100
AcDbArc
 50
270.0
 51
0.0
  0
LINE
  5
99E7
330
18
100
AcDbEntity
  8
01
100
AcDbLine
 10
493.1813290094858
 20
-643.4800167540058
 30
-0.0000000000562575
 11
493.1813290094858
 21
-647.1800167540051
 31
-0.0000000000562575
  0
LINE
  5
99EA
330
18
100
AcDbEntity
  8
1CENTER
100
AcDbLine
 10
587.829437482104
 20
-728.6646288678891
 30
-0.0000000000562575
 11
559.5721480531294
 21
-728.6646288678891
 31
-0.0000000000562575
  0
LINE
  5
99EB
330
18
100
AcDbEntity
  8
01
100
AcDbLine
 10
568.8941002632272
 20
-728.6646248678891
 30
-0.0000000000562575
 11
562.8941002632272
 21
-728.6646248678891
 31
-0.0000000000562575
  0
LINE
  5
99EC
330
18
100
AcDbEntity
  8
01
100
AcDbLine
 10
568.8941002632272
 20
-731.9930404866851
 30
-0.0000000000571676
 11
563.3941002632272
 21
-731.9930404866851
 31
-0.0000000000571676
  0
LINE
  5
99ED
330
18
100
AcDbEntity
  8
01
100
AcDbLine
 10
568.8941030915694
 20
-725.336175249092
 30
-0.0000000000571676
 11
563.3941002632272
 21
-725.336175249092
 31
-0.0000000000571676
  0
LINE
  5
99EE
330
18
100
AcDbEntity
  8
01
100
AcDbLine
 10
543.0441110189707
 20
-712.3646288678887
 30
-0.0000000000562575
 11
543.0441110189709
 21
-738.1646563820987
 31
-0.0000000000562575
  0
LINE
  5
99EF
330
18
100
AcDbEntity
  8
01
100
AcDbLine
 10
538.8441056410942
 20
-703.1646288678818
 30
-0.0000000000562575
 11
538.8441056410899
 21
-743.1646288678819
 31
-0.0000000000562575
  0
LINE
  5
99F0
330
18
100
AcDbEntity
  8
01
100
AcDbLine
 10
532.5441056410943
 20
-742.6646288678818
 30
-0.0000000000562575
 11
532.5441056410942
 21
-703.6646288678822
 31
-0.0000000000562575
  0
LINE
  5
99F3
330
18
100
AcDbEntity
  8
1CENTER
100
AcDbLine
 10
515.0696534678925
 20
-728.6646288678891
 30
-0.0000000000562575
 11
557.426353524381
 21
-728.6646288678891
 31
-0.0000000000562575
  0
LINE
  5
99F4
330
18
100
AcDbEntity
  8
01
100
AcDbLine
 10
538.8441056410899
 20
-743.1646288678819
 30
-0.0000000000562575
 11
533.0441056410942
 21
-743.1646288678818
 31
-0.0000000000562575
  0
LINE
  5
99F5
330
18
100
AcDbEntity
  8
1CENTER
100
AcDbLine
 10
532.1075853977476
 20
-717.1646288678877
 30
-0.0000000000562575
 11
546.0097122551523
 21
-717.1646288678877
 31
-0.0000000000562575
  0
LINE
  5
99F6
330
18
100
AcDbEntity
  8
01
100
AcDbLine
 10
517.8437200753747
 20
-717.6646338678821
 30
-0.0000000000562575
 11
532.5441056410943
 21
-717.6646338678817
 31
-0.0000000000562575
  0
LINE
  5
99F7
330
18
100
AcDbEntity
  8
01
100
AcDbLine
 10
517.8437200753726
 20
-739.6646338678812
 30
-0.0000000000562575
 11
532.5441056410943
 21
-739.6646338678819
 31
-0.0000000000562575
  0
LINE
  5
99F8
330
18
100
AcDbEntity
  8
01
100
AcDbLine
 10
516.8437200753726
 20
-718.6646338678808
 30
-0.0000000000562575
 11
516.8437200753726
 21
-738.6646338678787
 31
-0.0000000000562575
  0
ARC
  5
99F9
330
18
100
AcDbEntity
  8
01
100
AcDbCircle
 10
517.8437200753726
 20
-738.6646338678787
 30
-0.0000000000562575
 40
1.0
100
AcDbArc
 50
180.0
 51
270.0
  0
ARC
  5
99FA
330
18
100
AcDbEntity
  8
01
100
AcDbCircle
 10
517.8437200753747
 20
-718.6646338678808
 30
-0.0000000000562575
 40
1.0
100
AcDbArc
 50
90.0
 51
180.0
  0
LINE
  5
99FB
330
18
100
AcDbEntity
  8
01
100
AcDbLine
 10
531.3437430195843
 20
-718.1646338678817
 30
-0.0000000000562575
 11
531.3437430195795
 21
-739.1646338678814
 31
-0.0000000000562575
  0
ARC
  5
99FC
330
18
100
AcDbEntity
  8
01
100
AcDbCircle
 10
531.8437430195795
 20
-739.1646338678817
 30
-0.0000000000562575
 40
0.5
100
AcDbArc
 50
179.999999999987
 51
270.0
  0
ARC
  5
99FD
330
18
100
AcDbEntity
  8
01
100
AcDbCircle
 10
533.0441056410942
 20
-742.6646288678818
 30
-0.0000000000562575
 40
0.5
100
AcDbArc
 50
180.0
 51
270.0
  0
ARC
  5
99FE
330
18
100
AcDbEntity
  8
01
100
AcDbCircle
 10
531.8437430195795
 20
-718.1646338678817
 30
-0.0000000000562575
 40
0.5
100
AcDbArc
 50
90.0
 51
179.999999999987
  0
LINE
  5
99FF
330
18
100
AcDbEntity
  8
01
100
AcDbLine
 10
548.543739686382
 20
-728.664640867889
 30
-0.0000000000561451
 11
554.543739686382
 21
-728.664640867889
 31
-0.0000000000561451
  0
LINE
  5
9A00
330
18
100
AcDbEntity
  8
01
100
AcDbLine
 10
548.5437368580397
 20
-725.3361912490924
 30
-0.0000000000570551
 11
554.043739686382
 21
-725.3361912490924
 31
-0.0000000000570551
  0
LINE
  5
9A01
330
18
100
AcDbEntity
  8
01
100
AcDbLine
 10
548.543739686382
 20
-731.9930564866853
 30
-0.0000000000570551
 11
554.043739686382
 21
-731.9930564866853
 31
-0.0000000000570551
  0
LINE
  5
9A02
330
18
100
AcDbEntity
  8
01
100
AcDbLine
 10
548.043739686382
 20
-731.209257867889
 30
-0.0000000000561451
 11
548.043739686382
 21
-729.0791838678891
 31
-0.0000000000561451
  0
LINE
  5
9A03
330
18
100
AcDbEntity
  8
01
100
AcDbLine
 10
548.543739686382
 20
-731.9930524866851
 30
-0.0000000000561451
 11
548.543739686382
 21
-725.3361912490924
 31
-0.0000000000561451
  0
LINE
  5
9A04
330
18
100
AcDbEntity
  8
01
100
AcDbLine
 10
547.543739686382
 20
-731.9930564866851
 30
-0.0000000000561451
 11
547.543739686382
 21
-725.3361912490924
 31
-0.0000000000561451
  0
LINE
  5
9A05
330
18
100
AcDbEntity
  8
01
100
AcDbLine
 10
543.0441110189709
 20
-738.1646563820987
 30
-0.0000000000562575
 11
539.3441056410951
 21
-738.1646563820983
 31
-0.0000000000562575
  0
ARC
  5
9A06
330
18
100
AcDbEntity
  8
01
100
AcDbCircle
 10
539.3441056410951
 20
-738.6646563820983
 30
-0.0000000000562575
 40
0.5
100
AcDbArc
 50
90.0
 51
180.000000000013
  0
LINE
  5
9A07
330
18
100
AcDbEntity
  8
01
100
AcDbLine
 10
537.3441056410958
 20
-743.1646288678886
 30
-0.0000000000562575
 11
538.8441056410958
 21
-743.1646288678886
 31
-0.0000000000562575
  0
LINE
  5
9A08
330
18
100
AcDbEntity
  8
01
100
AcDbLine
 10
548.288689686382
 20
-731.6323614866852
 30
-0.0000000000570551
 11
548.543739686382
 21
-731.9930524866853
 31
-0.0000000000570551
  0
LINE
  5
9A09
330
18
100
AcDbEntity
  8
01
100
AcDbLine
 10
543.0441110189705
 20
-731.9930564866853
 30
-0.0000000000570551
 11
547.5437596863819
 21
-731.9930564866853
 31
-0.0000000000570551
  0
LINE
  5
9A0A
330
18
100
AcDbEntity
  8
01
100
AcDbLine
 10
547.798789686382
 20
-731.6323644866853
 30
-0.0000000000570551
 11
547.5437596863819
 21
-731.9930564866853
 31
-0.0000000000570551
  0
ARC
  5
9A0B
330
18
100
AcDbEntity
  8
01
100
AcDbCircle
 10
548.043739686382
 20
-731.8055634866852
 30
-0.0000000000570551
 40
0.30000001
100
AcDbArc
 50
35.26438000000612
 51
144.7356099999942
  0
LINE
  5
9A0C
330
18
100
AcDbEntity
  8
01
100
AcDbLine
 10
543.0441110189707
 20
-728.664640867889
 30
-0.0000000000561451
 11
547.543739686382
 21
-728.664640867889
 31
-0.0000000000561451
  0
LINE
  5
9A0D
330
18
100
AcDbEntity
  8
01
100
AcDbLine
 10
548.043739686382
 20
-728.414926867889
 30
-0.0000000000561451
 11
548.043739686382
 21
-726.1117538678892
 31
-0.0000000000561451
  0
LINE
  5
9A0E
330
18
100
AcDbEntity
  8
01
100
AcDbLine
 10
548.2886868580397
 20
-725.6968932490923
 30
-0.0000000000570551
 11
548.5437368580397
 21
-725.3361912490924
 31
-0.0000000000570551
  0
LINE
  5
9A0F
330
18
100
AcDbEntity
  8
01
100
AcDbLine
 10
543.0441110189704
 20
-725.3361912490924
 30
-0.0000000000570551
 11
547.543739686382
 21
-725.3361912490924
 31
-0.0000000000570551
  0
LINE
  5
9A10
330
18
100
AcDbEntity
  8
01
100
AcDbLine
 10
547.7987868580399
 20
-725.6968932490923
 30
-0.0000000000570551
 11
547.5437368580397
 21
-725.3361872490924
 31
-0.0000000000570551
  0
ARC
  5
9A11
330
18
100
AcDbEntity
  8
01
100
AcDbCircle
 10
548.0437368580397
 20
-725.5236912490924
 30
-0.0000000000570551
 40
0.30000001
100
AcDbArc
 50
215.2643900000057
 51
324.7356199999939
  0
LINE
  5
9A12
330
18
100
AcDbEntity
  8
01
100
AcDbLine
 10
562.8941002632272
 20
-731.4930508678891
 30
-0.0000000000562575
 11
562.8941002632272
 21
-725.8361978678892
 31
-0.0000000000562575
  0
LINE
  5
9A13
330
18
100
AcDbEntity
  8
01
100
AcDbLine
 10
562.8941002632272
 20
-731.4930508678891
 30
-0.0000000000562575
 11
562.8941002632272
 21
-725.8361978678892
 31
-0.0000000000562575
  0
LINE
  5
9A14
330
18
100
AcDbEntity
  8
01
100
AcDbLine
 10
562.8941002632272
 20
-731.4930508678889
 30
-0.0000000000562575
 11
562.8941002632272
 21
-725.8361978678889
 31
-0.0000000000562575
  0
LINE
  5
9A15
330
18
100
AcDbEntity
  8
01
100
AcDbLine
 10
562.8941002632272
 20
-731.4930508678889
 30
-0.0000000000562575
 11
562.8941002632272
 21
-725.8361978678889
 31
-0.0000000000562575
  0
LINE
  5
9A16
330
18
100
AcDbEntity
  8
01
100
AcDbLine
 10
563.3941002632272
 20
-731.9930404866851
 30
-0.0000000000562575
 11
563.3941002632272
 21
-725.336175249092
 31
-0.0000000000562575
  0
LINE
  5
9A17
330
18
100
AcDbEntity
  8
01
100
AcDbLine
 10
554.543739686382
 20
-731.4930668678893
 30
-0.0000000000561451
 11
554.543739686382
 21
-725.8362138678893
 31
-0.0000000000561451
  0
LINE
  5
9A18
330
18
100
AcDbEntity
  8
01
100
AcDbLine
 10
554.543739686382
 20
-731.4930668678893
 30
-0.0000000000561451
 11
554.543739686382
 21
-725.8362138678893
 31
-0.0000000000561451
  0
LINE
  5
9A19
330
18
100
AcDbEntity
  8
01
100
AcDbLine
 10
554.543739686382
 20
-731.4930668678891
 30
-0.0000000000561451
 11
554.543739686382
 21
-725.8362138678891
 31
-0.0000000000561451
  0
LINE
  5
9A1A
330
18
100
AcDbEntity
  8
01
100
AcDbLine
 10
554.543739686382
 20
-731.4930668678891
 30
-0.0000000000561451
 11
554.543739686382
 21
-725.8362138678891
 31
-0.0000000000561451
  0
LINE
  5
9A1B
330
18
100
AcDbEntity
  8
01
100
AcDbLine
 10
554.043739686382
 20
-731.9930564866853
 30
-0.0000000000561451
 11
554.043739686382
 21
-725.3361912490924
 31
-0.0000000000561451
  0
LINE
  5
9A1C
330
18
100
AcDbEntity
  8
01
100
AcDbLine
 10
554.543739686382
 20
-731.4930708678893
 30
-0.0000000000561451
 11
554.043739686382
 21
-731.9930564866853
 31
-0.0000000000570551
  0
LINE
  5
9A1D
330
18
100
AcDbEntity
  8
01
100
AcDbLine
 10
562.8941002632272
 20
-731.4930548678891
 30
-0.0000000000562575
 11
563.3941002632272
 21
-731.9930404866851
 31
-0.0000000000571676
  0
LINE
  5
9A1E
330
18
100
AcDbEntity
  8
01
100
AcDbLine
 10
554.543739686382
 20
-725.8362138678893
 30
-0.0000000000561451
 11
554.043739686382
 21
-725.3361912490924
 31
-0.0000000000570551
  0
LINE
  5
9A1F
330
18
100
AcDbEntity
  8
01
100
AcDbLine
 10
562.8941002632272
 20
-725.8361978678892
 30
-0.0000000000562575
 11
563.3941002632272
 21
-725.336175249092
 31
-0.0000000000571676
  0
LINE
  5
9A20
330
18
100
AcDbEntity
  8
01
100
AcDbLine
 10
538.8441056410942
 20
-703.1646288678818
 30
-0.0000000000562575
 11
533.0441056410942
 21
-703.1646288678822
 31
-0.0000000000562575
  0
ARC
  5
9A21
330
18
100
AcDbEntity
  8
01
100
AcDbCircle
 10
533.0441056410942
 20
-703.6646288678822
 30
-0.0000000000562575
 40
0.5
100
AcDbArc
 50
90.0
 51
180.0
  0
LINE
  5
9A22
330
18
100
AcDbEntity
  8
01
100
AcDbLine
 10
543.0441110189707
 20
-712.3646288678887
 30
-0.0000000000562575
 11
538.8441056410937
 21
-712.3646288678889
 31
-0.0000000000562575
  0
LINE
  5
9A25
330
18
100
AcDbEntity
  8
01
100
AcDbLine
 10
569.3941002632272
 20
-731.2092418678889
 30
-0.0000000000562575
 11
569.3941002632272
 21
-729.0791678678889
 31
-0.0000000000562575
  0
LINE
  5
9A26
330
18
100
AcDbEntity
  8
01
100
AcDbLine
 10
568.8941002632272
 20
-731.9930364866851
 30
-0.0000000000562575
 11
568.8941002632272
 21
-725.336175249092
 31
-0.0000000000562575
  0
LINE
  5
9A27
330
18
100
AcDbEntity
  8
01
100
AcDbLine
 10
569.8941002632272
 20
-731.9930404866849
 30
-0.0000000000562575
 11
569.8941002632272
 21
-725.3361752490924
 31
-0.0000000000562575
  0
LINE
  5
9A28
330
18
100
AcDbEntity
  8
01
100
AcDbLine
 10
574.644100263227
 20
-731.9930404866849
 30
-0.0000000000571676
 11
569.8940802632271
 21
-731.9930404866851
 31
-0.0000000000571676
  0
LINE
  5
9A29
330
18
100
AcDbEntity
  8
01
100
AcDbLine
 10
569.6390502632272
 20
-731.6323484866851
 30
-0.0000000000571676
 11
569.8940802632271
 21
-731.9930404866851
 31
-0.0000000000571676
  0
LINE
  5
9A2A
330
18
100
AcDbEntity
  8
01
100
AcDbLine
 10
569.1491502632272
 20
-731.6323454866853
 30
-0.0000000000571676
 11
568.8941002632272
 21
-731.9930364866851
 31
-0.0000000000571676
  0
ARC
  5
9A2B
330
18
100
AcDbEntity
  8
01
100
AcDbCircle
 10
569.3941002632272
 20
-731.8055474866852
 30
-0.0000000000571676
 40
0.30000001
100
AcDbArc
 50
35.26438999998944
 51
144.7356199999938
  0
LINE
  5
9A2C
330
18
100
AcDbEntity
  8
01
100
AcDbLine
 10
574.6441002632271
 20
-728.664624867889
 30
-0.0000000000562575
 11
569.8941002632272
 21
-728.6646248678891
 31
-0.0000000000562575
  0
LINE
  5
9A2D
330
18
100
AcDbEntity
  8
01
100
AcDbLine
 10
574.6441002632272
 20
-725.3361752490919
 30
-0.0000000000571676
 11
569.8941002632272
 21
-725.336175249092
 31
-0.0000000000571676
  0
LINE
  5
9A2E
330
18
100
AcDbEntity
  8
01
100
AcDbLine
 10
569.3941002632272
 20
-728.414910867889
 30
-0.0000000000562575
 11
569.3941002632272
 21
-726.1117378678888
 31
-0.0000000000562575
  0
LINE
  5
9A2F
330
18
100
AcDbEntity
  8
01
100
AcDbLine
 10
569.6390530915693
 20
-725.6968772490919
 30
-0.0000000000571676
 11
569.8941030915694
 21
-725.336171249092
 31
-0.0000000000571676
  0
LINE
  5
9A30
330
18
100
AcDbEntity
  8
01
100
AcDbLine
 10
569.1491530915694
 20
-725.6968772490919
 30
-0.0000000000571676
 11
568.8941030915694
 21
-725.336175249092
 31
-0.0000000000571676
  0
ARC
  5
9A31
330
18
100
AcDbEntity
  8
01
100
AcDbCircle
 10
569.3941030915694
 20
-725.523675249092
 30
-0.0000000000571676
 40
0.30000001
100
AcDbArc
 50
215.2643800000061
 51
324.7356100000105
  0
LINE
  5
9A32
330
18
100
AcDbEntity
  8
01
100
AcDbLine
 10
586.5446541005061
 20
-729.6646275469508
 30
-0.0000000000563712
 11
585.1441056411034
 21
-729.6646275469507
 31
-0.0000000000563712
  0
ARC
  5
9A33
330
18
100
AcDbEntity
  8
01
100
AcDbCircle
 10
580.9941056411037
 20
-728.6646275469508
 30
-0.0000000000563712
 40
6.0
100
AcDbArc
 50
324.3146700000012
 51
346.816517496639
  0
LINE
  5
9A34
330
18
100
AcDbEntity
  8
01
100
AcDbLine
 10
585.8675056411038
 20
-732.1646275469508
 30
-0.0000000000563712
 11
585.1441056411035
 21
-732.1646275469509
 31
-0.0000000000563712
  0
ARC
  5
9A35
330
18
100
AcDbEntity
  8
01
100
AcDbCircle
 10
586.5438756411038
 20
-729.9646265469509
 30
-0.0000000000563712
 40
0.30000001
100
AcDbArc
 50
346.8165200000056
 51
90.00000299999769
  0
LINE
  5
9A36
330
18
100
AcDbEntity
  8
01
100
AcDbLine
 10
585.8675056411038
 20
-725.1646275469508
 30
-0.0000000000563712
 11
585.1441056411035
 21
-725.1646275469509
 31
-0.0000000000563712
  0
ARC
  5
9A37
330
18
100
AcDbEntity
  8
01
100
AcDbCircle
 10
586.5438756411038
 20
-727.364624546951
 30
-0.0000000000563712
 40
0.30000001
100
AcDbArc
 50
270.0
 51
13.18348199999821
  0
LINE
  5
9A38
330
18
100
AcDbEntity
  8
01
100
AcDbLine
 10
586.5438756411038
 20
-727.6646275469508
 30
-0.0000000000563712
 11
585.1441056411036
 21
-727.6646275469508
 31
-0.0000000000563712
  0
ARC
  5
9A39
330
18
100
AcDbEntity
  8
01
100
AcDbCircle
 10
580.9941056411037
 20
-728.6646275469508
 30
-0.0000000000563712
 40
6.0
100
AcDbArc
 50
13.18348199999821
 51
35.68533399999356
  0
LINE
  5
9A3A
330
18
100
AcDbEntity
  8
01
100
AcDbLine
 10
604.9101621158263
 20
-647.6800167540066
 30
-0.0000000000562575
 11
604.9101621158266
 21
-653.4800167540068
 31
-0.0000000000562575
  0
ARC
  5
9A3B
330
18
100
AcDbEntity
  8
01
100
AcDbCircle
 10
605.4101621158264
 20
-653.4800167540063
 30
-0.0000000000562575
 40
0.5
100
AcDbArc
 50
180.0
 51
270.0
  0
LINE
  5
9A3C
330
18
100
AcDbEntity
  8
01
100
AcDbLine
 10
481.0097556544042
 20
-631.9800167540053
 30
-0.0000000000553302
 11
475.3528986544042
 21
-631.9800167540053
 31
-0.0000000000553302
  0
LINE
  5
9A3D
330
18
100
AcDbEntity
  8
01
100
AcDbLine
 10
638.6601624382846
 20
-620.480016754004
 30
-0.0000000000562575
 11
638.6601624382846
 21
-642.6800167540057
 31
-0.0000000000562575
  0
LINE
  5
9A3E
330
18
100
AcDbEntity
  8
01
100
AcDbLine
 10
624.9101498946189
 20
-637.7300167540052
 30
-0.0000000000562575
 11
624.9101498946189
 21
-631.7300167540052
 31
-0.0000000000562575
  0
LINE
  5
9A3F
330
18
100
AcDbEntity
  8
01
100
AcDbLine
 10
632.1601624382846
 20
-620.4800167540045
 30
-0.0000000000562575
 11
632.1601624382846
 21
-642.6800167540059
 31
-0.0000000000562575
  0
LINE
  5
9A40
330
18
100
AcDbEntity
  8
01
100
AcDbLine
 10
611.1601624382846
 20
-620.4800167540061
 30
-0.0000000000562575
 11
611.1601624382845
 21
-642.6800167540068
 31
-0.0000000000562575
  0
LINE
  5
9A41
330
18
100
AcDbEntity
  8
01
100
AcDbLine
 10
617.6601624382846
 20
-620.4800167540056
 30
-0.0000000000562575
 11
617.6601624382845
 21
-642.6800167540066
 31
-0.0000000000562575
  0
LINE
  5
9A42
330
18
100
AcDbEntity
  8
1CENTER
100
AcDbLine
 10
624.9101498946177
 20
-630.0515615353327
 30
-0.0000000000562575
 11
624.9101498946198
 21
-655.6442292180184
 31
-0.0000000000562575
  0
LINE
  5
9A43
330
18
100
AcDbEntity
  8
1CENTER
100
AcDbLine
 10
635.410162438285
 20
-654.8887317294032
 30
-0.0000000000562575
 11
635.410162438285
 21
-617.8751380016531
 31
-0.0000000000562575
  0
LINE
  5
9A44
330
18
100
AcDbEntity
  8
1CENTER
100
AcDbLine
 10
614.410162438284
 20
-654.8887317294032
 30
-0.0000000000562575
 11
614.410162438284
 21
-617.8751380016531
 31
-0.0000000000562575
  0
LINE
  5
9A45
330
18
100
AcDbEntity
  8
01
100
AcDbLine
 10
628.238565513415
 20
-637.7300167540052
 30
-0.0000000000571676
 11
628.238565513415
 21
-632.2300167540052
 31
-0.0000000000571676
  0
LINE
  5
9A46
330
18
100
AcDbEntity
  8
01
100
AcDbLine
 10
621.5817002758218
 20
-637.7300195823474
 30
-0.0000000000571676
 11
621.5817002758218
 21
-632.2300167540052
 31
-0.0000000000571676
  0
LINE
  5
9A48
330
18
100
AcDbEntity
  8
1CENTER
100
AcDbLine
 10
624.910150217079
 20
-771.571773463761
 30
-0.0000000000562575
 11
624.9101502170793
 21
-785.7574838637602
 31
-0.0000000000562575
  0
LINE
  5
9A49
330
18
100
AcDbEntity
  8
1CENTER
100
AcDbLine
 10
617.8172950170796
 20
-778.6646286637607
 30
-0.0000000000562575
 11
632.0030054170787
 21
-778.6646286637605
 31
-0.0000000000562575
  0
LINE
  5
9A4A
330
18
100
AcDbEntity
  8
1CENTER
100
AcDbLine
 10
624.9101498946192
 20
-747.3840494272414
 30
-0.0000000000562575
 11
624.9101498946192
 21
-699.8573209133034
 31
-0.0000000000562575
  0
CIRCLE
  5
9A4C
330
18
100
AcDbEntity
  8
01
100
AcDbCircle
 10
624.9101498946192
 20
-728.6646286637612
 30
-0.0000000000562575
 40
3.75
  0
CIRCLE
  5
9A4D
330
18
100
AcDbEntity
  8
01
100
AcDbCircle
 10
624.9101498946192
 20
-728.6646288678891
 30
-0.0000000000562575
 40
3.5000005
  0
LINE
  5
9A4E
330
18
100
AcDbEntity
  8
1CENTER
100
AcDbLine
 10
618.0796299202218
 20
-728.6646288678891
 30
-0.0000000000562575
 11
632.265340320221
 21
-728.6646288678891
 31
-0.0000000000562575
  0
LINE
  5
9A4F
330
18
100
AcDbEntity
  8
01
100
AcDbLine
 10
623.9101498946192
 20
-732.018731667889
 30
-0.0000000000562575
 11
623.9101498946192
 21
-725.3105248678891
 31
-0.0000000000562575
  0
LINE
  5
9A50
330
18
100
AcDbEntity
  8
01
100
AcDbLine
 10
625.9101498946192
 20
-732.018731667889
 30
-0.0000000000562575
 11
625.9101498946192
 21
-725.3105248678891
 31
-0.0000000000562575
  0
LINE
  5
9A51
330
18
100
AcDbEntity
  8
01
100
AcDbLine
 10
609.9101492496999
 20
-643.480016754007
 30
-0.0000000000562575
 11
639.9101492496999
 21
-643.4800167540056
 31
-0.0000000000562575
  0
LINE
  5
9A52
330
18
100
AcDbEntity
  8
01
100
AcDbLine
 10
624.6604358946189
 20
-638.2300167540052
 30
-0.0000000000562575
 11
622.3572628946187
 21
-638.2300167540052
 31
-0.0000000000562575
  0
LINE
  5
9A53
330
18
100
AcDbEntity
  8
01
100
AcDbLine
 10
628.238561513415
 20
-637.7300167540052
 30
-0.0000000000562575
 11
621.5817002758218
 21
-637.7300167540052
 31
-0.0000000000562575
  0
LINE
  5
9A54
330
18
100
AcDbEntity
  8
01
100
AcDbLine
 10
628.2385655134148
 20
-638.7300167540052
 30
-0.0000000000562575
 11
621.5817002758223
 21
-638.7300167540052
 31
-0.0000000000562575
  0
ARC
  5
9A55
330
18
100
AcDbEntity
  8
01
100
AcDbCircle
 10
624.9101525736808
 20
-649.8300221318816
 30
-0.0000000000563712
 40
6.0
100
AcDbArc
 50
234.3146660000045
 51
256.8165180000017
  0
ARC
  5
9A56
330
18
100
AcDbEntity
  8
01
100
AcDbCircle
 10
609.4101492496998
 20
-647.180016754007
 30
-0.0000000000562575
 40
0.5
100
AcDbArc
 50
270.0000000000065
 51
0.0
  0
LINE
  5
9A57
330
18
100
AcDbEntity
  8
01
100
AcDbLine
 10
621.4101525736806
 20
-654.7034221318818
 30
-0.0000000000563712
 11
621.4101525736801
 21
-653.7300167540063
 31
-0.0000000000563712
  0
ARC
  5
9A58
330
18
100
AcDbEntity
  8
01
100
AcDbCircle
 10
610.3601624382844
 20
-642.6800167540068
 30
-0.0000000000562575
 40
0.8
100
AcDbArc
 50
270.0
 51
0.0
  0
LINE
  5
9A59
330
18
100
AcDbEntity
  8
01
100
AcDbLine
 10
609.9101492496999
 20
-643.480016754007
 30
-0.0000000000562575
 11
609.9101492496998
 21
-647.180016754007
 31
-0.0000000000562575
  0
ARC
  5
9A5A
330
18
100
AcDbEntity
  8
01
100
AcDbCircle
 10
618.4601624382844
 20
-642.6800167540066
 30
-0.0000000000562575
 40
0.8
100
AcDbArc
 50
180.0
 51
270.0
  0
LINE
  5
9A5B
330
18
100
AcDbEntity
  8
01
100
AcDbLine
 10
621.5817002758217
 20
-643.2300167540054
 30
-0.0000000000571676
 11
621.5817002758218
 21
-638.7300167540052
 31
-0.0000000000571676
  0
LINE
  5
9A5C
330
18
100
AcDbEntity
  8
01
100
AcDbLine
 10
621.9424022758218
 20
-638.4749695823473
 30
-0.0000000000571676
 11
621.5816962758219
 21
-638.7300195823474
 31
-0.0000000000571676
  0
LINE
  5
9A5D
330
18
100
AcDbEntity
  8
01
100
AcDbLine
 10
621.9424022758218
 20
-637.9850695823474
 30
-0.0000000000571676
 11
621.5817002758218
 21
-637.7300195823474
 31
-0.0000000000571676
  0
ARC
  5
9A5E
330
18
100
AcDbEntity
  8
01
100
AcDbCircle
 10
621.769200275822
 20
-638.2300195823474
 30
-0.0000000000571676
 40
0.30000001
100
AcDbArc
 50
305.2643899999894
 51
54.7356199999938
  0
LINE
  5
9A5F
330
18
100
AcDbEntity
  8
01
100
AcDbLine
 10
628.4101525736806
 20
-654.7034221318818
 30
-0.0000000000563712
 11
628.4101525736804
 21
-653.7300167540066
 31
-0.0000000000563712
  0
LINE
  5
9A60
330
18
100
AcDbEntity
  8
01
100
AcDbLine
 10
625.9101525736806
 20
-655.3805705912841
 30
-0.0000000000563712
 11
625.9101525736805
 21
-653.7300167540063
 31
-0.0000000000563712
  0
ARC
  5
9A61
330
18
100
AcDbEntity
  8
01
100
AcDbCircle
 10
623.6101495736809
 20
-655.3797921318817
 30
-0.0000000000563712
 40
0.30000001
100
AcDbArc
 50
256.8165180000017
 51
0.0
  0
ARC
  5
9A62
330
18
100
AcDbEntity
  8
01
100
AcDbCircle
 10
626.2101515736808
 20
-655.3797921318817
 30
-0.0000000000563712
 40
0.30000001
100
AcDbArc
 50
179.9999970000023
 51
283.1834799999945
  0
LINE
  5
9A63
330
18
100
AcDbEntity
  8
01
100
AcDbLine
 10
623.9101525736806
 20
-655.3797921318817
 30
-0.0000000000563712
 11
623.9101525736805
 21
-653.7300167540063
 31
-0.0000000000563712
  0
ARC
  5
9A64
330
18
100
AcDbEntity
  8
01
100
AcDbCircle
 10
624.9101525736808
 20
-649.8300221318816
 30
-0.0000000000563712
 40
6.0
100
AcDbArc
 50
283.1834825033616
 51
305.6853299999987
  0
LINE
  5
9A65
330
18
100
AcDbEntity
  8
01
100
AcDbLine
 10
624.9101498946188
 20
-643.2300167540052
 30
-0.0000000000562575
 11
624.9101498946189
 21
-638.7300167540052
 31
-0.0000000000562575
  0
LINE
  5
9A66
330
18
100
AcDbEntity
  8
1CENTER
100
AcDbLine
 10
624.9101498946188
 20
-641.3058682702524
 30
-0.0000000000562575
 11
624.9101498946189
 21
-643.480016754005
 31
-0.0000000000562575
  0
LINE
  5
9A67
330
18
100
AcDbEntity
  8
01
100
AcDbLine
 10
627.4547668946187
 20
-638.2300167540052
 30
-0.0000000000562575
 11
625.3246928946188
 21
-638.2300167540052
 31
-0.0000000000562575
  0
LINE
  5
9A68
330
18
100
AcDbEntity
  8
01
100
AcDbLine
 10
627.877873513415
 20
-638.4749667540052
 30
-0.0000000000571676
 11
628.238565513415
 21
-638.7299967540051
 31
-0.0000000000571676
  0
LINE
  5
9A69
330
18
100
AcDbEntity
  8
01
100
AcDbLine
 10
627.8778705134151
 20
-637.9850667540052
 30
-0.0000000000571676
 11
628.238561513415
 21
-637.7300167540052
 31
-0.0000000000571676
  0
ARC
  5
9A6A
330
18
100
AcDbEntity
  8
01
100
AcDbCircle
 10
628.0510725134152
 20
-638.2300167540052
 30
-0.0000000000571676
 40
0.30000001
100
AcDbArc
 50
125.2643800000062
 51
234.7356100000105
  0
LINE
  5
9A6B
330
18
100
AcDbEntity
  8
01
100
AcDbLine
 10
628.238565513415
 20
-643.230016754005
 30
-0.0000000000571676
 11
628.238565513415
 21
-638.7299967540051
 31
-0.0000000000571676
  0
ARC
  5
9A6C
330
18
100
AcDbEntity
  8
01
100
AcDbCircle
 10
631.3601624382844
 20
-642.6800167540059
 30
-0.0000000000562575
 40
0.8
100
AcDbArc
 50
270.0
 51
0.0
  0
ARC
  5
9A6D
330
18
100
AcDbEntity
  8
01
100
AcDbCircle
 10
640.4101492496999
 20
-647.180016754005
 30
-0.0000000000562575
 40
0.5
100
AcDbArc
 50
180.0
 51
270.0000000000065
  0
LINE
  5
9A6E
330
18
100
AcDbEntity
  8
01
100
AcDbLine
 10
644.9101621158263
 20
-647.6800167540059
 30
-0.0000000000562575
 11
644.9101621158264
 21
-653.4800167540063
 31
-0.0000000000562575
  0
ARC
  5
9A6F
330
18
100
AcDbEntity
  8
01
100
AcDbCircle
 10
644.4101621158264
 20
-653.4800167540063
 30
-0.0000000000562575
 40
0.5
100
AcDbArc
 50
270.0
 51
0.0
  0
ARC
  5
9A70
330
18
100
AcDbEntity
  8
01
100
AcDbCircle
 10
639.4601624382844
 20
-642.6800167540057
 30
-0.0000000000562575
 40
0.8
100
AcDbArc
 50
180.0
 51
270.0
  0
LINE
  5
9A71
330
18
100
AcDbEntity
  8
01
100
AcDbLine
 10
639.9101492496999
 20
-643.4800167540056
 30
-0.0000000000562575
 11
639.9101492496999
 21
-647.180016754005
 31
-0.0000000000562575
  0
LINE
  5
9A72
330
18
100
AcDbEntity
  8
01
100
AcDbLine
 10
632.1601624382846
 20
-620.4800167540045
 30
-0.0000000000562575
 11
638.6601624382846
 21
-620.480016754004
 31
-0.0000000000562575
  0
LINE
  5
9A73
330
18
100
AcDbEntity
  8
01
100
AcDbLine
 10
628.238565513415
 20
-632.2300167540052
 30
-0.0000000000562575
 11
621.5817002758218
 21
-632.2300167540052
 31
-0.0000000000562575
  0
LINE
  5
9A74
330
18
100
AcDbEntity
  8
01
100
AcDbLine
 10
627.738575894619
 20
-631.7300167540052
 30
-0.0000000000562575
 11
622.081722894619
 21
-631.7300167540052
 31
-0.0000000000562575
  0
LINE
  5
9A75
330
18
100
AcDbEntity
  8
01
100
AcDbLine
 10
627.738575894619
 20
-631.7300167540052
 30
-0.0000000000562575
 11
622.081722894619
 21
-631.7300167540052
 31
-0.0000000000562575
  0
LINE
  5
9A76
330
18
100
AcDbEntity
  8
01
100
AcDbLine
 10
627.7385758946187
 20
-631.7300167540052
 30
-0.0000000000562575
 11
622.0817228946188
 21
-631.7300167540052
 31
-0.0000000000562575
  0
LINE
  5
9A77
330
18
100
AcDbEntity
  8
01
100
AcDbLine
 10
627.7385758946187
 20
-631.7300167540052
 30
-0.0000000000562575
 11
622.0817228946188
 21
-631.7300167540052
 31
-0.0000000000562575
  0
LINE
  5
9A78
330
18
100
AcDbEntity
  8
01
100
AcDbLine
 10
611.1601624382846
 20
-620.4800167540061
 30
-0.0000000000562575
 11
617.6601624382846
 21
-620.4800167540056
 31
-0.0000000000562575
  0
LINE
  5
9A79
330
18
100
AcDbEntity
  8
01
100
AcDbLine
 10
622.081722894619
 20
-631.7300167540052
 30
-0.0000000000562575
 11
621.5817002758218
 21
-632.2300167540052
 31
-0.0000000000571676
  0
LINE
  5
9A7A
330
18
100
AcDbEntity
  8
01
100
AcDbLine
 10
627.738579894619
 20
-631.7300167540052
 30
-0.0000000000562575
 11
628.238565513415
 21
-632.2300167540052
 31
-0.0000000000571676
  0
LINE
  5
9A7B
330
18
100
AcDbEntity
  8
01
100
AcDbLine
 10
574.6441002632271
 20
-720.4146288678882
 30
0.0
 11
551.6441056411045
 21
-720.4146288678882
 31
0.0
  0
LINE
  5
9A7C
330
18
100
AcDbEntity
  8
01
100
AcDbLine
 10
573.8441002632273
 20
-713.9146288678886
 30
0.0
 11
551.6441056411045
 21
-713.9146288678886
 31
0.0
  0
LINE
  5
9A7D
330
18
100
AcDbEntity
  8
1CENTER
100
AcDbLine
 10
585.5806258844502
 20
-717.1646288678877
 30
0.0
 11
550.4347863712958
 21
-717.1646288678877
 31
0.0
  0
LINE
  5
9A7E
330
18
100
AcDbEntity
  8
01
100
AcDbLine
 10
551.6441056411045
 20
-713.9146288678886
 30
0.0
 11
551.6441056411045
 21
-720.4146288678882
 31
0.0
  0
ARC
  5
9A7F
330
18
100
AcDbEntity
  8
01
100
AcDbCircle
 10
573.8441002632273
 20
-713.1146288678884
 30
0.0
 40
0.8
100
AcDbArc
 50
270.0
 51
0.0
  0
LINE
  5
9A80
330
18
100
AcDbEntity
  8
01
100
AcDbLine
 10
578.8441056411036
 20
-703.1646288678816
 30
0.0
 11
578.8441056410994
 21
-743.1646288678818
 31
0.0
  0
LINE
  5
9A81
330
18
100
AcDbEntity
  8
01
100
AcDbLine
 10
585.1441056411034
 20
-742.6646288678816
 30
0.0
 11
585.1441056411036
 21
-703.664628867882
 31
0.0
  0
LINE
  5
9A82
330
18
100
AcDbEntity
  8
01
100
AcDbLine
 10
574.6441002632271
 20
-712.3646288678889
 30
0.0
 11
574.644100263227
 21
-738.1646563820988
 31
0.0
  0
LINE
  5
9A83
330
18
100
AcDbEntity
  8
01
100
AcDbLine
 10
578.8441056410994
 20
-743.1646288678818
 30
0.0
 11
584.6441056411036
 21
-743.1646288678816
 31
0.0
  0
LINE
  5
9A84
330
18
100
AcDbEntity
  8
01
100
AcDbLine
 10
578.8441056411027
 20
-734.5113220216423
 30
0.0
 11
578.8441056411027
 21
-736.6646563820988
 31
0.0
  0
LINE
  5
9A85
330
18
100
AcDbEntity
  8
01
100
AcDbLine
 10
574.644100263227
 20
-738.1646563820988
 30
0.0
 11
578.3441056411027
 21
-738.1646563820983
 31
0.0
  0
ARC
  5
9A86
330
18
100
AcDbEntity
  8
01
100
AcDbCircle
 10
578.3441056411027
 20
-738.6646563820983
 30
0.0
 40
0.5
100
AcDbArc
 50
359.999999999987
 51
90.0
  0
LINE
  5
9A87
330
18
100
AcDbEntity
  8
01
100
AcDbLine
 10
580.344105641102
 20
-743.1646288678886
 30
0.0
 11
578.844105641102
 21
-743.1646288678886
 31
0.0
  0
ARC
  5
9A88
330
18
100
AcDbEntity
  8
01
100
AcDbCircle
 10
584.6441056411036
 20
-742.6646288678816
 30
0.0
 40
0.5
100
AcDbArc
 50
270.0
 51
0.0
  0
LINE
  5
9A89
330
18
100
AcDbEntity
  8
01
100
AcDbLine
 10
578.8441056411036
 20
-703.1646288678816
 30
0.0
 11
584.6441056411036
 21
-703.164628867882
 31
0.0
  0
LINE
  5
9A8A
330
18
100
AcDbEntity
  8
01
100
AcDbLine
 10
574.6441002632271
 20
-712.3646288678889
 30
0.0
 11
578.8441056411026
 21
-712.3646288678888
 31
0.0
  0
ARC
  5
9A8B
330
18
100
AcDbEntity
  8
01
100
AcDbCircle
 10
584.6441056411036
 20
-703.664628867882
 30
0.0
 40
0.5
100
AcDbArc
 50
0.0
 51
90.0
  0
TEXT
  5
9F6D
330
18
100
AcDbEntity
  8
1TEXT
100
AcDbText
 10
671.06663023894
 20
-616.6710887097222
 30
0.0
 40
4.0
  1
材質：亜鉛ダイキャスト・真鍮・アルミ・ポリアセタール
 11
671.06663023894
 21
-614.6710887097222
 31
0.0
100
AcDbText
 73
     2
  0
TEXT
  5
9F6E
330
18
100
AcDbEntity
  8
1TEXT
100
AcDbText
 10
728.5219800758473
 20
-623.9371162960445
 30
0.0
 40
4.0
  1
表面処理
 72
     1
 11
737.788646742514
 21
-623.9371162960445
 31
0.0
100
AcDbText
  0
TEXT
  5
9F6F
330
18
100
AcDbEntity
  8
1TEXT
100
AcDbText
 10
728.3219800758473
 20
-637.7724049555688
 30
0.0
 40
4.0
  1
クローム
 72
     1
 11
737.788646742514
 21
-637.7724049555688
 31
0.0
100
AcDbText
  0
TEXT
  5
9F70
330
18
100
AcDbEntity
  8
1TEXT
100
AcDbText
 10
726.2553134091806
 20
-630.9150113160288
 30
0.0
 40
4.0
  1
本金メッキ
 72
     1
 11
737.788646742514
 21
-630.9150113160288
 31
0.0
100
AcDbText
  0
LINE
  5
9F71
330
18
100
AcDbEntity
  8
1DIM
100
AcDbLine
 10
670.3886467425141
 20
-618.4371162960445
 30
0.0
 11
790.3886467425139
 21
-618.4371162960445
 31
0.0
  0
LINE
  5
9F72
330
18
100
AcDbEntity
  8
1DIM
100
AcDbLine
 10
720.3886467425139
 20
-632.4371162960445
 30
0.0
 11
790.3886467425139
 21
-632.4371162960445
 31
0.0
  0
LINE
  5
9F73
330
18
100
AcDbEntity
  8
1DIM
100
AcDbLine
 10
670.3886467425141
 20
-625.4371162960445
 30
0.0
 11
790.3886467425139
 21
-625.4371162960445
 31
0.0
  0
LINE
  5
9F74
330
18
100
AcDbEntity
  8
1DIM
100
AcDbLine
 10
720.3886467425139
 20
-639.4371162960445
 30
0.0
 11
790.3886467425139
 21
-639.4371162960445
 31
0.0
  0
LINE
  5
9F75
330
18
100
AcDbEntity
  8
1DIM
100
AcDbLine
 10
720.3886467425139
 20
-639.4371162960445
 30
0.0
 11
790.3886467425139
 21
-639.4371162960445
 31
0.0
  0
LINE
  5
9F76
330
18
100
AcDbEntity
  8
1DIM
100
AcDbLine
 10
755.3886467425139
 20
-618.4371162960445
 30
0.0
 11
755.388646742514
 21
-695.4371162960448
 31
0.0
  0
TEXT
  5
9F77
330
18
100
AcDbEntity
  8
1TEXT
100
AcDbText
 10
756.7886467425144
 20
-631.1514732796938
 30
0.0
 40
4.0
  1
KLW-3E-G
 72
     1
 11
772.7886467425144
 21
-631.1514732796938
 31
0.0
100
AcDbText
  0
TEXT
  5
9F78
330
18
100
AcDbEntity
  8
1TEXT
100
AcDbText
 10
765.9219800758473
 20
-623.9371162960445
 30
0.0
 40
4.0
  1
コード
 72
     1
 11
772.788646742514
 21
-623.9371162960445
 31
0.0
100
AcDbText
  0
LINE
  5
9F79
330
18
100
AcDbEntity
  8
1DIM
100
AcDbLine
 10
720.3886467425139
 20
-695.4371162960447
 30
0.0
 11
720.3886467425139
 21
-618.4371162960445
 31
0.0
  0
LINE
  5
9F7A
330
18
100
AcDbEntity
  8
1DIM
100
AcDbLine
 10
695.388646742514
 20
-695.4371162960447
 30
0.0
 11
695.388646742514
 21
-618.4371162960445
 31
0.0
  0
LINE
  5
9F7B
330
18
100
AcDbEntity
  8
1DIM
100
AcDbLine
 10
790.3886467425139
 20
-695.4371162960448
 30
0.0
 11
790.3886467425139
 21
-618.4371162960445
 31
0.0
  0
LINE
  5
9F7C
330
18
100
AcDbEntity
  8
1DIM
100
AcDbLine
 10
720.3886467425139
 20
-646.4371162960445
 30
0.0
 11
790.3886467425139
 21
-646.4371162960445
 31
0.0
  0
LINE
  5
9F7D
330
18
100
AcDbEntity
  8
1DIM
100
AcDbLine
 10
720.3886467425139
 20
-646.4371162960445
 30
0.0
 11
790.3886467425139
 21
-646.4371162960445
 31
0.0
  0
LINE
  5
9F7E
330
18
100
AcDbEntity
  8
1DIM
100
AcDbLine
 10
720.3886467425139
 20
-653.4371162960445
 30
0.0
 11
790.3886467425139
 21
-653.4371162960445
 31
0.0
  0
LINE
  5
9F7F
330
18
100
AcDbEntity
  8
1DIM
100
AcDbLine
 10
720.3886467425139
 20
-653.4371162960445
 30
0.0
 11
790.3886467425139
 21
-653.4371162960445
 31
0.0
  0
TEXT
  5
9F80
330
18
100
AcDbEntity
  8
1TEXT
100
AcDbText
 10
721.2553134091806
 20
-651.7724049555688
 30
0.0
 40
4.0
  1
サテンニッケル
 72
     1
 11
737.788646742514
 21
-651.7724049555688
 31
0.0
100
AcDbText
  0
LINE
  5
9F81
330
18
100
AcDbEntity
  8
1DIM
100
AcDbLine
 10
720.3886467425139
 20
-660.4371162960445
 30
0.0
 11
790.3886467425139
 21
-660.4371162960445
 31
0.0
  0
LINE
  5
9F82
330
18
100
AcDbEntity
  8
1DIM
100
AcDbLine
 10
720.3886467425139
 20
-660.4371162960445
 30
0.0
 11
790.3886467425139
 21
-660.4371162960445
 31
0.0
  0
TEXT
  5
9F83
330
18
100
AcDbEntity
  8
1TEXT
100
AcDbText
 10
721.388646742514
 20
-644.7724049555688
 30
0.0
 40
4.0
  1
パールクローム
 72
     1
 11
737.788646742514
 21
-644.7724049555688
 31
0.0
100
AcDbText
  0
TEXT
  5
9F84
330
18
100
AcDbEntity
  8
1TEXT
100
AcDbText
 10
756.7886467425144
 20
-638.1514732796938
 30
0.0
 40
4.0
  1
KLW-3E-C
 72
     1
 11
772.7886467425144
 21
-638.1514732796938
 31
0.0
100
AcDbText
  0
TEXT
  5
9F85
330
18
100
AcDbEntity
  8
1TEXT
100
AcDbText
 10
756.7886467425144
 20
-652.1514732796938
 30
0.0
 40
4.0
  1
KLW-3E-N
 72
     1
 11
772.7886467425144
 21
-652.1514732796938
 31
0.0
100
AcDbText
  0
TEXT
  5
9F86
330
18
100
AcDbEntity
  8
1TEXT
100
AcDbText
 10
756.7886467425144
 20
-645.1514732796938
 30
0.0
 40
4.0
  1
KLW-3E-B
 72
     1
 11
772.7886467425144
 21
-645.1514732796938
 31
0.0
100
AcDbText
  0
TEXT
  5
9F87
330
18
100
AcDbEntity
  8
1TEXT
100
AcDbText
 10
756.5836467425137
 20
-665.9371162960445
 30
0.0
 40
4.0
  1
KLW-3E-4Q
 41
0.9
 72
     1
 11
772.7886467425137
 21
-665.9371162960445
 31
0.0
100
AcDbText
  0
TEXT
  5
9F88
330
18
100
AcDbEntity
  8
1TEXT
100
AcDbText
 10
721.5886467425137
 20
-665.9371162960445
 30
0.0
 40
4.0
  1
ダークアンバー
 72
     1
 11
737.7886467425137
 21
-665.9371162960445
 31
0.0
100
AcDbText
  0
LINE
  5
9F89
330
18
100
AcDbEntity
  8
1DIM
100
AcDbLine
 10
720.3886467425139
 20
-667.4371162960445
 30
0.0
 11
790.3886467425139
 21
-667.4371162960445
 31
0.0
  0
LINE
  5
9F8A
330
18
100
AcDbEntity
  8
1DIM
100
AcDbLine
 10
720.3886467425139
 20
-674.4371162960446
 30
0.0
 11
790.3886467425139
 21
-674.4371162960446
 31
0.0
  0
TEXT
  5
9F8B
330
18
100
AcDbEntity
  8
1TEXT
100
AcDbText
 10
756.7886467425137
 20
-658.9371162960445
 30
0.0
 40
4.0
  1
KLW-3E-D
 72
     1
 11
772.7886467425137
 21
-658.9371162960445
 31
0.0
100
AcDbText
  0
TEXT
  5
9F8C
330
18
100
AcDbEntity
  8
1TEXT
100
AcDbText
 10
720.7886467425137
 20
-658.9371162960445
 30
0.0
 40
4.0
  1
ミラーニッケル
 72
     1
 11
737.7886467425137
 21
-658.9371162960445
 31
0.0
100
AcDbText
  0
TEXT
  5
9F8D
330
18
100
AcDbEntity
  8
1TEXT
100
AcDbText
 10
756.5711467425137
 20
-672.9371162960446
 30
0.0
 40
4.0
  1
KLW-3E-GQ
 41
0.9
 72
     1
 11
772.7886467425137
 21
-672.9371162960446
 31
0.0
100
AcDbText
  0
TEXT
  5
9F8E
330
18
100
AcDbEntity
  8
1TEXT
100
AcDbText
 10
721.6553134091804
 20
-672.9371162960446
 30
0.0
 40
4.0
  1
パールブラック
 72
     1
 11
737.7886467425137
 21
-672.9371162960446
 31
0.0
100
AcDbText
  0
TEXT
  5
9F8F
330
18
100
AcDbEntity
  8
1TEXT
100
AcDbText
 10
696.5686467425139
 20
-623.9371162960445
 30
0.0
 40
4.0
  1
材質：サムターン
 41
0.6
 72
     4
 11
707.888646742514
 21
-621.9371162960445
 31
0.0
100
AcDbText
  0
TEXT
  5
9F90
330
18
100
AcDbEntity
  8
1TEXT
100
AcDbText
 10
703.3553134091806
 20
-654.011817375414
 30
0.0
 40
4.0
  1
亜鉛
 72
     4
 11
707.8886467425139
 21
-651.8784840420807
 31
0.0
100
AcDbText
  0
TEXT
  5
9F91
330
18
100
AcDbEntity
  8
1TEXT
100
AcDbText
 10
696.9553134091806
 20
-659.0829599022159
 30
0.0
 40
4.0
  1
ダイキャスト
 41
0.8
 72
     4
 11
707.8886467425139
 21
-656.9496265688825
 31
0.0
100
AcDbText
  0
LINE
  5
9F92
330
18
100
AcDbEntity
  8
1DIM
100
AcDbLine
 10
670.3886467425141
 20
-695.4371162960446
 30
0.0
 11
670.3886467425141
 21
-618.4371162960445
 31
0.0
  0
TEXT
  5
9F93
330
18
100
AcDbEntity
  8
1TEXT
100
AcDbText
 10
673.1812393351066
 20
-623.9371162960445
 30
0.0
 40
4.0
  1
材質:カバー
 41
0.8
 72
     4
 11
682.8886467425141
 21
-621.9371162960445
 31
0.0
100
AcDbText
  0
TEXT
  5
9F94
330
18
100
AcDbEntity
  8
1TEXT
100
AcDbText
 10
678.4219800758473
 20
-654.3882416968111
 30
0.0
 40
4.0
  1
真鍮
 72
     4
 11
682.888646742514
 21
-652.3215750301443
 31
0.0
100
AcDbText
  0
TEXT
  5
9F95
330
18
100
AcDbEntity
  8
1TEXT
100
AcDbText
 10
756.5836467425137
 20
-679.9371162960446
 30
0.0
 40
4.0
  1
KLW-3E-8Q
 41
0.9
 72
     1
 11
772.7886467425137
 21
-679.9371162960446
 31
0.0
100
AcDbText
  0
TEXT
  5
9F96
330
18
100
AcDbEntity
  8
1TEXT
100
AcDbText
 10
721.1219800758471
 20
-679.9371162960446
 30
0.0
 40
4.0
  1
ミラーブラック
 72
     1
 11
737.7886467425137
 21
-679.9371162960446
 31
0.0
100
AcDbText
  0
LINE
  5
9F97
330
18
100
AcDbEntity
  8
1DIM
100
AcDbLine
 10
670.388646742514
 20
-681.4371162960443
 30
0.0
 11
790.3886467425137
 21
-681.4371162960446
 31
0.0
  0
LINE
  5
9F98
330
18
100
AcDbEntity
  8
1DIM
100
AcDbLine
 10
720.3886467425137
 20
-688.4371162960447
 30
0.0
 11
790.3886467425137
 21
-688.4371162960447
 31
0.0
  0
TEXT
  5
9F99
330
18
100
AcDbEntity
  8
1TEXT
100
AcDbText
 10
756.5886467425136
 20
-686.9371162960447
 30
0.0
 40
4.0
  1
KLW-3E-AS
 41
0.9
 72
     1
 11
772.7886467425136
 21
-686.9371162960447
 31
0.0
100
AcDbText
  0
TEXT
  5
9F9A
330
18
100
AcDbEntity
  8
1TEXT
100
AcDbText
 10
722.9086467425136
 20
-686.9371162960447
 30
0.0
 40
4.0
  1
ブラストシルバー
 41
0.8
 72
     1
 11
737.7886467425136
 21
-686.9371162960447
 31
0.0
100
AcDbText
  0
TEXT
  5
9F9B
330
18
100
AcDbEntity
  8
1TEXT
100
AcDbText
 10
756.5886467425136
 20
-693.9371162960447
 30
0.0
 40
4.0
  1
KLW-3E-AK
 41
0.9
 72
     1
 11
772.7886467425136
 21
-693.9371162960447
 31
0.0
100
AcDbText
  0
TEXT
  5
9F9C
330
18
100
AcDbEntity
  8
1TEXT
100
AcDbText
 10
722.9086467425136
 20
-693.9371162960447
 30
0.0
 40
4.0
  1
ブラストブラック
 41
0.8
 72
     1
 11
737.7886467425136
 21
-693.9371162960447
 31
0.0
100
AcDbText
  0
LINE
  5
9F9D
330
18
100
AcDbEntity
  8
1DIM
100
AcDbLine
 10
670.3886467425139
 20
-695.4371162960445
 30
0.0
 11
790.3886467425136
 21
-695.4371162960447
 31
0.0
  0
TEXT
  5
9F9E
330
18
100
AcDbEntity
  8
1TEXT
100
AcDbText
 10
676.488646742514
 20
-690.9531474536087
 30
0.0
 40
4.0
  1
アルミ
 72
     4
 11
682.888646742514
 21
-688.886480786942
 31
0.0
100
AcDbText
  0
TEXT
  5
9F9F
330
18
100
AcDbEntity
  8
1TEXT
100
AcDbText
 10
701.4886467425139
 20
-690.9531474536088
 30
0.0
 40
4.0
  1
アルミ
 72
     4
 11
707.8886467425139
 21
-688.8864807869421
 31
0.0
100
AcDbText
  0
LINE
  5
A1A7
330
18
100
AcDbEntity
  8
1CENTER
100
AcDbLine
 10
765.7387097658304
 20
-756.0614597242103
 30
0.0
 11
732.5782658658304
 21
-756.0614597242103
 31
0.0
  0
LINE
  5
A1A8
330
18
100
AcDbEntity
  8
1HATCH
100
AcDbLine
 10
764.1370347658304
 20
-754.4114597242103
 30
0.0
 11
735.7870347658304
 21
-754.4114597242103
 31
0.0
  0
LINE
  5
A1A9
330
18
100
AcDbEntity
  8
1HATCH
100
AcDbLine
 10
764.1370347658304
 20
-757.7114597242103
 30
0.0
 11
735.7870347658304
 21
-757.7114597242103
 31
0.0
  0
LINE
  5
A1AB
330
18
100
AcDbEntity
  8
1HATCH
100
AcDbLine
 10
763.7870347658304
 20
-754.0614597242103
 30
0.0
 11
763.7870347658304
 21
-758.0614597242103
 31
0.0
  0
LINE
  5
A1AC
330
18
100
AcDbEntity
  8
1HATCH
100
AcDbLine
 10
734.4370347758304
 20
-753.0614597242103
 30
0.0
 11
734.4370347758304
 21
-759.0614597242103
 31
0.0
  0
LINE
  5
A1AD
330
18
100
AcDbEntity
  8
1HATCH
100
AcDbLine
 10
735.4370349399045
 20
-758.0614597242103
 30
0.0
 11
735.7870347658304
 21
-757.7114597242103
 31
0.0
  0
LINE
  5
A1AE
330
18
100
AcDbEntity
  8
1HATCH
100
AcDbLine
 10
735.7870347658304
 20
-754.4114597242103
 30
0.0
 11
735.4370349399045
 21
-754.0614597242103
 31
0.0
  0
LINE
  5
A1B7
330
18
100
AcDbEntity
  8
1CENTER
100
AcDbLine
 10
765.7387097658304
 20
-747.0614597242103
 30
0.0
 11
732.5782658658304
 21
-747.0614597242103
 31
0.0
  0
LINE
  5
A1B8
330
18
100
AcDbEntity
  8
1HATCH
100
AcDbLine
 10
764.1370347658304
 20
-745.4114597242103
 30
0.0
 11
735.7870347658304
 21
-745.4114597242103
 31
0.0
  0
LINE
  5
A1B9
330
18
100
AcDbEntity
  8
1HATCH
100
AcDbLine
 10
764.1370347658304
 20
-748.7114597242103
 30
0.0
 11
735.7870347658304
 21
-748.7114597242103
 31
0.0
  0
LINE
  5
A1BB
330
18
100
AcDbEntity
  8
1HATCH
100
AcDbLine
 10
763.7870347658304
 20
-745.0614597242103
 30
0.0
 11
763.7870347658304
 21
-749.0614597242103
 31
0.0
  0
LINE
  5
A1BC
330
18
100
AcDbEntity
  8
1HATCH
100
AcDbLine
 10
734.4370347758304
 20
-744.0614597242103
 30
0.0
 11
734.4370347758304
 21
-750.0614597242103
 31
0.0
  0
LINE
  5
A1BD
330
18
100
AcDbEntity
  8
1HATCH
100
AcDbLine
 10
735.4370349399045
 20
-749.0614597242103
 30
0.0
 11
735.7870347658304
 21
-748.7114597242103
 31
0.0
  0
LINE
  5
A1BE
330
18
100
AcDbEntity
  8
1HATCH
100
AcDbLine
 10
735.7870347658304
 20
-745.4114597242103
 30
0.0
 11
735.4370349399045
 21
-745.0614597242103
 31
0.0
  0
LINE
  5
A1BF
330
18
100
AcDbEntity
  8
01
100
AcDbLine
 10
735.4370349399044
 20
-758.0614597242103
 30
0.0
 11
763.7870347658304
 21
-758.0614597242103
 31
0.0
  0
LINE
  5
A1C0
330
18
100
AcDbEntity
  8
01
100
AcDbLine
 10
763.7870347658304
 20
-758.0614597242103
 30
0.0
 11
764.1370347658304
 21
-757.7114597242102
 31
0.0
  0
LINE
  5
A1C1
330
18
100
AcDbEntity
  8
01
100
AcDbLine
 10
764.1370347658304
 20
-757.7114597242102
 30
0.0
 11
764.1370347658304
 21
-754.4114597242103
 31
0.0
  0
LINE
  5
A1C2
330
18
100
AcDbEntity
  8
01
100
AcDbLine
 10
764.1370347658304
 20
-754.4114597242103
 30
0.0
 11
763.7870347658304
 21
-754.0614597242103
 31
0.0
  0
LINE
  5
A1C3
330
18
100
AcDbEntity
  8
01
100
AcDbLine
 10
763.7870347658304
 20
-754.0614597242103
 30
0.0
 11
735.4370349399044
 21
-754.0614597242103
 31
0.0
  0
LINE
  5
A1C4
330
18
100
AcDbEntity
  8
01
100
AcDbLine
 10
735.4370349399044
 20
-754.0614597242103
 30
0.0
 11
734.4370347758304
 21
-753.0614597242103
 31
0.0
  0
LINE
  5
A1C5
330
18
100
AcDbEntity
  8
01
100
AcDbLine
 10
734.4370347758304
 20
-753.0614597242103
 30
0.0
 11
734.1370347658304
 21
-753.0614597242103
 31
0.0
  0
LINE
  5
A1C6
330
18
100
AcDbEntity
  8
01
100
AcDbLine
 10
734.1370347658304
 20
-753.0614597242103
 30
0.0
 11
734.1370347658304
 21
-759.0614597242103
 31
0.0
  0
LINE
  5
A1C7
330
18
100
AcDbEntity
  8
01
100
AcDbLine
 10
734.1370347658304
 20
-759.0614597242103
 30
0.0
 11
734.4370348658305
 21
-759.0614597242103
 31
0.0
  0
LINE
  5
A1C8
330
18
100
AcDbEntity
  8
01
100
AcDbLine
 10
734.4370348658305
 20
-759.0614597242103
 30
0.0
 11
735.4370349399044
 21
-758.0614597242103
 31
0.0
  0
LINE
  5
A1C9
330
18
100
AcDbEntity
  8
01
100
AcDbLine
 10
735.4370349399044
 20
-749.0614597242103
 30
0.0
 11
763.7870347658304
 21
-749.0614597242103
 31
0.0
  0
LINE
  5
A1CA
330
18
100
AcDbEntity
  8
01
100
AcDbLine
 10
763.7870347658304
 20
-749.0614597242103
 30
0.0
 11
764.1370347658304
 21
-748.7114597242102
 31
0.0
  0
LINE
  5
A1CB
330
18
100
AcDbEntity
  8
01
100
AcDbLine
 10
764.1370347658304
 20
-748.7114597242102
 30
0.0
 11
764.1370347658304
 21
-745.4114597242103
 31
0.0
  0
LINE
  5
A1CC
330
18
100
AcDbEntity
  8
01
100
AcDbLine
 10
764.1370347658304
 20
-745.4114597242103
 30
0.0
 11
763.7870347658304
 21
-745.0614597242103
 31
0.0
  0
LINE
  5
A1CD
330
18
100
AcDbEntity
  8
01
100
AcDbLine
 10
763.7870347658304
 20
-745.0614597242103
 30
0.0
 11
735.4370349399044
 21
-745.0614597242103
 31
0.0
  0
LINE
  5
A1CE
330
18
100
AcDbEntity
  8
01
100
AcDbLine
 10
735.4370349399044
 20
-745.0614597242103
 30
0.0
 11
734.4370347758304
 21
-744.0614597242103
 31
0.0
  0
LINE
  5
A1CF
330
18
100
AcDbEntity
  8
01
100
AcDbLine
 10
734.4370347758304
 20
-744.0614597242103
 30
0.0
 11
734.1370347658304
 21
-744.0614597242103
 31
0.0
  0
LINE
  5
A1D0
330
18
100
AcDbEntity
  8
01
100
AcDbLine
 10
734.1370347658304
 20
-744.0614597242103
 30
0.0
 11
734.1370347658304
 21
-750.0614597242103
 31
0.0
  0
LINE
  5
A1D1
330
18
100
AcDbEntity
  8
01
100
AcDbLine
 10
734.1370347658304
 20
-750.0614597242103
 30
0.0
 11
734.4370348658305
 21
-750.0614597242103
 31
0.0
  0
LINE
  5
A1D2
330
18
100
AcDbEntity
  8
01
100
AcDbLine
 10
734.4370348658305
 20
-750.0614597242103
 30
0.0
 11
735.4370349399044
 21
-749.0614597242103
 31
0.0
  0
LINE
  5
A1D3
330
18
100
AcDbEntity
  8
1DIM
100
AcDbLine
 10
734.1370347658304
 20
-744.0614597242103
 30
0.0
 11
734.1370347658304
 21
-739.9402625322106
 31
0.0
1001
ACAD
1000
DSTYLE
1002
{
1070
    40
1040
1.0
1002
}
  0
LINE
  5
A1D4
330
18
100
AcDbEntity
  8
1DIM
100
AcDbLine
 10
764.1370347658304
 20
-745.4114597242102
 30
0.0
 11
764.1370347658304
 21
-739.9402625322106
 31
0.0
1001
ACAD
1000
DSTYLE
1002
{
1070
    40
1040
1.0
1002
}
  0
LINE
  5
A1D5
330
18
100
AcDbEntity
  8
1DIM
100
AcDbLine
 10
736.1370347658304
 20
-740.9402625322106
 30
0.0
 11
762.1370347658304
 21
-740.9402625322106
 31
0.0
1001
ACAD
1000
DSTYLE
1002
{
1070
    40
1040
1.0
1002
}
  0
LINE
  5
A1DA
330
18
100
AcDbEntity
  8
1DIM
100
AcDbLine
 10
733.3496559096694
 20
-745.2393237726661
 30
0.0
 11
729.7815447034995
 21
-736.3123604222197
 31
0.0
  0
LINE
  5
A1DB
330
18
100
AcDbEntity
  8
1DIM
100
AcDbLine
 10
729.7815447034995
 20
-736.3123604222197
 30
0.0
 11
727.0815447034995
 21
-736.3123604222197
 31
0.0
  0
TEXT
  5
A1DC
330
18
100
AcDbEntity
  8
1DIM
  6
CONTINUOUS
100
AcDbText
 10
717.7482113701661
 20
-735.6123604222198
 30
0.0
 40
3.5
  1
SUS
100
AcDbText
  0
TEXT
  5
A1DD
330
18
100
AcDbEntity
  8
1DIM
  6
CONTINUOUS
100
AcDbText
 10
519.0974959038097
 20
-674.7864497792688
 30
-0.0000000000562575
 40
3.5
  1
材質：各種材質
100
AcDbText
  0
TEXT
  5
A1DE
330
18
100
AcDbEntity
  8
1DIM
  6
CONTINUOUS
100
AcDbText
 10
519.2141625704763
 20
-680.6197831126021
 30
-0.0000000000562575
 40
3.5
  1
仕上げ：各種仕上げ
100
AcDbText
  0
LINE
  5
A1E0
330
18
100
AcDbEntity
  8
1DIM
100
AcDbLine
 10
524.8847868460624
 20
-717.6696721232685
 30
-0.0000000000562575
 11
516.630829237143
 21
-681.3197831126022
 31
-0.0000000000562575
  0
LINE
  5
A1E1
330
18
100
AcDbEntity
  8
1DIM
100
AcDbLine
 10
516.630829237143
 20
-681.3197831126022
 30
-0.0000000000562575
 11
556.3141625704764
 21
-681.3197831126022
 31
-0.0000000000562575
  0
TEXT
  5
A1E2
330
18
100
AcDbEntity
  8
1DIM
  6
CONTINUOUS
100
AcDbText
 10
465.4613551893543
 20
-688.6748993453442
 30
-0.0000000000562575
 40
3.5
  1
材質：各種材質
100
AcDbText
  0
TEXT
  5
A1E3
330
18
100
AcDbEntity
  8
1DIM
  6
CONTINUOUS
100
AcDbText
 10
456.9446885226876
 20
-694.5082326786776
 30
-0.0000000000562575
 40
3.5
  1
仕上げ：各種仕上げ
100
AcDbText
  0
LINE
  5
A1E5
330
18
100
AcDbEntity
  8
1DIM
100
AcDbLine
 10
486.9618057906291
 20
-711.0762078369241
 30
-0.0000000000562575
 11
496.7446885226876
 21
-695.2082326786776
 31
-0.0000000000562575
  0
LINE
  5
A1E6
330
18
100
AcDbEntity
  8
1DIM
100
AcDbLine
 10
496.7446885226876
 20
-695.2082326786776
 30
-0.0000000000562575
 11
457.0613551893543
 21
-695.2082326786776
 31
-0.0000000000562575
  0
LINE
  5
A1E7
330
18
100
AcDbEntity
  8
1DIM
100
AcDbLine
 10
458.1813296544078
 20
-723.1646288678891
 30
0.0
 11
458.1813296544078
 21
-768.3581029271421
 31
0.0
1001
ACAD
1000
DSTYLE
1002
{
1070
     3
1000
φ<>
1070
    40
1040
1.0
1002
}
  0
LINE
  5
A1E8
330
18
100
AcDbEntity
  8
1DIM
100
AcDbLine
 10
498.181329654402
 20
-723.1646288678891
 30
0.0
 11
498.181329654402
 21
-768.3581029271421
 31
0.0
1001
ACAD
1000
DSTYLE
1002
{
1070
     3
1000
φ<>
1070
    40
1040
1.0
1002
}
  0
LINE
  5
A1E9
330
18
100
AcDbEntity
  8
1DIM
100
AcDbLine
 10
460.1813296544078
 20
-767.3581029271421
 30
0.0
 11
496.181329654402
 21
-767.3581029271421
 31
0.0
1001
ACAD
1000
DSTYLE
1002
{
1070
     3
1000
φ<>
1070
    40
1040
1.0
1002
}
  0
TEXT
  5
A1ED
330
18
100
AcDbEntity
  8
1DIM
  6
CONTINUOUS
100
AcDbText
 10
550.3296222380366
 20
-692.7586367069713
 30
-0.0000000000562575
 40
3.5
  1
材質：ポリアセタール
100
AcDbText
  0
LINE
  5
A1EF
330
18
100
AcDbEntity
  8
1DIM
100
AcDbLine
 10
542.672536742283
 20
-711.8977165995188
 30
-0.0000000000562575
 11
547.8629555713699
 21
-693.4586367069713
 31
-0.0000000000562575
  0
LINE
  5
A1F0
330
18
100
AcDbEntity
  8
1DIM
100
AcDbLine
 10
547.8629555713699
 20
-693.4586367069713
 30
-0.0000000000562575
 11
591.7462889047032
 21
-693.4586367069713
 31
-0.0000000000562575
  0
LINE
  5
A1F1
330
18
100
AcDbEntity
  8
1DIM
100
AcDbLine
 10
538.8441056410918
 20
-743.1646288678893
 30
0.0
 11
538.8441056410918
 21
-759.3222727614369
 31
0.0
1001
ACAD
1000
DSTYLE
1002
{
1070
    40
1040
1.0
1070
   271
1070
     0
1002
}
  0
LINE
  5
A1F2
330
18
100
AcDbEntity
  8
1DIM
100
AcDbLine
 10
532.5441056410916
 20
-742.6646288678893
 30
0.0
 11
532.5441056410916
 21
-759.3222727614369
 31
0.0
1001
ACAD
1000
DSTYLE
1002
{
1070
    40
1040
1.0
1070
   271
1070
     0
1002
}
  0
LINE
  5
A1F3
330
18
100
AcDbEntity
  8
1DIM
100
AcDbLine
 10
536.8441056410918
 20
-758.3222727614369
 30
0.0
 11
534.5441056410916
 21
-758.3222727614369
 31
0.0
1001
ACAD
1000
DSTYLE
1002
{
1070
    40
1040
1.0
1070
   271
1070
     0
1002
}
  0
LINE
  5
A1F7
330
18
100
AcDbEntity
  8
1DIM
100
AcDbLine
 10
538.8441056410918
 20
-743.1646288678893
 30
0.0
 11
538.8441056410918
 21
-768.3581029271421
 31
0.0
1001
ACAD
1000
DSTYLE
1002
{
1070
    40
1040
1.0
1002
}
  0
LINE
  5
A1F8
330
18
100
AcDbEntity
  8
1DIM
100
AcDbLine
 10
516.844080830082
 20
-738.6646338678862
 30
0.0
 11
516.844080830082
 21
-768.3581029271421
 31
0.0
1001
ACAD
1000
DSTYLE
1002
{
1070
    40
1040
1.0
1002
}
  0
LINE
  5
A1F9
330
18
100
AcDbEntity
  8
1DIM
100
AcDbLine
 10
536.8441056410918
 20
-767.3581029271421
 30
0.0
 11
518.844080830082
 21
-767.3581029271421
 31
0.0
1001
ACAD
1000
DSTYLE
1002
{
1070
    40
1040
1.0
1002
}
  0
LINE
  5
A1FD
330
18
100
AcDbEntity
  8
1DIM
100
AcDbLine
 10
578.8441056411007
 20
-743.1646288678892
 30
0.0
 11
578.8441056411007
 21
-759.3222727614369
 31
0.0
1001
ACAD
1000
DSTYLE
1002
{
1070
    40
1040
1.0
1070
   271
1070
     0
1002
}
  0
LINE
  5
A1FE
330
18
100
AcDbEntity
  8
1DIM
100
AcDbLine
 10
585.1441056411009
 20
-742.6646288678892
 30
0.0
 11
585.1441056411009
 21
-759.3222727614369
 31
0.0
1001
ACAD
1000
DSTYLE
1002
{
1070
    40
1040
1.0
1070
   271
1070
     0
1002
}
  0
LINE
  5
A1FF
330
18
100
AcDbEntity
  8
1DIM
100
AcDbLine
 10
580.8441056411007
 20
-758.3222727614369
 30
0.0
 11
583.1441056411009
 21
-758.3222727614369
 31
0.0
1001
ACAD
1000
DSTYLE
1002
{
1070
    40
1040
1.0
1070
   271
1070
     0
1002
}
  0
LINE
  5
A203
330
18
100
AcDbEntity
  8
1DIM
100
AcDbLine
 10
578.8441056411007
 20
-743.1646288678892
 30
0.0
 11
578.8441056411007
 21
-768.3581029271421
 31
0.0
1001
ACAD
1000
DSTYLE
1002
{
1070
    40
1040
1.0
1070
   271
1070
     0
1002
}
  0
LINE
  5
A204
330
18
100
AcDbEntity
  8
1DIM
100
AcDbLine
 10
587.0859737959707
 20
-728.6646288678891
 30
0.0
 11
587.0859737959707
 21
-768.3581029271421
 31
0.0
1001
ACAD
1000
DSTYLE
1002
{
1070
    40
1040
1.0
1070
   271
1070
     0
1002
}
  0
LINE
  5
A205
330
18
100
AcDbEntity
  8
1DIM
100
AcDbLine
 10
580.8441056411007
 20
-767.3581029271421
 30
0.0
 11
585.0859737959707
 21
-767.3581029271421
 31
0.0
1001
ACAD
1000
DSTYLE
1002
{
1070
    40
1040
1.0
1070
   271
1070
     0
1002
}
  0
LINE
  5
A209
330
18
100
AcDbEntity
  8
1DIM
100
AcDbLine
 10
632.0030054170787
 20
-778.6646286637605
 30
0.0
 11
662.1767467082957
 21
-778.6646286637605
 31
0.0
1001
ACAD
1000
DSTYLE
1002
{
1070
    40
1040
1.0
1002
}
  0
LINE
  5
A20A
330
18
100
AcDbEntity
  8
1DIM
100
AcDbLine
 10
630.9101498946192
 20
-728.6646288678884
 30
0.0
 11
662.1767467082958
 21
-728.6646288678884
 31
0.0
1001
ACAD
1000
DSTYLE
1002
{
1070
    40
1040
1.0
1002
}
  0
LINE
  5
A20B
330
18
100
AcDbEntity
  8
1DIM
100
AcDbLine
 10
661.1767467082957
 20
-776.6646286637605
 30
0.0
 11
661.1767467082958
 21
-730.6646288678884
 31
0.0
1001
ACAD
1000
DSTYLE
1002
{
1070
    40
1040
1.0
1002
}
  0
LINE
  5
A210
330
18
100
AcDbEntity
  8
1DIM
100
AcDbLine
 10
566.5700390081212
 20
-734.3253314070341
 30
-0.0000000000562575
 11
560.2661454427155
 21
-783.1684314603285
 31
-0.0000000000562575
1001
ACAD
1000
DSTYLE
1002
{
1070
    40
1040
1.3
1070
   271
1070
     1
1002
}
  0
LINE
  5
A211
330
18
100
AcDbEntity
  8
1DIM
100
AcDbLine
 10
560.2661454427155
 20
-783.1684314603285
 30
-0.0000000000562575
 11
512.1894787760488
 21
-783.1684314603285
 31
-0.0000000000562575
1001
ACAD
1000
DSTYLE
1002
{
1070
    40
1040
1.3
1070
   271
1070
     1
1002
}
  0
TEXT
  5
A212
330
18
100
AcDbEntity
  8
1DIM
  6
CONTINUOUS
100
AcDbText
 10
511.9561454427154
 20
-776.4834314603285
 30
-0.0000000000562575
 40
3.5
  1
材質：亜鉛ダイキャスト
100
AcDbText
  0
TEXT
  5
A213
330
18
100
AcDbEntity
  8
1DIM
  6
CONTINUOUS
100
AcDbText
 10
523.8561454427155
 20
-782.3167647936618
 30
-0.0000000000562575
 40
3.5
  1
仕上げ：クローム
100
AcDbText
  0
LINE
  5
A214
330
18
100
AcDbEntity
  8
0
  6
BYBLOCK
100
AcDbLine
 10
736.1370347658304
 20
-741.4761609122106
 30
0.0
 11
734.1370347658304
 21
-740.9402625322106
 31
0.0
  0
LINE
  5
A215
330
18
100
AcDbEntity
  8
0
  6
BYBLOCK
100
AcDbLine
 10
734.1370347658304
 20
-740.9402625322106
 30
0.0
 11
736.1370347658304
 21
-740.4043641522105
 31
0.0
  0
LINE
  5
A216
330
18
100
AcDbEntity
  8
0
  6
BYBLOCK
100
AcDbLine
 10
734.1370347658304
 20
-740.9402625322106
 30
0.0
 11
736.1370347658304
 21
-740.9402625322106
 31
0.0
  0
LINE
  5
A217
330
18
100
AcDbEntity
  8
0
  6
BYBLOCK
100
AcDbLine
 10
762.1370347658304
 20
-740.4043641522105
 30
0.0
 11
764.1370347658304
 21
-740.9402625322106
 31
0.0
  0
LINE
  5
A218
330
18
100
AcDbEntity
  8
0
  6
BYBLOCK
100
AcDbLine
 10
764.1370347658304
 20
-740.9402625322106
 30
0.0
 11
762.1370347658304
 21
-741.4761609122106
 31
0.0
  0
LINE
  5
A219
330
18
100
AcDbEntity
  8
0
  6
BYBLOCK
100
AcDbLine
 10
764.1370347658304
 20
-740.9402625322106
 30
0.0
 11
762.1370347658304
 21
-740.9402625322106
 31
0.0
  0
TEXT
  5
A21A
330
18
100
AcDbEntity
  8
1DIM
  6
CONTINUOUS
100
AcDbText
 10
746.4391180991638
 20
-740.2402625322105
 30
0.0
 40
3.5
  1
30
100
AcDbText
1001
ACAD
1000
DSTYLE
1002
{
1070
    40
1040
1.0
1002
}
  0
LINE
  5
A21B
330
18
100
AcDbEntity
  8
0
  6
BYBLOCK
100
AcDbLine
 10
733.8472764495527
 20
-745.0404246224093
 30
0.0
 11
734.0919576507453
 21
-747.0964689272504
 31
0.0
  0
LINE
  5
A21C
330
18
100
AcDbEntity
  8
0
  6
BYBLOCK
100
AcDbLine
 10
734.0919576507453
 20
-747.0964689272504
 30
0.0
 11
732.8520353697862
 21
-745.4382229229229
 31
0.0
  0
LINE
  5
A21D
330
18
100
AcDbEntity
  8
0
  6
BYBLOCK
100
AcDbLine
 10
734.0919576507453
 20
-747.0964689272504
 30
0.0
 11
733.3496559096694
 21
-745.2393237726661
 31
0.0
  0
LINE
  5
A21E
330
18
100
AcDbEntity
  8
0
  6
BYBLOCK
100
AcDbLine
 10
525.4073818859588
 20
-717.5510066356057
 30
-0.0000000000562575
 11
525.3276524791428
 21
-719.6200233816412
 31
-0.0000000000562575
  0
LINE
  5
A21F
330
18
100
AcDbEntity
  8
0
  6
BYBLOCK
100
AcDbLine
 10
525.3276524791428
 20
-719.6200233816412
 30
-0.0000000000562575
 11
524.3621918061659
 21
-717.7883376109312
 31
-0.0000000000562575
  0
LINE
  5
A220
330
18
100
AcDbEntity
  8
0
  6
BYBLOCK
100
AcDbLine
 10
525.3276524791428
 20
-719.6200233816412
 30
-0.0000000000562575
 11
524.8847868460624
 21
-717.6696721232685
 31
-0.0000000000562575
  0
LINE
  5
A221
330
18
100
AcDbEntity
  8
0
  6
BYBLOCK
100
AcDbLine
 10
487.4179772999698
 20
-711.3574455082138
 30
-0.0000000000562575
 11
485.9122125028509
 21
-712.7786631021958
 31
-0.0000000000562575
  0
LINE
  5
A222
330
18
100
AcDbEntity
  8
0
  6
BYBLOCK
100
AcDbLine
 10
485.9122125028509
 20
-712.7786631021958
 30
-0.0000000000562575
 11
486.5056342812883
 21
-710.7949701656346
 31
-0.0000000000562575
  0
LINE
  5
A223
330
18
100
AcDbEntity
  8
0
  6
BYBLOCK
100
AcDbLine
 10
485.9122125028509
 20
-712.7786631021958
 30
-0.0000000000562575
 11
486.9618057906291
 21
-711.0762078369241
 31
-0.0000000000562575
  0
LINE
  5
A224
330
18
100
AcDbEntity
  8
0
  6
BYBLOCK
100
AcDbLine
 10
460.1813296544078
 20
-767.8940013071422
 30
0.0
 11
458.1813296544078
 21
-767.3581029271421
 31
0.0
  0
LINE
  5
A225
330
18
100
AcDbEntity
  8
0
  6
BYBLOCK
100
AcDbLine
 10
458.1813296544078
 20
-767.3581029271421
 30
0.0
 11
460.1813296544078
 21
-766.8222045471421
 31
0.0
  0
LINE
  5
A226
330
18
100
AcDbEntity
  8
0
  6
BYBLOCK
100
AcDbLine
 10
458.1813296544078
 20
-767.3581029271421
 30
0.0
 11
460.1813296544078
 21
-767.3581029271421
 31
0.0
  0
LINE
  5
A227
330
18
100
AcDbEntity
  8
0
  6
BYBLOCK
100
AcDbLine
 10
496.181329654402
 20
-766.8222045471421
 30
0.0
 11
498.181329654402
 21
-767.3581029271421
 31
0.0
  0
LINE
  5
A228
330
18
100
AcDbEntity
  8
0
  6
BYBLOCK
100
AcDbLine
 10
498.181329654402
 20
-767.3581029271421
 30
0.0
 11
496.181329654402
 21
-767.8940013071422
 31
0.0
  0
LINE
  5
A229
330
18
100
AcDbEntity
  8
0
  6
BYBLOCK
100
AcDbLine
 10
498.181329654402
 20
-767.3581029271421
 30
0.0
 11
496.181329654402
 21
-767.3581029271421
 31
0.0
  0
TEXT
  5
A22A
330
18
100
AcDbEntity
  8
1DIM
  6
CONTINUOUS
100
AcDbText
 10
472.9167463210715
 20
-766.6581029271421
 30
0.0
 40
3.5
  1
φ40
100
AcDbText
1001
ACAD
1000
DSTYLE
1002
{
1070
     3
1000
φ<>
1070
    40
1040
1.0
1002
}
  0
LINE
  5
A22B
330
18
100
AcDbEntity
  8
0
  6
BYBLOCK
100
AcDbLine
 10
543.1883875250688
 20
-712.0429234987554
 30
-0.0000000000562575
 11
542.130617211806
 21
-713.822897947467
 31
-0.0000000000562575
  0
LINE
  5
A22C
330
18
100
AcDbEntity
  8
0
  6
BYBLOCK
100
AcDbLine
 10
542.130617211806
 20
-713.822897947467
 30
-0.0000000000562575
 11
542.1566859594972
 21
-711.7525097002823
 31
-0.0000000000562575
  0
LINE
  5
A22D
330
18
100
AcDbEntity
  8
0
  6
BYBLOCK
100
AcDbLine
 10
542.130617211806
 20
-713.822897947467
 30
-0.0000000000562575
 11
542.672536742283
 21
-711.8977165995188
 31
-0.0000000000562575
  0
LINE
  5
A22E
330
18
100
AcDbEntity
  8
0
  6
BYBLOCK
100
AcDbLine
 10
536.8441056410918
 20
-757.7863743814369
 30
0.0
 11
538.8441056410918
 21
-758.3222727614369
 31
0.0
  0
LINE
  5
A22F
330
18
100
AcDbEntity
  8
0
  6
BYBLOCK
100
AcDbLine
 10
538.8441056410918
 20
-758.3222727614369
 30
0.0
 11
536.8441056410918
 21
-758.858171141437
 31
0.0
  0
LINE
  5
A230
330
18
100
AcDbEntity
  8
0
  6
BYBLOCK
100
AcDbLine
 10
538.8441056410918
 20
-758.3222727614369
 30
0.0
 11
536.8441056410918
 21
-758.3222727614369
 31
0.0
  0
LINE
  5
A231
330
18
100
AcDbEntity
  8
0
  6
BYBLOCK
100
AcDbLine
 10
534.5441056410916
 20
-758.858171141437
 30
0.0
 11
532.5441056410916
 21
-758.3222727614369
 31
0.0
  0
LINE
  5
A232
330
18
100
AcDbEntity
  8
0
  6
BYBLOCK
100
AcDbLine
 10
532.5441056410916
 20
-758.3222727614369
 30
0.0
 11
534.5441056410916
 21
-757.7863743814369
 31
0.0
  0
LINE
  5
A233
330
18
100
AcDbEntity
  8
0
  6
BYBLOCK
100
AcDbLine
 10
532.5441056410916
 20
-758.3222727614369
 30
0.0
 11
534.5441056410916
 21
-758.3222727614369
 31
0.0
  0
TEXT
  5
A234
330
18
100
AcDbEntity
  8
1DIM
  6
CONTINUOUS
100
AcDbText
 10
534.5274389744251
 20
-757.6222727614369
 30
0.0
 40
3.5
  1
6
100
AcDbText
1001
ACAD
1000
DSTYLE
1002
{
1070
    40
1040
1.0
1070
   271
1070
     0
1002
}
  0
LINE
  5
A235
330
18
100
AcDbEntity
  8
0
  6
BYBLOCK
100
AcDbLine
 10
536.8441056410918
 20
-766.8222045471421
 30
0.0
 11
538.8441056410918
 21
-767.3581029271421
 31
0.0
  0
LINE
  5
A236
330
18
100
AcDbEntity
  8
0
  6
BYBLOCK
100
AcDbLine
 10
538.8441056410918
 20
-767.3581029271421
 30
0.0
 11
536.8441056410918
 21
-767.8940013071422
 31
0.0
  0
LINE
  5
A237
330
18
100
AcDbEntity
  8
0
  6
BYBLOCK
100
AcDbLine
 10
538.8441056410918
 20
-767.3581029271421
 30
0.0
 11
536.8441056410918
 21
-767.3581029271421
 31
0.0
  0
LINE
  5
A238
330
18
100
AcDbEntity
  8
0
  6
BYBLOCK
100
AcDbLine
 10
518.844080830082
 20
-767.8940013071422
 30
0.0
 11
516.844080830082
 21
-767.3581029271421
 31
0.0
  0
LINE
  5
A239
330
18
100
AcDbEntity
  8
0
  6
BYBLOCK
100
AcDbLine
 10
516.844080830082
 20
-767.3581029271421
 30
0.0
 11
518.844080830082
 21
-766.8222045471421
 31
0.0
  0
LINE
  5
A23A
330
18
100
AcDbEntity
  8
0
  6
BYBLOCK
100
AcDbLine
 10
516.844080830082
 20
-767.3581029271421
 30
0.0
 11
518.844080830082
 21
-767.3581029271421
 31
0.0
  0
TEXT
  5
A23B
330
18
100
AcDbEntity
  8
1DIM
  6
CONTINUOUS
100
AcDbText
 10
524.9274265689203
 20
-766.6581029271421
 30
0.0
 40
3.5
  1
22
100
AcDbText
1001
ACAD
1000
DSTYLE
1002
{
1070
    40
1040
1.0
1002
}
  0
LINE
  5
A23C
330
18
100
AcDbEntity
  8
0
  6
BYBLOCK
100
AcDbLine
 10
580.8441056411007
 20
-758.858171141437
 30
0.0
 11
578.8441056411007
 21
-758.3222727614369
 31
0.0
  0
LINE
  5
A23D
330
18
100
AcDbEntity
  8
0
  6
BYBLOCK
100
AcDbLine
 10
578.8441056411007
 20
-758.3222727614369
 30
0.0
 11
580.8441056411007
 21
-757.7863743814369
 31
0.0
  0
LINE
  5
A23E
330
18
100
AcDbEntity
  8
0
  6
BYBLOCK
100
AcDbLine
 10
578.8441056411007
 20
-758.3222727614369
 30
0.0
 11
580.8441056411007
 21
-758.3222727614369
 31
0.0
  0
LINE
  5
A23F
330
18
100
AcDbEntity
  8
0
  6
BYBLOCK
100
AcDbLine
 10
583.1441056411009
 20
-757.7863743814369
 30
0.0
 11
585.1441056411009
 21
-758.3222727614369
 31
0.0
  0
LINE
  5
A240
330
18
100
AcDbEntity
  8
0
  6
BYBLOCK
100
AcDbLine
 10
585.1441056411009
 20
-758.3222727614369
 30
0.0
 11
583.1441056411009
 21
-758.858171141437
 31
0.0
  0
LINE
  5
A241
330
18
100
AcDbEntity
  8
0
  6
BYBLOCK
100
AcDbLine
 10
585.1441056411009
 20
-758.3222727614369
 30
0.0
 11
583.1441056411009
 21
-758.3222727614369
 31
0.0
  0
TEXT
  5
A242
330
18
100
AcDbEntity
  8
1DIM
  6
CONTINUOUS
100
AcDbText
 10
580.8274389744341
 20
-757.6222727614369
 30
0.0
 40
3.5
  1
6
100
AcDbText
1001
ACAD
1000
DSTYLE
1002
{
1070
    40
1040
1.0
1070
   271
1070
     0
1002
}
  0
LINE
  5
A243
330
18
100
AcDbEntity
  8
0
  6
BYBLOCK
100
AcDbLine
 10
580.8441056411007
 20
-767.8940013071422
 30
0.0
 11
578.8441056411007
 21
-767.3581029271421
 31
0.0
  0
LINE
  5
A244
330
18
100
AcDbEntity
  8
0
  6
BYBLOCK
100
AcDbLine
 10
578.8441056411007
 20
-767.3581029271421
 30
0.0
 11
580.8441056411007
 21
-766.8222045471421
 31
0.0
  0
LINE
  5
A245
330
18
100
AcDbEntity
  8
0
  6
BYBLOCK
100
AcDbLine
 10
578.8441056411007
 20
-767.3581029271421
 30
0.0
 11
580.8441056411007
 21
-767.3581029271421
 31
0.0
  0
LINE
  5
A246
330
18
100
AcDbEntity
  8
0
  6
BYBLOCK
100
AcDbLine
 10
585.0859737959707
 20
-766.8222045471421
 30
0.0
 11
587.0859737959707
 21
-767.3581029271421
 31
0.0
  0
LINE
  5
A247
330
18
100
AcDbEntity
  8
0
  6
BYBLOCK
100
AcDbLine
 10
587.0859737959707
 20
-767.3581029271421
 30
0.0
 11
585.0859737959707
 21
-767.8940013071422
 31
0.0
  0
LINE
  5
A248
330
18
100
AcDbEntity
  8
0
  6
BYBLOCK
100
AcDbLine
 10
587.0859737959707
 20
-767.3581029271421
 30
0.0
 11
585.0859737959707
 21
-767.3581029271421
 31
0.0
  0
TEXT
  5
A249
330
18
100
AcDbEntity
  8
1DIM
  6
CONTINUOUS
100
AcDbText
 10
581.7983730518691
 20
-766.6581029271421
 30
0.0
 40
3.5
  1
8
100
AcDbText
1001
ACAD
1000
DSTYLE
1002
{
1070
    40
1040
1.0
1070
   271
1070
     0
1002
}
  0
LINE
  5
A24A
330
18
100
AcDbEntity
  8
0
  6
BYBLOCK
100
AcDbLine
 10
661.7126450882957
 20
-776.6646286637605
 30
0.0
 11
661.1767467082957
 21
-778.6646286637605
 31
0.0
  0
LINE
  5
A24B
330
18
100
AcDbEntity
  8
0
  6
BYBLOCK
100
AcDbLine
 10
661.1767467082957
 20
-778.6646286637605
 30
0.0
 11
660.6408483282956
 21
-776.6646286637605
 31
0.0
  0
LINE
  5
A24C
330
18
100
AcDbEntity
  8
0
  6
BYBLOCK
100
AcDbLine
 10
661.1767467082957
 20
-778.6646286637605
 30
0.0
 11
661.1767467082957
 21
-776.6646286637605
 31
0.0
  0
LINE
  5
A24D
330
18
100
AcDbEntity
  8
0
  6
BYBLOCK
100
AcDbLine
 10
660.6408483282958
 20
-730.6646288678884
 30
0.0
 11
661.1767467082958
 21
-728.6646288678884
 31
0.0
  0
LINE
  5
A24E
330
18
100
AcDbEntity
  8
0
  6
BYBLOCK
100
AcDbLine
 10
661.1767467082958
 20
-728.6646288678884
 30
0.0
 11
661.7126450882959
 21
-730.6646288678884
 31
0.0
  0
LINE
  5
A24F
330
18
100
AcDbEntity
  8
0
  6
BYBLOCK
100
AcDbLine
 10
661.1767467082958
 20
-728.6646288678884
 30
0.0
 11
661.1767467082958
 21
-730.6646288678884
 31
0.0
  0
TEXT
  5
A250
330
18
100
AcDbEntity
  8
1DIM
  6
CONTINUOUS
100
AcDbText
 10
660.476746708296
 20
-774.9830315436021
 30
0.0
 40
3.5
  1
ハンドル取付位置=50
 50
90.0
100
AcDbText
1001
ACAD
1000
DSTYLE
1002
{
1070
    40
1040
1.0
1002
}
  0
LINE
  5
A251
330
18
100
AcDbEntity
  8
0
  6
BYBLOCK
100
AcDbLine
 10
565.879102008172
 20
-734.2361562051464
 30
-0.0000000000562575
 11
566.9028453953613
 21
-731.746719394999
 31
-0.0000000000562575
  0
LINE
  5
A252
330
18
100
AcDbEntity
  8
0
  6
BYBLOCK
100
AcDbLine
 10
566.9028453953613
 20
-731.746719394999
 30
-0.0000000000562575
 11
567.2609760080702
 21
-734.414506608922
 31
-0.0000000000562575
  0
LINE
  5
A253
330
18
100
AcDbEntity
  8
0
  6
BYBLOCK
100
AcDbLine
 10
566.9028453953613
 20
-731.746719394999
 30
-0.0000000000562575
 11
566.5700390081212
 21
-734.3253314070341
 31
-0.0000000000562575
  0
VIEWPORT
  5
20C3
330
15
100
AcDbEntity
 67
     1
  8
0
  6
CONTINUOUS
100
AcDbViewport
 68
     1
 10
0.0
 20
0.0
 30
0.0
 40
535.5106132075472
 41
297.0
 68
     1
 69
     1
1001
ACAD
1000
MVIEW
1002
{
1070
    16
1010
0.0
1020
0.0
1030
0.0
1010
0.0
1020
0.0
1030
1.0
1040
0.0
1040
297.0
1040
5.728000000000009
1040
20.75155896001098
1040
50.0
1040
0.0
1040
0.0
1070
    16
1070
   100
1070
     0
1070
     1
1070
     0
1070
     0
1070
     0
1070
     0
1040
0.0
1040
0.0
1040
0.0
1040
1.0
1040
1.0
1040
0.0
1040
0.0
1070
     0
1002
{
1002
}
1002
}
  0
ENDSEC
  0
SECTION
  2
OBJECTS
  0
DICTIONARY
  5
C
330
0
100
AcDbDictionary
  3
ACAD_CIP_PREVIOUS_PRODUCT_INFO
350
9F29
  3
ACAD_COLOR
350
6590
  3
ACAD_GROUP
350
D
  3
ACAD_LAYOUT
350
6591
  3
ACAD_MATERIAL
350
658F
  3
ACAD_MLEADERSTYLE
350
9BF1
  3
ACAD_MLINESTYLE
350
1B
  3
ACAD_PLOTSETTINGS
350
6592
  3
ACAD_SCALELIST
350
9BCF
  3
ACAD_VISUALSTYLE
350
9BBE
  3
ACDBHEADERROUNDTRIPXREC
350
A254
  3
ACDBVARIABLEDICTIONARY
350
2739
  3
CONTENTDICTIONARY
350
1BFA
  3
DRAWINGVARIABLESDICT
350
3B87
  3
DWGPROPS
350
A257
1001
ACAD
1000
TREAT_AS_HARD
1070
     0
  0
DICTIONARY
  5
83EE
330
2
100
AcDbDictionary
  3
ACAD_LAYERSTATES
360
83EF
1001
ACAD
1000
TREAT_AS_HARD
1070
     1
  0
DICTIONARY
  5
9BF8
330
E
100
AcDbDictionary
  3
ADSK_XREC_LAYER_RECONCILED
360
9BF9
1001
ACAD
1000
TREAT_AS_HARD
1070
     1
  0
DICTIONARY
  5
9BFA
330
1C0B
100
AcDbDictionary
  3
ADSK_XREC_LAYER_RECONCILED
360
9BFB
1001
ACAD
1000
TREAT_AS_HARD
1070
     1
  0
DICTIONARY
  5
9BFC
330
1C0C
100
AcDbDictionary
  3
ADSK_XREC_LAYER_RECONCILED
360
9BFD
1001
ACAD
1000
TREAT_AS_HARD
1070
     1
  0
DICTIONARY
  5
9BFE
330
1C0E
100
AcDbDictionary
  3
ADSK_XREC_LAYER_RECONCILED
360
9BFF
1001
ACAD
1000
TREAT_AS_HARD
1070
     1
  0
DICTIONARY
  5
9C04
330
37AE
100
AcDbDictionary
  3
ADSK_XREC_LAYER_RECONCILED
360
9C05
1001
ACAD
1000
TREAT_AS_HARD
1070
     1
  0
DICTIONARY
  5
9C06
330
5534
100
AcDbDictionary
  3
ADSK_XREC_LAYER_RECONCILED
360
9C07
1001
ACAD
1000
TREAT_AS_HARD
1070
     1
  0
DICTIONARY
  5
9C08
330
5535
100
AcDbDictionary
  3
ADSK_XREC_LAYER_RECONCILED
360
9C09
1001
ACAD
1000
TREAT_AS_HARD
1070
     1
  0
DICTIONARY
  5
9C0A
330
5536
100
AcDbDictionary
  3
ADSK_XREC_LAYER_RECONCILED
360
9C0B
1001
ACAD
1000
TREAT_AS_HARD
1070
     1
  0
DICTIONARY
  5
9C0C
330
6599
100
AcDbDictionary
  3
ADSK_XREC_LAYER_RECONCILED
360
9C0D
1001
ACAD
1000
TREAT_AS_HARD
1070
     1
  0
DICTIONARY
  5
9C16
330
93A7
100
AcDbDictionary
  3
ADSK_XREC_LAYER_RECONCILED
360
9C17
1001
ACAD
1000
TREAT_AS_HARD
1070
     1
  0
DICTIONARY
  5
9CD1
330
18
100
AcDbDictionary
  3
ACAD_SORTENTS
360
9CD2
1001
ACAD
1000
TREAT_AS_HARD
1070
     1
  0
XRECORD
  5
9F29
102
{ACAD_REACTORS
330
C
102
}
330
C
100
AcDbXrecord
300
ACDLT
300
2012
300
ACDLT_F_S
  0
DICTIONARY
  5
6590
102
{ACAD_REACTORS
330
C
102
}
330
C
100
AcDbDictionary
1001
ACAD
1000
TREAT_AS_HARD
1070
     0
  0
DICTIONARY
  5
D
102
{ACAD_REACTORS
330
C
102
}
330
C
100
AcDbDictionary
1001
ACAD
1000
TREAT_AS_HARD
1070
     0
  0
DICTIONARY
  5
6591
102
{ACAD_REACTORS
330
C
102
}
330
C
100
AcDbDictionary
1001
ACAD
1000
TREAT_AS_HARD
1070
     0
  0
DICTIONARY
  5
658F
102
{ACAD_REACTORS
330
C
102
}
330
C
100
AcDbDictionary
  3
BYBLOCK
350
9BAE
  3
BYLAYER
350
9BA6
  3
GLOBAL
350
9BB6
1001
ACAD
1000
TREAT_AS_HARD
1070
     0
  0
DICTIONARY
  5
9BF1
102
{ACAD_REACTORS
330
C
102
}
330
C
100
AcDbDictionary
  3
STANDARD
350
9BF2
1001
ACAD
1000
TREAT_AS_HARD
1070
     0
  0
DICTIONARY
  5
1B
102
{ACAD_REACTORS
330
C
102
}
330
C
100
AcDbDictionary
  3
STANDARD
350
1C
1001
ACAD
1000
TREAT_AS_HARD
1070
     0
  0
DICTIONARY
  5
6592
102
{ACAD_REACTORS
330
C
102
}
330
C
100
AcDbDictionary
1001
ACAD
1000
TREAT_AS_HARD
1070
     0
  0
DICTIONARY
  5
9BCF
102
{ACAD_REACTORS
330
C
102
}
330
C
100
AcDbDictionary
  3
A0
350
9BD0
  3
A1
350
9BD1
  3
A2
350
9BD2
  3
A3
350
9BD3
  3
A4
350
9BD4
  3
A5
350
9BD5
  3
A6
350
9BD6
  3
A7
350
9BD7
  3
A8
350
9BD8
  3
A9
350
9BD9
  3
B0
350
9BDA
  3
B1
350
9BDB
  3
B2
350
9BDC
  3
B3
350
9BDD
  3
B4
350
9BDE
  3
B5
350
9BDF
  3
B6
350
9BE0
  3
B7
350
9BE1
  3
B8
350
9BE2
  3
B9
350
9BE3
  3
C0
350
9BE4
  3
C1
350
9BE5
  3
C2
350
9BE6
  3
C3
350
9BE7
  3
C4
350
9BE8
  3
C5
350
9BE9
  3
C6
350
9BEA
  3
C7
350
9BEB
  3
C8
350
9BEC
  3
C9
350
9BED
  3
D0
350
9BEE
  3
D1
350
9BEF
  3
D2
350
9BF0
1001
ACAD
1000
TREAT_AS_HARD
1070
     0
  0
DICTIONARY
  5
9BBE
102
{ACAD_REACTORS
330
C
102
}
330
C
100
AcDbDictionary
  3
2DWIREFRAME
350
9BC4
  3
3D_HIDDEN
350
9BC6
  3
3DWIREFRAME
350
9BC5
  3
BASIC
350
9BC3
  3
BRIGHTEN
350
9BCA
  3
COLORCHANGE
350
9BCE
  3
CONCEPTUAL
350
9BC7
  3
DIM
350
9BC9
  3
EDGECOLOROFF
350
9F24
  3
FACEPATTERN
350
9BCD
  3
FLAT
350
9BBF
  3
FLATWITHEDGES
350
9BC0
  3
GOURAUD
350
9BC1
  3
GOURAUDWITHEDGES
350
9BC2
  3
HIDDEN
350
9F1C
  3
JITTEROFF
350
9F22
  3
LINEPATTERN
350
9BCC
  3
MODELING
350
A043
  3
OVERHANGOFF
350
9F23
  3
REALISTIC
350
9BC8
  3
SHADED
350
9F21
  3
SHADED_WITH_EDGES
350
9F20
  3
SHADES_OF_GRAY
350
9F1D
  3
SKETCHY
350
9F1E
  3
THICKEN
350
9BCB
  3
WIREFRAME
350
9F1B
  3
X-RAY
350
9F1F
1001
ACAD
1000
TREAT_AS_HARD
1070
     0
  0
DICTIONARY
  5
A254
102
{ACAD_REACTORS
330
C
102
}
330
C
100
AcDbDictionary
  3
COLORDICT
350
A255
  3
MATERIALDICT
350
A256
1001
ACAD
1000
TREAT_AS_HARD
1070
     0
  0
DICTIONARY
  5
2739
102
{ACAD_REACTORS
330
C
102
}
330
C
100
AcDbDictionary
  3
CANNOSCALE
350
A0B4
  3
CMLEADERSTYLE
350
9C4A
  3
CTABLESTYLE
350
8076
  3
DIMADEC
350
3FDC
  3
DIMASSOC
350
7B85
  3
HIDETEXT
350
9173
  3
INDEXCTL
350
9C4C
  3
INTERSECTIONCOLOR
350
9177
  3
INTERSECTIONDISPLAY
350
9176
  3
MSLTSCALE
350
A104
  3
OBSCOLOR
350
9174
  3
OBSLTYPE
350
9175
  3
PROJECTNAME
350
7B86
  3
SORTENTS
350
273A
  3
XCLIPFRAME
350
A042
1001
ACAD
1000
TREAT_AS_HARD
1070
     0
  0
DICTIONARY
  5
1BFA
102
{ACAD_REACTORS
330
C
102
}
330
C
100
AcDbDictionary
1001
CONTENTTABDATA
1070
    11
1000
Child
1000
D:\ACLT\TABset\CHILDREN.dwg
1070
     0
1070
     0
1070
     1
1000
PK
1000
D:\ACLT\TABset\PK.dwg
1070
     0
1070
     0
1070
     1
1000
Lev1
1000
D:\ACLT\TABset\Lever01.dwg
1070
     0
1070
     0
1070
     1
1000
Lev2
1000
D:\ACLT\TABset\Lever02.dwg
1070
     0
1070
     0
1070
     1
1000
L3
1000
D:\Aclt\TABset\Lever03.dwg
1070
     0
1070
     0
1070
     1
1000
Form
1000
D:\ACLT\FORMAT
1070
     1
1070
     0
1070
     1
1000
Jnt
1000
D:\ACLT\TABset\JOINTPARTS.dwg
1070
     0
1070
     0
1070
     1
1000
ISO
1000
D:\ACLT\TABset\Isome01.dwg
1070
     0
1070
     0
1070
     1
1000
R
1000
D:\ACLT\TABset\REGION.dwg
1070
     0
1070
     0
1070
     1
1000
std
1000
D:\ACLT\TABset\std_sym_all.dwg
1070
     0
1070
     0
1070
     1
1000
丸
1000
D:\Aclt\TABset\MARU.dwg
1070
     0
1070
     0
1070
     1
1001
CONTENTCURRENTTAB
1070
     2
1001
ACAD
1000
TREAT_AS_HARD
1070
     0
  0
DICTIONARY
  5
3B87
102
{ACAD_REACTORS
330
C
102
}
330
C
100
AcDbDictionary
1001
DRAWINGVARIABLESXDATA
1000
POLARANG
1000
0.261799387799149410000000
1000
POLARMODE
1000
1
1000
POLARSTYLE
1000
1
1001
ACAD
1000
TREAT_AS_HARD
1070
     0
  0
XRECORD
  5
A257
102
{ACAD_REACTORS
330
C
102
}
330
C
100
AcDbXrecord
  1
DWGPROPS COOKIE
  2

  3

  4

  6

  7

  8
3684
  9

300
=
301
=
302
=
303
=
304
=
305
=
306
=
307
=
308
=
309
=
 40
0.0
 41
2451024.204593021
 42
2458894.105208113
  1

 90
        0
  0
DICTIONARY
  5
83EF
102
{ACAD_REACTORS
330
83EE
102
}
330
83EE
100
AcDbDictionary
1001
ACAD
1000
TREAT_AS_HARD
1070
     0
  0
ACAD_PROXY_OBJECT
  5
9BF9
102
{ACAD_REACTORS
330
9BF8
102
}
330
9BF8
100
AcDbZombieObject
 90
      499
 91
      516
 93
       34
310
40C8804040
  0
ACAD_PROXY_OBJECT
  5
9BFB
102
{ACAD_REACTORS
330
9BFA
102
}
330
9BFA
100
AcDbZombieObject
 90
      499
 91
      516
 93
       34
310
40C8804040
  0
ACAD_PROXY_OBJECT
  5
9BFD
102
{ACAD_REACTORS
330
9BFC
102
}
330
9BFC
100
AcDbZombieObject
 90
      499
 91
      516
 93
       34
310
40C8804040
  0
ACAD_PROXY_OBJECT
  5
9BFF
102
{ACAD_REACTORS
330
9BFE
102
}
330
9BFE
100
AcDbZombieObject
 90
      499
 91
      516
 93
       34
310
40C8804040
  0
ACAD_PROXY_OBJECT
  5
9C05
102
{ACAD_REACTORS
330
9C04
102
}
330
9C04
100
AcDbZombieObject
 90
      499
 91
      516
 93
       34
310
40C8804040
  0
ACAD_PROXY_OBJECT
  5
9C07
102
{ACAD_REACTORS
330
9C06
102
}
330
9C06
100
AcDbZombieObject
 90
      499
 91
      516
 93
       34
310
40C8804040
  0
ACAD_PROXY_OBJECT
  5
9C09
102
{ACAD_REACTORS
330
9C08
102
}
330
9C08
100
AcDbZombieObject
 90
      499
 91
      516
 93
       34
310
40C8804040
  0
ACAD_PROXY_OBJECT
  5
9C0B
102
{ACAD_REACTORS
330
9C0A
102
}
330
9C0A
100
AcDbZombieObject
 90
      499
 91
      516
 93
       34
310
40C8804040
  0
ACAD_PROXY_OBJECT
  5
9C0D
102
{ACAD_REACTORS
330
9C0C
102
}
330
9C0C
100
AcDbZombieObject
 90
      499
 91
      516
 93
       34
310
40C8804040
  0
ACAD_PROXY_OBJECT
  5
9C17
102
{ACAD_REACTORS
330
9C16
102
}
330
9C16
100
AcDbZombieObject
 90
      499
 91
      516
 93
       34
310
40C8804040
  0
SORTENTSTABLE
  5
9CD2
102
{ACAD_REACTORS
330
9CD1
102
}
330
9CD1
100
AcDbSortentsTable
330
18
331
8D1E
  5
99B5
331
0
  5
99C7
331
0
  5
99C8
331
0
  5
99C9
331
8FBC
  5
99E4
331
99A6
  5
99E5
331
99A7
  5
99E6
331
99A8
  5
99E8
331
99A9
  5
99E9
331
99AA
  5
99EA
331
99AB
  5
99EB
331
0
  5
99D1
331
0
  5
99D2
331
0
  5
99D3
331
0
  5
99D4
331
99B0
  5
99FD
331
99B1
  5
99FE
331
0
  5
99D7
331
99B3
  5
9A09
331
99B4
  5
9A0A
331
99B5
  5
9A0B
331
99B6
  5
9A0C
331
99B7
  5
9A0F
331
99B8
  5
9A10
331
99B9
  5
9A11
331
99BA
  5
9A12
331
99BB
  5
9A13
331
99BC
  5
9A14
331
99BD
  5
9A15
331
99BE
  5
9A18
331
99BF
  5
9A19
331
99C0
  5
9A1A
331
99C1
  5
9A1B
331
99C2
  5
9A1C
331
99C3
  5
9A1D
331
99C4
  5
9A1E
331
99C5
  5
9A1F
331
99C6
  5
9A20
331
99C7
  5
9A21
331
99C8
  5
9A22
331
99C9
  5
9A23
331
99CA
  5
9A24
331
99CB
  5
9A25
331
99CC
  5
9A26
331
99CD
  5
9A27
331
99CE
  5
9A28
331
99CF
  5
9A29
331
99D0
  5
9A2A
331
99D1
  5
9A2B
331
99D2
  5
9A2D
331
99D3
  5
9A2E
331
99D4
  5
9A2F
331
99D5
  5
9A30
331
99D6
  5
9A31
331
99D7
  5
9A32
331
99D8
  5
9A33
331
99D9
  5
9A34
331
99DA
  5
9A35
331
99DB
  5
9A36
331
99DC
  5
9A37
331
99DD
  5
9A38
331
99DE
  5
9A3C
331
99DF
  5
9A3D
331
99E0
  5
9A3E
331
99E1
  5
9A42
331
99E2
  5
9A43
331
99E3
  5
9A44
331
99E4
  5
9A45
331
99E5
  5
9A46
331
99E6
  5
9A47
331
99E7
  5
9A4A
331
0
  5
9A0D
331
0
  5
9A0E
331
99EA
  5
9A52
331
99EB
  5
9A53
331
99EC
  5
9A54
331
99ED
  5
9A55
331
99EE
  5
9A56
331
99EF
  5
9A57
331
99F0
  5
9A58
331
0
  5
9A16
331
0
  5
9A17
331
99F3
  5
9A6E
331
99F4
  5
9A6F
331
99F5
  5
9A70
331
99F6
  5
9A71
331
99F7
  5
9A72
331
99F8
  5
9A73
331
99F9
  5
9A74
331
99FA
  5
9A75
331
99FB
  5
9A76
331
99FC
  5
9A77
331
99FD
  5
9A78
331
99FE
  5
9A7C
331
99FF
  5
9A7D
331
9A00
  5
9A7E
331
9A01
  5
9A82
331
9A02
  5
9A83
331
9A03
  5
9A84
331
9A04
  5
9A85
331
9A05
  5
9A86
331
9A06
  5
9A87
331
9A07
  5
9A88
331
9A08
  5
9A89
331
9A09
  5
9A8A
331
9A0A
  5
9A8B
331
9A0B
  5
9C66
331
9A0C
  5
9DA7
331
9A0D
  5
9DA8
331
9A0E
  5
9F6D
331
9A0F
  5
9F6E
331
9A10
  5
9F6F
331
9A11
  5
9F70
331
9A12
  5
9F71
331
9A13
  5
9F72
331
9A14
  5
9F73
331
9A15
  5
9F74
331
9A16
  5
9F75
331
9A17
  5
9F76
331
9A18
  5
9F77
331
9A19
  5
9F78
331
9A1A
  5
9F79
331
9A1B
  5
9F7A
331
9A1C
  5
9F7B
331
9A1D
  5
9F7C
331
9A1E
  5
9F7D
331
9A1F
  5
9F7E
331
9A20
  5
9F7F
331
9A21
  5
9F80
331
9A22
  5
9F81
331
0
  5
9A48
331
0
  5
9A49
331
9A25
  5
9F9B
331
9A26
  5
9F9C
331
9A27
  5
9F9D
331
9A28
  5
9F9E
331
9A29
  5
9F9F
331
9A2A
  5
A1A7
331
9A2B
  5
A1A8
331
9A2C
  5
A1A9
331
9A2D
  5
A1AA
331
9A2E
  5
A1AB
331
9A2F
  5
A1AC
331
9A30
  5
A1AD
331
9A31
  5
A1AE
331
9A32
  5
A1B7
331
9A33
  5
A1B8
331
9A34
  5
A1B9
331
9A35
  5
A1BA
331
9A36
  5
A1BB
331
9A37
  5
A1BC
331
9A38
  5
A1BD
331
9A39
  5
A1BE
331
9A3A
  5
A1BF
331
9A3B
  5
A1C0
331
9A3C
  5
A1C1
331
9A3D
  5
A1C2
331
9A3E
  5
A1C3
331
9A3F
  5
A1C4
331
9A40
  5
A1C5
331
9A41
  5
A1C6
331
9A42
  5
A1C7
331
9A43
  5
A1C8
331
9A44
  5
A1C9
331
9A45
  5
A1CA
331
9A46
  5
A1CB
331
0
  5
9A6D
331
9A48
  5
A1D6
331
9A49
  5
A1D7
331
9A4A
  5
A1D8
331
9A4C
  5
A1D9
331
9A4D
  5
A1DA
331
9A4E
  5
A1DB
331
9A4F
  5
A1DD
331
9A50
  5
A1DE
331
9A51
  5
A1DF
331
9A52
  5
A1E0
331
9A53
  5
A1E1
331
9A54
  5
A1E2
331
9A55
  5
A1E3
331
9A56
  5
A1E4
331
9A57
  5
A1E5
331
9A58
  5
A1E6
331
9A59
  5
A1E7
331
9A5A
  5
A1E8
331
9A5B
  5
A1E9
331
9A5C
  5
A1EA
331
9A5D
  5
A1EB
331
9A5E
  5
A1EC
331
9A5F
  5
A1ED
331
9A60
  5
A1EE
331
9A61
  5
A1EF
331
9A62
  5
A1F0
331
9A63
  5
A1F1
331
9A64
  5
A1F2
331
9A65
  5
A1F3
331
9A66
  5
A1F4
331
9A67
  5
A1F5
331
9A68
  5
A1F6
331
9A69
  5
A1F7
331
9A6A
  5
A1F8
331
9A6B
  5
A1F9
331
9A6C
  5
A1FA
331
9A6D
  5
A1FB
331
9A6E
  5
A1FC
331
9A6F
  5
A1FD
331
9A70
  5
A1FE
331
9A71
  5
A1FF
331
9A72
  5
A200
331
9A73
  5
A201
331
9A74
  5
A202
331
9A75
  5
A203
331
9A76
  5
A204
331
9A77
  5
A205
331
9A78
  5
A206
331
9A79
  5
A207
331
9A7A
  5
A208
331
9A7B
  5
A209
331
9A7C
  5
A20A
331
9A7D
  5
A20B
331
9A7E
  5
A20C
331
9A7F
  5
A20D
331
9A80
  5
A20E
331
9A81
  5
A20F
331
9A82
  5
A210
331
9A83
  5
A211
331
9A84
  5
A212
331
9A85
  5
A213
331
9A86
  5
A214
331
9A87
  5
A215
331
9A88
  5
A216
331
9A89
  5
A217
331
9A8A
  5
A218
331
9A8B
  5
A219
331
0
  5
9F8F
331
0
  5
9F90
331
9F6D
  5
A221
331
9F6E
  5
A222
331
9F6F
  5
A223
331
9F70
  5
A224
331
9F71
  5
A225
331
9F72
  5
A226
331
9F73
  5
A227
331
9F74
  5
A228
331
9F75
  5
A229
331
9F76
  5
A22A
331
9F77
  5
A22B
331
9F78
  5
A22C
331
9F79
  5
A22D
331
9F7A
  5
A22E
331
9F7B
  5
A22F
331
9F7C
  5
A230
331
9F7D
  5
A231
331
9F7E
  5
A232
331
9F7F
  5
A233
331
9F80
  5
A234
331
9F81
  5
A235
331
9F82
  5
A236
331
9F83
  5
A237
331
9F84
  5
A238
331
9F85
  5
A239
331
9F86
  5
A23A
331
9F87
  5
A23B
331
9F88
  5
A23C
331
9F89
  5
A23D
331
9F8A
  5
A23E
331
9F8B
  5
A23F
331
9F8C
  5
A240
331
9F8D
  5
A241
331
9F8E
  5
A242
331
9F8F
  5
A243
331
9F90
  5
A244
331
9F91
  5
A245
331
9F92
  5
A246
331
9F93
  5
A247
331
9F94
  5
A248
331
9F95
  5
A249
331
9F96
  5
A24A
331
9F97
  5
A24B
331
9F98
  5
A24C
331
9F99
  5
A24D
331
9F9A
  5
A24E
331
9F9B
  5
A24F
331
9F9C
  5
A250
331
9F9D
  5
A251
331
9F9E
  5
A252
331
9F9F
  5
A253
331
A1A7
  5
8D1E
331
A1A8
  5
8D20
331
A1A9
  5
8D27
331
0
  5
8D28
331
A1AB
  5
99B1
331
A1AC
  5
99B2
331
A1AD
  5
99B3
331
A1AE
  5
99B4
331
A1B7
  5
99B6
331
A1B8
  5
99B7
331
A1B9
  5
99B8
331
0
  5
99AE
331
A1BB
  5
99C3
331
A1BC
  5
99C4
331
A1BD
  5
99C5
331
A1BE
  5
99C6
331
A1BF
  5
8FBC
331
A1C0
  5
99A7
331
A1C1
  5
99A8
331
A1C2
  5
99A9
331
A1C3
  5
99AA
331
A1C4
  5
99AB
331
A1C5
  5
99AC
331
A1C6
  5
99AD
331
A1C7
  5
99AF
331
A1C8
  5
99B0
331
A1C9
  5
99B9
331
A1CA
  5
99BA
331
A1CB
  5
99BB
331
A1CC
  5
99BC
331
A1CD
  5
99BD
331
A1CE
  5
99BE
331
A1CF
  5
99BF
331
A1D0
  5
99C0
331
A1D1
  5
99C1
331
A1D2
  5
99C2
331
A1D3
  5
99CA
331
A1D4
  5
99CB
331
A1D5
  5
99CC
331
0
  5
99CD
331
0
  5
99CE
331
0
  5
99CF
331
0
  5
99D0
331
A1DA
  5
99E0
331
A1DB
  5
99E1
331
A1DC
  5
99E3
331
A1DD
  5
99EC
331
A1DE
  5
99ED
331
0
  5
99E2
331
A1E0
  5
99F4
331
A1E1
  5
99F5
331
A1E2
  5
99F6
331
A1E3
  5
99F7
331
0
  5
99E7
331
A1E5
  5
99FB
331
A1E6
  5
99FC
331
A1E7
  5
99FF
331
A1E8
  5
9A00
331
A1E9
  5
9A01
331
0
  5
99EF
331
0
  5
99F0
331
0
  5
99F1
331
A1ED
  5
9A4C
331
0
  5
9A2C
331
A1EF
  5
9A50
331
A1F0
  5
9A51
331
A1F1
  5
9A59
331
A1F2
  5
9A5A
331
A1F3
  5
9A5B
331
0
  5
9A39
331
0
  5
9A3A
331
0
  5
9A3B
331
A1F7
  5
9A63
331
A1F8
  5
9A64
331
A1F9
  5
9A65
331
0
  5
9A3F
331
0
  5
9A40
331
0
  5
9A41
331
A1FD
  5
9F82
331
A1FE
  5
9F83
331
A1FF
  5
9F84
331
0
  5
9A79
331
0
  5
9A7A
331
0
  5
9A7B
331
A203
  5
9F91
331
A204
  5
9F92
331
A205
  5
9F93
331
0
  5
9A7F
331
0
  5
9A80
331
0
  5
9A81
331
A209
  5
A1CC
331
A20A
  5
A1CD
331
A20B
  5
A1CE
331
0
  5
9F85
331
0
  5
9F86
331
0
  5
9F87
331
0
  5
A1DC
331
A210
  5
A21D
331
A211
  5
A21E
331
A212
  5
A21F
331
A213
  5
A220
331
A214
  5
99D5
331
A215
  5
99D6
331
A216
  5
99D8
331
A217
  5
99D9
331
A218
  5
99DA
331
A219
  5
99DB
331
A21A
  5
99DC
331
A21B
  5
99DD
331
A21C
  5
99DE
331
A21D
  5
99DF
331
A21E
  5
99EE
331
A21F
  5
99F2
331
A220
  5
99F3
331
A221
  5
99F8
331
A222
  5
99F9
331
A223
  5
99FA
331
A224
  5
9A02
331
A225
  5
9A03
331
A226
  5
9A04
331
A227
  5
9A05
331
A228
  5
9A06
331
A229
  5
9A07
331
A22A
  5
9A08
331
A22B
  5
9A4D
331
A22C
  5
9A4E
331
A22D
  5
9A4F
331
A22E
  5
9A5C
331
A22F
  5
9A5D
331
A230
  5
9A5E
331
A231
  5
9A5F
331
A232
  5
9A60
331
A233
  5
9A61
331
A234
  5
9A62
331
A235
  5
9A66
331
A236
  5
9A67
331
A237
  5
9A68
331
A238
  5
9A69
331
A239
  5
9A6A
331
A23A
  5
9A6B
331
A23B
  5
9A6C
331
A23C
  5
9F88
331
A23D
  5
9F89
331
A23E
  5
9F8A
331
A23F
  5
9F8B
331
A240
  5
9F8C
331
A241
  5
9F8D
331
A242
  5
9F8E
331
A243
  5
9F94
331
A244
  5
9F95
331
A245
  5
9F96
331
A246
  5
9F97
331
A247
  5
9F98
331
A248
  5
9F99
331
A249
  5
9F9A
331
A24A
  5
A1CF
331
A24B
  5
A1D0
331
A24C
  5
A1D1
331
A24D
  5
A1D2
331
A24E
  5
A1D3
331
A24F
  5
A1D4
331
A250
  5
A1D5
331
A251
  5
A21A
331
A252
  5
A21B
331
A253
  5
A21C
  0
MATERIAL
  5
9BAE
102
{ACAD_REACTORS
330
658F
102
}
102
{ACAD_XDICTIONARY
360
A258
102
}
330
658F
100
AcDbMaterial
  1
BYBLOCK
 72
     0
 73
     2
 43
0.0208333333333333
 43
0.0
 43
0.0
 43
0.0
 43
0.0
 43
0.0208333333333333
 43
0.0
 43
0.0
 43
0.0
 43
0.0
 43
1.0
 43
0.0
 43
0.0
 43
0.0
 43
0.0
 43
1.0
 77
     0
 78
     2
 47
0.0208333333333333
 47
0.0
 47
0.0
 47
0.0
 47
0.0
 47
0.0208333333333333
 47
0.0
 47
0.0
 47
0.0
 47
0.0
 47
1.0
 47
0.0
 47
0.0
 47
0.0
 47
0.0
 47
1.0
171
     0
172
     2
 49
0.0208333333333333
 49
0.0
 49
0.0
 49
0.0
 49
0.0
 49
0.0208333333333333
 49
0.0
 49
0.0
 49
0.0
 49
0.0
 49
1.0
 49
0.0
 49
0.0
 49
0.0
 49
0.0
 49
1.0
175
     0
176
     2
142
0.0208333333333333
142
0.0
142
0.0
142
0.0
142
0.0
142
0.0208333333333333
142
0.0
142
0.0
142
0.0
142
0.0
142
1.0
142
0.0
142
0.0
142
0.0
142
0.0
142
1.0
179
     0
270
     2
144
0.0208333333333333
144
0.0
144
0.0
144
0.0
144
0.0
144
0.0208333333333333
144
0.0
144
0.0
144
0.0
144
0.0
144
1.0
144
0.0
144
0.0
144
0.0
144
0.0
144
1.0
274
     2
147
0.0208333333333333
147
0.0
147
0.0
147
0.0
147
0.0
147
0.0208333333333333
147
0.0
147
0.0
147
0.0
147
0.0
147
1.0
147
0.0
147
0.0
147
0.0
147
0.0
147
1.0
  0
MATERIAL
  5
9BA6
102
{ACAD_REACTORS
330
658F
102
}
102
{ACAD_XDICTIONARY
360
A25A
102
}
330
658F
100
AcDbMaterial
  1
BYLAYER
 72
     0
 73
     2
 43
0.0208333333333333
 43
0.0
 43
0.0
 43
0.0
 43
0.0
 43
0.0208333333333333
 43
0.0
 43
0.0
 43
0.0
 43
0.0
 43
1.0
 43
0.0
 43
0.0
 43
0.0
 43
0.0
 43
1.0
 77
     0
 78
     2
 47
0.0208333333333333
 47
0.0
 47
0.0
 47
0.0
 47
0.0
 47
0.0208333333333333
 47
0.0
 47
0.0
 47
0.0
 47
0.0
 47
1.0
 47
0.0
 47
0.0
 47
0.0
 47
0.0
 47
1.0
171
     0
172
     2
 49
0.0208333333333333
 49
0.0
 49
0.0
 49
0.0
 49
0.0
 49
0.0208333333333333
 49
0.0
 49
0.0
 49
0.0
 49
0.0
 49
1.0
 49
0.0
 49
0.0
 49
0.0
 49
0.0
 49
1.0
175
     0
176
     2
142
0.0208333333333333
142
0.0
142
0.0
142
0.0
142
0.0
142
0.0208333333333333
142
0.0
142
0.0
142
0.0
142
0.0
142
1.0
142
0.0
142
0.0
142
0.0
142
0.0
142
1.0
179
     0
270
     2
144
0.0208333333333333
144
0.0
144
0.0
144
0.0
144
0.0
144
0.0208333333333333
144
0.0
144
0.0
144
0.0
144
0.0
144
1.0
144
0.0
144
0.0
144
0.0
144
0.0
144
1.0
274
     2
147
0.0208333333333333
147
0.0
147
0.0
147
0.0
147
0.0
147
0.0208333333333333
147
0.0
147
0.0
147
0.0
147
0.0
147
1.0
147
0.0
147
0.0
147
0.0
147
0.0
147
1.0
  0
MATERIAL
  5
9BB6
102
{ACAD_REACTORS
330
658F
102
}
102
{ACAD_XDICTIONARY
360
A25C
102
}
330
658F
100
AcDbMaterial
  1
GLOBAL
 72
     0
 73
     2
 43
0.0208333333333333
 43
0.0
 43
0.0
 43
0.0
 43
0.0
 43
0.0208333333333333
 43
0.0
 43
0.0
 43
0.0
 43
0.0
 43
1.0
 43
0.0
 43
0.0
 43
0.0
 43
0.0
 43
1.0
 77
     0
 78
     2
 47
0.0208333333333333
 47
0.0
 47
0.0
 47
0.0
 47
0.0
 47
0.0208333333333333
 47
0.0
 47
0.0
 47
0.0
 47
0.0
 47
1.0
 47
0.0
 47
0.0
 47
0.0
 47
0.0
 47
1.0
171
     0
172
     2
 49
0.0208333333333333
 49
0.0
 49
0.0
 49
0.0
 49
0.0
 49
0.0208333333333333
 49
0.0
 49
0.0
 49
0.0
 49
0.0
 49
1.0
 49
0.0
 49
0.0
 49
0.0
 49
0.0
 49
1.0
175
     0
176
     2
142
0.0208333333333333
142
0.0
142
0.0
142
0.0
142
0.0
142
0.0208333333333333
142
0.0
142
0.0
142
0.0
142
0.0
142
1.0
142
0.0
142
0.0
142
0.0
142
0.0
142
1.0
179
     0
270
     2
144
0.0208333333333333
144
0.0
144
0.0
144
0.0
144
0.0
144
0.0208333333333333
144
0.0
144
0.0
144
0.0
144
0.0
144
1.0
144
0.0
144
0.0
144
0.0
144
0.0
144
1.0
274
     2
147
0.0208333333333333
147
0.0
147
0.0
147
0.0
147
0.0
147
0.0208333333333333
147
0.0
147
0.0
147
0.0
147
0.0
147
1.0
147
0.0
147
0.0
147
0.0
147
0.0
147
1.0
  0
ACAD_PROXY_OBJECT
  5
9BF2
102
{ACAD_REACTORS
330
9BF1
102
}
330
9BF1
100
AcDbZombieObject
 90
      499
 91
      513
 93
      610
310
40901902A4063FBFFFFFE000000000000002040AD7A3703D0AD73F4214DD185B99185C990000000000000104090141901A00000000000004100000000000000041025764000000000000300FC0
340
12
340
0
340
F
340
0
 94
        0
1001
ACAD_MLEADERVER
1070
     2
  0
MLINESTYLE
  5
1C
102
{ACAD_REACTORS
330
1B
102
}
330
1B
100
AcDbMlineStyle
  2
STANDARD
 70
     0
  3

 62
   256
 51
90.0
 52
90.0
 71
     2
 49
0.5
 62
   256
  6
BYLAYER
 49
-0.5
 62
   256
  6
BYLAYER
  0
ACAD_PROXY_OBJECT
  5
9BD0
102
{ACAD_REACTORS
330
9BCF
102
}
330
9BCF
100
AcDbZombieObject
 90
      499
 91
      512
 93
       41
310
903313A31580
  0
ACAD_PROXY_OBJECT
  5
9BD1
102
{ACAD_REACTORS
330
9BCF
102
}
330
9BCF
100
AcDbZombieObject
 90
      499
 91
      512
 93
      105
310
903313A324000000000000004000
  0
ACAD_PROXY_OBJECT
  5
9BD2
102
{ACAD_REACTORS
330
9BCF
102
}
330
9BCF
100
AcDbZombieObject
 90
      499
 91
      512
 93
      105
310
903313A344000000000000104000
  0
ACAD_PROXY_OBJECT
  5
9BD3
102
{ACAD_REACTORS
330
9BCF
102
}
330
9BCF
100
AcDbZombieObject
 90
      499
 91
      512
 93
      105
310
903313A354000000000000144000
  0
ACAD_PROXY_OBJECT
  5
9BD4
102
{ACAD_REACTORS
330
9BCF
102
}
330
9BCF
100
AcDbZombieObject
 90
      499
 91
      512
 93
      105
310
903313A384000000000000204000
  0
ACAD_PROXY_OBJECT
  5
9BD5
102
{ACAD_REACTORS
330
9BCF
102
}
330
9BCF
100
AcDbZombieObject
 90
      499
 91
      512
 93
      113
310
904313A31304000000000000244000
  0
ACAD_PROXY_OBJECT
  5
9BD6
102
{ACAD_REACTORS
330
9BCF
102
}
330
9BCF
100
AcDbZombieObject
 90
      499
 91
      512
 93
      113
310
904313A31364000000000000304000
  0
ACAD_PROXY_OBJECT
  5
9BD7
102
{ACAD_REACTORS
330
9BCF
102
}
330
9BCF
100
AcDbZombieObject
 90
      499
 91
      512
 93
      113
310
904313A32304000000000000344000
  0
ACAD_PROXY_OBJECT
  5
9BD8
102
{ACAD_REACTORS
330
9BCF
102
}
330
9BCF
100
AcDbZombieObject
 90
      499
 91
      512
 93
      113
310
904313A333040000000000003E4000
  0
ACAD_PROXY_OBJECT
  5
9BD9
102
{ACAD_REACTORS
330
9BCF
102
}
330
9BCF
100
AcDbZombieObject
 90
      499
 91
      512
 93
      113
310
904313A34304000000000000444000
  0
ACAD_PROXY_OBJECT
  5
9BDA
102
{ACAD_REACTORS
330
9BCF
102
}
330
9BCF
100
AcDbZombieObject
 90
      499
 91
      512
 93
      113
310
904313A35304000000000000494000
  0
ACAD_PROXY_OBJECT
  5
9BDB
102
{ACAD_REACTORS
330
9BCF
102
}
330
9BCF
100
AcDbZombieObject
 90
      499
 91
      512
 93
      121
310
905313A3130304000000000000594000
  0
ACAD_PROXY_OBJECT
  5
9BDC
102
{ACAD_REACTORS
330
9BCF
102
}
330
9BCF
100
AcDbZombieObject
 90
      499
 91
      512
 93
      105
310
903323A310000000000000010100
  0
ACAD_PROXY_OBJECT
  5
9BDD
102
{ACAD_REACTORS
330
9BCF
102
}
330
9BCF
100
AcDbZombieObject
 90
      499
 91
      512
 93
      105
310
903343A310000000000000410100
  0
ACAD_PROXY_OBJECT
  5
9BDE
102
{ACAD_REACTORS
330
9BCF
102
}
330
9BCF
100
AcDbZombieObject
 90
      499
 91
      512
 93
      105
310
903383A310000000000000810100
  0
ACAD_PROXY_OBJECT
  5
9BDF
102
{ACAD_REACTORS
330
9BCF
102
}
330
9BCF
100
AcDbZombieObject
 90
      499
 91
      512
 93
      113
310
90431303A310000000000000910100
  0
ACAD_PROXY_OBJECT
  5
9BE0
102
{ACAD_REACTORS
330
9BCF
102
}
330
9BCF
100
AcDbZombieObject
 90
      499
 91
      512
 93
      121
310
9053130303A310000000000001650100
  0
ACAD_PROXY_OBJECT
  5
9BE1
102
{ACAD_REACTORS
330
9BCF
102
}
330
9BCF
100
AcDbZombieObject
 90
      499
 91
      512
 93
      257
310
90E312F31323822203D2031272D3022000000000000200FC000000000000284000
  0
ACAD_PROXY_OBJECT
  5
9BE2
102
{ACAD_REACTORS
330
9BCF
102
}
330
9BCF
100
AcDbZombieObject
 90
      499
 91
      512
 93
      249
310
90D312F363422203D2031272D3022000000000000240FC000000000000284000
  0
ACAD_PROXY_OBJECT
  5
9BE3
102
{ACAD_REACTORS
330
9BCF
102
}
330
9BCF
100
AcDbZombieObject
 90
      499
 91
      512
 93
      249
310
90D312F333222203D2031272D3022000000000000280FC000000000000284000
  0
ACAD_PROXY_OBJECT
  5
9BE4
102
{ACAD_REACTORS
330
9BCF
102
}
330
9BCF
100
AcDbZombieObject
 90
      499
 91
      512
 93
      249
310
90D312F313622203D2031272D30220000000000002C0FC000000000000284000
  0
ACAD_PROXY_OBJECT
  5
9BE5
102
{ACAD_REACTORS
330
9BCF
102
}
330
9BCF
100
AcDbZombieObject
 90
      499
 91
      512
 93
      249
310
90D332F333222203D2031272D30220000000000002E0FC000000000000284000
  0
ACAD_PROXY_OBJECT
  5
9BE6
102
{ACAD_REACTORS
330
9BCF
102
}
330
9BCF
100
AcDbZombieObject
 90
      499
 91
      512
 93
      241
310
90C312F3822203D2031272D3022000000000000300FC000000000000284000
  0
ACAD_PROXY_OBJECT
  5
9BE7
102
{ACAD_REACTORS
330
9BCF
102
}
330
9BCF
100
AcDbZombieObject
 90
      499
 91
      512
 93
      249
310
90D332F313622203D2031272D3022000000000000320FC000000000000284000
  0
ACAD_PROXY_OBJECT
  5
9BE8
102
{ACAD_REACTORS
330
9BCF
102
}
330
9BCF
100
AcDbZombieObject
 90
      499
 91
      512
 93
      241
310
90C312F3422203D2031272D3022000000000000340FC000000000000284000
  0
ACAD_PROXY_OBJECT
  5
9BE9
102
{ACAD_REACTORS
330
9BCF
102
}
330
9BCF
100
AcDbZombieObject
 90
      499
 91
      512
 93
      241
310
90C332F3822203D2031272D3022000000000000360FC000000000000284000
  0
ACAD_PROXY_OBJECT
  5
9BEA
102
{ACAD_REACTORS
330
9BCF
102
}
330
9BCF
100
AcDbZombieObject
 90
      499
 91
      512
 93
      241
310
90C312F3222203D2031272D3022000000000000380FC000000000000284000
  0
ACAD_PROXY_OBJECT
  5
9BEB
102
{ACAD_REACTORS
330
9BCF
102
}
330
9BCF
100
AcDbZombieObject
 90
      499
 91
      512
 93
      241
310
90C332F3422203D2031272D30220000000000003A0FC000000000000284000
  0
ACAD_PROXY_OBJECT
  5
9BEC
102
{ACAD_REACTORS
330
9BCF
102
}
330
9BCF
100
AcDbZombieObject
 90
      499
 91
      512
 93
      161
310
90A3122203D2031272D30224000000000000284000
  0
ACAD_PROXY_OBJECT
  5
9BED
102
{ACAD_REACTORS
330
9BCF
102
}
330
9BCF
100
AcDbZombieObject
 90
      499
 91
      512
 93
      257
310
90E312D312F3222203D2031272D30220000000000003E0FC000000000000284000
  0
ACAD_PROXY_OBJECT
  5
9BEE
102
{ACAD_REACTORS
330
9BCF
102
}
330
9BCF
100
AcDbZombieObject
 90
      499
 91
      512
 93
      225
310
90A3322203D2031272D302200000000000002100000000000000284000
  0
ACAD_PROXY_OBJECT
  5
9BEF
102
{ACAD_REACTORS
330
9BCF
102
}
330
9BCF
100
AcDbZombieObject
 90
      499
 91
      512
 93
      225
310
90A3622203D2031272D302200000000000006100000000000000284000
  0
ACAD_PROXY_OBJECT
  5
9BF0
102
{ACAD_REACTORS
330
9BCF
102
}
330
9BCF
100
AcDbZombieObject
 90
      499
 91
      512
 93
      249
310
90D31272D3022203D2031272D30220000000000000A100000000000000284000
  0
ACAD_PROXY_OBJECT
  5
9BC4
102
{ACAD_REACTORS
330
9BBE
102
}
330
9BBE
100
AcDbZombieObject
 90
      499
 91
      511
 93
      436
310
42CC9915DA5C99599C985B595049028333333333333E3BF0000000000000FB0107901411070040501600405405064090741402480A0340
1001
ACAD
1000
AcDbSavedByObjectVersion
1070
     0
  0
ACAD_PROXY_OBJECT
  5
9BC6
102
{ACAD_REACTORS
330
9BBE
102
}
330
9BBE
100
AcDbZombieObject
 90
      499
 91
      511
 93
      500
310
424CD108121A5919195B90640502408333333333333E3BF0000000000000FB01079024090700405020000000000001110200405405064090740C02480A0340
1001
ACAD
1000
AcDbSavedByObjectVersion
1070
     0
  0
ACAD_PROXY_OBJECT
  5
9BC5
102
{ACAD_REACTORS
330
9BBE
102
}
330
9BBE
100
AcDbZombieObject
 90
      499
 91
      511
 93
      436
310
42CCD915DA5C99599C985B595059028333333333333E3BF0000000000000FB0107901411070040501600405405064090741402480A0340
1001
ACAD
1000
AcDbSavedByObjectVersion
1070
     0
  0
ACAD_PROXY_OBJECT
  5
9BC3
102
{ACAD_REACTORS
330
9BBE
102
}
330
9BBE
100
AcDbZombieObject
 90
      499
 91
      511
 93
      388
310
4150985CDA58D07406404333333333333E3BF0000000000000FB0107A41107004050150841D405064090741402480A0350
1001
ACAD
1000
AcDbSavedByObjectVersion
1070
     0
  0
ACAD_PROXY_OBJECT
  5
9BCA
102
{ACAD_REACTORS
330
9BBE
102
}
330
9BBE
100
AcDbZombieObject
 90
      499
 91
      511
 93
      428
310
42109C9A59DA1D195B90C409028333333333333E3BF0000000000000FB010790141107004050150841D405064090741402480A029950
1001
ACAD
1000
AcDbSavedByObjectVersion
1070
     0
  0
ACAD_PROXY_OBJECT
  5
9BCE
102
{ACAD_REACTORS
330
9BBE
102
}
330
9BBE
100
AcDbZombieObject
 90
      499
 91
      511
 93
      452
310
42D0DBDB1BDC90DA185B99D95104090240C333333333333E3BF0000000000000FB0108901411070040501508421405064090741402480A0350
1001
ACAD
1000
AcDbSavedByObjectVersion
1070
     0
  0
ACAD_PROXY_OBJECT
  5
9BC7
102
{ACAD_REACTORS
330
9BBE
102
}
330
9BBE
100
AcDbZombieObject
 90
      499
 91
      511
 93
      500
310
4290DBDB98D95C1D1D585B10940D028333333333333E3BF0000000000000FB0107902409070040501000000000000111010841D405064090740C02480A0340
1001
ACAD
1000
AcDbSavedByObjectVersion
1070
     0
  0
ACAD_PROXY_OBJECT
  5
9BC9
102
{ACAD_REACTORS
330
9BBE
102
}
330
9BBE
100
AcDbZombieObject
 90
      499
 91
      511
 93
      412
310
40D11A5B50B409028333333333333E3BF0000000000000FB010790141107004050150841D405064090741402480A02677FFFFFD0
1001
ACAD
1000
AcDbSavedByObjectVersion
1070
     0
  0
ACAD_PROXY_OBJECT
  5
9F24
102
{ACAD_REACTORS
330
9BBE
102
}
330
9BBE
100
AcDbZombieObject
 90
      499
 91
      511
 93
      452
310
43115919D950DBDB1BDC93D999916409028333333333333E3BF0000000000000FB010790141107004050150841D405064090741402480A0350
1001
ACAD
1000
AcDbSavedByObjectVersion
1070
     0
  0
ACAD_PROXY_OBJECT
  5
9BCD
102
{ACAD_REACTORS
330
9BBE
102
}
330
9BBE
100
AcDbZombieObject
 90
      499
 91
      511
 93
      444
310
42D19858D95C185D1D195C9B90F409028333333333333E3BF0000000000000FB010790141107004050150841D405064090741402480A0350
1001
ACAD
1000
AcDbSavedByObjectVersion
1070
     0
  0
ACAD_PROXY_OBJECT
  5
9BBF
102
{ACAD_REACTORS
330
9BBE
102
}
330
9BBE
100
AcDbZombieObject
 90
      499
 91
      511
 93
      388
310
41119B185D240901404333333333333E3BF0000000000000F9010740A41107004050150841D405064090741402480A1B50
1001
ACAD
1000
AcDbSavedByObjectVersion
1070
     0
  0
ACAD_PROXY_OBJECT
  5
9BC0
102
{ACAD_REACTORS
330
9BBE
102
}
330
9BBE
100
AcDbZombieObject
 90
      499
 91
      511
 93
      476
310
43519B185D15DA5D1A115919D95CD0140901404333333333333E3BF0000000000000F9010740901411070040501600405405064090741402480A1B50
1001
ACAD
1000
AcDbSavedByObjectVersion
1070
     0
  0
ACAD_PROXY_OBJECT
  5
9BC1
102
{ACAD_REACTORS
330
9BBE
102
}
330
9BBE
100
AcDbZombieObject
 90
      499
 91
      511
 93
      412
310
41D1DBDD5C985D5910240902404333333333333E3BF0000000000000F9010740A411070040501641D405064090741402480A1B50
1001
ACAD
1000
AcDbSavedByObjectVersion
1070
     0
  0
ACAD_PROXY_OBJECT
  5
9BC2
102
{ACAD_REACTORS
330
9BBE
102
}
330
9BBE
100
AcDbZombieObject
 90
      499
 91
      511
 93
      500
310
4411DBDD5C985D5915DA5D1A115919D95CD0340902404333333333333E3BF0000000000000F9010740901411070040501600405405064090741402480A1B50
1001
ACAD
1000
AcDbSavedByObjectVersion
1070
     0
  0
ACAD_PROXY_OBJECT
  5
9F1C
102
{ACAD_REACTORS
330
9BBE
102
}
330
9BBE
100
AcDbZombieObject
 90
      499
 91
      511
 93
      476
310
41921A5919195B90640502408333333333333E3BF0000000000000FB01079024090700405020000000000001110200405405064090740C02480A0340
1001
ACAD
1000
AcDbSavedByObjectVersion
1070
     0
  0
ACAD_PROXY_OBJECT
  5
9F22
102
{ACAD_REACTORS
330
9BBE
102
}
330
9BBE
100
AcDbZombieObject
 90
      499
 91
      511
 93
      428
310
42529A5D1D195C93D999914409028333333333333E3BF0000000000000FB010790141107004050150A41D405064090741402480A0350
1001
ACAD
1000
AcDbSavedByObjectVersion
1070
     0
  0
ACAD_PROXY_OBJECT
  5
9BCC
102
{ACAD_REACTORS
330
9BBE
102
}
330
9BBE
100
AcDbZombieObject
 90
      499
 91
      511
 93
      444
310
42D31A5B995C185D1D195C9B90E409028333333333333E3BF0000000000000FB010790141107004050750841D405064090741402483A0350
1001
ACAD
1000
AcDbSavedByObjectVersion
1070
     0
  0
ACAD_PROXY_OBJECT
  5
A043
102
{ACAD_REACTORS
330
9BBE
102
}
330
9BBE
100
AcDbZombieObject
 90
      499
 91
      511
 93
      484
310
42135BD9195B1A5B99D0A409038333333333333E33F0000000000000F901074090290700405010000000000201990108421405064090741402480A1B40
1001
ACAD
1000
AcDbSavedByObjectVersion
1070
     0
  0
ACAD_PROXY_OBJECT
  5
9F23
102
{ACAD_REACTORS
330
9BBE
102
}
330
9BBE
100
AcDbZombieObject
 90
      499
 91
      511
 93
      444
310
42D3DD995C9A185B99D3D999915409028333333333333E3BF0000000000000FB010790141107004050150941D405064090741402480A0350
1001
ACAD
1000
AcDbSavedByObjectVersion
1070
     0
  0
ACAD_PROXY_OBJECT
  5
9BC8
102
{ACAD_REACTORS
330
9BBE
102
}
330
9BBE
100
AcDbZombieObject
 90
      499
 91
      511
 93
      420
310
425499585B1A5CDD1A58D08409028333333333333E3BF0000000000000FB01079019070040501508421405064090741402480A1B40
1001
ACAD
1000
AcDbSavedByObjectVersion
1070
     0
  0
ACAD_PROXY_OBJECT
  5
9F21
102
{ACAD_REACTORS
330
9BBE
102
}
330
9BBE
100
AcDbZombieObject
 90
      499
 91
      511
 93
      420
310
4194DA1859195911B40902404333333333333E3BF0000000000000F9010740A41107004050150800405405064090840C02480A0B40
1001
ACAD
1000
AcDbSavedByObjectVersion
1070
     0
  0
ACAD_PROXY_OBJECT
  5
9F20
102
{ACAD_REACTORS
330
9BBE
102
}
330
9BBE
100
AcDbZombieObject
 90
      499
 91
      511
 93
      516
310
4454DA18591959081DDA5D1A08195919D95CD1A40902404333333333333E3BF0000000000000F901074090142907004050250800405405064090740C02480A0B40
1001
ACAD
1000
AcDbSavedByObjectVersion
1070
     0
  0
ACAD_PROXY_OBJECT
  5
9F1D
102
{ACAD_REACTORS
330
9BBE
102
}
330
9BBE
100
AcDbZombieObject
 90
      499
 91
      511
 93
      532
310
4394DA1859195CC81BD98811DC985E5174090240C333333333333E3BF0000000000000FB01079024090741D01000000000000111010841D405064090740C02480A0340
1001
ACAD
1000
AcDbSavedByObjectVersion
1070
     0
  0
ACAD_PROXY_OBJECT
  5
9F1E
102
{ACAD_REACTORS
330
9BBE
102
}
330
9BBE
100
AcDbZombieObject
 90
      499
 91
      511
 93
      476
310
41D4DAD95D18DA1E51840502408333333333333E3BF0000000000000FB01079024090741D01000000000000111010B41D405064090741802480A0340
1001
ACAD
1000
AcDbSavedByObjectVersion
1070
     0
  0
ACAD_PROXY_OBJECT
  5
9BCB
102
{ACAD_REACTORS
330
9BBE
102
}
330
9BBE
100
AcDbZombieObject
 90
      499
 91
      511
 93
      412
310
41D51A1A58DAD95B90D409028333333333333E3BF0000000000000FB010790141107004050150C41D405064090741402480A0350
1001
ACAD
1000
AcDbSavedByObjectVersion
1070
     0
  0
ACAD_PROXY_OBJECT
  5
9F1B
102
{ACAD_REACTORS
330
9BBE
102
}
330
9BBE
100
AcDbZombieObject
 90
      499
 91
      511
 93
      420
310
4255DA5C99599C985B595059028333333333333E3BF0000000000000FB0107901411070040501600405405064090740C02480A0340
1001
ACAD
1000
AcDbSavedByObjectVersion
1070
     0
  0
ACAD_PROXY_OBJECT
  5
9F1F
102
{ACAD_REACTORS
330
9BBE
102
}
330
9BBE
100
AcDbZombieObject
 90
      499
 91
      511
 93
      404
310
41560B54985E51940902404000000000000E03F0000000000000FB010740501907004050150841D405064090740C02480A1B40
1001
ACAD
1000
AcDbSavedByObjectVersion
1070
     0
  0
XRECORD
  5
A255
102
{ACAD_REACTORS
330
A254
102
}
330
A254
100
AcDbXrecord
340
6590
  0
XRECORD
  5
A256
102
{ACAD_REACTORS
330
A254
102
}
330
A254
100
AcDbXrecord
340
658F
  0
DICTIONARYVAR
  5
A0B4
102
{ACAD_REACTORS
330
2739
102
}
330
2739
100
DictionaryVariables
280
     0
  1
1:1
  0
DICTIONARYVAR
  5
9C4A
102
{ACAD_REACTORS
330
2739
102
}
330
2739
100
DictionaryVariables
280
     0
  1
Standard
  0
DICTIONARYVAR
  5
8076
102
{ACAD_REACTORS
330
2739
102
}
330
2739
100
DictionaryVariables
280
     0
  1
Standard
  0
DICTIONARYVAR
  5
3FDC
102
{ACAD_REACTORS
330
2739
102
}
330
2739
100
DictionaryVariables
280
     0
  1
-1
  0
DICTIONARYVAR
  5
7B85
102
{ACAD_REACTORS
330
2739
102
}
330
2739
100
DictionaryVariables
280
     0
  1
2
  0
DICTIONARYVAR
  5
9173
102
{ACAD_REACTORS
330
2739
102
}
330
2739
100
DictionaryVariables
280
     0
  1
1
  0
DICTIONARYVAR
  5
9C4C
102
{ACAD_REACTORS
330
2739
102
}
330
2739
100
DictionaryVariables
280
     0
  1
0
  0
DICTIONARYVAR
  5
9177
102
{ACAD_REACTORS
330
2739
102
}
330
2739
100
DictionaryVariables
280
     0
  1
8
  0
DICTIONARYVAR
  5
9176
102
{ACAD_REACTORS
330
2739
102
}
330
2739
100
DictionaryVariables
280
     0
  1
1
  0
DICTIONARYVAR
  5
A104
102
{ACAD_REACTORS
330
2739
102
}
330
2739
100
DictionaryVariables
280
     0
  1
0
  0
DICTIONARYVAR
  5
9174
102
{ACAD_REACTORS
330
2739
102
}
330
2739
100
DictionaryVariables
280
     0
  1
8
  0
DICTIONARYVAR
  5
9175
102
{ACAD_REACTORS
330
2739
102
}
330
2739
100
DictionaryVariables
280
     0
  1
2
  0
DICTIONARYVAR
  5
7B86
102
{ACAD_REACTORS
330
2739
102
}
330
2739
100
DictionaryVariables
280
     0
  1

  0
DICTIONARYVAR
  5
273A
102
{ACAD_REACTORS
330
2739
102
}
330
2739
100
DictionaryVariables
280
     0
  1
96
  0
DICTIONARYVAR
  5
A042
102
{ACAD_REACTORS
330
2739
102
}
330
2739
100
DictionaryVariables
280
     0
  1
2
  0
DICTIONARY
  5
A258
330
9BAE
100
AcDbDictionary
  3
ACAD_XREC_ROUNDTRIP
360
A259
1001
ACAD
1000
TREAT_AS_HARD
1070
     1
  0
DICTIONARY
  5
A25A
330
9BA6
100
AcDbDictionary
  3
ACAD_XREC_ROUNDTRIP
360
A25B
1001
ACAD
1000
TREAT_AS_HARD
1070
     1
  0
DICTIONARY
  5
A25C
330
9BB6
100
AcDbDictionary
  3
ACAD_XREC_ROUNDTRIP
360
A25D
1001
ACAD
1000
TREAT_AS_HARD
1070
     1
  0
XRECORD
  5
A259
102
{ACAD_REACTORS
330
A258
102
}
330
A258
100
AcDbXrecord
102
MATERIAL
148
0.0
149
0.0
149
0.0
 93
        0
 94
      127
282
     0
 72
     0
 77
     0
171
     0
175
     0
179
     0
273
     0
  0
XRECORD
  5
A25B
102
{ACAD_REACTORS
330
A25A
102
}
330
A25A
100
AcDbXrecord
102
MATERIAL
148
0.0
149
0.0
149
0.0
 93
        0
 94
      127
282
     0
 72
     0
 77
     0
171
     0
175
     0
179
     0
273
     0
  0
XRECORD
  5
A25D
102
{ACAD_REACTORS
330
A25C
102
}
330
A25C
100
AcDbXrecord
102
MATERIAL
148
0.0
149
0.0
149
0.0
 93
        0
 94
      127
282
     0
 72
     0
 77
     0
171
     0
175
     0
179
     0
273
     0
  0
ENDSEC
  0
EOF
