  0
SECTION
  2
HEADER
  9
$ACADVER
  1
AC1012
  9
$DWGCODEPAGE
  3
ansi_932
  9
$INSBASE
 10
0.0
 20
0.0
 30
0.0
  9
$EXTMIN
 10
2025.769391082042
 20
-834.800156127815
 30
0.0
  9
$EXTMAX
 10
2189.786994880839
 20
-647.859714042309
 30
0.0
  9
$LIMMIN
 10
0.0
 20
0.0
  9
$LIMMAX
 10
420.0
 20
297.0
  9
$ORTHOMODE
 70
     0
  9
$REGENMODE
 70
     1
  9
$FILLMODE
 70
     1
  9
$QTEXTMODE
 70
     0
  9
$MIRRTEXT
 70
     1
  9
$DRAGMODE
 70
     2
  9
$LTSCALE
 40
0.5
  9
$OSMODE
 70
 14463
  9
$ATTMODE
 70
     1
  9
$TEXTSIZE
 40
4.0
  9
$TRACEWID
 40
1.0
  9
$TEXTSTYLE
  7
STANDARD
  9
$CLAYER
  8
1TEXT
  9
$CELTYPE
  6
BYLAYER
  9
$CECOLOR
 62
   256
  9
$CELTSCALE
 40
1.0
  9
$DELOBJ
 70
     1
  9
$DISPSILH
 70
     0
  9
$DIMSCALE
 40
1.0
  9
$DIMASZ
 40
1.0
  9
$DIMEXO
 40
0.0
  9
$DIMDLI
 40
7.0
  9
$DIMRND
 40
0.0
  9
$DIMDLE
 40
0.0
  9
$DIMEXE
 40
1.0
  9
$DIMTP
 40
0.0
  9
$DIMTM
 40
0.0
  9
$DIMTXT
 40
3.5
  9
$DIMCEN
 40
0.0
  9
$DIMTSZ
 40
0.0
  9
$DIMTOL
 70
     0
  9
$DIMLIM
 70
     0
  9
$DIMTIH
 70
     0
  9
$DIMTOH
 70
     0
  9
$DIMSE1
 70
     0
  9
$DIMSE2
 70
     0
  9
$DIMTAD
 70
     1
  9
$DIMZIN
 70
     8
  9
$DIMBLK
  1

  9
$DIMASO
 70
     1
  9
$DIMSHO
 70
     1
  9
$DIMPOST
  1
 
  9
$DIMAPOST
  1

  9
$DIMALT
 70
     0
  9
$DIMALTD
 70
     2
  9
$DIMALTF
 40
25.4
  9
$DIMLFAC
 40
1.0
  9
$DIMTOFL
 70
     1
  9
$DIMTVP
 40
0.0
  9
$DIMTIX
 70
     0
  9
$DIMSOXD
 70
     0
  9
$DIMSAH
 70
     1
  9
$DIMBLK1
  1
OPEN30
  9
$DIMBLK2
  1
OPEN30
  9
$DIMSTYLE
  2
KENX010
  9
$DIMCLRD
 70
   256
  9
$DIMCLRE
 70
   256
  9
$DIMCLRT
 70
   201
  9
$DIMTFAC
 40
0.7
  9
$DIMGAP
 40
0.7
  9
$DIMJUST
 70
     0
  9
$DIMSD1
 70
     0
  9
$DIMSD2
 70
     0
  9
$DIMTOLJ
 70
     1
  9
$DIMTZIN
 70
     8
  9
$DIMALTZ
 70
     0
  9
$DIMALTTZ
 70
     0
  9
$DIMFIT
 70
     2
  9
$DIMUPT
 70
     0
  9
$DIMUNIT
 70
     2
  9
$DIMDEC
 70
     2
  9
$DIMTDEC
 70
     3
  9
$DIMALTU
 70
     2
  9
$DIMALTTD
 70
     2
  9
$DIMTXSTY
  7
STANDARD
  9
$DIMAUNIT
 70
     0
  9
$LUNITS
 70
     2
  9
$LUPREC
 70
     4
  9
$SKETCHINC
 40
1.0
  9
$FILLETRAD
 40
0.0
  9
$AUNITS
 70
     0
  9
$AUPREC
 70
     2
  9
$MENU
  1
acad
  9
$ELEVATION
 40
0.0
  9
$PELEVATION
 40
0.0
  9
$THICKNESS
 40
0.0
  9
$LIMCHECK
 70
     0
  9
$CHAMFERA
 40
3.0
  9
$CHAMFERB
 40
3.0
  9
$CHAMFERC
 40
20.0
  9
$CHAMFERD
 40
0.0
  9
$SKPOLY
 70
     0
  9
$TDCREATE
 40
2451318.621352917
  9
$TDUPDATE
 40
2459515.398367153
  9
$TDINDWG
 40
1.7412200231
  9
$TDUSRTIMER
 40
1.7412200231
  9
$USRTIMER
 70
     1
  9
$ANGBASE
 50
0.0
  9
$ANGDIR
 70
     0
  9
$PDMODE
 70
     0
  9
$PDSIZE
 40
0.0
  9
$PLINEWID
 40
0.0
  9
$COORDS
 70
     2
  9
$SPLFRAME
 70
     0
  9
$SPLINETYPE
 70
     6
  9
$SPLINESEGS
 70
     8
  9
$ATTDIA
 70
     0
  9
$ATTREQ
 70
     1
  9
$HANDLING
 70
     1
  9
$HANDSEED
  5
26F72
  9
$SURFTAB1
 70
     6
  9
$SURFTAB2
 70
     6
  9
$SURFTYPE
 70
     6
  9
$SURFU
 70
     6
  9
$SURFV
 70
     6
  9
$UCSNAME
  2

  9
$UCSORG
 10
0.0
 20
0.0
 30
0.0
  9
$UCSXDIR
 10
1.0
 20
0.0
 30
0.0
  9
$UCSYDIR
 10
0.0
 20
1.0
 30
0.0
  9
$PUCSNAME
  2

  9
$PUCSORG
 10
0.0
 20
0.0
 30
0.0
  9
$PUCSXDIR
 10
1.0
 20
0.0
 30
0.0
  9
$PUCSYDIR
 10
0.0
 20
1.0
 30
0.0
  9
$USERI1
 70
     0
  9
$USERI2
 70
     0
  9
$USERI3
 70
     0
  9
$USERI4
 70
     0
  9
$USERI5
 70
     0
  9
$USERR1
 40
0.0
  9
$USERR2
 40
0.0
  9
$USERR3
 40
0.0
  9
$USERR4
 40
0.0
  9
$USERR5
 40
0.0
  9
$WORLDVIEW
 70
     1
  9
$SHADEDGE
 70
     3
  9
$SHADEDIF
 70
    70
  9
$TILEMODE
 70
     1
  9
$MAXACTVP
 70
    48
  9
$PINSBASE
 10
0.0
 20
0.0
 30
0.0
  9
$PLIMCHECK
 70
     0
  9
$PEXTMIN
 10
1.000000000000000E+20
 20
1.000000000000000E+20
 30
1.000000000000000E+20
  9
$PEXTMAX
 10
-1.000000000000000E+20
 20
-1.000000000000000E+20
 30
-1.000000000000000E+20
  9
$PLIMMIN
 10
0.0
 20
0.0
  9
$PLIMMAX
 10
420.0
 20
297.0
  9
$UNITMODE
 70
     0
  9
$VISRETAIN
 70
     1
  9
$PLINEGEN
 70
     0
  9
$PSLTSCALE
 70
     1
  9
$TREEDEPTH
 70
  3020
  9
$PICKSTYLE
 70
     0
  9
$CMLSTYLE
  2
STANDARD
  9
$CMLJUST
 70
     0
  9
$CMLSCALE
 40
20.0
  9
$SAVEIMAGES
 70
     1
  0
ENDSEC
  0
SECTION
  2
CLASSES
  0
CLASS
  1
DICTIONARYVAR
  2
AcDbDictionaryVar
  3
ObjectDBX Classes
 90
        0
280
     0
281
     0
  0
CLASS
  1
IDBUFFER
  2
AcDbIdBuffer
  3
ObjectDBX Classes
 90
    32768
280
     0
281
     0
  0
CLASS
  1
LWPOLYLINE
  2
AcDbPolyline
  3
ObjectDBX Classes
 90
    32768
280
     0
281
     1
  0
CLASS
  1
ACDBDICTIONARYWDFLT
  2
AcDbDictionaryWithDefault
  3
ObjectDBX Classes
 90
    32768
280
     0
281
     0
  0
CLASS
  1
ACDBPLACEHOLDER
  2
AcDbPlaceHolder
  3
ObjectDBX Classes
 90
        0
280
     0
281
     0
  0
CLASS
  1
LAYOUT
  2
AcDbLayout
  3
ObjectDBX Classes
 90
        0
280
     0
281
     0
  0
CLASS
  1
DIMASSOC
  2
AcDbDimAssoc
  3
"AcDbDimAssoc|Product Desc:     AcDim ARX App For Dimension|Company:          Autodesk, Inc.|WEB Address:      www.autodesk.com"
 90
        0
280
     0
281
     0
  0
CLASS
  1
TABLESTYLE
  2
AcDbTableStyle
  3
ObjectDBX Classes
 90
     4095
280
     0
281
     0
  0
CLASS
  1
SORTENTSTABLE
  2
AcDbSortentsTable
  3
ObjectDBX Classes
 90
    32768
280
     0
281
     0
  0
CLASS
  1
MATERIAL
  2
AcDbMaterial
  3
ObjectDBX Classes
 90
     1153
280
     0
281
     0
  0
CLASS
  1
VISUALSTYLE
  2
AcDbVisualStyle
  3
ObjectDBX Classes
 90
     4095
280
     0
281
     0
  0
CLASS
  1
SCALE
  2
AcDbScale
  3
ObjectDBX Classes
 90
     1153
280
     0
281
     0
  0
CLASS
  1
MLEADERSTYLE
  2
AcDbMLeaderStyle
  3
ACDB_MLEADERSTYLE_CLASS
 90
     4095
280
     0
281
     0
  0
CLASS
  1
CELLSTYLEMAP
  2
AcDbCellStyleMap
  3
ObjectDBX Classes
 90
     1152
280
     0
281
     0
  0
CLASS
  1
SUN
  2
AcDbSun
  3
SCENEOE
 90
     1153
280
     0
281
     0
  0
CLASS
  1
XRECORD
  2
AcDbXrecord
  3
ObjectDBX Classes
 90
    32768
280
     0
281
     0
  0
CLASS
  1
HATCH
  2
AcDbHatch
  3
ObjectDBX Classes
 90
    32768
280
     0
281
     1
  0
ENDSEC
  0
SECTION
  2
TABLES
  0
TABLE
  2
VPORT
  5
8
330
0
100
AcDbSymbolTable
 70
     1
  0
VPORT
  5
24A14
330
8
100
AcDbSymbolTableRecord
100
AcDbViewportTableRecord
  2
*ACTIVE
 70
     0
 10
0.0
 20
0.0
 11
1.0
 21
1.0
 12
2107.77819298144
 22
-741.329935085062
 13
0.0
 23
0.0
 14
10.0
 24
10.0
 15
10.0
 25
10.0
 16
0.0
 26
0.0
 36
1.0
 17
0.0
 27
0.0
 37
0.0
 40
200.715000976017
 41
1.858156028368794
 42
50.0
 43
0.0
 44
0.0
 50
0.0
 51
0.0
 71
    16
 72
   100
 73
     1
 74
     1
 75
     0
 76
     0
 77
     0
 78
     0
  0
ENDTAB
  0
TABLE
  2
LTYPE
  5
5
330
0
100
AcDbSymbolTable
 70
     4
  0
LTYPE
  5
12
330
5
100
AcDbSymbolTableRecord
100
AcDbLinetypeTableRecord
  2
BYBLOCK
 70
     0
  3

 72
    65
 73
     0
 40
0.0
  0
LTYPE
  5
13
330
5
100
AcDbSymbolTableRecord
100
AcDbLinetypeTableRecord
  2
BYLAYER
 70
     0
  3

 72
    65
 73
     0
 40
0.0
  0
LTYPE
  5
14
330
5
100
AcDbSymbolTableRecord
100
AcDbLinetypeTableRecord
  2
CONTINUOUS
 70
     0
  3
Solid line
 72
    65
 73
     0
 40
0.0
  0
LTYPE
  5
26
330
5
100
AcDbSymbolTableRecord
100
AcDbLinetypeTableRecord
  2
CENTER2
 70
     0
  3
Center (.5x) ___ _ ___ _ ___ _ ___ _ ___ _ ___
 72
    65
 73
     4
 40
28.575
 49
19.05
 74
     0
 49
-3.175
 74
     0
 49
3.175
 74
     0
 49
-3.175
 74
     0
  0
LTYPE
  5
6A
330
5
100
AcDbSymbolTableRecord
100
AcDbLinetypeTableRecord
  2
XREF1|CENTER2
 70
    16
  3
Center (.5x) ___ _ ___ _ ___ _ ___ _ ___ _ ___
 72
    65
 73
     4
 40
28.575
 49
19.05
 74
     0
 49
-3.175
 74
     0
 49
3.175
 74
     0
 49
-3.175
 74
     0
  0
LTYPE
  5
197A4
330
5
100
AcDbSymbolTableRecord
100
AcDbLinetypeTableRecord
  2
A3WAKUDAKE|CENTER2
 70
    16
  3
Center (.5x) ___ _ ___ _ ___ _ ___ _ ___ _ ___
 72
    65
 73
     4
 40
28.575
 49
19.05
 74
     0
 49
-3.175
 74
     0
 49
3.175
 74
     0
 49
-3.175
 74
     0
  0
ENDTAB
  0
TABLE
  2
LAYER
  5
2
102
{ACAD_XDICTIONARY
360
31D3
102
}
330
0
100
AcDbSymbolTable
 70
    10
  0
LAYER
  5
E
330
2
100
AcDbSymbolTableRecord
100
AcDbLayerTableRecord
  2
0
 70
     0
 62
     7
  6
CONTINUOUS
  0
LAYER
  5
29
330
2
100
AcDbSymbolTableRecord
100
AcDbLayerTableRecord
  2
1CENTER
 70
     0
 62
     7
  6
CENTER2
  0
LAYER
  5
31
330
2
100
AcDbSymbolTableRecord
100
AcDbLayerTableRecord
  2
1TEXT
 70
     0
 62
     7
  6
CONTINUOUS
  0
LAYER
  5
101
330
2
100
AcDbSymbolTableRecord
100
AcDbLayerTableRecord
  2
1DIM
 70
     0
 62
     7
  6
CONTINUOUS
  0
LAYER
  5
159
330
2
100
AcDbSymbolTableRecord
100
AcDbLayerTableRecord
  2
1HATCH
 70
     0
 62
     7
  6
CONTINUOUS
  0
LAYER
  5
15C
330
2
100
AcDbSymbolTableRecord
100
AcDbLayerTableRecord
  2
01
 70
     0
 62
     1
  6
CONTINUOUS
  0
LAYER
  5
197A0
330
2
100
AcDbSymbolTableRecord
100
AcDbLayerTableRecord
  2
A3WAKUDAKE|THICK
 70
    16
 62
     7
  6
CONTINUOUS
  0
LAYER
  5
197A1
330
2
100
AcDbSymbolTableRecord
100
AcDbLayerTableRecord
  2
A3WAKUDAKE|POINT
 70
    16
 62
     7
  6
CONTINUOUS
  0
LAYER
  5
197A2
330
2
100
AcDbSymbolTableRecord
100
AcDbLayerTableRecord
  2
A3WAKUDAKE|1CENTER
 70
    16
 62
     7
  6
A3WAKUDAKE|CENTER2
  0
LAYER
  5
197A3
330
2
100
AcDbSymbolTableRecord
100
AcDbLayerTableRecord
  2
A3WAKUDAKE|0-6
 70
    16
 62
     7
  6
CONTINUOUS
  0
ENDTAB
  0
TABLE
  2
STYLE
  5
3
330
0
100
AcDbSymbolTable
 70
     3
  0
STYLE
  5
F
330
3
100
AcDbSymbolTableRecord
100
AcDbTextStyleTableRecord
  2
STANDARD
 70
     0
 40
0.0
 41
1.0
 50
0.0
 71
     0
 42
4.0
  3
txt.shx
  4
extfont.shx
  0
STYLE
  5
2500A
330
3
100
AcDbSymbolTableRecord
100
AcDbTextStyleTableRecord
  2
A3WAKUDAKE|STANDARD
 70
    16
 40
0.0
 41
1.0
 50
0.0
 71
     0
 42
4.0
  3
romans.shx
  4
extfont.shx
  0
STYLE
  5
25032
330
3
100
AcDbSymbolTableRecord
100
AcDbTextStyleTableRecord
  2
XREF1|STANDARD
 70
    16
 40
0.0
 41
1.0
 50
0.0
 71
     0
 42
4.0
  3
romans.shx
  4
extfont.shx
  0
ENDTAB
  0
TABLE
  2
VIEW
  5
6
330
0
100
AcDbSymbolTable
 70
     0
  0
ENDTAB
  0
TABLE
  2
UCS
  5
7
330
0
100
AcDbSymbolTable
 70
     0
  0
ENDTAB
  0
TABLE
  2
APPID
  5
9
330
0
100
AcDbSymbolTable
 70
    16
  0
APPID
  5
10
330
9
100
AcDbSymbolTableRecord
100
AcDbRegAppTableRecord
  2
ACAD
 70
     0
  0
APPID
  5
21
330
9
100
AcDbSymbolTableRecord
100
AcDbRegAppTableRecord
  2
DRAWINGVARIABLESXDATA
 70
     0
  0
APPID
  5
64
330
9
100
AcDbSymbolTableRecord
100
AcDbRegAppTableRecord
  2
CONTENTTABDATA
 70
     0
  0
APPID
  5
65
330
9
100
AcDbSymbolTableRecord
100
AcDbRegAppTableRecord
  2
CONTENTCURRENTTAB
 70
     0
  0
APPID
  5
66
330
9
100
AcDbSymbolTableRecord
100
AcDbRegAppTableRecord
  2
CONTENTBLOCKDESCRIPTION
 70
     0
  0
APPID
  5
67
330
9
100
AcDbSymbolTableRecord
100
AcDbRegAppTableRecord
  2
CONTENTBLOCKICON
 70
     0
  0
APPID
  5
68
330
9
100
AcDbSymbolTableRecord
100
AcDbRegAppTableRecord
  2
CONTENTLONGBLOCKNAME
 70
     0
  0
APPID
  5
2861
330
9
100
AcDbSymbolTableRecord
100
AcDbRegAppTableRecord
  2
ACAD_PSEXT
 70
     0
  0
APPID
  5
3618
330
9
100
AcDbSymbolTableRecord
100
AcDbRegAppTableRecord
  2
ACAD_DSTYLE_DIMTEXT_FILL
 70
     0
  0
APPID
  5
24F94
330
9
100
AcDbSymbolTableRecord
100
AcDbRegAppTableRecord
  2
ACAD_EXEMPT_FROM_CAD_STAND
 70
     0
  0
APPID
  5
24FEF
330
9
100
AcDbSymbolTableRecord
100
AcDbRegAppTableRecord
  2
ACAD_MLEADERVER
 70
     0
  0
APPID
  5
250A3
330
9
100
AcDbSymbolTableRecord
100
AcDbRegAppTableRecord
  2
ACADANNOTATIVE
 70
     0
  0
APPID
  5
2586B
330
9
100
AcDbSymbolTableRecord
100
AcDbRegAppTableRecord
  2
ACDBBLOCKREPETAG
 70
     0
  0
APPID
  5
26789
330
9
100
AcDbSymbolTableRecord
100
AcDbRegAppTableRecord
  2
ACLAYERTOOLS
 70
     0
  0
APPID
  5
2678A
330
9
100
AcDbSymbolTableRecord
100
AcDbRegAppTableRecord
  2
ACAD_NAV_VCDISPLAY
 70
     0
  0
APPID
  5
2680E
330
9
100
AcDbSymbolTableRecord
100
AcDbRegAppTableRecord
  2
ACAD_OBJECT_CHANGE_GUID
 70
     0
  0
ENDTAB
  0
TABLE
  2
DIMSTYLE
  5
A
330
0
100
AcDbSymbolTable
 70
     1
  0
DIMSTYLE
105
105
330
A
100
AcDbSymbolTableRecord
100
AcDbDimStyleTableRecord
  2
KENX010
 70
     0
  3
 
  4

  5

  6
DOT
  7
DOT
 40
1.0
 41
1.0
 42
0.0
 43
7.0
 44
1.0
 45
0.0
 46
0.0
 47
0.0
 48
0.0
140
3.5
141
0.0
142
0.0
143
25.4
144
1.0
145
0.0
146
0.7
147
0.7
 71
     0
 72
     0
 73
     0
 74
     0
 75
     0
 76
     0
 77
     1
 78
     8
170
     0
171
     2
172
     1
173
     1
174
     0
175
     0
176
   256
177
   256
178
   201
179
     2
270
     2
271
     2
272
     3
273
     2
274
     2
340
F
275
     0
280
     0
281
     0
282
     0
283
     1
284
     8
285
     0
286
     0
287
     2
288
     0
  0
ENDTAB
  0
TABLE
  2
BLOCK_RECORD
  5
1
330
0
100
AcDbSymbolTable
 70
    11
  0
BLOCK_RECORD
  5
18
102
{ACAD_XDICTIONARY
360
237B
102
}
330
1
100
AcDbSymbolTableRecord
100
AcDbBlockTableRecord
  2
*MODEL_SPACE
  0
BLOCK_RECORD
  5
15
330
1
100
AcDbSymbolTableRecord
100
AcDbBlockTableRecord
  2
*PAPER_SPACE
  0
BLOCK_RECORD
  5
42
330
1
100
AcDbSymbolTableRecord
100
AcDbBlockTableRecord
  2
_OPEN30
  0
BLOCK_RECORD
  5
5B
330
1
100
AcDbSymbolTableRecord
100
AcDbBlockTableRecord
  2
XREF1
  0
BLOCK_RECORD
  5
DF
330
1
100
AcDbSymbolTableRecord
100
AcDbBlockTableRecord
  2
_DOT
  0
BLOCK_RECORD
  5
1979D
330
1
100
AcDbSymbolTableRecord
100
AcDbBlockTableRecord
  2
A3WAKUDAKE
  0
BLOCK_RECORD
  5
258BA
330
1
100
AcDbSymbolTableRecord
100
AcDbBlockTableRecord
  2
A3WAKUKAWAJUN2017_HYOUDAI_
  0
BLOCK_RECORD
  5
26DD1
330
1
100
AcDbSymbolTableRecord
100
AcDbBlockTableRecord
  2
*X108
  0
BLOCK_RECORD
  5
26E1F
330
1
100
AcDbSymbolTableRecord
100
AcDbBlockTableRecord
  2
*X109
  0
BLOCK_RECORD
  5
26E71
330
1
100
AcDbSymbolTableRecord
100
AcDbBlockTableRecord
  2
*X110
  0
BLOCK_RECORD
  5
26EC2
330
1
100
AcDbSymbolTableRecord
100
AcDbBlockTableRecord
  2
*X111
  0
BLOCK_RECORD
  5
26EFF
330
1
100
AcDbSymbolTableRecord
100
AcDbBlockTableRecord
  2
*X112
  0
BLOCK_RECORD
  5
26F3F
330
1
100
AcDbSymbolTableRecord
100
AcDbBlockTableRecord
  2
*X113
  0
ENDTAB
  0
ENDSEC
  0
SECTION
  2
BLOCKS
  0
BLOCK
  5
19
330
18
100
AcDbEntity
  8
0
100
AcDbBlockBegin
  2
*MODEL_SPACE
 70
     0
 10
0.0
 20
0.0
 30
0.0
  3
*MODEL_SPACE
  1

  0
ENDBLK
  5
1A
330
18
100
AcDbEntity
  8
0
100
AcDbBlockEnd
  0
BLOCK
  5
16
330
15
100
AcDbEntity
 67
     1
  8
0
100
AcDbBlockBegin
  2
*PAPER_SPACE
 70
     0
 10
0.0
 20
0.0
 30
0.0
  3
*PAPER_SPACE
  1

  0
ENDBLK
  5
17
330
15
100
AcDbEntity
 67
     1
  8
0
100
AcDbBlockEnd
  0
BLOCK
  5
43
330
42
100
AcDbEntity
  8
0
100
AcDbBlockBegin
  2
_OPEN30
 70
     0
 10
0.0
 20
0.0
 30
0.0
  3
_OPEN30
  1

  0
LINE
  5
44
330
42
100
AcDbEntity
  8
0
  6
BYBLOCK
 62
     0
100
AcDbLine
 10
-1.0
 20
0.26794919
 30
0.0
 11
0.0
 21
0.0
 31
0.0
  0
LINE
  5
45
330
42
100
AcDbEntity
  8
0
  6
BYBLOCK
 62
     0
100
AcDbLine
 10
0.0
 20
0.0
 30
0.0
 11
-1.0
 21
-0.26794919
 31
0.0
  0
LINE
  5
46
330
42
100
AcDbEntity
  8
0
  6
BYBLOCK
 62
     0
100
AcDbLine
 10
0.0
 20
0.0
 30
0.0
 11
-1.0
 21
0.0
 31
0.0
  0
ENDBLK
  5
47
330
42
100
AcDbEntity
  8
0
100
AcDbBlockEnd
  0
BLOCK
  5
5C
330
5B
100
AcDbEntity
  8
0
100
AcDbBlockBegin
  2
XREF1
 70
     4
 10
0.0
 20
0.0
 30
0.0
  3
XREF1
  1
D:\ACLT\FORMAT\KAWAJUN(9)図面用.dwg
  0
ENDBLK
  5
5D
330
5B
100
AcDbEntity
  8
0
100
AcDbBlockEnd
  0
BLOCK
  5
E5
330
DF
100
AcDbEntity
  8
0
100
AcDbBlockBegin
  2
_DOT
 70
     0
 10
0.0
 20
0.0
 30
0.0
  3
_DOT
  1

  0
POLYLINE
  5
E0
330
DF
100
AcDbEntity
  8
0
  6
BYBLOCK
 62
     0
100
AcDb2dPolyline
 66
     1
 10
0.0
 20
0.0
 30
0.0
 70
     1
 40
0.5
 41
0.5
  0
VERTEX
  5
26DCF
330
E0
100
AcDbEntity
  8
0
  6
BYBLOCK
 62
     0
100
AcDbVertex
100
AcDb2dVertex
 10
-0.25
 20
0.0
 30
0.0
 42
1.0
  0
VERTEX
  5
26DD0
330
E0
100
AcDbEntity
  8
0
  6
BYBLOCK
 62
     0
100
AcDbVertex
100
AcDb2dVertex
 10
0.25
 20
0.0
 30
0.0
 42
1.0
  0
SEQEND
  5
26F71
330
E0
100
AcDbEntity
  8
0
  6
BYBLOCK
 62
     0
  0
LINE
  5
E4
330
DF
100
AcDbEntity
  8
0
  6
BYBLOCK
 62
     0
100
AcDbLine
 10
-0.5
 20
0.0
 30
0.0
 11
-1.0
 21
0.0
 31
0.0
  0
ENDBLK
  5
E6
330
DF
100
AcDbEntity
  8
0
100
AcDbBlockEnd
  0
BLOCK
  5
1979E
330
1979D
100
AcDbEntity
  8
0
100
AcDbBlockBegin
  2
A3WAKUDAKE
 70
     4
 10
0.0
 20
0.0
 30
0.0
  3
A3WAKUDAKE
  1
D:\ACLT\FORMAT\A3WAKUdake.dwg
  0
ENDBLK
  5
1979F
330
1979D
100
AcDbEntity
  8
0
100
AcDbBlockEnd
  0
BLOCK
  5
25FB9
330
258BA
100
AcDbEntity
  8
0
100
AcDbBlockBegin
  2
A3WAKUKAWAJUN2017_HYOUDAI_
 70
     0
 10
0.0
 20
0.0
 30
0.0
  3
A3WAKUKAWAJUN2017_HYOUDAI_
  1

  0
LINE
  5
258BC
330
258BA
100
AcDbEntity
  8
0
100
AcDbLine
 10
13.26299999998673
 20
-0.0001000000000317
 30
0.0
 11
9.236999999990758
 21
8.999899999990987
 31
0.0
1001
ACAD
1000
ASC_BOUNDS
1002
{
1070
    19
1005
258FD
1002
}
  0
LINE
  5
258BD
330
258BA
100
AcDbEntity
  8
0
100
AcDbLine
 10
5.657999999994331
 20
0.9999999999989768
 30
0.0
 11
9.236999999990758
 21
8.999999999991019
 31
0.0
1001
ACAD
1000
ASC_BOUNDS
1002
{
1070
    19
1005
258FD
1002
}
  0
LINE
  5
258BE
330
258BA
100
AcDbEntity
  8
0
100
AcDbLine
 10
18.59199999998134
 20
-0.2368999999997641
 30
0.0
 11
16.46099999998353
 21
5.432899999994561
 31
0.0
1001
ACAD
1000
ASC_BOUNDS
1002
{
1070
    19
1005
258FE
1002
}
  0
LINE
  5
258BF
330
258BA
100
AcDbEntity
  8
0
100
AcDbLine
 10
18.59199999998134
 20
-0.2368999999997641
 30
0.0
 11
22.38199999997767
 21
8.763099999991255
 31
0.0
1001
ACAD
1000
ASC_BOUNDS
1002
{
1070
    19
1005
258FE
1002
}
  0
LINE
  5
258C0
330
258BA
100
AcDbEntity
  8
0
100
AcDbLine
 10
14.32899999998563
 20
-0.2368999999997641
 30
0.0
 11
16.46099999998353
 21
5.432899999994561
 31
0.0
1001
ACAD
1000
ASC_BOUNDS
1002
{
1070
    19
1005
258FE
1002
}
  0
LINE
  5
258C1
330
258BA
100
AcDbEntity
  8
0
100
AcDbLine
 10
14.32899999998563
 20
-0.2368999999997641
 30
0.0
 11
10.53899999998941
 21
8.763099999991255
 31
0.0
1001
ACAD
1000
ASC_BOUNDS
1002
{
1070
    19
1005
258FE
1002
}
  0
LINE
  5
258C2
330
258BA
100
AcDbEntity
  8
0
100
AcDbLine
 10
19.53899999998043
 20
-0.0001000000000317
 30
0.0
 11
23.56599999997638
 21
8.999899999990987
 31
0.0
1001
ACAD
1000
ASC_BOUNDS
1002
{
1070
    19
1005
258FF
1002
}
  0
LINE
  5
258C3
330
258BA
100
AcDbEntity
  8
0
100
AcDbLine
 10
26.97358892824991
 20
1.383099999991202
 30
0.0
 11
23.56599999997638
 21
8.999899999990987
 31
0.0
1001
ACAD
1000
ASC_BOUNDS
1002
{
1070
    19
1005
258FF
1002
}
  0
LINE
  5
258C4
330
258BA
100
AcDbEntity
  8
0
100
AcDbLine
 10
5.657999999994331
 20
0.9999999999989768
 30
0.0
 11
3.181999999996833
 21
4.668599999995308
 31
0.0
1001
ACAD
1000
ASC_BOUNDS
1002
{
1070
    19
1005
258FD
1002
}
  0
LINE
  5
258C5
330
258BA
100
AcDbEntity
  8
0
100
AcDbLine
 10
4.617999999995391
 20
-0.0001000000000317
 30
0.0
 11
1.420999999998571
 21
4.736799999995242
 31
0.0
1001
ACAD
1000
ASC_BOUNDS
1002
{
1070
    19
1005
258FD
1002
}
  0
LINE
  5
258C6
330
258BA
100
AcDbEntity
  8
0
100
AcDbLine
 10
1.420999999998571
 20
8.763099999991255
 30
0.0
 11
1.420999999998571
 21
0.0
 31
0.0
1001
ACAD
1000
ASC_BOUNDS
1002
{
1070
    19
1005
25902
1002
}
  0
LINE
  5
258C7
330
258BA
100
AcDbEntity
  8
0
100
AcDbLine
 10
0.0
 20
8.763099999991255
 30
0.0
 11
0.0
 21
0.0
 31
0.0
1001
ACAD
1000
ASC_BOUNDS
1002
{
1070
    19
1005
25902
1002
}
  0
LINE
  5
258C8
330
258BA
100
AcDbEntity
  8
0
100
AcDbLine
 10
6.766999999993232
 20
-0.0001000000000317
 30
0.0
 11
7.826999999992154
 21
2.368399999997621
 31
0.0
1001
ACAD
1000
ASC_BOUNDS
1002
{
1070
    19
1005
258FD
1002
}
  0
LINE
  5
258C9
330
258BA
100
AcDbEntity
  8
0
100
AcDbLine
 10
0.0
 20
0.0
 30
0.0
 11
1.420999999998571
 21
0.0
 31
0.0
1001
ACAD
1000
ASC_BOUNDS
1002
{
1070
    19
1005
25902
1002
}
  0
LINE
  5
258CA
330
258BA
100
AcDbEntity
  8
0
100
AcDbLine
 10
4.617999999995391
 20
0.0
 30
0.0
 11
6.766999999993232
 21
0.0
 31
0.0
1001
ACAD
1000
ASC_BOUNDS
1002
{
1070
    19
1005
258FD
1002
}
  0
LINE
  5
258CB
330
258BA
100
AcDbEntity
  8
0
100
AcDbLine
 10
11.70599999998831
 20
-0.0001000000000317
 30
0.0
 11
10.64699999998936
 21
2.368399999997621
 31
0.0
1001
ACAD
1000
ASC_BOUNDS
1002
{
1070
    19
1005
258FD
1002
}
  0
LINE
  5
258CC
330
258BA
100
AcDbEntity
  8
0
100
AcDbLine
 10
7.826999999992154
 20
2.368399999997621
 30
0.0
 11
10.64699999998936
 21
2.368399999997621
 31
0.0
1001
ACAD
1000
ASC_BOUNDS
1002
{
1070
    19
1005
258FD
1002
}
  0
LINE
  5
258CD
330
258BA
100
AcDbEntity
  8
0
100
AcDbLine
 10
11.70599999998831
 20
0.0
 30
0.0
 11
13.26299999998673
 21
0.0
 31
0.0
1001
ACAD
1000
ASC_BOUNDS
1002
{
1070
    19
1005
258FD
1002
}
  0
LINE
  5
258CE
330
258BA
100
AcDbEntity
  8
0
100
AcDbLine
 10
22.15599999997789
 20
2.368399999997621
 30
0.0
 11
24.97599999997499
 21
2.368399999997621
 31
0.0
1001
ACAD
1000
ASC_BOUNDS
1002
{
1070
    19
1005
258FF
1002
}
  0
LINE
  5
258CF
330
258BA
100
AcDbEntity
  8
0
100
AcDbLine
 10
19.53899999998043
 20
0.0
 30
0.0
 11
21.09599999997886
 21
0.0
 31
0.0
1001
ACAD
1000
ASC_BOUNDS
1002
{
1070
    19
1005
258FF
1002
}
  0
LINE
  5
258D0
330
258BA
100
AcDbEntity
  8
0
100
AcDbLine
 10
21.09599999997886
 20
-0.0001000000000317
 30
0.0
 11
22.15599999997789
 21
2.368399999997621
 31
0.0
1001
ACAD
1000
ASC_BOUNDS
1002
{
1070
    19
1005
258FF
1002
}
  0
LINE
  5
258D1
330
258BA
100
AcDbEntity
  8
0
100
AcDbLine
 10
26.02015566812236
 20
0.0330999999912365
 30
0.0
 11
24.97599999997499
 21
2.368399999997621
 31
0.0
1001
ACAD
1000
ASC_BOUNDS
1002
{
1070
    19
1005
258FF
1002
}
  0
LINE
  5
258D2
330
258BA
100
AcDbEntity
  8
0
100
AcDbLine
 10
14.32399999998563
 20
3.315799999996671
 30
0.0
 11
16.46099999998353
 21
8.999899999990987
 31
0.0
1001
ACAD
1000
ASC_BOUNDS
1002
{
1070
    19
1005
258FE
1002
}
  0
LINE
  5
258D3
330
258BA
100
AcDbEntity
  8
0
100
AcDbLine
 10
6.432999999993513
 20
8.763099999991255
 30
0.0
 11
3.181999999996833
 21
4.668599999995308
 31
0.0
1001
ACAD
1000
ASC_BOUNDS
1002
{
1070
    19
1005
258FD
1002
}
  0
LINE
  5
258D4
330
258BA
100
AcDbEntity
  8
0
100
AcDbLine
 10
4.617999999995391
 20
8.763099999991255
 30
0.0
 11
1.420999999998571
 21
4.736799999995242
 31
0.0
1001
ACAD
1000
ASC_BOUNDS
1002
{
1070
    19
1005
258FD
1002
}
  0
LINE
  5
258D5
330
258BA
100
AcDbEntity
  8
0
100
AcDbLine
 10
0.0
 20
8.763099999991255
 30
0.0
 11
1.420999999998571
 21
8.763099999991255
 31
0.0
1001
ACAD
1000
ASC_BOUNDS
1002
{
1070
    19
1005
25902
1002
}
  0
LINE
  5
258D6
330
258BA
100
AcDbEntity
  8
0
100
AcDbLine
 10
4.617999999995391
 20
8.763099999991255
 30
0.0
 11
6.432999999993513
 21
8.763099999991255
 31
0.0
1001
ACAD
1000
ASC_BOUNDS
1002
{
1070
    19
1005
258FD
1002
}
  0
LINE
  5
258D7
330
258BA
100
AcDbEntity
  8
0
100
AcDbLine
 10
14.32399999998563
 20
3.315799999996671
 30
0.0
 11
12.02999999998792
 21
8.763099999991255
 31
0.0
1001
ACAD
1000
ASC_BOUNDS
1002
{
1070
    19
1005
258FE
1002
}
  0
LINE
  5
258D8
330
258BA
100
AcDbEntity
  8
0
100
AcDbLine
 10
10.06399999998996
 20
3.670999999996297
 30
0.0
 11
9.236999999990758
 21
5.5200999999945
 31
0.0
1001
ACAD
1000
ASC_BOUNDS
1002
{
1070
    19
1005
258FD
1002
}
  0
LINE
  5
258D9
330
258BA
100
AcDbEntity
  8
0
100
AcDbLine
 10
8.409999999991555
 20
3.670999999996297
 30
0.0
 11
9.236999999990758
 21
5.5200999999945
 31
0.0
1001
ACAD
1000
ASC_BOUNDS
1002
{
1070
    19
1005
258FD
1002
}
  0
LINE
  5
258DA
330
258BA
100
AcDbEntity
  8
0
100
AcDbLine
 10
8.409999999991555
 20
3.670999999996297
 30
0.0
 11
10.06399999998996
 21
3.670999999996297
 31
0.0
1001
ACAD
1000
ASC_BOUNDS
1002
{
1070
    19
1005
258FD
1002
}
  0
LINE
  5
258DB
330
258BA
100
AcDbEntity
  8
0
100
AcDbLine
 10
10.53899999998941
 20
8.763099999991255
 30
0.0
 11
12.02999999998792
 21
8.763099999991255
 31
0.0
1001
ACAD
1000
ASC_BOUNDS
1002
{
1070
    19
1005
258FE
1002
}
  0
LINE
  5
258DC
330
258BA
100
AcDbEntity
  8
0
100
AcDbLine
 10
22.7389999999773
 20
3.670999999996297
 30
0.0
 11
23.56599999997638
 21
5.5200999999945
 31
0.0
1001
ACAD
1000
ASC_BOUNDS
1002
{
1070
    19
1005
258FF
1002
}
  0
LINE
  5
258DD
330
258BA
100
AcDbEntity
  8
0
100
AcDbLine
 10
22.7389999999773
 20
3.670999999996297
 30
0.0
 11
24.39299999997559
 21
3.670999999996297
 31
0.0
1001
ACAD
1000
ASC_BOUNDS
1002
{
1070
    19
1005
258FF
1002
}
  0
LINE
  5
258DE
330
258BA
100
AcDbEntity
  8
0
100
AcDbLine
 10
18.59799999998143
 20
3.315799999996671
 30
0.0
 11
20.89099999997916
 21
8.763099999991255
 31
0.0
1001
ACAD
1000
ASC_BOUNDS
1002
{
1070
    19
1005
258FE
1002
}
  0
LINE
  5
258DF
330
258BA
100
AcDbEntity
  8
0
100
AcDbLine
 10
18.59799999998143
 20
3.315799999996671
 30
0.0
 11
16.46099999998353
 21
8.999899999990987
 31
0.0
1001
ACAD
1000
ASC_BOUNDS
1002
{
1070
    19
1005
258FE
1002
}
  0
LINE
  5
258E0
330
258BA
100
AcDbEntity
  8
0
100
AcDbLine
 10
20.89099999997916
 20
8.763099999991255
 30
0.0
 11
22.38199999997767
 21
8.763099999991255
 31
0.0
1001
ACAD
1000
ASC_BOUNDS
1002
{
1070
    19
1005
258FE
1002
}
  0
LINE
  5
258E1
330
258BA
100
AcDbEntity
  8
0
100
AcDbLine
 10
24.39299999997559
 20
3.670999999996297
 30
0.0
 11
23.56599999997638
 21
5.5200999999945
 31
0.0
1001
ACAD
1000
ASC_BOUNDS
1002
{
1070
    19
1005
258FF
1002
}
  0
LINE
  5
258E2
330
258BA
100
AcDbEntity
  8
0
100
AcDbLine
 10
44.99999999995498
 20
-0.2368999999997641
 30
0.0
 11
40.02599999995994
 21
5.341799999994635
 31
0.0
1001
ACAD
1000
ASC_BOUNDS
1002
{
1070
    19
1005
25901
1002
}
  0
LINE
  5
258E3
330
258BA
100
AcDbEntity
  8
0
100
AcDbLine
 10
40.02599999995994
 20
5.341799999994635
 30
0.0
 11
40.02599999995994
 21
0.0
 31
0.0
1001
ACAD
1000
ASC_BOUNDS
1002
{
1070
    19
1005
25901
1002
}
  0
LINE
  5
258E4
330
258BA
100
AcDbEntity
  8
0
100
AcDbLine
 10
38.60499999996136
 20
8.999999999991019
 30
0.0
 11
38.60499999996136
 21
0.0
 31
0.0
1001
ACAD
1000
ASC_BOUNDS
1002
{
1070
    19
1005
25901
1002
}
  0
LINE
  5
258E5
330
258BA
100
AcDbEntity
  8
0
100
AcDbLine
 10
44.99999999995498
 20
8.763099999991255
 30
0.0
 11
44.99999999995498
 21
-0.2368999999997641
 31
0.0
1001
ACAD
1000
ASC_BOUNDS
1002
{
1070
    19
1005
25901
1002
}
  0
LINE
  5
258E6
330
258BA
100
AcDbEntity
  8
0
100
AcDbLine
 10
38.60499999996136
 20
0.0
 30
0.0
 11
40.02599999995994
 21
0.0
 31
0.0
1001
ACAD
1000
ASC_BOUNDS
1002
{
1070
    19
1005
25901
1002
}
  0
LINE
  5
258E7
330
258BA
100
AcDbEntity
  8
0
100
AcDbLine
 10
43.57899999995641
 20
3.421199999996588
 30
0.0
 11
38.60499999996136
 21
8.999899999990987
 31
0.0
1001
ACAD
1000
ASC_BOUNDS
1002
{
1070
    19
1005
25901
1002
}
  0
LINE
  5
258E8
330
258BA
100
AcDbEntity
  8
0
100
AcDbLine
 10
43.57899999995641
 20
8.763099999991255
 30
0.0
 11
43.57899999995641
 21
3.421199999996588
 31
0.0
1001
ACAD
1000
ASC_BOUNDS
1002
{
1070
    19
1005
25901
1002
}
  0
LINE
  5
258E9
330
258BA
100
AcDbEntity
  8
0
100
AcDbLine
 10
43.57899999995641
 20
8.763099999991255
 30
0.0
 11
44.99999999995498
 21
8.763099999991255
 31
0.0
1001
ACAD
1000
ASC_BOUNDS
1002
{
1070
    19
1005
25901
1002
}
  0
LINE
  5
258EA
330
258BA
100
AcDbEntity
  8
0
100
AcDbLine
 10
37.67199999996831
 20
8.763099999991255
 30
0.0
 11
36.23199999996837
 21
8.763099999991255
 31
0.0
  0
LINE
  5
258EB
330
258BA
100
AcDbEntity
  8
0
100
AcDbLine
 10
31.64199999996833
 20
8.763099999991255
 30
0.0
 11
31.64199999996833
 21
2.481619422925121
 31
0.0
  0
LINE
  5
258EC
330
258BA
100
AcDbEntity
  8
0
100
AcDbLine
 10
37.67199999996831
 20
8.763099999991255
 30
0.0
 11
37.67199999996831
 21
2.481619422925121
 31
0.0
  0
LINE
  5
258ED
330
258BA
100
AcDbEntity
  8
0
100
AcDbLine
 10
36.23199999996837
 20
8.763099999991255
 30
0.0
 11
36.23199999996837
 21
2.481619422925064
 31
0.0
  0
LINE
  5
258EE
330
258BA
100
AcDbEntity
  8
0
100
AcDbLine
 10
33.08199999996839
 20
8.763099999991255
 30
0.0
 11
33.08199999996839
 21
2.481619422925121
 31
0.0
  0
ARC
  5
258EF
330
258BA
100
AcDbEntity
  8
0
100
AcDbCircle
 10
34.65699999996832
 20
3.183099999991214
 30
0.0
 40
3.420000000000007
100
AcDbArc
 50
240.0000000000255
 51
299.9999999999766
  0
ARC
  5
258F0
330
258BA
100
AcDbEntity
  8
0
100
AcDbCircle
 10
34.65699999996832
 20
3.183099999991214
 30
0.0
 40
1.97999999999999
100
AcDbArc
 50
240.000000000026
 51
299.9999999999703
  0
LINE
  5
258F1
330
258BA
100
AcDbEntity
  8
0
100
AcDbLine
 10
33.08199999996828
 20
8.763099999991255
 30
0.0
 11
31.64199999996833
 21
8.763099999991255
 31
0.0
  0
ARC
  5
258F2
330
258BA
100
AcDbEntity
  8
0
100
AcDbCircle
 10
35.06199999996829
 20
2.481619422925064
 30
0.0
 40
1.17
100
AcDbArc
 50
299.9999999999699
 51
0.0
  0
ARC
  5
258F3
330
258BA
100
AcDbEntity
  8
0
100
AcDbCircle
 10
34.25199999996835
 20
2.481619422925121
 30
0.0
 40
1.17
100
AcDbArc
 50
180.0
 51
240.0000000000238
  0
ARC
  5
258F4
330
258BA
100
AcDbEntity
  8
0
100
AcDbCircle
 10
35.06199999996841
 20
2.481619422925121
 30
0.0
 40
2.61
100
AcDbArc
 50
299.9999999999756
 51
0.0
  0
ARC
  5
258F5
330
258BA
100
AcDbEntity
  8
0
100
AcDbCircle
 10
34.25199999996835
 20
2.481619422925121
 30
0.0
 40
2.61
100
AcDbArc
 50
180.0
 51
240.0000000000244
  0
LINE
  5
258F6
330
258BA
100
AcDbEntity
  8
0
100
AcDbLine
 10
29.30199999996933
 20
8.763099999991255
 30
0.0
 11
30.74199999996927
 21
8.763099999991255
 31
0.0
1001
ACAD
1000
ASC_BOUNDS
1002
{
1070
    19
1005
258FF
1002
}
  0
LINE
  5
258F7
330
258BA
100
AcDbEntity
  8
0
100
AcDbLine
 10
30.74199999996927
 20
8.763099999991255
 30
0.0
 11
30.74199999996927
 21
2.373099999991211
 31
0.0
1001
ACAD
1000
ASC_BOUNDS
1002
{
1070
    19
1005
258FF
1002
}
  0
LINE
  5
258F8
330
258BA
100
AcDbEntity
  8
0
100
AcDbLine
 10
26.02015566812236
 20
0.0330999999912365
 30
0.0
 11
28.40199999996923
 21
0.0330999999912365
 31
0.0
1001
ACAD
1000
ASC_BOUNDS
1002
{
1070
    19
1005
258FF
1002
}
  0
LINE
  5
258F9
330
258BA
100
AcDbEntity
  8
0
100
AcDbLine
 10
29.30199999996933
 20
8.763099999991255
 30
0.0
 11
29.30199999996933
 21
2.283099999991236
 31
0.0
1001
ACAD
1000
ASC_BOUNDS
1002
{
1070
    19
1005
258FF
1002
}
  0
LINE
  5
258FA
330
258BA
100
AcDbEntity
  8
0
100
AcDbLine
 10
26.97358892824991
 20
1.383099999991202
 30
0.0
 11
28.40199999996923
 21
1.383099999991202
 31
0.0
1001
ACAD
1000
ASC_BOUNDS
1002
{
1070
    19
1005
258FF
1002
}
  0
ARC
  5
258FB
330
258BA
100
AcDbEntity
  8
0
100
AcDbCircle
 10
28.40199999996923
 20
2.283099999991236
 30
0.0
 40
0.9
100
AcDbArc
 50
270.0
 51
0.0
1001
ACAD
1000
ASC_BOUNDS
1002
{
1070
    19
1005
258FF
1002
}
  0
ARC
  5
258FC
330
258BA
100
AcDbEntity
  8
0
100
AcDbCircle
 10
28.40199999996923
 20
2.373099999991211
 30
0.0
 40
2.34
100
AcDbArc
 50
270.0
 51
0.0
1001
ACAD
1000
ASC_BOUNDS
1002
{
1070
    19
1005
258FF
1002
}
  0
INSERT
  5
258FD
330
258BA
100
AcDbEntity
  8
0
100
AcDbBlockReference
  2
*X108
 10
0.0
 20
0.0
 30
0.0
1001
ACAD
1000
HATCH
1002
{
1070
    19
1000
ANSI37
1040
0.15
1040
0.0
1000
ASC_BOUNDS
1070
     2
1070
     2
1070
    12
1005
258BC
1005
258BD
1005
258C4
1005
258D3
1005
258D6
1005
258D4
1005
258C5
1005
258CA
1005
258C8
1005
258CC
1005
258CB
1005
258CD
1070
     2
1070
     3
1005
258D8
1005
258DA
1005
258D9
1000
ASC_SEEDPOINT
1011
3.614004224891801
1021
2.996669441146025
1031
0.0
1000
R14_HATCH_DATA
1000
258FD
1011
1.0
1021
0.0
1031
0.0
1011
0.0
1021
1.0
1031
0.0
1011
0.0
1021
0.0
1031
1.0
1040
0.0
1010
0.0
1020
0.0
1030
1.0
1000
ANSI37
1070
     0
1070
     1
1071
        2
1071
        7
1070
     0
1070
     1
1071
       17
1040
13.26299999998673
1040
-0.0001000000000317
1040
9.236999999990758
1040
8.999899999990987
1040
9.236999999990758
1040
8.999999999991019
1040
5.657999999994331
1040
0.9999999999989768
1040
3.181999999996833
1040
4.668599999995308
1040
6.432999999993513
1040
8.763099999991255
1040
4.617999999995391
1040
8.763099999991255
1040
1.420999999998571
1040
4.736799999995242
1040
4.617999999995391
1040
-0.0001000000000317
1040
4.617999999995391
1040
0.0
1040
6.766999999993232
1040
0.0
1040
6.766999999993232
1040
-0.0001000000000317
1040
7.826999999992154
1040
2.368399999997621
1040
10.64699999998936
1040
2.368399999997621
1040
11.70599999998831
1040
-0.0001000000000317
1040
11.70599999998831
1040
0.0
1040
13.26299999998673
1040
0.0
1071
       12
1005
258BC
1005
258BD
1005
258C4
1005
258D3
1005
258D6
1005
258D4
1005
258C5
1005
258CA
1005
258C8
1005
258CC
1005
258CB
1005
258CD
1071
       22
1070
     0
1070
     1
1071
        3
1040
9.236999999990758
1040
5.5200999999945
1040
10.06399999998996
1040
3.670999999996297
1040
8.409999999991555
1040
3.670999999996297
1071
        3
1005
258D8
1005
258DA
1005
258D9
1070
     0
1070
     1
1040
0.0
1040
0.15
1070
     0
1070
     2
1040
0.7853981633974483
1040
49.29960901727088
1040
-10.17736998311392
1040
-0.3367596045400932
1040
0.3367596045400932
1070
     0
1040
2.356194490192345
1040
49.29960901727088
1040
-10.17736998311392
1040
-0.3367596045400932
1040
-0.3367596045400932
1070
     0
1040
0.0110235143455945
1071
        2
1040
3.614004224891801
1040
2.996669441146025
1040
0.0
1040
3.614004224891801
1040
2.996669441146025
1040
0.0
1002
}
  0
INSERT
  5
258FE
330
258BA
100
AcDbEntity
  8
0
100
AcDbBlockReference
  2
*X109
 10
0.0
 20
0.0
 30
0.0
1001
ACAD
1000
HATCH
1002
{
1070
    19
1000
ANSI37
1040
0.15
1040
0.0
1000
ASC_BOUNDS
1070
     1
1070
     2
1070
    10
1005
258BE
1005
258BF
1005
258E0
1005
258DE
1005
258DF
1005
258D2
1005
258D7
1005
258DB
1005
258C1
1005
258C0
1000
ASC_SEEDPOINT
1011
14.73245321214324
1021
2.798246178283421
1031
0.0
1000
R14_HATCH_DATA
1000
258FE
1011
1.0
1021
0.0
1031
0.0
1011
0.0
1021
1.0
1031
0.0
1011
0.0
1021
0.0
1031
1.0
1040
0.0
1010
0.0
1020
0.0
1030
1.0
1000
ANSI37
1070
     0
1070
     1
1071
        1
1071
        7
1070
     0
1070
     1
1071
       10
1040
16.46099999998353
1040
5.432899999994561
1040
18.59199999998134
1040
-0.2368999999997641
1040
22.38199999997767
1040
8.763099999991255
1040
20.89099999997916
1040
8.763099999991255
1040
18.59799999998143
1040
3.315799999996671
1040
16.46099999998353
1040
8.999899999990987
1040
14.32399999998563
1040
3.315799999996671
1040
12.02999999998792
1040
8.763099999991255
1040
10.53899999998941
1040
8.763099999991255
1040
14.32899999998563
1040
-0.2368999999997641
1071
       10
1005
258BE
1005
258BF
1005
258E0
1005
258DE
1005
258DF
1005
258D2
1005
258D7
1005
258DB
1005
258C1
1005
258C0
1070
     0
1070
     1
1040
0.0
1040
0.15
1070
     0
1070
     2
1040
0.7853981633974483
1040
49.29960901727088
1040
-10.17736998311392
1040
-0.3367596045400932
1040
0.3367596045400932
1070
     0
1040
2.356194490192345
1040
49.29960901727088
1040
-10.17736998311392
1040
-0.3367596045400932
1040
-0.3367596045400932
1070
     0
1040
0.0110235143455945
1071
        1
1040
14.73245321214324
1040
2.798246178283421
1040
0.0
1002
}
  0
INSERT
  5
258FF
330
258BA
100
AcDbEntity
  8
0
100
AcDbBlockReference
  2
*X110
 10
0.0
 20
0.0
 30
0.0
1001
ACAD
1000
HATCH
1002
{
1070
    19
1000
ANSI37
1040
0.15
1040
0.0
1000
ASC_BOUNDS
1070
     2
1070
     2
1070
    13
1005
258C2
1005
258CF
1005
258D0
1005
258CE
1005
258D1
1005
258F8
1005
258FC
1005
258F7
1005
258F6
1005
258F9
1005
258FB
1005
258FA
1005
258C3
1070
     2
1070
     3
1005
258DC
1005
258E1
1005
258DD
1000
ASC_SEEDPOINT
1011
21.97929957367762
1021
3.294304244259308
1031
0.0
1000
R14_HATCH_DATA
1000
258FF
1011
1.0
1021
0.0
1031
0.0
1011
0.0
1021
1.0
1031
0.0
1011
0.0
1021
0.0
1031
1.0
1040
0.0
1010
0.0
1020
0.0
1030
1.0
1000
ANSI37
1070
     0
1070
     1
1071
        2
1071
        7
1070
     1
1070
     1
1071
       15
1040
23.56599999997638
1040
8.999899999990987
1040
0.0
1040
19.53899999998043
1040
-0.0001000000000317
1040
0.0
1040
19.53899999998043
1040
0.0
1040
0.0
1040
21.09599999997886
1040
0.0
1040
0.0
1040
21.09599999997886
1040
-0.0001000000000317
1040
0.0
1040
22.15599999997789
1040
2.368399999997621
1040
0.0
1040
24.97599999997499
1040
2.368399999997621
1040
0.0
1040
26.02015566812236
1040
0.0330999999912365
1040
0.0
1040
28.40199999996923
1040
0.0330999999912365
1040
0.414213562373095
1040
30.74199999996923
1040
2.373099999991211
1040
0.0
1040
30.74199999996927
1040
8.763099999991255
1040
0.0
1040
29.30199999996933
1040
8.763099999991255
1040
0.0
1040
29.30199999996933
1040
2.283099999991236
1040
-0.414213562373095
1040
28.40199999996923
1040
1.383099999991237
1040
0.0
1040
26.97358892824991
1040
1.383099999991202
1040
0.0
1071
       13
1005
258C2
1005
258CF
1005
258D0
1005
258CE
1005
258D1
1005
258F8
1005
258FC
1005
258F7
1005
258F6
1005
258F9
1005
258FB
1005
258FA
1005
258C3
1071
       22
1070
     0
1070
     1
1071
        3
1040
22.7389999999773
1040
3.670999999996297
1040
23.56599999997638
1040
5.5200999999945
1040
24.39299999997559
1040
3.670999999996297
1071
        3
1005
258DC
1005
258E1
1005
258DD
1070
     0
1070
     1
1040
0.0
1040
0.15
1070
     0
1070
     2
1040
0.7853981633974483
1040
49.29960901727088
1040
-10.17736998311392
1040
-0.3367596045400932
1040
0.3367596045400932
1070
     0
1040
2.356194490192345
1040
49.29960901727088
1040
-10.17736998311392
1040
-0.3367596045400932
1040
-0.3367596045400932
1070
     0
1040
0.0110235143455945
1071
        2
1040
21.97929957367762
1040
3.294304244259308
1040
0.0
1040
21.97929957367762
1040
3.294304244259308
1040
0.0
1002
}
  0
INSERT
  5
25900
330
258BA
100
AcDbEntity
  8
0
100
AcDbBlockReference
  2
*X111
 10
0.0
 20
0.0
 30
0.0
1001
ACAD
1000
HATCH
1002
{
1070
    19
1000
ANSI37
1040
0.15
1040
0.0
1000
R14_HATCH_DATA
1000
25900
1011
1.0
1021
0.0
1031
0.0
1011
0.0
1021
1.0
1031
0.0
1011
0.0
1021
0.0
1031
1.0
1040
0.0
1010
0.0
1020
0.0
1030
1.0
1000
ANSI37
1070
     0
1070
     1
1071
        1
1071
        7
1070
     1
1070
     1
1071
       12
1040
31.64199999996833
1040
2.481619422925121
1040
0.2679491924310942
1040
32.94699999997067
1040
0.2212931190493919
1040
0.2679491924301353
1040
36.36699999995983
1040
0.2212931190459813
1040
0.2679491924321411
1040
37.67199999996831
1040
2.481619422928361
1040
0.0
1040
37.67199999996831
1040
8.763099999991255
1040
0.0
1040
36.23199999996837
1040
8.763099999991255
1040
0.0
1040
36.23199999996837
1040
2.481619422925064
1040
-0.2679491924310291
1040
35.64699999996708
1040
1.468369700498386
1040
-0.267949192430519
1040
33.66699999997093
1040
1.468369700497703
1040
-0.267949192431809
1040
33.08199999996839
1040
2.481619422926997
1040
0.0
1040
33.08199999996839
1040
8.763099999991255
1040
0.0
1040
31.64199999996833
1040
8.763099999991255
1040
0.0
1071
        0
1070
     0
1070
     1
1040
0.0
1040
0.15
1070
     0
1070
     2
1040
0.7853981633974483
1040
49.29960901727088
1040
-10.17736998311392
1040
-0.3367596045400932
1040
0.3367596045400932
1070
     0
1040
2.356194490192345
1040
49.29960901727088
1040
-10.17736998311392
1040
-0.3367596045400932
1040
-0.3367596045400932
1070
     0
1040
0.0110235143455945
1071
        1
1040
32.30357378967278
1040
3.988785755459219
1040
0.0
1002
}
  0
INSERT
  5
25901
330
258BA
100
AcDbEntity
  8
0
100
AcDbBlockReference
  2
*X112
 10
0.0
 20
0.0
 30
0.0
1001
ACAD
1000
HATCH
1002
{
1070
    19
1000
ANSI37
1040
0.15
1040
0.0
1000
ASC_BOUNDS
1070
     1
1070
     2
1070
     8
1005
258E2
1005
258E5
1005
258E9
1005
258E8
1005
258E7
1005
258E4
1005
258E6
1005
258E3
1000
ASC_SEEDPOINT
1011
39.74896370716704
1021
4.484843821435049
1031
0.0
1000
R14_HATCH_DATA
1000
25901
1011
1.0
1021
0.0
1031
0.0
1011
0.0
1021
1.0
1031
0.0
1011
0.0
1021
0.0
1031
1.0
1040
0.0
1010
0.0
1020
0.0
1030
1.0
1000
ANSI37
1070
     0
1070
     1
1071
        1
1071
        7
1070
     0
1070
     1
1071
        9
1040
40.02599999995994
1040
5.341799999994635
1040
44.99999999995498
1040
-0.2368999999997641
1040
44.99999999995498
1040
8.763099999991255
1040
43.57899999995641
1040
8.763099999991255
1040
43.57899999995641
1040
3.421199999996588
1040
38.60499999996136
1040
8.999899999990987
1040
38.60499999996136
1040
8.999999999991019
1040
38.60499999996136
1040
0.0
1040
40.02599999995994
1040
0.0
1071
        8
1005
258E2
1005
258E5
1005
258E9
1005
258E8
1005
258E7
1005
258E4
1005
258E6
1005
258E3
1070
     0
1070
     1
1040
0.0
1040
0.15
1070
     0
1070
     2
1040
0.7853981633974483
1040
49.29960901727088
1040
-10.17736998311392
1040
-0.3367596045400932
1040
0.3367596045400932
1070
     0
1040
2.356194490192345
1040
49.29960901727088
1040
-10.17736998311392
1040
-0.3367596045400932
1040
-0.3367596045400932
1070
     0
1040
0.0110235143455945
1071
        1
1040
39.74896370716704
1040
4.484843821435049
1040
0.0
1002
}
  0
INSERT
  5
25902
330
258BA
100
AcDbEntity
  8
0
100
AcDbBlockReference
  2
*X113
 10
0.0
 20
0.0
 30
0.0
1001
ACAD
1000
HATCH
1002
{
1070
    19
1000
ANSI37
1040
0.15
1040
0.0
1000
ASC_BOUNDS
1070
     1
1070
     2
1070
     4
1005
258C6
1005
258D5
1005
258C7
1005
258C9
1000
ASC_SEEDPOINT
1011
1.079051535452663
1021
4.148538732891836
1031
0.0
1000
R14_HATCH_DATA
1000
25902
1011
1.0
1021
0.0
1031
0.0
1011
0.0
1021
1.0
1031
0.0
1011
0.0
1021
0.0
1031
1.0
1040
0.0
1010
0.0
1020
0.0
1030
1.0
1000
ANSI37
1070
     0
1070
     1
1071
        1
1071
        7
1070
     0
1070
     1
1071
        4
1040
1.420999999998571
1040
0.0
1040
1.420999999998571
1040
8.763099999991255
1040
0.0
1040
8.763099999991255
1040
0.0
1040
0.0
1071
        4
1005
258C6
1005
258D5
1005
258C7
1005
258C9
1070
     0
1070
     1
1040
0.0
1040
0.15
1070
     0
1070
     2
1040
0.7853981633974483
1040
49.29960901727088
1040
-10.17736998311392
1040
-0.3367596045400932
1040
0.3367596045400932
1070
     0
1040
2.356194490192345
1040
49.29960901727088
1040
-10.17736998311392
1040
-0.3367596045400932
1040
-0.3367596045400932
1070
     0
1040
0.0053004257112761
1071
        1
1040
1.079051535452663
1040
4.148538732891836
1040
0.0
1002
}
  0
ENDBLK
  5
25FBA
330
258BA
100
AcDbEntity
  8
0
100
AcDbBlockEnd
  0
BLOCK
  5
26F5F
330
26DD1
100
AcDbEntity
  8
0
100
AcDbBlockBegin
  2
*X108
 70
     1
 10
0.0
 20
0.0
 30
0.0
  3
*X108
  1

  0
LINE
  5
26DD2
330
26DD1
100
AcDbEntity
  8
0
  6
CONTINUOUS
100
AcDbLine
 10
3.418023043697893
 20
7.251849696850613
 30
0.0
 11
4.929273346838536
 21
8.763099999991255
 31
0.0
  0
LINE
  5
26DD3
330
26DD1
100
AcDbEntity
  8
0
  6
CONTINUOUS
100
AcDbLine
 10
1.483656411257782
 20
4.643963855330318
 30
0.0
 11
5.60279255591872
 21
8.763099999991255
 31
0.0
  0
LINE
  5
26DD4
330
26DD1
100
AcDbEntity
  8
0
  6
CONTINUOUS
100
AcDbLine
 10
1.755053947328235
 20
4.241842182320584
 30
0.0
 11
6.276311764998907
 21
8.763099999991255
 31
0.0
  0
LINE
  5
26DD5
330
26DD1
100
AcDbEntity
  8
0
  6
CONTINUOUS
100
AcDbLine
 10
2.026451483398688
 20
3.839720509310849
 30
0.0
 11
4.441040904851878
 21
6.254309930764039
 31
0.0
  0
LINE
  5
26DD6
330
26DD1
100
AcDbEntity
  8
0
  6
CONTINUOUS
100
AcDbLine
 10
2.297849019469139
 20
3.437598836301114
 30
0.0
 11
3.321765168359338
 21
4.461514985191313
 31
0.0
  0
LINE
  5
26DD7
330
26DD1
100
AcDbEntity
  8
0
  6
CONTINUOUS
100
AcDbLine
 10
2.569246555539591
 20
3.03547716329138
 30
0.0
 11
3.593163397972743
 21
4.059394005724531
 31
0.0
  0
LINE
  5
26DD8
330
26DD1
100
AcDbEntity
  8
0
  6
CONTINUOUS
100
AcDbLine
 10
2.840644091610043
 20
2.633355490281646
 30
0.0
 11
3.864561627586149
 21
3.657273026257751
 31
0.0
  0
LINE
  5
26DD9
330
26DD1
100
AcDbEntity
  8
0
  6
CONTINUOUS
100
AcDbLine
 10
3.112041627680496
 20
2.231233817271911
 30
0.0
 11
4.135959857199554
 21
3.25515204679097
 31
0.0
  0
LINE
  5
26DDA
330
26DD1
100
AcDbEntity
  8
0
  6
CONTINUOUS
100
AcDbLine
 10
3.383439163750948
 20
1.829112144262177
 30
0.0
 11
4.40735808681296
 21
2.853031067324189
 31
0.0
  0
LINE
  5
26DDB
330
26DD1
100
AcDbEntity
  8
0
  6
CONTINUOUS
100
AcDbLine
 10
3.654836699821399
 20
1.426990471252442
 30
0.0
 11
4.678756316426365
 21
2.450910087857407
 31
0.0
  0
LINE
  5
26DDC
330
26DD1
100
AcDbEntity
  8
0
  6
CONTINUOUS
100
AcDbLine
 10
3.926234235891853
 20
1.024868798242709
 30
0.0
 11
4.95015454603977
 21
2.048789108390626
 31
0.0
  0
LINE
  5
26DDD
330
26DD1
100
AcDbEntity
  8
0
  6
CONTINUOUS
100
AcDbLine
 10
4.197631771962304
 20
0.6227471252329737
 30
0.0
 11
5.221552775653176
 21
1.646668128923846
 31
0.0
  0
LINE
  5
26DDE
330
26DD1
100
AcDbEntity
  8
0
  6
CONTINUOUS
100
AcDbLine
 10
8.715877546767851
 20
7.835069736359266
 30
0.0
 11
9.435953450375058
 21
8.555145639966472
 31
0.0
  0
LINE
  5
26DDF
330
26DD1
100
AcDbEntity
  8
0
  6
CONTINUOUS
100
AcDbLine
 10
8.170620868422267
 20
6.616293848933497
 30
0.0
 11
9.644120833743461
 21
8.08979381425469
 31
0.0
  0
LINE
  5
26DE0
330
26DD1
100
AcDbEntity
  8
0
  6
CONTINUOUS
100
AcDbLine
 10
7.625364190076684
 20
5.397517961507727
 30
0.0
 11
9.852288217111864
 21
7.624441988542907
 31
0.0
  0
LINE
  5
26DE1
330
26DD1
100
AcDbEntity
  8
0
  6
CONTINUOUS
100
AcDbLine
 10
7.080107511731101
 20
4.178742074081957
 30
0.0
 11
10.06045560048027
 21
7.159090162831124
 31
0.0
  0
LINE
  5
26DE2
330
26DD1
100
AcDbEntity
  8
0
  6
CONTINUOUS
100
AcDbLine
 10
6.534850833385518
 20
2.959966186656187
 30
0.0
 11
10.26862298384867
 21
6.693738337119342
 31
0.0
  0
LINE
  5
26DE3
330
26DD1
100
AcDbEntity
  8
0
  6
CONTINUOUS
100
AcDbLine
 10
4.469029308032756
 20
0.2206254522232385
 30
0.0
 11
5.492951005266582
 21
1.244547149457064
 31
0.0
  0
LINE
  5
26DE4
330
26DD1
100
AcDbEntity
  8
0
  6
CONTINUOUS
100
AcDbLine
 10
5.989594155039935
 20
1.741190299230417
 30
0.0
 11
8.806950407233131
 21
4.558546551423613
 31
0.0
  0
LINE
  5
26DE5
330
26DD1
100
AcDbEntity
  8
0
  6
CONTINUOUS
100
AcDbLine
 10
9.401251593263643
 20
5.152847737454126
 30
0.0
 11
10.47679036721708
 21
6.228386511407559
 31
0.0
  0
LINE
  5
26DE6
330
26DD1
100
AcDbEntity
  8
0
  6
CONTINUOUS
100
AcDbLine
 10
4.921837203428691
 20
-0.0000858614610131
 30
0.0
 11
8.592923064886001
 21
3.670999999996297
 31
0.0
  0
LINE
  5
26DE7
330
26DD1
100
AcDbEntity
  8
0
  6
CONTINUOUS
100
AcDbLine
 10
9.609390446785305
 20
4.6874673818956
 30
0.0
 11
10.68495775058548
 21
5.763034685695775
 31
0.0
  0
LINE
  5
26DE8
330
26DD1
100
AcDbEntity
  8
0
  6
CONTINUOUS
100
AcDbLine
 10
5.595387755019432
 20
-0.0000545189504582
 30
0.0
 11
7.716137258923768
 21
2.120694984953879
 31
0.0
  0
LINE
  5
26DE9
330
26DD1
100
AcDbEntity
  8
0
  6
CONTINUOUS
100
AcDbLine
 10
6.268938306610172
 20
-0.000023176439905
 30
0.0
 11
7.170485805526503
 21
0.9015243224764267
 31
0.0
  0
LINE
  5
26DEA
330
26DD1
100
AcDbEntity
  8
0
  6
CONTINUOUS
100
AcDbLine
 10
7.963842273967511
 20
2.368399999997621
 30
0.0
 11
9.266442273966188
 21
3.670999999996297
 31
0.0
  0
LINE
  5
26DEB
330
26DD1
100
AcDbEntity
  8
0
  6
CONTINUOUS
100
AcDbLine
 10
8.637361483047696
 20
2.368399999997621
 30
0.0
 11
9.939961483046375
 21
3.670999999996297
 31
0.0
  0
LINE
  5
26DEC
330
26DD1
100
AcDbEntity
  8
0
  6
CONTINUOUS
100
AcDbLine
 10
9.817529300306965
 20
4.222087026337075
 30
0.0
 11
10.89312513395388
 21
5.297682859983993
 31
0.0
  0
LINE
  5
26DED
330
26DD1
100
AcDbEntity
  8
0
  6
CONTINUOUS
100
AcDbLine
 10
10.02566815382863
 20
3.756706670778549
 30
0.0
 11
11.10129251732229
 21
4.832331034272211
 31
0.0
  0
LINE
  5
26DEE
330
26DD1
100
AcDbEntity
  8
0
  6
CONTINUOUS
100
AcDbLine
 10
9.310880692127883
 20
2.368399999997621
 30
0.0
 11
11.30945990069069
 21
4.366979208560428
 31
0.0
  0
LINE
  5
26DEF
330
26DD1
100
AcDbEntity
  8
0
  6
CONTINUOUS
100
AcDbLine
 10
9.98439990120807
 20
2.36839999999762
 30
0.0
 11
11.5176272840591
 21
3.901627382848645
 31
0.0
  0
LINE
  5
26DF0
330
26DD1
100
AcDbEntity
  8
0
  6
CONTINUOUS
100
AcDbLine
 10
10.65037369446246
 20
2.36085458417182
 30
0.0
 11
11.7257946674275
 21
3.436275557136862
 31
0.0
  0
LINE
  5
26DF1
330
26DD1
100
AcDbEntity
  8
0
  6
CONTINUOUS
100
AcDbLine
 10
10.85847197087848
 20
1.895433651507656
 30
0.0
 11
11.9339620507959
 21
2.97092373142508
 31
0.0
  0
LINE
  5
26DF2
330
26DD1
100
AcDbEntity
  8
0
  6
CONTINUOUS
100
AcDbLine
 10
11.0665702472945
 20
1.430012718843491
 30
0.0
 11
12.14212943416431
 21
2.505571905713296
 31
0.0
  0
LINE
  5
26DF3
330
26DD1
100
AcDbEntity
  8
0
  6
CONTINUOUS
100
AcDbLine
 10
11.27466852371052
 20
0.9645917861793256
 30
0.0
 11
12.35029681753271
 21
2.040220080001513
 31
0.0
  0
LINE
  5
26DF4
330
26DD1
100
AcDbEntity
  8
0
  6
CONTINUOUS
100
AcDbLine
 10
11.48276680012654
 20
0.4991708535151611
 30
0.0
 11
12.55846420090111
 21
1.57486825428973
 31
0.0
  0
LINE
  5
26DF5
330
26DD1
100
AcDbEntity
  8
0
  6
CONTINUOUS
100
AcDbLine
 10
11.69086507654257
 20
0.0337499208509957
 30
0.0
 11
12.76663158426952
 21
1.109516428577947
 31
0.0
  0
LINE
  5
26DF6
330
26DD1
100
AcDbEntity
  8
0
  6
CONTINUOUS
100
AcDbLine
 10
12.33057447873954
 20
-0.0000598860322123
 30
0.0
 11
12.97479896763792
 21
0.6441646028661663
 31
0.0
  0
LINE
  5
26DF7
330
26DD1
100
AcDbEntity
  8
0
  6
CONTINUOUS
100
AcDbLine
 10
13.00413694809395
 20
-0.0000166257579952
 30
0.0
 11
13.18296635100632
 21
0.1788127771543824
 31
0.0
  0
LINE
  5
26DF8
330
26DD1
100
AcDbEntity
  8
0
  6
CONTINUOUS
100
AcDbLine
 10
4.772852165289667
 20
-0.000092794222212
 30
0.0
 11
4.296495091028902
 21
0.4762642800385528
 31
0.0
  0
LINE
  5
26DF9
330
26DD1
100
AcDbEntity
  8
0
  6
CONTINUOUS
100
AcDbLine
 10
5.446340034776103
 20
-0.0000614546284616
 30
0.0
 11
2.898195908335625
 21
2.548082671812017
 31
0.0
  0
LINE
  5
26DFA
330
26DD1
100
AcDbEntity
  8
0
  6
CONTINUOUS
100
AcDbLine
 10
6.119827904262539
 20
-0.0000301150347113
 30
0.0
 11
1.499896725642348
 21
4.61990106358548
 31
0.0
  0
LINE
  5
26DFB
330
26DD1
100
AcDbEntity
  8
0
  6
CONTINUOUS
100
AcDbLine
 10
6.775136745476159
 20
0.0181802528318542
 30
0.0
 11
5.699826040202669
 21
1.093490958105344
 31
0.0
  0
LINE
  5
26DFC
330
26DD1
100
AcDbEntity
  8
0
  6
CONTINUOUS
100
AcDbLine
 10
6.983376846288489
 20
0.4834593610997118
 30
0.0
 11
5.908008617934405
 21
1.558827589453796
 31
0.0
  0
LINE
  5
26DFD
330
26DD1
100
AcDbEntity
  8
0
  6
CONTINUOUS
100
AcDbLine
 10
5.377063484962296
 20
1.416253513345719
 30
0.0
 11
1.702276957014131
 21
5.091040041293883
 31
0.0
  0
LINE
  5
26DFE
330
26DD1
100
AcDbEntity
  8
0
  6
CONTINUOUS
100
AcDbLine
 10
3.978745891735324
 20
3.488090315652877
 30
0.0
 11
2.000373521109399
 21
5.466462686278803
 31
0.0
  0
LINE
  5
26DFF
330
26DD1
100
AcDbEntity
  8
0
  6
CONTINUOUS
100
AcDbLine
 10
7.191616947100819
 20
0.948738469367568
 30
0.0
 11
6.11619119566614
 21
2.024164220802247
 31
0.0
  0
LINE
  5
26E00
330
26DD1
100
AcDbEntity
  8
0
  6
CONTINUOUS
100
AcDbLine
 10
7.399857047913149
 20
1.414017577635424
 30
0.0
 11
6.324373773397875
 21
2.489500852150698
 31
0.0
  0
LINE
  5
26E01
330
26DD1
100
AcDbEntity
  8
0
  6
CONTINUOUS
100
AcDbLine
 10
7.608097148725479
 20
1.879296685903281
 30
0.0
 11
6.53255635112961
 21
2.95483748349915
 31
0.0
  0
LINE
  5
26E02
330
26DD1
100
AcDbEntity
  8
0
  6
CONTINUOUS
100
AcDbLine
 10
7.816337249537808
 20
2.344575794171138
 30
0.0
 11
6.740738928861345
 21
3.420174114847601
 31
0.0
  0
LINE
  5
26E03
330
26DD1
100
AcDbEntity
  8
0
  6
CONTINUOUS
100
AcDbLine
 10
3.310241080789734
 20
4.830114335678653
 30
0.0
 11
2.298470085204666
 21
5.84188533126372
 31
0.0
  0
LINE
  5
26E04
330
26DD1
100
AcDbEntity
  8
0
  6
CONTINUOUS
100
AcDbLine
 10
3.60832983563551
 20
5.205544789913063
 30
0.0
 11
2.596566649299935
 21
6.217307976248638
 31
0.0
  0
LINE
  5
26E05
330
26DD1
100
AcDbEntity
  8
0
  6
CONTINUOUS
100
AcDbLine
 10
3.906418590481286
 20
5.580975244147473
 30
0.0
 11
2.894663213395203
 21
6.592730621233557
 31
0.0
  0
LINE
  5
26E06
330
26DD1
100
AcDbEntity
  8
0
  6
CONTINUOUS
100
AcDbLine
 10
4.204507345327062
 20
5.956405698381884
 30
0.0
 11
3.192759777490472
 21
6.968153266218474
 31
0.0
  0
LINE
  5
26E07
330
26DD1
100
AcDbEntity
  8
0
  6
CONTINUOUS
100
AcDbLine
 10
8.466032252791512
 20
2.368399999997621
 30
0.0
 11
6.948921506593081
 21
3.885510746196053
 31
0.0
  0
LINE
  5
26E08
330
26DD1
100
AcDbEntity
  8
0
  6
CONTINUOUS
100
AcDbLine
 10
9.139551461871699
 20
2.36839999999762
 30
0.0
 11
7.157104084324816
 21
4.350847377544504
 31
0.0
  0
LINE
  5
26E09
330
26DD1
100
AcDbEntity
  8
0
  6
CONTINUOUS
100
AcDbLine
 10
4.502596100172839
 20
6.331836152616295
 30
0.0
 11
3.49085634158574
 21
7.343575911203393
 31
0.0
  0
LINE
  5
26E0A
330
26DD1
100
AcDbEntity
  8
0
  6
CONTINUOUS
100
AcDbLine
 10
4.800684855018615
 20
6.707266606850705
 30
0.0
 11
3.788952905681008
 21
7.718998556188312
 31
0.0
  0
LINE
  5
26E0B
330
26DD1
100
AcDbEntity
  8
0
  6
CONTINUOUS
100
AcDbLine
 10
12.18154012887317
 20
-0.0000694579236642
 30
0.0
 11
11.32140332908496
 21
0.8600673418645499
 31
0.0
  0
LINE
  5
26E0C
330
26DD1
100
AcDbEntity
  8
0
  6
CONTINUOUS
100
AcDbLine
 10
12.85501608323566
 20
-0.0000262032059659
 30
0.0
 11
10.77672456435345
 21
2.078265315676246
 31
0.0
  0
LINE
  5
26E0D
330
26DD1
100
AcDbEntity
  8
0
  6
CONTINUOUS
100
AcDbLine
 10
9.813070670951886
 20
2.36839999999762
 30
0.0
 11
8.51047067095321
 21
3.670999999996297
 31
0.0
  0
LINE
  5
26E0E
330
26DD1
100
AcDbEntity
  8
0
  6
CONTINUOUS
100
AcDbLine
 10
10.48658988003207
 20
2.36839999999762
 30
0.0
 11
9.183989880033396
 21
3.670999999996297
 31
0.0
  0
LINE
  5
26E0F
330
26DD1
100
AcDbEntity
  8
0
  6
CONTINUOUS
100
AcDbLine
 10
8.441048632286794
 20
3.740422038662712
 30
0.0
 11
7.365286662056551
 21
4.816184008892956
 31
0.0
  0
LINE
  5
26E10
330
26DD1
100
AcDbEntity
  8
0
  6
CONTINUOUS
100
AcDbLine
 10
8.649187485808454
 20
4.205802394221237
 30
0.0
 11
7.573469239788285
 21
5.281520640241407
 31
0.0
  0
LINE
  5
26E11
330
26DD1
100
AcDbEntity
  8
0
  6
CONTINUOUS
100
AcDbLine
 10
5.098773609864391
 20
7.082697061085115
 30
0.0
 11
4.087049469776277
 21
8.09442120117323
 31
0.0
  0
LINE
  5
26E12
330
26DD1
100
AcDbEntity
  8
0
  6
CONTINUOUS
100
AcDbLine
 10
5.396862364710167
 20
7.458127515319526
 30
0.0
 11
4.385146033871544
 21
8.469843846158149
 31
0.0
  0
LINE
  5
26E13
330
26DD1
100
AcDbEntity
  8
0
  6
CONTINUOUS
100
AcDbLine
 10
13.04801363231285
 20
0.4804954567970334
 30
0.0
 11
9.85750908911358
 21
3.670999999996297
 31
0.0
  0
LINE
  5
26E14
330
26DD1
100
AcDbEntity
  8
0
  6
CONTINUOUS
100
AcDbLine
 10
8.857326339330116
 20
4.671182749779763
 30
0.0
 11
7.781651817520021
 21
5.746857271589858
 31
0.0
  0
LINE
  5
26E15
330
26DD1
100
AcDbEntity
  8
0
  6
CONTINUOUS
100
AcDbLine
 10
5.694951119555943
 20
7.833557969553937
 30
0.0
 11
4.765409089118624
 21
8.763099999991255
 31
0.0
  0
LINE
  5
26E16
330
26DD1
100
AcDbEntity
  8
0
  6
CONTINUOUS
100
AcDbLine
 10
12.50286117236978
 20
1.699167125820288
 30
0.0
 11
9.68611877250287
 21
4.515909525687196
 31
0.0
  0
LINE
  5
26E17
330
26DD1
100
AcDbEntity
  8
0
  6
CONTINUOUS
100
AcDbLine
 10
9.065465192851777
 20
5.136563105338288
 30
0.0
 11
7.989834395251757
 21
6.21219390293831
 31
0.0
  0
LINE
  5
26E18
330
26DD1
100
AcDbEntity
  8
0
  6
CONTINUOUS
100
AcDbLine
 10
5.993039874401719
 20
8.208988423788346
 30
0.0
 11
5.43892829819881
 21
8.763099999991255
 31
0.0
  0
LINE
  5
26E19
330
26DD1
100
AcDbEntity
  8
0
  6
CONTINUOUS
100
AcDbLine
 10
11.95770871242671
 20
2.917838794843543
 30
0.0
 11
8.19801697298349
 21
6.677530534286761
 31
0.0
  0
LINE
  5
26E1A
330
26DD1
100
AcDbEntity
  8
0
  6
CONTINUOUS
100
AcDbLine
 10
6.291128629247495
 20
8.584418878022756
 30
0.0
 11
6.112447507278997
 21
8.763099999991255
 31
0.0
  0
LINE
  5
26E1B
330
26DD1
100
AcDbEntity
  8
0
  6
CONTINUOUS
100
AcDbLine
 10
11.41255625248364
 20
4.136510463866797
 30
0.0
 11
8.406199550715227
 21
7.142867165635211
 31
0.0
  0
LINE
  5
26E1C
330
26DD1
100
AcDbEntity
  8
0
  6
CONTINUOUS
100
AcDbLine
 10
10.86740379254057
 20
5.355182132890051
 30
0.0
 11
8.614382128446962
 21
7.608203796983664
 31
0.0
  0
LINE
  5
26E1D
330
26DD1
100
AcDbEntity
  8
0
  6
CONTINUOUS
100
AcDbLine
 10
10.3222513325975
 20
6.573853801913305
 30
0.0
 11
8.822564706178696
 21
8.073540428332114
 31
0.0
  0
LINE
  5
26E1E
330
26DD1
100
AcDbEntity
  8
0
  6
CONTINUOUS
100
AcDbLine
 10
9.777098872654436
 20
7.792525470936562
 30
0.0
 11
9.030747283910433
 21
8.538877059680566
 31
0.0
  0
ENDBLK
  5
26F60
330
26DD1
100
AcDbEntity
  8
0
100
AcDbBlockEnd
  0
BLOCK
  5
26F61
330
26E1F
100
AcDbEntity
  8
0
100
AcDbBlockBegin
  2
*X109
 70
     1
 10
0.0
 20
0.0
 30
0.0
  3
*X109
  1

  0
LINE
  5
26E20
330
26E1F
100
AcDbEntity
  8
0
  6
CONTINUOUS
100
AcDbLine
 10
10.67292308101235
 20
8.445076852443387
 30
0.0
 11
10.99094622856022
 21
8.763099999991255
 31
0.0
  0
LINE
  5
26E21
330
26E1F
100
AcDbEntity
  8
0
  6
CONTINUOUS
100
AcDbLine
 10
10.87250383178748
 20
7.971138394138331
 30
0.0
 11
11.6644654376404
 21
8.763099999991255
 31
0.0
  0
LINE
  5
26E22
330
26E1F
100
AcDbEntity
  8
0
  6
CONTINUOUS
100
AcDbLine
 10
11.07208458256261
 20
7.497199935833273
 30
0.0
 11
12.12126590876355
 21
8.546381262034211
 31
0.0
  0
LINE
  5
26E23
330
26E1F
100
AcDbEntity
  8
0
  6
CONTINUOUS
100
AcDbLine
 10
11.27166533333774
 20
7.023261477528216
 30
0.0
 11
12.32085164573666
 21
8.072447789927136
 31
0.0
  0
LINE
  5
26E24
330
26E1F
100
AcDbEntity
  8
0
  6
CONTINUOUS
100
AcDbLine
 10
11.47124608411287
 20
6.549323019223158
 30
0.0
 11
12.52043738270977
 21
7.59851431782006
 31
0.0
  0
LINE
  5
26E25
330
26E1F
100
AcDbEntity
  8
0
  6
CONTINUOUS
100
AcDbLine
 10
11.670826834888
 20
6.075384560918101
 30
0.0
 11
12.72002311968288
 21
7.124580845712984
 31
0.0
  0
LINE
  5
26E26
330
26E1F
100
AcDbEntity
  8
0
  6
CONTINUOUS
100
AcDbLine
 10
11.87040758566313
 20
5.601446102613043
 30
0.0
 11
12.91960885665599
 21
6.650647373605907
 31
0.0
  0
LINE
  5
26E27
330
26E1F
100
AcDbEntity
  8
0
  6
CONTINUOUS
100
AcDbLine
 10
12.06998833643825
 20
5.127507644307986
 30
0.0
 11
13.1191945936291
 21
6.176713901498832
 31
0.0
  0
LINE
  5
26E28
330
26E1F
100
AcDbEntity
  8
0
  6
CONTINUOUS
100
AcDbLine
 10
12.26956908721338
 20
4.65356918600293
 30
0.0
 11
13.31878033060221
 21
5.702780429391757
 31
0.0
  0
LINE
  5
26E29
330
26E1F
100
AcDbEntity
  8
0
  6
CONTINUOUS
100
AcDbLine
 10
12.46914983798851
 20
4.179630727697873
 30
0.0
 11
13.51836606757532
 21
5.228846957284683
 31
0.0
  0
LINE
  5
26E2A
330
26E1F
100
AcDbEntity
  8
0
  6
CONTINUOUS
100
AcDbLine
 10
12.66873058876364
 20
3.705692269392816
 30
0.0
 11
13.71795180454843
 21
4.754913485177607
 31
0.0
  0
LINE
  5
26E2B
330
26E1F
100
AcDbEntity
  8
0
  6
CONTINUOUS
100
AcDbLine
 10
12.86831133953877
 20
3.231753811087759
 30
0.0
 11
13.91753754152154
 21
4.280980013070531
 31
0.0
  0
LINE
  5
26E2C
330
26E1F
100
AcDbEntity
  8
0
  6
CONTINUOUS
100
AcDbLine
 10
13.0678920903139
 20
2.757815352782702
 30
0.0
 11
14.11712327849465
 21
3.807046540963456
 31
0.0
  0
LINE
  5
26E2D
330
26E1F
100
AcDbEntity
  8
0
  6
CONTINUOUS
100
AcDbLine
 10
13.26747284108903
 20
2.283876894477644
 30
0.0
 11
14.31670901546777
 21
3.333113068856379
 31
0.0
  0
LINE
  5
26E2E
330
26E1F
100
AcDbEntity
  8
0
  6
CONTINUOUS
100
AcDbLine
 10
16.36767838827179
 20
8.751678487061342
 30
0.0
 11
16.50332410898388
 21
8.887324207773432
 31
0.0
  0
LINE
  5
26E2F
330
26E1F
100
AcDbEntity
  8
0
  6
CONTINUOUS
100
AcDbLine
 10
15.96190732182191
 20
7.67238821153127
 30
0.0
 11
16.68735328004734
 21
8.397834169756699
 31
0.0
  0
LINE
  5
26E30
330
26E1F
100
AcDbEntity
  8
0
  6
CONTINUOUS
100
AcDbLine
 10
15.55613625537202
 20
6.593097936001196
 30
0.0
 11
16.87138245111079
 21
7.908344131739965
 31
0.0
  0
LINE
  5
26E31
330
26E1F
100
AcDbEntity
  8
0
  6
CONTINUOUS
100
AcDbLine
 10
15.15036518892213
 20
5.513807660471122
 30
0.0
 11
17.05541162217424
 21
7.418854093723231
 31
0.0
  0
LINE
  5
26E32
330
26E1F
100
AcDbEntity
  8
0
  6
CONTINUOUS
100
AcDbLine
 10
14.74459412247225
 20
4.434517384941048
 30
0.0
 11
17.2394407932377
 21
6.929364055706499
 31
0.0
  0
LINE
  5
26E33
330
26E1F
100
AcDbEntity
  8
0
  6
CONTINUOUS
100
AcDbLine
 10
14.33882305602236
 20
3.355227109410975
 30
0.0
 11
17.42346996430115
 21
6.439874017689766
 31
0.0
  0
LINE
  5
26E34
330
26E1F
100
AcDbEntity
  8
0
  6
CONTINUOUS
100
AcDbLine
 10
13.46705359186416
 20
1.809938436172586
 30
0.0
 11
16.0819338255367
 21
4.424818669845129
 31
0.0
  0
LINE
  5
26E35
330
26E1F
100
AcDbEntity
  8
0
  6
CONTINUOUS
100
AcDbLine
 10
16.63283254238972
 20
4.975717386698149
 30
0.0
 11
17.60749913536461
 21
5.950383979673033
 31
0.0
  0
LINE
  5
26E36
330
26E1F
100
AcDbEntity
  8
0
  6
CONTINUOUS
100
AcDbLine
 10
13.66663434263929
 20
1.335999977867529
 30
0.0
 11
15.67604797733754
 21
3.345413612565779
 31
0.0
  0
LINE
  5
26E37
330
26E1F
100
AcDbEntity
  8
0
  6
CONTINUOUS
100
AcDbLine
 10
13.86621509341442
 20
0.8620615195624723
 30
0.0
 11
15.27016212913838
 21
2.26600855528643
 31
0.0
  0
LINE
  5
26E38
330
26E1F
100
AcDbEntity
  8
0
  6
CONTINUOUS
100
AcDbLine
 10
16.81682257348267
 20
4.486188208710908
 30
0.0
 11
17.79152830642806
 21
5.460893941656299
 31
0.0
  0
LINE
  5
26E39
330
26E1F
100
AcDbEntity
  8
0
  6
CONTINUOUS
100
AcDbLine
 10
17.00081260457561
 20
3.996659030723667
 30
0.0
 11
17.97555747749151
 21
4.971403903639565
 31
0.0
  0
LINE
  5
26E3A
330
26E1F
100
AcDbEntity
  8
0
  6
CONTINUOUS
100
AcDbLine
 10
20.74362343514722
 20
8.412989070375462
 30
0.0
 11
21.09373436476302
 21
8.763099999991256
 31
0.0
  0
LINE
  5
26E3B
330
26E1F
100
AcDbEntity
  8
0
  6
CONTINUOUS
100
AcDbLine
 10
20.25401257174777
 20
7.249858997895826
 30
0.0
 11
21.7672535738432
 21
8.763099999991255
 31
0.0
  0
LINE
  5
26E3C
330
26E1F
100
AcDbEntity
  8
0
  6
CONTINUOUS
100
AcDbLine
 10
14.06579584418955
 20
0.3881230612574149
 30
0.0
 11
14.86427628093921
 21
1.186603498007082
 31
0.0
  0
LINE
  5
26E3D
330
26E1F
100
AcDbEntity
  8
0
  6
CONTINUOUS
100
AcDbLine
 10
14.26537659496467
 20
-0.0858153970476412
 30
0.0
 11
14.45839043274005
 21
0.1071984407277329
 31
0.0
  0
LINE
  5
26E3E
330
26E1F
100
AcDbEntity
  8
0
  6
CONTINUOUS
100
AcDbLine
 10
17.18480263566856
 20
3.507129852736426
 30
0.0
 11
18.15958664855496
 21
4.481913865622833
 31
0.0
  0
LINE
  5
26E3F
330
26E1F
100
AcDbEntity
  8
0
  6
CONTINUOUS
100
AcDbLine
 10
17.3687926667615
 20
3.017600674749186
 30
0.0
 11
18.34361581961842
 21
3.9924238276061
 31
0.0
  0
LINE
  5
26E40
330
26E1F
100
AcDbEntity
  8
0
  6
CONTINUOUS
100
AcDbLine
 10
19.76440170834832
 20
6.086728925416191
 30
0.0
 11
22.33924590259489
 21
8.661573119662755
 31
0.0
  0
LINE
  5
26E41
330
26E1F
100
AcDbEntity
  8
0
  6
CONTINUOUS
100
AcDbLine
 10
19.27479084494887
 20
4.923598852936555
 30
0.0
 11
21.84929622842713
 21
7.498104236414807
 31
0.0
  0
LINE
  5
26E42
330
26E1F
100
AcDbEntity
  8
0
  6
CONTINUOUS
100
AcDbLine
 10
17.55278269785445
 20
2.528071496761945
 30
0.0
 11
18.52764499068187
 21
3.502933789589366
 31
0.0
  0
LINE
  5
26E43
330
26E1F
100
AcDbEntity
  8
0
  6
CONTINUOUS
100
AcDbLine
 10
18.78517998154942
 20
3.760468780456919
 30
0.0
 11
21.35934655425936
 21
6.33463535316686
 31
0.0
  0
LINE
  5
26E44
330
26E1F
100
AcDbEntity
  8
0
  6
CONTINUOUS
100
AcDbLine
 10
17.73677272894739
 20
2.038542318774704
 30
0.0
 11
20.8693968800916
 21
5.171166469918914
 31
0.0
  0
LINE
  5
26E45
330
26E1F
100
AcDbEntity
  8
0
  6
CONTINUOUS
100
AcDbLine
 10
17.92076276004034
 20
1.549013140787464
 30
0.0
 11
20.37944720592384
 21
4.007697586670968
 31
0.0
  0
LINE
  5
26E46
330
26E1F
100
AcDbEntity
  8
0
  6
CONTINUOUS
100
AcDbLine
 10
18.10475279113329
 20
1.059483962800223
 30
0.0
 11
19.88949753175608
 21
2.84422870342302
 31
0.0
  0
LINE
  5
26E47
330
26E1F
100
AcDbEntity
  8
0
  6
CONTINUOUS
100
AcDbLine
 10
18.28874282222623
 20
0.5699547848129822
 30
0.0
 11
19.39954785758832
 21
1.680759820175074
 31
0.0
  0
LINE
  5
26E48
330
26E1F
100
AcDbEntity
  8
0
  6
CONTINUOUS
100
AcDbLine
 10
18.47273285331918
 20
0.0804256068257416
 30
0.0
 11
18.90959818342056
 21
0.517290936927127
 31
0.0
  0
LINE
  5
26E49
330
26E1F
100
AcDbEntity
  8
0
  6
CONTINUOUS
100
AcDbLine
 10
14.3590401358224
 20
-0.1570118376323384
 30
0.0
 11
14.24903296539946
 21
-0.0470046672093929
 31
0.0
  0
LINE
  5
26E4A
330
26E1F
100
AcDbEntity
  8
0
  6
CONTINUOUS
100
AcDbLine
 10
14.54309291258661
 20
0.332454594683643
 30
0.0
 11
13.75908329123172
 21
1.116464216038529
 31
0.0
  0
LINE
  5
26E4B
330
26E1F
100
AcDbEntity
  8
0
  6
CONTINUOUS
100
AcDbLine
 10
14.72714568935081
 20
0.8219210269996244
 30
0.0
 11
13.26913361706399
 21
2.27993309928645
 31
0.0
  0
LINE
  5
26E4C
330
26E1F
100
AcDbEntity
  8
0
  6
CONTINUOUS
100
AcDbLine
 10
14.91119846611502
 20
1.311387459315606
 30
0.0
 11
12.77918394289625
 21
3.443401982534371
 31
0.0
  0
LINE
  5
26E4D
330
26E1F
100
AcDbEntity
  8
0
  6
CONTINUOUS
100
AcDbLine
 10
15.09525124287922
 20
1.800853891631587
 30
0.0
 11
12.28923426872852
 21
4.606870865782293
 31
0.0
  0
LINE
  5
26E4E
330
26E1F
100
AcDbEntity
  8
0
  6
CONTINUOUS
100
AcDbLine
 10
15.27930401964343
 20
2.290320323947569
 30
0.0
 11
11.79928459456078
 21
5.770339749030213
 31
0.0
  0
LINE
  5
26E4F
330
26E1F
100
AcDbEntity
  8
0
  6
CONTINUOUS
100
AcDbLine
 10
15.46335679640763
 20
2.77978675626355
 30
0.0
 11
14.48885470994921
 21
3.754288842721972
 31
0.0
  0
LINE
  5
26E50
330
26E1F
100
AcDbEntity
  8
0
  6
CONTINUOUS
100
AcDbLine
 10
13.88507249233704
 20
4.358071060334137
 30
0.0
 11
11.30933492039305
 21
6.933808632278135
 31
0.0
  0
LINE
  5
26E51
330
26E1F
100
AcDbEntity
  8
0
  6
CONTINUOUS
100
AcDbLine
 10
18.75840522805855
 20
0.1582575336928151
 30
0.0
 11
18.25383727664818
 21
0.6628254851031863
 31
0.0
  0
LINE
  5
26E52
330
26E1F
100
AcDbEntity
  8
0
  6
CONTINUOUS
100
AcDbLine
 10
15.64740957317184
 20
3.269253188579531
 30
0.0
 11
14.67288388101266
 21
4.243778880738705
 31
0.0
  0
LINE
  5
26E53
330
26E1F
100
AcDbEntity
  8
0
  6
CONTINUOUS
100
AcDbLine
 10
13.39509276772158
 20
5.521569994029786
 30
0.0
 11
10.81938524622531
 21
8.097277515526056
 31
0.0
  0
LINE
  5
26E54
330
26E1F
100
AcDbEntity
  8
0
  6
CONTINUOUS
100
AcDbLine
 10
18.95798597883369
 20
0.6321959919978686
 30
0.0
 11
17.84825644852853
 21
1.741925522303024
 31
0.0
  0
LINE
  5
26E55
330
26E1F
100
AcDbEntity
  8
0
  6
CONTINUOUS
100
AcDbLine
 10
19.15756672960882
 20
1.106134450302922
 30
0.0
 11
17.44267562040888
 21
2.821025559502861
 31
0.0
  0
LINE
  5
26E56
330
26E1F
100
AcDbEntity
  8
0
  6
CONTINUOUS
100
AcDbLine
 10
15.83146234993604
 20
3.758719620895513
 30
0.0
 11
14.85691305207612
 21
4.733268918755439
 31
0.0
  0
LINE
  5
26E57
330
26E1F
100
AcDbEntity
  8
0
  6
CONTINUOUS
100
AcDbLine
 10
16.01551512670025
 20
4.248186053211494
 30
0.0
 11
15.04094222313957
 21
5.222758956772172
 31
0.0
  0
LINE
  5
26E58
330
26E1F
100
AcDbEntity
  8
0
  6
CONTINUOUS
100
AcDbLine
 10
12.90511304310612
 20
6.685068927725435
 30
0.0
 11
10.8270819708403
 21
8.763099999991255
 31
0.0
  0
LINE
  5
26E59
330
26E1F
100
AcDbEntity
  8
0
  6
CONTINUOUS
100
AcDbLine
 10
12.41513331849066
 20
7.848567861421083
 30
0.0
 11
11.50060117992049
 21
8.763099999991255
 31
0.0
  0
LINE
  5
26E5A
330
26E1F
100
AcDbEntity
  8
0
  6
CONTINUOUS
100
AcDbLine
 10
19.35714748038395
 20
1.580072908607975
 30
0.0
 11
17.03709479228923
 21
3.900125596702697
 31
0.0
  0
LINE
  5
26E5B
330
26E1F
100
AcDbEntity
  8
0
  6
CONTINUOUS
100
AcDbLine
 10
19.55672823115909
 20
2.054011366913028
 30
0.0
 11
16.63151396416958
 21
4.979225633902534
 31
0.0
  0
LINE
  5
26E5C
330
26E1F
100
AcDbEntity
  8
0
  6
CONTINUOUS
100
AcDbLine
 10
16.19956790346445
 20
4.737652485527476
 30
0.0
 11
15.22497139420302
 21
5.712248994788904
 31
0.0
  0
LINE
  5
26E5D
330
26E1F
100
AcDbEntity
  8
0
  6
CONTINUOUS
100
AcDbLine
 10
16.38362068022866
 20
5.227118917843457
 30
0.0
 11
15.40900056526648
 21
6.201739032805637
 31
0.0
  0
LINE
  5
26E5E
330
26E1F
100
AcDbEntity
  8
0
  6
CONTINUOUS
100
AcDbLine
 10
19.75630898193422
 20
2.527949825218081
 30
0.0
 11
18.70774536448286
 21
3.576513442669441
 31
0.0
  0
LINE
  5
26E5F
330
26E1F
100
AcDbEntity
  8
0
  6
CONTINUOUS
100
AcDbLine
 10
19.95588973270936
 20
3.001888283523134
 30
0.0
 11
18.90726987211446
 21
4.050508144118028
 31
0.0
  0
LINE
  5
26E60
330
26E1F
100
AcDbEntity
  8
0
  6
CONTINUOUS
100
AcDbLine
 10
20.15547048348449
 20
3.475826741828186
 30
0.0
 11
19.10679437974606
 21
4.524502845566614
 31
0.0
  0
LINE
  5
26E61
330
26E1F
100
AcDbEntity
  8
0
  6
CONTINUOUS
100
AcDbLine
 10
20.35505123425962
 20
3.94976520013324
 30
0.0
 11
19.30631888737766
 21
4.998497547015201
 31
0.0
  0
LINE
  5
26E62
330
26E1F
100
AcDbEntity
  8
0
  6
CONTINUOUS
100
AcDbLine
 10
20.55463198503475
 20
4.423703658438292
 30
0.0
 11
19.50584339500926
 21
5.472492248463787
 31
0.0
  0
LINE
  5
26E63
330
26E1F
100
AcDbEntity
  8
0
  6
CONTINUOUS
100
AcDbLine
 10
18.37481191085755
 20
3.909446896294752
 30
0.0
 11
15.59302973632993
 21
6.691229070822371
 31
0.0
  0
LINE
  5
26E64
330
26E1F
100
AcDbEntity
  8
0
  6
CONTINUOUS
100
AcDbLine
 10
17.96904084440766
 20
4.988737171824825
 30
0.0
 11
15.77705890739338
 21
7.180719108839104
 31
0.0
  0
LINE
  5
26E65
330
26E1F
100
AcDbEntity
  8
0
  6
CONTINUOUS
100
AcDbLine
 10
17.56326977795777
 20
6.068027447354899
 30
0.0
 11
15.96108807845684
 21
7.670209146855838
 31
0.0
  0
LINE
  5
26E66
330
26E1F
100
AcDbEntity
  8
0
  6
CONTINUOUS
100
AcDbLine
 10
17.15749871150789
 20
7.147317722884972
 30
0.0
 11
16.14511724952029
 21
8.15969918487257
 31
0.0
  0
LINE
  5
26E67
330
26E1F
100
AcDbEntity
  8
0
  6
CONTINUOUS
100
AcDbLine
 10
16.751727645058
 20
8.226607998415046
 30
0.0
 11
16.32914642058374
 21
8.649189222889303
 31
0.0
  0
LINE
  5
26E68
330
26E1F
100
AcDbEntity
  8
0
  6
CONTINUOUS
100
AcDbLine
 10
20.75421273580989
 20
4.897642116743345
 30
0.0
 11
19.70536790264086
 21
5.946486949912374
 31
0.0
  0
LINE
  5
26E69
330
26E1F
100
AcDbEntity
  8
0
  6
CONTINUOUS
100
AcDbLine
 10
20.95379348658502
 20
5.371580575048398
 30
0.0
 11
19.90489241027246
 21
6.42048165136096
 31
0.0
  0
LINE
  5
26E6A
330
26E1F
100
AcDbEntity
  8
0
  6
CONTINUOUS
100
AcDbLine
 10
21.15337423736015
 20
5.845519033353452
 30
0.0
 11
20.10441691790406
 21
6.894476352809547
 31
0.0
  0
LINE
  5
26E6B
330
26E1F
100
AcDbEntity
  8
0
  6
CONTINUOUS
100
AcDbLine
 10
21.35295498813529
 20
6.319457491658505
 30
0.0
 11
20.30394142553566
 21
7.368471054258134
 31
0.0
  0
LINE
  5
26E6C
330
26E1F
100
AcDbEntity
  8
0
  6
CONTINUOUS
100
AcDbLine
 10
21.55253573891042
 20
6.793395949963558
 30
0.0
 11
20.50346593316726
 21
7.842465755706721
 31
0.0
  0
LINE
  5
26E6D
330
26E1F
100
AcDbEntity
  8
0
  6
CONTINUOUS
100
AcDbLine
 10
21.75211648968556
 20
7.267334408268612
 30
0.0
 11
20.70299044079886
 21
8.316460457155308
 31
0.0
  0
LINE
  5
26E6E
330
26E1F
100
AcDbEntity
  8
0
  6
CONTINUOUS
100
AcDbLine
 10
21.95169724046069
 20
7.741272866573663
 30
0.0
 11
20.9298701070431
 21
8.763099999991256
 31
0.0
  0
LINE
  5
26E6F
330
26E1F
100
AcDbEntity
  8
0
  6
CONTINUOUS
100
AcDbLine
 10
22.15127799123582
 20
8.215211324878716
 30
0.0
 11
21.60338931612328
 21
8.763099999991256
 31
0.0
  0
LINE
  5
26E70
330
26E1F
100
AcDbEntity
  8
0
  6
CONTINUOUS
100
AcDbLine
 10
22.35085874201096
 20
8.689149783183769
 30
0.0
 11
22.27690852520347
 21
8.763099999991255
 31
0.0
  0
ENDBLK
  5
26F62
330
26E1F
100
AcDbEntity
  8
0
100
AcDbBlockEnd
  0
BLOCK
  5
26F63
330
26E71
100
AcDbEntity
  8
0
100
AcDbBlockBegin
  2
*X110
 70
     1
 10
0.0
 20
0.0
 30
0.0
  3
*X110
  1

  0
LINE
  5
26E72
330
26E71
100
AcDbEntity
  8
0
  6
CONTINUOUS
100
AcDbLine
 10
23.19462913593892
 20
8.169917934846424
 30
0.0
 11
23.70775465517246
 21
8.683043454079957
 31
0.0
  0
LINE
  5
26E73
330
26E71
100
AcDbEntity
  8
0
  6
CONTINUOUS
100
AcDbLine
 10
22.64923161835078
 20
6.951001208178088
 30
0.0
 11
23.9159364069932
 21
8.217705996820516
 31
0.0
  0
LINE
  5
26E74
330
26E71
100
AcDbEntity
  8
0
  6
CONTINUOUS
100
AcDbLine
 10
22.10383410076263
 20
5.732084481509751
 30
0.0
 11
24.12411815881395
 21
7.752368539561078
 31
0.0
  0
LINE
  5
26E75
330
26E71
100
AcDbEntity
  8
0
  6
CONTINUOUS
100
AcDbLine
 10
21.55843658317447
 20
4.513167754841414
 30
0.0
 11
24.3322999106347
 21
7.287031082301639
 31
0.0
  0
LINE
  5
26E76
330
26E71
100
AcDbEntity
  8
0
  6
CONTINUOUS
100
AcDbLine
 10
21.01303906558632
 20
3.294251028173077
 30
0.0
 11
24.54048166245544
 21
6.821693625042199
 31
0.0
  0
LINE
  5
26E77
330
26E71
100
AcDbEntity
  8
0
  6
CONTINUOUS
100
AcDbLine
 10
20.46764154799817
 20
2.075334301504738
 30
0.0
 11
23.28571549467848
 21
4.89340824818505
 31
0.0
  0
LINE
  5
26E78
330
26E71
100
AcDbEntity
  8
0
  6
CONTINUOUS
100
AcDbLine
 10
19.92224403041002
 20
0.8564175748364002
 30
0.0
 11
22.74075865492779
 21
3.674932199354171
 31
0.0
  0
LINE
  5
26E79
330
26E71
100
AcDbEntity
  8
0
  6
CONTINUOUS
100
AcDbLine
 10
23.67305085490148
 20
5.280743608408048
 30
0.0
 11
24.74866341427619
 21
6.356356167782759
 31
0.0
  0
LINE
  5
26E7A
330
26E71
100
AcDbEntity
  8
0
  6
CONTINUOUS
100
AcDbLine
 10
23.88118970842314
 20
4.815363252849522
 30
0.0
 11
24.95684516609694
 21
5.89101871052332
 31
0.0
  0
LINE
  5
26E7B
330
26E71
100
AcDbEntity
  8
0
  6
CONTINUOUS
100
AcDbLine
 10
19.73925852647308
 20
-0.0000871381807288
 30
0.0
 11
23.4103456646501
 21
3.670999999996297
 31
0.0
  0
LINE
  5
26E7C
330
26E71
100
AcDbEntity
  8
0
  6
CONTINUOUS
100
AcDbLine
 10
24.0893285619448
 20
4.349982897290997
 30
0.0
 11
25.16502691791769
 21
5.42568125326388
 31
0.0
  0
LINE
  5
26E7D
330
26E71
100
AcDbEntity
  8
0
  6
CONTINUOUS
100
AcDbLine
 10
20.41282099582748
 20
-0.0000438779065108
 30
0.0
 11
21.64944178675636
 21
1.236576913022366
 31
0.0
  0
LINE
  5
26E7E
330
26E71
100
AcDbEntity
  8
0
  6
CONTINUOUS
100
AcDbLine
 10
22.78126487373161
 20
2.36839999999762
 30
0.0
 11
24.08386487373029
 21
3.670999999996297
 31
0.0
  0
LINE
  5
26E7F
330
26E71
100
AcDbEntity
  8
0
  6
CONTINUOUS
100
AcDbLine
 10
24.29746741546646
 20
3.884602541732471
 30
0.0
 11
25.37320866973843
 21
4.960343796004441
 31
0.0
  0
LINE
  5
26E80
330
26E71
100
AcDbEntity
  8
0
  6
CONTINUOUS
100
AcDbLine
 10
21.08638346518189
 20
-0.0000006176322938
 30
0.0
 11
21.10379033335899
 21
0.0174062505448083
 31
0.0
  0
LINE
  5
26E81
330
26E71
100
AcDbEntity
  8
0
  6
CONTINUOUS
100
AcDbLine
 10
23.4547840828118
 20
2.36839999999762
 30
0.0
 11
25.58139042155918
 21
4.495006338745002
 31
0.0
  0
LINE
  5
26E82
330
26E71
100
AcDbEntity
  8
0
  6
CONTINUOUS
100
AcDbLine
 10
29.30199999996933
 20
8.215615917155148
 30
0.0
 11
29.84948408280543
 21
8.763099999991255
 31
0.0
  0
LINE
  5
26E83
330
26E71
100
AcDbEntity
  8
0
  6
CONTINUOUS
100
AcDbLine
 10
24.12830329189199
 20
2.36839999999762
 30
0.0
 11
25.78957217337993
 21
4.029668881485562
 31
0.0
  0
LINE
  5
26E84
330
26E71
100
AcDbEntity
  8
0
  6
CONTINUOUS
100
AcDbLine
 10
29.30199999996933
 20
7.54209670807496
 30
0.0
 11
30.52300329188562
 21
8.763099999991255
 31
0.0
  0
LINE
  5
26E85
330
26E71
100
AcDbEntity
  8
0
  6
CONTINUOUS
100
AcDbLine
 10
24.80182250097217
 20
2.36839999999762
 30
0.0
 11
25.99775392520067
 21
3.564331424226122
 31
0.0
  0
LINE
  5
26E86
330
26E71
100
AcDbEntity
  8
0
  6
CONTINUOUS
100
AcDbLine
 10
29.30199999996933
 20
6.868577498994774
 30
0.0
 11
30.74199999996926
 21
8.308577498994712
 31
0.0
  0
LINE
  5
26E87
330
26E71
100
AcDbEntity
  8
0
  6
CONTINUOUS
100
AcDbLine
 10
25.13028238392013
 20
2.023340673865392
 30
0.0
 11
26.20593567702142
 21
3.098993966966683
 31
0.0
  0
LINE
  5
26E88
330
26E71
100
AcDbEntity
  8
0
  6
CONTINUOUS
100
AcDbLine
 10
25.33838066033617
 20
1.557919741201244
 30
0.0
 11
26.41411742884217
 21
2.633656509707244
 31
0.0
  0
LINE
  5
26E89
330
26E71
100
AcDbEntity
  8
0
  6
CONTINUOUS
100
AcDbLine
 10
25.54647893675221
 20
1.092498808537098
 30
0.0
 11
26.62229918066291
 21
2.168319052447804
 31
0.0
  0
LINE
  5
26E8A
330
26E71
100
AcDbEntity
  8
0
  6
CONTINUOUS
100
AcDbLine
 10
25.75457721316825
 20
0.62707787587295
 30
0.0
 11
26.83048093248366
 21
1.702981595188365
 31
0.0
  0
LINE
  5
26E8B
330
26E71
100
AcDbEntity
  8
0
  6
CONTINUOUS
100
AcDbLine
 10
29.30199999996933
 20
6.195058289914587
 30
0.0
 11
30.74199999996926
 21
7.635058289914522
 31
0.0
  0
LINE
  5
26E8C
330
26E71
100
AcDbEntity
  8
0
  6
CONTINUOUS
100
AcDbLine
 10
29.30199999996933
 20
5.521539080834401
 30
0.0
 11
30.74199999996926
 21
6.961539080834331
 31
0.0
  0
LINE
  5
26E8D
330
26E71
100
AcDbEntity
  8
0
  6
CONTINUOUS
100
AcDbLine
 10
29.30199999996933
 20
4.848019871754214
 30
0.0
 11
30.74199999996925
 21
6.288019871754143
 31
0.0
  0
LINE
  5
26E8E
330
26E71
100
AcDbEntity
  8
0
  6
CONTINUOUS
100
AcDbLine
 10
29.30199999996933
 20
4.174500662674028
 30
0.0
 11
30.74199999996925
 21
5.614500662673953
 31
0.0
  0
LINE
  5
26E8F
330
26E71
100
AcDbEntity
  8
0
  6
CONTINUOUS
100
AcDbLine
 10
25.96267548958429
 20
0.1616569432088024
 30
0.0
 11
27.18411854636669
 21
1.383099999991207
 31
0.0
  0
LINE
  5
26E90
330
26E71
100
AcDbEntity
  8
0
  6
CONTINUOUS
100
AcDbLine
 10
29.30199999996933
 20
3.500981453593841
 30
0.0
 11
30.74199999996925
 21
4.940981453593762
 31
0.0
  0
LINE
  5
26E91
330
26E71
100
AcDbEntity
  8
0
  6
CONTINUOUS
100
AcDbLine
 10
26.50763775544691
 20
0.0330999999912356
 30
0.0
 11
27.85763775544689
 21
1.383099999991223
 31
0.0
  0
LINE
  5
26E92
330
26E71
100
AcDbEntity
  8
0
  6
CONTINUOUS
100
AcDbLine
 10
29.30199999996933
 20
2.827462244513656
 30
0.0
 11
30.74199999996925
 21
4.267462244513574
 31
0.0
  0
LINE
  5
26E93
330
26E71
100
AcDbEntity
  8
0
  6
CONTINUOUS
100
AcDbLine
 10
27.18115696452709
 20
0.0330999999912356
 30
0.0
 11
28.6224847300034
 21
1.474427765467545
 31
0.0
  0
LINE
  5
26E94
330
26E71
100
AcDbEntity
  8
0
  6
CONTINUOUS
100
AcDbLine
 10
29.21067223449293
 20
2.062615269957069
 30
0.0
 11
30.74199999996924
 21
3.593943035433383
 31
0.0
  0
LINE
  5
26E95
330
26E71
100
AcDbEntity
  8
0
  6
CONTINUOUS
100
AcDbLine
 10
27.85467617360728
 20
0.0330999999912356
 30
0.0
 11
30.74199999996924
 21
2.920423826353195
 31
0.0
  0
LINE
  5
26E96
330
26E71
100
AcDbEntity
  8
0
  6
CONTINUOUS
100
AcDbLine
 10
28.57438609860264
 20
0.0792907159064073
 30
0.0
 11
30.69580928405405
 21
2.200713901357819
 31
0.0
  0
LINE
  5
26E97
330
26E71
100
AcDbEntity
  8
0
  6
CONTINUOUS
100
AcDbLine
 10
29.49443044814297
 20
0.3258158563665496
 30
0.0
 11
30.44928414359389
 21
1.280669551817477
 31
0.0
  0
LINE
  5
26E98
330
26E71
100
AcDbEntity
  8
0
  6
CONTINUOUS
100
AcDbLine
 10
19.59027867740337
 20
-0.0000967065718083
 30
0.0
 11
19.55485265190471
 21
0.035329318926844
 31
0.0
  0
LINE
  5
26E99
330
26E71
100
AcDbEntity
  8
0
  6
CONTINUOUS
100
AcDbLine
 10
20.26375463176586
 20
-0.0000534518541091
 30
0.0
 11
19.76305575737534
 21
0.5006454225364014
 31
0.0
  0
LINE
  5
26E9A
330
26E71
100
AcDbEntity
  8
0
  6
CONTINUOUS
100
AcDbLine
 10
20.93723058612834
 20
-0.0000101971364099
 30
0.0
 11
19.97125886284597
 21
0.965961526145958
 31
0.0
  0
LINE
  5
26E9B
330
26E71
100
AcDbEntity
  8
0
  6
CONTINUOUS
100
AcDbLine
 10
21.25514828313686
 20
0.355591314935257
 30
0.0
 11
20.1794619683166
 21
1.431277629755512
 31
0.0
  0
LINE
  5
26E9C
330
26E71
100
AcDbEntity
  8
0
  6
CONTINUOUS
100
AcDbLine
 10
21.46338838394921
 20
0.8208704232030986
 30
0.0
 11
20.38766507378723
 21
1.896593733365069
 31
0.0
  0
LINE
  5
26E9D
330
26E71
100
AcDbEntity
  8
0
  6
CONTINUOUS
100
AcDbLine
 10
21.67162848476155
 20
1.28614953147094
 30
0.0
 11
20.59586817925786
 21
2.361909836974626
 31
0.0
  0
LINE
  5
26E9E
330
26E71
100
AcDbEntity
  8
0
  6
CONTINUOUS
100
AcDbLine
 10
21.8798685855739
 20
1.751428639738782
 30
0.0
 11
20.80407128472849
 21
2.827225940584183
 31
0.0
  0
LINE
  5
26E9F
330
26E71
100
AcDbEntity
  8
0
  6
CONTINUOUS
100
AcDbLine
 10
22.08810868638624
 20
2.216707748006623
 30
0.0
 11
21.01227439019912
 21
3.292542044193739
 31
0.0
  0
LINE
  5
26EA0
330
26E71
100
AcDbEntity
  8
0
  6
CONTINUOUS
100
AcDbLine
 10
22.60993564347543
 20
2.36839999999762
 30
0.0
 11
21.22047749566975
 21
3.757858147803296
 31
0.0
  0
LINE
  5
26EA1
330
26E71
100
AcDbEntity
  8
0
  6
CONTINUOUS
100
AcDbLine
 10
23.28345485255561
 20
2.36839999999762
 30
0.0
 11
21.42868060114038
 21
4.223174251412853
 31
0.0
  0
LINE
  5
26EA2
330
26E71
100
AcDbEntity
  8
0
  6
CONTINUOUS
100
AcDbLine
 10
26.29227406164219
 20
0.0330999999912356
 30
0.0
 11
25.80009199592872
 21
0.5252820657046957
 31
0.0
  0
LINE
  5
26EA3
330
26E71
100
AcDbEntity
  8
0
  6
CONTINUOUS
100
AcDbLine
 10
23.9569740616358
 20
2.36839999999762
 30
0.0
 11
21.63688370661101
 21
4.688490355022409
 31
0.0
  0
LINE
  5
26EA4
330
26E71
100
AcDbEntity
  8
0
  6
CONTINUOUS
100
AcDbLine
 10
26.96579327072237
 20
0.0330999999912356
 30
0.0
 11
25.2554132311971
 21
1.743480039516508
 31
0.0
  0
LINE
  5
26EA5
330
26E71
100
AcDbEntity
  8
0
  6
CONTINUOUS
100
AcDbLine
 10
24.63049327071599
 20
2.36839999999762
 30
0.0
 11
23.32789327071731
 21
3.670999999996297
 31
0.0
  0
LINE
  5
26EA6
330
26E71
100
AcDbEntity
  8
0
  6
CONTINUOUS
100
AcDbLine
 10
22.92098674744635
 20
4.077906523267254
 30
0.0
 11
21.84508681208164
 21
5.153806458631966
 31
0.0
  0
LINE
  5
26EA7
330
26E71
100
AcDbEntity
  8
0
  6
CONTINUOUS
100
AcDbLine
 10
27.63931247980256
 20
0.0330999999912356
 30
0.0
 11
24.0014124797975
 21
3.670999999996297
 31
0.0
  0
LINE
  5
26EA8
330
26E71
100
AcDbEntity
  8
0
  6
CONTINUOUS
100
AcDbLine
 10
23.129125600968
 20
4.5432868788258
 30
0.0
 11
22.05328991755227
 21
5.619122562241522
 31
0.0
  0
LINE
  5
26EA9
330
26E71
100
AcDbEntity
  8
0
  6
CONTINUOUS
100
AcDbLine
 10
28.31283168888275
 20
0.0330999999912356
 30
0.0
 11
24.16488385994816
 21
4.181047828925828
 31
0.0
  0
LINE
  5
26EAA
330
26E71
100
AcDbEntity
  8
0
  6
CONTINUOUS
100
AcDbLine
 10
23.33726445448964
 20
5.008667234384345
 30
0.0
 11
22.2614930230229
 21
6.084438665851079
 31
0.0
  0
LINE
  5
26EAB
330
26E71
100
AcDbEntity
  8
0
  6
CONTINUOUS
100
AcDbLine
 10
28.86286302309502
 20
0.1565878748591523
 30
0.0
 11
27.63635089796295
 21
1.383099999991217
 31
0.0
  0
LINE
  5
26EAC
330
26E71
100
AcDbEntity
  8
0
  6
CONTINUOUS
100
AcDbLine
 10
26.43704649509776
 20
2.582404402856405
 30
0.0
 11
23.61992702019732
 21
5.399523877756844
 31
0.0
  0
LINE
  5
26EAD
330
26E71
100
AcDbEntity
  8
0
  6
CONTINUOUS
100
AcDbLine
 10
23.54540330801128
 20
5.47404758994289
 30
0.0
 11
22.46969612849353
 21
6.549754769460635
 31
0.0
  0
LINE
  5
26EAE
330
26E71
100
AcDbEntity
  8
0
  6
CONTINUOUS
100
AcDbLine
 10
29.39405087596853
 20
0.2989192310658284
 30
0.0
 11
28.30987010704312
 21
1.383099999991234
 31
0.0
  0
LINE
  5
26EAF
330
26E71
100
AcDbEntity
  8
0
  6
CONTINUOUS
100
AcDbLine
 10
25.89179548232307
 20
3.801174624711282
 30
0.0
 11
22.67789923396416
 21
7.015070873070191
 31
0.0
  0
LINE
  5
26EB0
330
26E71
100
AcDbEntity
  8
0
  6
CONTINUOUS
100
AcDbLine
 10
29.79594438047407
 20
0.570544935640473
 30
0.0
 11
28.81310432793121
 21
1.553384988183336
 31
0.0
  0
LINE
  5
26EB1
330
26E71
100
AcDbEntity
  8
0
  6
CONTINUOUS
100
AcDbLine
 10
25.34654446954838
 20
5.01994484656616
 30
0.0
 11
22.88610233943479
 21
7.480386976679748
 31
0.0
  0
LINE
  5
26EB2
330
26E71
100
AcDbEntity
  8
0
  6
CONTINUOUS
100
AcDbLine
 10
30.13270398501416
 20
0.9073045401805646
 30
0.0
 11
29.14234640337737
 21
1.897662121817355
 31
0.0
  0
LINE
  5
26EB3
330
26E71
100
AcDbEntity
  8
0
  6
CONTINUOUS
100
AcDbLine
 10
24.80129345677369
 20
6.238715068421037
 30
0.0
 11
23.09430544490542
 21
7.945703080289305
 31
0.0
  0
LINE
  5
26EB4
330
26E71
100
AcDbEntity
  8
0
  6
CONTINUOUS
100
AcDbLine
 10
30.44581292956759
 20
1.26771480470732
 30
0.0
 11
29.30199999996933
 21
2.411527734305588
 31
0.0
  0
LINE
  5
26EB5
330
26E71
100
AcDbEntity
  8
0
  6
CONTINUOUS
100
AcDbLine
 10
30.58814428577427
 20
1.798902657580827
 30
0.0
 11
29.30199999996933
 21
3.085046943385775
 31
0.0
  0
LINE
  5
26EB6
330
26E71
100
AcDbEntity
  8
0
  6
CONTINUOUS
100
AcDbLine
 10
24.256042443999
 20
7.457485290275915
 30
0.0
 11
23.30250855037605
 21
8.411019183898862
 31
0.0
  0
LINE
  5
26EB7
330
26E71
100
AcDbEntity
  8
0
  6
CONTINUOUS
100
AcDbLine
 10
23.71079143122431
 20
8.676255512130794
 30
0.0
 11
23.51071165584668
 21
8.876335287508418
 31
0.0
  0
LINE
  5
26EB8
330
26E71
100
AcDbEntity
  8
0
  6
CONTINUOUS
100
AcDbLine
 10
30.73047564198095
 20
2.330090510454333
 30
0.0
 11
29.30199999996933
 21
3.758566152465961
 31
0.0
  0
LINE
  5
26EB9
330
26E71
100
AcDbEntity
  8
0
  6
CONTINUOUS
100
AcDbLine
 10
30.74199999996924
 20
2.992085361546236
 30
0.0
 11
29.30199999996933
 21
4.432085361546148
 31
0.0
  0
LINE
  5
26EBA
330
26E71
100
AcDbEntity
  8
0
  6
CONTINUOUS
100
AcDbLine
 10
30.74199999996924
 20
3.665604570626419
 30
0.0
 11
29.30199999996933
 21
5.105604570626333
 31
0.0
  0
LINE
  5
26EBB
330
26E71
100
AcDbEntity
  8
0
  6
CONTINUOUS
100
AcDbLine
 10
30.74199999996925
 20
4.339123779706602
 30
0.0
 11
29.30199999996933
 21
5.77912377970652
 31
0.0
  0
LINE
  5
26EBC
330
26E71
100
AcDbEntity
  8
0
  6
CONTINUOUS
100
AcDbLine
 10
30.74199999996925
 20
5.012642988786785
 30
0.0
 11
29.30199999996933
 21
6.452642988786707
 31
0.0
  0
LINE
  5
26EBD
330
26E71
100
AcDbEntity
  8
0
  6
CONTINUOUS
100
AcDbLine
 10
30.74199999996925
 20
5.68616219786697
 30
0.0
 11
29.30199999996933
 21
7.126162197866894
 31
0.0
  0
LINE
  5
26EBE
330
26E71
100
AcDbEntity
  8
0
  6
CONTINUOUS
100
AcDbLine
 10
30.74199999996925
 20
6.359681406947153
 30
0.0
 11
29.30199999996933
 21
7.799681406947081
 31
0.0
  0
LINE
  5
26EBF
330
26E71
100
AcDbEntity
  8
0
  6
CONTINUOUS
100
AcDbLine
 10
30.74199999996926
 20
7.033200616027337
 30
0.0
 11
29.30199999996933
 21
8.473200616027269
 31
0.0
  0
LINE
  5
26EC0
330
26E71
100
AcDbEntity
  8
0
  6
CONTINUOUS
100
AcDbLine
 10
30.74199999996926
 20
7.706719825107518
 30
0.0
 11
29.68561982508552
 21
8.763099999991255
 31
0.0
  0
LINE
  5
26EC1
330
26E71
100
AcDbEntity
  8
0
  6
CONTINUOUS
100
AcDbLine
 10
30.74199999996926
 20
8.380239034187703
 30
0.0
 11
30.35913903416571
 21
8.763099999991255
 31
0.0
  0
ENDBLK
  5
26F64
330
26E71
100
AcDbEntity
  8
0
100
AcDbBlockEnd
  0
BLOCK
  5
26F65
330
26EC2
100
AcDbEntity
  8
0
100
AcDbBlockBegin
  2
*X111
 70
     1
 10
0.0
 20
0.0
 30
0.0
  3
*X111
  1

  0
LINE
  5
26EC3
330
26EC2
100
AcDbEntity
  8
0
  6
CONTINUOUS
100
AcDbLine
 10
31.64199999996833
 20
8.5350582899136
 30
0.0
 11
31.87004171004599
 21
8.763099999991255
 31
0.0
  0
LINE
  5
26EC4
330
26EC2
100
AcDbEntity
  8
0
  6
CONTINUOUS
100
AcDbLine
 10
31.64199999996833
 20
7.861539080833413
 30
0.0
 11
32.54356091912618
 21
8.763099999991255
 31
0.0
  0
LINE
  5
26EC5
330
26EC2
100
AcDbEntity
  8
0
  6
CONTINUOUS
100
AcDbLine
 10
31.64199999996833
 20
7.188019871753227
 30
0.0
 11
33.08199999996839
 21
8.628019871753281
 31
0.0
  0
LINE
  5
26EC6
330
26EC2
100
AcDbEntity
  8
0
  6
CONTINUOUS
100
AcDbLine
 10
31.64199999996833
 20
6.514500662673041
 30
0.0
 11
33.08199999996839
 21
7.954500662673095
 31
0.0
  0
LINE
  5
26EC7
330
26EC2
100
AcDbEntity
  8
0
  6
CONTINUOUS
100
AcDbLine
 10
31.64199999996833
 20
5.840981453592855
 30
0.0
 11
33.08199999996839
 21
7.28098145359291
 31
0.0
  0
LINE
  5
26EC8
330
26EC2
100
AcDbEntity
  8
0
  6
CONTINUOUS
100
AcDbLine
 10
31.64199999996833
 20
5.167462244512668
 30
0.0
 11
33.08199999996839
 21
6.607462244512723
 31
0.0
  0
LINE
  5
26EC9
330
26EC2
100
AcDbEntity
  8
0
  6
CONTINUOUS
100
AcDbLine
 10
31.64199999996833
 20
4.493943035432482
 30
0.0
 11
33.08199999996839
 21
5.933943035432536
 31
0.0
  0
LINE
  5
26ECA
330
26EC2
100
AcDbEntity
  8
0
  6
CONTINUOUS
100
AcDbLine
 10
31.64199999996833
 20
3.820423826352294
 30
0.0
 11
33.08199999996839
 21
5.260423826352349
 31
0.0
  0
LINE
  5
26ECB
330
26EC2
100
AcDbEntity
  8
0
  6
CONTINUOUS
100
AcDbLine
 10
31.64199999996833
 20
3.146904617272108
 30
0.0
 11
33.08199999996839
 21
4.586904617272163
 31
0.0
  0
LINE
  5
26ECC
330
26EC2
100
AcDbEntity
  8
0
  6
CONTINUOUS
100
AcDbLine
 10
36.23199999996837
 20
8.410423826352327
 30
0.0
 11
36.58467617360729
 21
8.763099999991255
 31
0.0
  0
LINE
  5
26ECD
330
26EC2
100
AcDbEntity
  8
0
  6
CONTINUOUS
100
AcDbLine
 10
36.23199999996837
 20
7.73690461727214
 30
0.0
 11
37.25819538268748
 21
8.763099999991255
 31
0.0
  0
LINE
  5
26ECE
330
26EC2
100
AcDbEntity
  8
0
  6
CONTINUOUS
100
AcDbLine
 10
31.64323424774199
 20
2.474619655965573
 30
0.0
 11
33.08199999996839
 21
3.913385408191976
 31
0.0
  0
LINE
  5
26ECF
330
26EC2
100
AcDbEntity
  8
0
  6
CONTINUOUS
100
AcDbLine
 10
31.74419223861915
 20
1.902058437762552
 30
0.0
 11
33.08199999996839
 21
3.239866199111789
 31
0.0
  0
LINE
  5
26ED0
330
26EC2
100
AcDbEntity
  8
0
  6
CONTINUOUS
100
AcDbLine
 10
36.23199999996837
 20
7.063385408191953
 30
0.0
 11
37.67199999996831
 21
8.503385408191894
 31
0.0
  0
LINE
  5
26ED1
330
26EC2
100
AcDbEntity
  8
0
  6
CONTINUOUS
100
AcDbLine
 10
36.23199999996837
 20
6.389866199111767
 30
0.0
 11
37.67199999996831
 21
7.829866199111708
 31
0.0
  0
LINE
  5
26ED2
330
26EC2
100
AcDbEntity
  8
0
  6
CONTINUOUS
100
AcDbLine
 10
31.91111233414976
 20
1.39545932421297
 30
0.0
 11
33.08199999996839
 21
2.566346990031603
 31
0.0
  0
LINE
  5
26ED3
330
26EC2
100
AcDbEntity
  8
0
  6
CONTINUOUS
100
AcDbLine
 10
36.23199999996837
 20
5.71634699003158
 30
0.0
 11
37.67199999996831
 21
7.156346990031522
 31
0.0
  0
LINE
  5
26ED4
330
26EC2
100
AcDbEntity
  8
0
  6
CONTINUOUS
100
AcDbLine
 10
32.1576374746103
 20
0.9684652555933289
 30
0.0
 11
33.20642631446081
 21
2.017254095443838
 31
0.0
  0
LINE
  5
26ED5
330
26EC2
100
AcDbEntity
  8
0
  6
CONTINUOUS
100
AcDbLine
 10
36.23199999996837
 20
5.042827780951393
 30
0.0
 11
37.67199999996831
 21
6.482827780951334
 31
0.0
  0
LINE
  5
26ED6
330
26EC2
100
AcDbEntity
  8
0
  6
CONTINUOUS
100
AcDbLine
 10
32.47774023927325
 20
0.6150488111760914
 30
0.0
 11
33.49903056428258
 21
1.636339136185419
 31
0.0
  0
LINE
  5
26ED7
330
26EC2
100
AcDbEntity
  8
0
  6
CONTINUOUS
100
AcDbLine
 10
36.23199999996837
 20
4.369308571871207
 30
0.0
 11
37.67199999996831
 21
5.809308571871148
 31
0.0
  0
LINE
  5
26ED8
330
26EC2
100
AcDbEntity
  8
0
  6
CONTINUOUS
100
AcDbLine
 10
32.84396249154443
 20
0.3077518543670883
 30
0.0
 11
33.93324121824649
 21
1.397030581069146
 31
0.0
  0
LINE
  5
26ED9
330
26EC2
100
AcDbEntity
  8
0
  6
CONTINUOUS
100
AcDbLine
 10
36.23199999996837
 20
3.695789362791021
 30
0.0
 11
37.67199999996831
 21
5.135789362790963
 31
0.0
  0
LINE
  5
26EDA
330
26EC2
100
AcDbEntity
  8
0
  6
CONTINUOUS
100
AcDbLine
 10
33.30186329036846
 20
0.0921334441109263
 30
0.0
 11
34.46442907112041
 21
1.254699224862875
 31
0.0
  0
LINE
  5
26EDB
330
26EC2
100
AcDbEntity
  8
0
  6
CONTINUOUS
100
AcDbLine
 10
36.23199999996837
 20
3.022270153710834
 30
0.0
 11
37.67199999996831
 21
4.462270153710776
 31
0.0
  0
LINE
  5
26EDC
330
26EC2
100
AcDbEntity
  8
0
  6
CONTINUOUS
100
AcDbLine
 10
33.79565647746294
 20
-0.0875925778747773
 30
0.0
 11
35.24350171668284
 21
1.360252661345124
 31
0.0
  0
LINE
  5
26EDD
330
26EC2
100
AcDbEntity
  8
0
  6
CONTINUOUS
100
AcDbLine
 10
36.18336676155003
 20
2.300117706212308
 30
0.0
 11
37.67199999996831
 21
3.788750944630589
 31
0.0
  0
LINE
  5
26EDE
330
26EC2
100
AcDbEntity
  8
0
  6
CONTINUOUS
100
AcDbLine
 10
34.37182574910968
 20
-0.184942515308224
 30
0.0
 11
37.67199999996831
 21
3.115231735550402
 31
0.0
  0
LINE
  5
26EDF
330
26EC2
100
AcDbEntity
  8
0
  6
CONTINUOUS
100
AcDbLine
 10
35.0453449581892
 20
-0.1849425153088955
 30
0.0
 11
37.66345697088136
 21
2.433169497383271
 31
0.0
  0
LINE
  5
26EE0
330
26EC2
100
AcDbEntity
  8
0
  6
CONTINUOUS
100
AcDbLine
 10
35.98667157609191
 20
0.0828648935136398
 30
0.0
 11
37.51927401744566
 21
1.615467334867382
 31
0.0
  0
LINE
  5
26EE1
330
26EC2
100
AcDbEntity
  8
0
  6
CONTINUOUS
100
AcDbLine
 10
32.27747408544484
 20
0.7830920669904482
 30
0.0
 11
32.24716210471949
 21
0.8134040477157893
 31
0.0
  0
LINE
  5
26EE2
330
26EC2
100
AcDbEntity
  8
0
  6
CONTINUOUS
100
AcDbLine
 10
33.83656881101902
 20
-0.1024834495035494
 30
0.0
 11
31.72538911593758
 21
2.008696245577891
 31
0.0
  0
LINE
  5
26EE3
330
26EC2
100
AcDbEntity
  8
0
  6
CONTINUOUS
100
AcDbLine
 10
34.5925470859041
 20
-0.1849425153084434
 30
0.0
 11
31.64199999996833
 21
2.765604570627322
 31
0.0
  0
LINE
  5
26EE4
330
26EC2
100
AcDbEntity
  8
0
  6
CONTINUOUS
100
AcDbLine
 10
35.26201302775981
 20
-0.1808892480839752
 30
0.0
 11
31.64199999996833
 21
3.439123779707508
 31
0.0
  0
LINE
  5
26EE5
330
26EC2
100
AcDbEntity
  8
0
  6
CONTINUOUS
100
AcDbLine
 10
35.75580621485512
 20
-0.0011632260990879
 30
0.0
 11
34.51294304365551
 21
1.241699945100514
 31
0.0
  0
LINE
  5
26EE6
330
26EC2
100
AcDbEntity
  8
0
  6
CONTINUOUS
100
AcDbLine
 10
33.08199999996839
 20
2.672642988787641
 30
0.0
 11
31.64199999996833
 21
4.112642988787695
 31
0.0
  0
LINE
  5
26EE7
330
26EC2
100
AcDbEntity
  8
0
  6
CONTINUOUS
100
AcDbLine
 10
36.24959940195042
 20
0.1785627958857976
 30
0.0
 11
35.10501653033629
 21
1.323145667499924
 31
0.0
  0
LINE
  5
26EE8
330
26EC2
100
AcDbEntity
  8
0
  6
CONTINUOUS
100
AcDbLine
 10
33.08199999996839
 20
3.346162197867827
 30
0.0
 11
31.64199999996833
 21
4.786162197867881
 31
0.0
  0
LINE
  5
26EE9
330
26EC2
100
AcDbEntity
  8
0
  6
CONTINUOUS
100
AcDbLine
 10
36.64615197150552
 20
0.4555294354108876
 30
0.0
 11
35.6362043832099
 21
1.465477023706505
 31
0.0
  0
LINE
  5
26EEA
330
26EC2
100
AcDbEntity
  8
0
  6
CONTINUOUS
100
AcDbLine
 10
33.08199999996839
 20
4.019681406948013
 30
0.0
 11
31.64199999996833
 21
5.459681406948068
 31
0.0
  0
LINE
  5
26EEB
330
26EC2
100
AcDbEntity
  8
0
  6
CONTINUOUS
100
AcDbLine
 10
37.0123742237774
 20
0.7628263922191891
 30
0.0
 11
35.97691545773309
 21
1.798285158263504
 31
0.0
  0
LINE
  5
26EEC
330
26EC2
100
AcDbEntity
  8
0
  6
CONTINUOUS
100
AcDbLine
 10
33.08199999996839
 20
4.6932006160282
 30
0.0
 11
31.64199999996833
 21
6.133200616028255
 31
0.0
  0
LINE
  5
26EED
330
26EC2
100
AcDbEntity
  8
0
  6
CONTINUOUS
100
AcDbLine
 10
37.27491524157143
 20
1.173804583505349
 30
0.0
 11
36.17602012811361
 21
2.272699696963169
 31
0.0
  0
LINE
  5
26EEE
330
26EC2
100
AcDbEntity
  8
0
  6
CONTINUOUS
100
AcDbLine
 10
33.08199999996839
 20
5.366719825108387
 30
0.0
 11
31.64199999996833
 21
6.806719825108441
 31
0.0
  0
LINE
  5
26EEF
330
26EC2
100
AcDbEntity
  8
0
  6
CONTINUOUS
100
AcDbLine
 10
37.51739996707661
 20
1.604839067080355
 30
0.0
 11
36.23199999996837
 21
2.890239034188595
 31
0.0
  0
LINE
  5
26EF0
330
26EC2
100
AcDbEntity
  8
0
  6
CONTINUOUS
100
AcDbLine
 10
37.6183579579535
 20
2.177400285283649
 30
0.0
 11
36.23199999996837
 21
3.563758243268782
 31
0.0
  0
LINE
  5
26EF1
330
26EC2
100
AcDbEntity
  8
0
  6
CONTINUOUS
100
AcDbLine
 10
33.08199999996839
 20
6.040239034188573
 30
0.0
 11
31.64199999996833
 21
7.480239034188628
 31
0.0
  0
LINE
  5
26EF2
330
26EC2
100
AcDbEntity
  8
0
  6
CONTINUOUS
100
AcDbLine
 10
33.08199999996839
 20
6.713758243268759
 30
0.0
 11
31.64199999996833
 21
8.153758243268815
 31
0.0
  0
LINE
  5
26EF3
330
26EC2
100
AcDbEntity
  8
0
  6
CONTINUOUS
100
AcDbLine
 10
37.67199999996831
 20
2.797277452349027
 30
0.0
 11
36.23199999996837
 21
4.237277452348969
 31
0.0
  0
LINE
  5
26EF4
330
26EC2
100
AcDbEntity
  8
0
  6
CONTINUOUS
100
AcDbLine
 10
37.67199999996831
 20
3.470796661429214
 30
0.0
 11
36.23199999996837
 21
4.910796661429155
 31
0.0
  0
LINE
  5
26EF5
330
26EC2
100
AcDbEntity
  8
0
  6
CONTINUOUS
100
AcDbLine
 10
37.67199999996831
 20
4.1443158705094
 30
0.0
 11
36.23199999996837
 21
5.584315870509341
 31
0.0
  0
LINE
  5
26EF6
330
26EC2
100
AcDbEntity
  8
0
  6
CONTINUOUS
100
AcDbLine
 10
33.08199999996839
 20
7.387277452348946
 30
0.0
 11
31.70617745232608
 21
8.763099999991255
 31
0.0
  0
LINE
  5
26EF7
330
26EC2
100
AcDbEntity
  8
0
  6
CONTINUOUS
100
AcDbLine
 10
33.08199999996839
 20
8.060796661429134
 30
0.0
 11
32.37969666140626
 21
8.763099999991255
 31
0.0
  0
LINE
  5
26EF8
330
26EC2
100
AcDbEntity
  8
0
  6
CONTINUOUS
100
AcDbLine
 10
33.08199999996839
 20
8.734315870509318
 30
0.0
 11
33.05321587048645
 21
8.763099999991255
 31
0.0
  0
LINE
  5
26EF9
330
26EC2
100
AcDbEntity
  8
0
  6
CONTINUOUS
100
AcDbLine
 10
37.67199999996831
 20
4.817835079589586
 30
0.0
 11
36.23199999996837
 21
6.257835079589528
 31
0.0
  0
LINE
  5
26EFA
330
26EC2
100
AcDbEntity
  8
0
  6
CONTINUOUS
100
AcDbLine
 10
37.67199999996831
 20
5.491354288669772
 30
0.0
 11
36.23199999996837
 21
6.931354288669715
 31
0.0
  0
LINE
  5
26EFB
330
26EC2
100
AcDbEntity
  8
0
  6
CONTINUOUS
100
AcDbLine
 10
37.67199999996831
 20
6.164873497749959
 30
0.0
 11
36.23199999996837
 21
7.6048734977499
 31
0.0
  0
LINE
  5
26EFC
330
26EC2
100
AcDbEntity
  8
0
  6
CONTINUOUS
100
AcDbLine
 10
37.67199999996831
 20
6.838392706830145
 30
0.0
 11
36.23199999996837
 21
8.278392706830086
 31
0.0
  0
LINE
  5
26EFD
330
26EC2
100
AcDbEntity
  8
0
  6
CONTINUOUS
100
AcDbLine
 10
37.67199999996831
 20
7.511911915910333
 30
0.0
 11
36.42081191588738
 21
8.763099999991255
 31
0.0
  0
LINE
  5
26EFE
330
26EC2
100
AcDbEntity
  8
0
  6
CONTINUOUS
100
AcDbLine
 10
37.67199999996831
 20
8.185431124990519
 30
0.0
 11
37.09433112496757
 21
8.763099999991255
 31
0.0
  0
ENDBLK
  5
26F66
330
26EC2
100
AcDbEntity
  8
0
100
AcDbBlockEnd
  0
BLOCK
  5
26F67
330
26EFF
100
AcDbEntity
  8
0
100
AcDbBlockBegin
  2
*X112
 70
     1
 10
0.0
 20
0.0
 30
0.0
  3
*X112
  1

  0
LINE
  5
26F00
330
26EFF
100
AcDbEntity
  8
0
  6
CONTINUOUS
100
AcDbLine
 10
38.60499999996136
 20
8.762866199104765
 30
0.0
 11
38.71672554182345
 21
8.874591740966855
 31
0.0
  0
LINE
  5
26F01
330
26EFF
100
AcDbEntity
  8
0
  6
CONTINUOUS
100
AcDbLine
 10
38.60499999996136
 20
8.089346990024577
 30
0.0
 11
39.03418785440363
 21
8.518534844466847
 31
0.0
  0
LINE
  5
26F02
330
26EFF
100
AcDbEntity
  8
0
  6
CONTINUOUS
100
AcDbLine
 10
38.60499999996136
 20
7.41582778094439
 30
0.0
 11
39.35165016698382
 21
8.16247794796684
 31
0.0
  0
LINE
  5
26F03
330
26EFF
100
AcDbEntity
  8
0
  6
CONTINUOUS
100
AcDbLine
 10
38.60499999996136
 20
6.742308571864204
 30
0.0
 11
39.66911247956399
 21
7.806421051466834
 31
0.0
  0
LINE
  5
26F04
330
26EFF
100
AcDbEntity
  8
0
  6
CONTINUOUS
100
AcDbLine
 10
38.60499999996136
 20
6.068789362784018
 30
0.0
 11
39.98657479214418
 21
7.450364154966827
 31
0.0
  0
LINE
  5
26F05
330
26EFF
100
AcDbEntity
  8
0
  6
CONTINUOUS
100
AcDbLine
 10
38.60499999996136
 20
5.395270153703832
 30
0.0
 11
40.30403710472435
 21
7.09430725846682
 31
0.0
  0
LINE
  5
26F06
330
26EFF
100
AcDbEntity
  8
0
  6
CONTINUOUS
100
AcDbLine
 10
38.60499999996136
 20
4.721750944623645
 30
0.0
 11
40.62149941730453
 21
6.738250361966813
 31
0.0
  0
LINE
  5
26F07
330
26EFF
100
AcDbEntity
  8
0
  6
CONTINUOUS
100
AcDbLine
 10
38.60499999996136
 20
4.048231735543458
 30
0.0
 11
40.93896172988471
 21
6.382193465466806
 31
0.0
  0
LINE
  5
26F08
330
26EFF
100
AcDbEntity
  8
0
  6
CONTINUOUS
100
AcDbLine
 10
38.60499999996136
 20
3.374712526463272
 30
0.0
 11
40.02599999995994
 21
4.795712526461843
 31
0.0
  0
LINE
  5
26F09
330
26EFF
100
AcDbEntity
  8
0
  6
CONTINUOUS
100
AcDbLine
 10
38.60499999996136
 20
2.701193317383085
 30
0.0
 11
40.02599999995994
 21
4.122193317381657
 31
0.0
  0
LINE
  5
26F0A
330
26EFF
100
AcDbEntity
  8
0
  6
CONTINUOUS
100
AcDbLine
 10
40.28339754687704
 20
5.053110073378947
 30
0.0
 11
41.25642404246489
 21
6.026136568966799
 31
0.0
  0
LINE
  5
26F0B
330
26EFF
100
AcDbEntity
  8
0
  6
CONTINUOUS
100
AcDbLine
 10
40.60085985945722
 20
4.697053176878939
 30
0.0
 11
41.57388635504507
 21
5.670079672466793
 31
0.0
  0
LINE
  5
26F0C
330
26EFF
100
AcDbEntity
  8
0
  6
CONTINUOUS
100
AcDbLine
 10
43.57899999995641
 20
8.348712526458318
 30
0.0
 11
43.99338747348935
 21
8.763099999991255
 31
0.0
  0
LINE
  5
26F0D
330
26EFF
100
AcDbEntity
  8
0
  6
CONTINUOUS
100
AcDbLine
 10
43.57899999995641
 20
7.675193317378131
 30
0.0
 11
44.66690668256953
 21
8.763099999991255
 31
0.0
  0
LINE
  5
26F0E
330
26EFF
100
AcDbEntity
  8
0
  6
CONTINUOUS
100
AcDbLine
 10
38.60499999996136
 20
2.027674108302898
 30
0.0
 11
40.02599999995994
 21
3.44867410830147
 31
0.0
  0
LINE
  5
26F0F
330
26EFF
100
AcDbEntity
  8
0
  6
CONTINUOUS
100
AcDbLine
 10
38.60499999996136
 20
1.354154899222712
 30
0.0
 11
40.02599999995994
 21
2.775154899221284
 31
0.0
  0
LINE
  5
26F10
330
26EFF
100
AcDbEntity
  8
0
  6
CONTINUOUS
100
AcDbLine
 10
38.60499999996136
 20
0.6806356901425255
 30
0.0
 11
40.02599999995994
 21
2.101635690141098
 31
0.0
  0
LINE
  5
26F11
330
26EFF
100
AcDbEntity
  8
0
  6
CONTINUOUS
100
AcDbLine
 10
38.60499999996136
 20
0.0071164810623383
 30
0.0
 11
40.02599999995994
 21
1.428116481060911
 31
0.0
  0
LINE
  5
26F12
330
26EFF
100
AcDbEntity
  8
0
  6
CONTINUOUS
100
AcDbLine
 10
40.9183221720374
 20
4.340996280378933
 30
0.0
 11
41.89134866762525
 21
5.314022775966786
 31
0.0
  0
LINE
  5
26F13
330
26EFF
100
AcDbEntity
  8
0
  6
CONTINUOUS
100
AcDbLine
 10
41.23578448461758
 20
3.984939383878926
 30
0.0
 11
42.20881098020543
 21
4.957965879466778
 31
0.0
  0
LINE
  5
26F14
330
26EFF
100
AcDbEntity
  8
0
  6
CONTINUOUS
100
AcDbLine
 10
41.55324679719776
 20
3.628882487378919
 30
0.0
 11
42.52627329278561
 21
4.601908982966772
 31
0.0
  0
LINE
  5
26F15
330
26EFF
100
AcDbEntity
  8
0
  6
CONTINUOUS
100
AcDbLine
 10
41.87070910977793
 20
3.272825590878912
 30
0.0
 11
42.84373560536579
 21
4.245852086466765
 31
0.0
  0
LINE
  5
26F16
330
26EFF
100
AcDbEntity
  8
0
  6
CONTINUOUS
100
AcDbLine
 10
43.57899999995641
 20
7.001674108297943
 30
0.0
 11
44.99999999995498
 21
8.422674108296516
 31
0.0
  0
LINE
  5
26F17
330
26EFF
100
AcDbEntity
  8
0
  6
CONTINUOUS
100
AcDbLine
 10
43.57899999995641
 20
6.328154899217758
 30
0.0
 11
44.99999999995498
 21
7.749154899216329
 31
0.0
  0
LINE
  5
26F18
330
26EFF
100
AcDbEntity
  8
0
  6
CONTINUOUS
100
AcDbLine
 10
43.57899999995641
 20
5.654635690137571
 30
0.0
 11
44.99999999995498
 21
7.075635690136142
 31
0.0
  0
LINE
  5
26F19
330
26EFF
100
AcDbEntity
  8
0
  6
CONTINUOUS
100
AcDbLine
 10
43.57899999995641
 20
4.981116481057384
 30
0.0
 11
44.99999999995498
 21
6.402116481055955
 31
0.0
  0
LINE
  5
26F1A
330
26EFF
100
AcDbEntity
  8
0
  6
CONTINUOUS
100
AcDbLine
 10
39.27140272797921
 20
-0.0000000000000009
 30
0.0
 11
40.02599999995994
 21
0.7545972719807246
 31
0.0
  0
LINE
  5
26F1B
330
26EFF
100
AcDbEntity
  8
0
  6
CONTINUOUS
100
AcDbLine
 10
39.9449219370594
 20
-0.0000000000000009
 30
0.0
 11
40.02599999995994
 21
0.0810780629005379
 31
0.0
  0
LINE
  5
26F1C
330
26EFF
100
AcDbEntity
  8
0
  6
CONTINUOUS
100
AcDbLine
 10
42.18817142235812
 20
2.916768694378905
 30
0.0
 11
43.16119791794597
 21
3.889795189966758
 31
0.0
  0
LINE
  5
26F1D
330
26EFF
100
AcDbEntity
  8
0
  6
CONTINUOUS
100
AcDbLine
 10
42.50563373493829
 20
2.560711797878898
 30
0.0
 11
43.47866023052615
 21
3.533738293466751
 31
0.0
  0
LINE
  5
26F1E
330
26EFF
100
AcDbEntity
  8
0
  6
CONTINUOUS
100
AcDbLine
 10
43.57899999995641
 20
4.307597271977198
 30
0.0
 11
44.99999999995498
 21
5.728597271975769
 31
0.0
  0
LINE
  5
26F1F
330
26EFF
100
AcDbEntity
  8
0
  6
CONTINUOUS
100
AcDbLine
 10
43.57899999995641
 20
3.634078062897011
 30
0.0
 11
44.99999999995498
 21
5.055078062895582
 31
0.0
  0
LINE
  5
26F20
330
26EFF
100
AcDbEntity
  8
0
  6
CONTINUOUS
100
AcDbLine
 10
42.82309604751848
 20
2.204654901378891
 30
0.0
 11
44.99999999995498
 21
4.381558853815395
 31
0.0
  0
LINE
  5
26F21
330
26EFF
100
AcDbEntity
  8
0
  6
CONTINUOUS
100
AcDbLine
 10
43.14055836009865
 20
1.848598004878885
 30
0.0
 11
44.99999999995498
 21
3.70803964473521
 31
0.0
  0
LINE
  5
26F22
330
26EFF
100
AcDbEntity
  8
0
  6
CONTINUOUS
100
AcDbLine
 10
43.45802067267883
 20
1.492541108378878
 30
0.0
 11
44.99999999995498
 21
3.034520435655023
 31
0.0
  0
LINE
  5
26F23
330
26EFF
100
AcDbEntity
  8
0
  6
CONTINUOUS
100
AcDbLine
 10
43.77548298525902
 20
1.136484211878871
 30
0.0
 11
44.99999999995498
 21
2.361001226574837
 31
0.0
  0
LINE
  5
26F24
330
26EFF
100
AcDbEntity
  8
0
  6
CONTINUOUS
100
AcDbLine
 10
44.09294529783919
 20
0.7804273153788639
 30
0.0
 11
44.99999999995498
 21
1.687482017494649
 31
0.0
  0
LINE
  5
26F25
330
26EFF
100
AcDbEntity
  8
0
  6
CONTINUOUS
100
AcDbLine
 10
44.41040761041938
 20
0.4243704188788566
 30
0.0
 11
44.99999999995498
 21
1.013962808414463
 31
0.0
  0
LINE
  5
26F26
330
26EFF
100
AcDbEntity
  8
0
  6
CONTINUOUS
100
AcDbLine
 10
44.72786992299955
 20
0.0683135223788494
 30
0.0
 11
44.99999999995498
 21
0.340443599334276
 31
0.0
  0
LINE
  5
26F27
330
26EFF
100
AcDbEntity
  8
0
  6
CONTINUOUS
100
AcDbLine
 10
39.12223903415696
 20
-0.0000000000000009
 30
0.0
 11
38.60499999996136
 21
0.5172390341955961
 31
0.0
  0
LINE
  5
26F28
330
26EFF
100
AcDbEntity
  8
0
  6
CONTINUOUS
100
AcDbLine
 10
39.79575824323715
 20
-0.0000000000000009
 30
0.0
 11
38.60499999996136
 21
1.190758243275783
 31
0.0
  0
LINE
  5
26F29
330
26EFF
100
AcDbEntity
  8
0
  6
CONTINUOUS
100
AcDbLine
 10
40.02599999995994
 20
0.443277452357397
 30
0.0
 11
38.60499999996136
 21
1.864277452355969
 31
0.0
  0
LINE
  5
26F2A
330
26EFF
100
AcDbEntity
  8
0
  6
CONTINUOUS
100
AcDbLine
 10
40.02599999995994
 20
1.116796661437583
 30
0.0
 11
38.60499999996136
 21
2.537796661436155
 31
0.0
  0
LINE
  5
26F2B
330
26EFF
100
AcDbEntity
  8
0
  6
CONTINUOUS
100
AcDbLine
 10
40.02599999995994
 20
1.79031587051777
 30
0.0
 11
38.60499999996136
 21
3.211315870516341
 31
0.0
  0
LINE
  5
26F2C
330
26EFF
100
AcDbEntity
  8
0
  6
CONTINUOUS
100
AcDbLine
 10
40.02599999995994
 20
2.463835079597956
 30
0.0
 11
38.60499999996136
 21
3.884835079596527
 31
0.0
  0
LINE
  5
26F2D
330
26EFF
100
AcDbEntity
  8
0
  6
CONTINUOUS
100
AcDbLine
 10
40.02599999995994
 20
3.137354288678143
 30
0.0
 11
38.60499999996136
 21
4.558354288676714
 31
0.0
  0
LINE
  5
26F2E
330
26EFF
100
AcDbEntity
  8
0
  6
CONTINUOUS
100
AcDbLine
 10
40.02599999995994
 20
3.810873497758329
 30
0.0
 11
38.60499999996136
 21
5.2318734977569
 31
0.0
  0
LINE
  5
26F2F
330
26EFF
100
AcDbEntity
  8
0
  6
CONTINUOUS
100
AcDbLine
 10
40.02599999995994
 20
4.484392706838515
 30
0.0
 11
38.60499999996136
 21
5.905392706837086
 31
0.0
  0
LINE
  5
26F30
330
26EFF
100
AcDbEntity
  8
0
  6
CONTINUOUS
100
AcDbLine
 10
44.99999999995498
 20
0.183911915923658
 30
0.0
 11
41.53858364506288
 21
3.64532827081576
 31
0.0
  0
LINE
  5
26F31
330
26EFF
100
AcDbEntity
  8
0
  6
CONTINUOUS
100
AcDbLine
 10
40.02599999995994
 20
5.157911915918703
 30
0.0
 11
38.60499999996136
 21
6.578911915917274
 31
0.0
  0
LINE
  5
26F32
330
26EFF
100
AcDbEntity
  8
0
  6
CONTINUOUS
100
AcDbLine
 10
44.99999999995498
 20
0.8574311250038447
 30
0.0
 11
38.60499999996136
 21
7.25243112499746
 31
0.0
  0
LINE
  5
26F33
330
26EFF
100
AcDbEntity
  8
0
  6
CONTINUOUS
100
AcDbLine
 10
44.99999999995498
 20
1.530950334084031
 30
0.0
 11
38.60499999996136
 21
7.925950334077647
 31
0.0
  0
LINE
  5
26F34
330
26EFF
100
AcDbEntity
  8
0
  6
CONTINUOUS
100
AcDbLine
 10
44.99999999995498
 20
2.204469543164218
 30
0.0
 11
43.57899999995641
 21
3.625469543162789
 31
0.0
  0
LINE
  5
26F35
330
26EFF
100
AcDbEntity
  8
0
  6
CONTINUOUS
100
AcDbLine
 10
41.89876730984767
 20
5.305702233271528
 30
0.0
 11
38.60499999996136
 21
8.599469543157834
 31
0.0
  0
LINE
  5
26F36
330
26EFF
100
AcDbEntity
  8
0
  6
CONTINUOUS
100
AcDbLine
 10
44.99999999995498
 20
2.877988752244405
 30
0.0
 11
43.57899999995641
 21
4.298988752242975
 31
0.0
  0
LINE
  5
26F37
330
26EFF
100
AcDbEntity
  8
0
  6
CONTINUOUS
100
AcDbLine
 10
44.99999999995498
 20
3.551507961324591
 30
0.0
 11
43.57899999995641
 21
4.972507961323163
 31
0.0
  0
LINE
  5
26F38
330
26EFF
100
AcDbEntity
  8
0
  6
CONTINUOUS
100
AcDbLine
 10
44.99999999995498
 20
4.225027170404777
 30
0.0
 11
43.57899999995641
 21
5.646027170403348
 31
0.0
  0
LINE
  5
26F39
330
26EFF
100
AcDbEntity
  8
0
  6
CONTINUOUS
100
AcDbLine
 10
44.99999999995498
 20
4.898546379484964
 30
0.0
 11
43.57899999995641
 21
6.319546379483535
 31
0.0
  0
LINE
  5
26F3A
330
26EFF
100
AcDbEntity
  8
0
  6
CONTINUOUS
100
AcDbLine
 10
44.99999999995498
 20
5.572065588565151
 30
0.0
 11
43.57899999995641
 21
6.993065588563722
 31
0.0
  0
LINE
  5
26F3B
330
26EFF
100
AcDbEntity
  8
0
  6
CONTINUOUS
100
AcDbLine
 10
44.99999999995498
 20
6.245584797645336
 30
0.0
 11
43.57899999995641
 21
7.666584797643908
 31
0.0
  0
LINE
  5
26F3C
330
26EFF
100
AcDbEntity
  8
0
  6
CONTINUOUS
100
AcDbLine
 10
44.99999999995498
 20
6.919104006725522
 30
0.0
 11
43.57899999995641
 21
8.340104006724093
 31
0.0
  0
LINE
  5
26F3D
330
26EFF
100
AcDbEntity
  8
0
  6
CONTINUOUS
100
AcDbLine
 10
44.99999999995498
 20
7.592623215805709
 30
0.0
 11
43.82952321576943
 21
8.763099999991255
 31
0.0
  0
LINE
  5
26F3E
330
26EFF
100
AcDbEntity
  8
0
  6
CONTINUOUS
100
AcDbLine
 10
44.99999999995498
 20
8.266142424885896
 30
0.0
 11
44.50304242484962
 21
8.763099999991255
 31
0.0
  0
ENDBLK
  5
26F68
330
26EFF
100
AcDbEntity
  8
0
100
AcDbBlockEnd
  0
BLOCK
  5
26F69
330
26F3F
100
AcDbEntity
  8
0
100
AcDbBlockBegin
  2
*X113
 70
     1
 10
0.0
 20
0.0
 30
0.0
  3
*X113
  1

  0
LINE
  5
26F40
330
26F3F
100
AcDbEntity
  8
0
  6
CONTINUOUS
100
AcDbLine
 10
0.0
 20
8.548461116714023
 30
0.0
 11
0.2146388832772324
 21
8.763099999991255
 31
0.0
  0
LINE
  5
26F41
330
26F3F
100
AcDbEntity
  8
0
  6
CONTINUOUS
100
AcDbLine
 10
-0.0000000000000002
 20
7.874941907633837
 30
0.0
 11
0.8881580923574184
 21
8.763099999991255
 31
0.0
  0
LINE
  5
26F42
330
26F3F
100
AcDbEntity
  8
0
  6
CONTINUOUS
100
AcDbLine
 10
0.0
 20
7.20142269855365
 30
0.0
 11
1.420999999998572
 21
8.622422698552223
 31
0.0
  0
LINE
  5
26F43
330
26F3F
100
AcDbEntity
  8
0
  6
CONTINUOUS
100
AcDbLine
 10
-0.0000000000000001
 20
6.527903489473465
 30
0.0
 11
1.420999999998571
 21
7.948903489472036
 31
0.0
  0
LINE
  5
26F44
330
26F3F
100
AcDbEntity
  8
0
  6
CONTINUOUS
100
AcDbLine
 10
-0.0000000000000002
 20
5.854384280393278
 30
0.0
 11
1.420999999998571
 21
7.275384280391849
 31
0.0
  0
LINE
  5
26F45
330
26F3F
100
AcDbEntity
  8
0
  6
CONTINUOUS
100
AcDbLine
 10
-0.0000000000000002
 20
5.180865071313091
 30
0.0
 11
1.420999999998571
 21
6.601865071311663
 31
0.0
  0
LINE
  5
26F46
330
26F3F
100
AcDbEntity
  8
0
  6
CONTINUOUS
100
AcDbLine
 10
0.0
 20
4.507345862232905
 30
0.0
 11
1.420999999998571
 21
5.928345862231477
 31
0.0
  0
LINE
  5
26F47
330
26F3F
100
AcDbEntity
  8
0
  6
CONTINUOUS
100
AcDbLine
 10
-0.0000000000000003
 20
3.833826653152718
 30
0.0
 11
1.420999999998571
 21
5.25482665315129
 31
0.0
  0
LINE
  5
26F48
330
26F3F
100
AcDbEntity
  8
0
  6
CONTINUOUS
100
AcDbLine
 10
-0.0000000000000002
 20
3.160307444072532
 30
0.0
 11
1.420999999998571
 21
4.581307444071103
 31
0.0
  0
LINE
  5
26F49
330
26F3F
100
AcDbEntity
  8
0
  6
CONTINUOUS
100
AcDbLine
 10
-0.0000000000000001
 20
2.486788234992345
 30
0.0
 11
1.420999999998571
 21
3.907788234990917
 31
0.0
  0
LINE
  5
26F4A
330
26F3F
100
AcDbEntity
  8
0
  6
CONTINUOUS
100
AcDbLine
 10
-0.0000000000000006
 20
1.813269025912159
 30
0.0
 11
1.420999999998571
 21
3.234269025910731
 31
0.0
  0
LINE
  5
26F4B
330
26F3F
100
AcDbEntity
  8
0
  6
CONTINUOUS
100
AcDbLine
 10
0.0
 20
1.139749816831973
 30
0.0
 11
1.420999999998571
 21
2.560749816830544
 31
0.0
  0
LINE
  5
26F4C
330
26F3F
100
AcDbEntity
  8
0
  6
CONTINUOUS
100
AcDbLine
 10
0.0000000000000002
 20
0.466230607751787
 30
0.0
 11
1.420999999998571
 21
1.887230607750358
 31
0.0
  0
LINE
  5
26F4D
330
26F3F
100
AcDbEntity
  8
0
  6
CONTINUOUS
100
AcDbLine
 10
0.2072886013284003
 20
-0.0000000000000009
 30
0.0
 11
1.420999999998571
 21
1.213711398670171
 31
0.0
  0
LINE
  5
26F4E
330
26F3F
100
AcDbEntity
  8
0
  6
CONTINUOUS
100
AcDbLine
 10
0.8808078104085864
 20
-0.0000000000000009
 30
0.0
 11
1.420999999998571
 21
0.5401921895899839
 31
0.0
  0
LINE
  5
26F4F
330
26F3F
100
AcDbEntity
  8
0
  6
CONTINUOUS
100
AcDbLine
 10
0.0581249075061505
 20
-0.0000000000000009
 30
0.0
 11
-0.0000000000000002
 21
0.0581249075061496
 31
0.0
  0
LINE
  5
26F50
330
26F3F
100
AcDbEntity
  8
0
  6
CONTINUOUS
100
AcDbLine
 10
0.7316441165863372
 20
-0.0000000000000009
 30
0.0
 11
-0.0000000000000002
 21
0.7316441165863363
 31
0.0
  0
LINE
  5
26F51
330
26F3F
100
AcDbEntity
  8
0
  6
CONTINUOUS
100
AcDbLine
 10
1.405163325666523
 20
-0.0000000000000009
 30
0.0
 11
-0.0000000000000002
 21
1.405163325666523
 31
0.0
  0
LINE
  5
26F52
330
26F3F
100
AcDbEntity
  8
0
  6
CONTINUOUS
100
AcDbLine
 10
1.420999999998572
 20
0.6576825347481381
 30
0.0
 11
-0.0000000000000001
 21
2.07868253474671
 31
0.0
  0
LINE
  5
26F53
330
26F3F
100
AcDbEntity
  8
0
  6
CONTINUOUS
100
AcDbLine
 10
1.420999999998571
 20
1.331201743828324
 30
0.0
 11
-0.0000000000000001
 21
2.752201743826896
 31
0.0
  0
LINE
  5
26F54
330
26F3F
100
AcDbEntity
  8
0
  6
CONTINUOUS
100
AcDbLine
 10
1.420999999998571
 20
2.004720952908511
 30
0.0
 11
-0.0000000000000002
 21
3.425720952907082
 31
0.0
  0
LINE
  5
26F55
330
26F3F
100
AcDbEntity
  8
0
  6
CONTINUOUS
100
AcDbLine
 10
1.420999999998571
 20
2.678240161988697
 30
0.0
 11
-0.0000000000000001
 21
4.099240161987269
 31
0.0
  0
LINE
  5
26F56
330
26F3F
100
AcDbEntity
  8
0
  6
CONTINUOUS
100
AcDbLine
 10
1.420999999998572
 20
3.351759371068884
 30
0.0
 11
0.0
 21
4.772759371067455
 31
0.0
  0
LINE
  5
26F57
330
26F3F
100
AcDbEntity
  8
0
  6
CONTINUOUS
100
AcDbLine
 10
1.420999999998571
 20
4.02527858014907
 30
0.0
 11
-0.0000000000000003
 21
5.446278580147642
 31
0.0
  0
LINE
  5
26F58
330
26F3F
100
AcDbEntity
  8
0
  6
CONTINUOUS
100
AcDbLine
 10
1.420999999998571
 20
4.698797789229257
 30
0.0
 11
0.0
 21
6.119797789227828
 31
0.0
  0
LINE
  5
26F59
330
26F3F
100
AcDbEntity
  8
0
  6
CONTINUOUS
100
AcDbLine
 10
1.420999999998571
 20
5.372316998309444
 30
0.0
 11
-0.0000000000000001
 21
6.793316998308015
 31
0.0
  0
LINE
  5
26F5A
330
26F3F
100
AcDbEntity
  8
0
  6
CONTINUOUS
100
AcDbLine
 10
1.420999999998572
 20
6.045836207389629
 30
0.0
 11
-0.0000000000000004
 21
7.466836207388202
 31
0.0
  0
LINE
  5
26F5B
330
26F3F
100
AcDbEntity
  8
0
  6
CONTINUOUS
100
AcDbLine
 10
1.420999999998571
 20
6.719355416469816
 30
0.0
 11
0.0
 21
8.140355416468388
 31
0.0
  0
LINE
  5
26F5C
330
26F3F
100
AcDbEntity
  8
0
  6
CONTINUOUS
100
AcDbLine
 10
1.420999999998571
 20
7.392874625550003
 30
0.0
 11
0.0507746255573185
 21
8.763099999991255
 31
0.0
  0
LINE
  5
26F5D
330
26F3F
100
AcDbEntity
  8
0
  6
CONTINUOUS
100
AcDbLine
 10
1.420999999998571
 20
8.06639383463019
 30
0.0
 11
0.7242938346375052
 21
8.763099999991255
 31
0.0
  0
LINE
  5
26F5E
330
26F3F
100
AcDbEntity
  8
0
  6
CONTINUOUS
100
AcDbLine
 10
1.420999999998571
 20
8.739913043710375
 30
0.0
 11
1.397813043717691
 21
8.763099999991255
 31
0.0
  0
ENDBLK
  5
26F6A
330
26F3F
100
AcDbEntity
  8
0
100
AcDbBlockEnd
  0
ENDSEC
  0
SECTION
  2
ENTITIES
  0
LINE
  5
24BC3
330
18
100
AcDbEntity
  8
01
100
AcDbLine
 10
2076.504817572681
 20
-704.7168778578715
 30
0.0
 11
2076.504817572681
 21
-774.7168782578715
 31
0.0
  0
LINE
  5
24BC4
330
18
100
AcDbEntity
  8
01
100
AcDbLine
 10
2075.004817572681
 20
-704.7168778578715
 30
0.0
 11
2075.004817572681
 21
-774.7168782578715
 31
0.0
  0
LINE
  5
24BC6
330
18
100
AcDbEntity
  8
01
100
AcDbLine
 10
2075.004817572681
 20
-774.7168782578715
 30
0.0
 11
2076.504817572681
 21
-774.7168782578715
 31
0.0
  0
LINE
  5
24BC7
330
18
100
AcDbEntity
  8
1CENTER
100
AcDbLine
 10
2073.270106572681
 20
-766.7168805978715
 30
0.0
 11
2078.31389957268
 21
-766.7168805978715
 31
0.0
  0
LINE
  5
24BCF
330
18
100
AcDbEntity
  8
01
100
AcDbLine
 10
2075.004817572681
 20
-758.7168786578715
 30
0.0
 11
2076.504817572681
 21
-758.7168786578715
 31
0.0
  0
LINE
  5
24BD0
330
18
100
AcDbEntity
  8
1CENTER
100
AcDbLine
 10
2067.12093657268
 20
-739.7168778578715
 30
0.0
 11
2081.673319572681
 21
-739.7168778578715
 31
0.0
  0
LINE
  5
24BD5
330
18
100
AcDbEntity
  8
1CENTER
100
AcDbLine
 10
2073.270110572681
 20
-712.7168778578715
 30
0.0
 11
2078.313901572681
 21
-712.7168778578715
 31
0.0
  0
LINE
  5
24BD6
330
18
100
AcDbEntity
  8
01
100
AcDbLine
 10
2074.604815572681
 20
-757.7168774578715
 30
0.0
 11
2074.604815572681
 21
-773.7168774578715
 31
0.0
  0
LINE
  5
24BD7
330
18
100
AcDbEntity
  8
01
100
AcDbLine
 10
2075.004817572681
 20
-705.7168774578714
 30
0.0
 11
2075.004817572681
 21
-773.7168774578715
 31
0.0
  0
LINE
  5
24BD9
330
18
100
AcDbEntity
  8
1CENTER
100
AcDbLine
 10
2137.004817572681
 20
-701.4594238578715
 30
0.0
 11
2137.004817572681
 21
-777.5980658578715
 31
0.0
  0
LINE
  5
24BDB
330
18
100
AcDbEntity
  8
01
100
AcDbLine
 10
2151.504817572681
 20
-705.7168778578715
 30
0.0
 11
2151.504817572681
 21
-773.7168782578715
 31
0.0
  0
CIRCLE
  5
24BDE
330
18
100
AcDbEntity
  8
01
100
AcDbCircle
 10
2137.004817572681
 20
-766.7168786878715
 30
0.0
 40
3.4000001
  0
CIRCLE
  5
24BDF
330
18
100
AcDbEntity
  8
01
100
AcDbCircle
 10
2137.004817572681
 20
-766.7168786878715
 30
0.0
 40
4.400002
  0
LINE
  5
24BE0
330
18
100
AcDbEntity
  8
01
100
AcDbLine
 10
2122.504817572681
 20
-759.7168786578715
 30
0.0
 11
2122.504817572681
 21
-773.7168782578715
 31
0.0
  0
LINE
  5
24BE2
330
18
100
AcDbEntity
  8
01
100
AcDbLine
 10
2119.00481710268
 20
-810.1484306046879
 30
0.0
 11
2151.504817572681
 21
-810.1484306046879
 31
0.0
  0
LINE
  5
24BE3
330
18
100
AcDbEntity
  8
01
100
AcDbLine
 10
2128.504817572681
 20
-811.6484306046879
 30
0.0
 11
2151.504817572681
 21
-811.6484306046879
 31
0.0
  0
LINE
  5
24BE4
330
18
100
AcDbEntity
  8
01
100
AcDbLine
 10
2123.504817572681
 20
-774.7168782578715
 30
0.0
 11
2150.504817572681
 21
-774.7168782578715
 31
0.0
  0
LINE
  5
24BE5
330
18
100
AcDbEntity
  8
1CENTER
100
AcDbLine
 10
2125.816479572681
 20
-766.7168786878715
 30
0.0
 11
2145.329737572681
 21
-766.7168786878715
 31
0.0
  0
LINE
  5
24BE6
330
18
100
AcDbEntity
  8
01
100
AcDbLine
 10
2127.004817572681
 20
-811.6484306046879
 30
0.0
 11
2127.004817572681
 21
-816.1484306046879
 31
0.0
  0
LINE
  5
24BE9
330
18
100
AcDbEntity
  8
01
100
AcDbLine
 10
2119.00481710268
 20
-811.6484306046879
 30
0.0
 11
2127.004817572681
 21
-811.6484306046879
 31
0.0
  0
LINE
  5
24BEA
330
18
100
AcDbEntity
  8
01
100
AcDbLine
 10
2119.00481710268
 20
-810.1484306046879
 30
0.0
 11
2119.00481710268
 21
-811.6484306046879
 31
0.0
  0
ARC
  5
24BED
330
18
100
AcDbEntity
  8
01
100
AcDbCircle
 10
2123.504817572681
 20
-773.7168782578715
 30
0.0
 40
1.0
100
AcDbArc
 50
179.999989999999
 51
270.0
  0
LINE
  5
24BEF
330
18
100
AcDbEntity
  8
01
100
AcDbLine
 10
2151.504817572681
 20
-810.1484306046879
 30
0.0
 11
2151.504817572681
 21
-811.6484306046879
 31
0.0
  0
ARC
  5
24BF0
330
18
100
AcDbEntity
  8
01
100
AcDbCircle
 10
2150.504817572681
 20
-773.7168782578715
 30
0.0
 40
1.0
100
AcDbArc
 50
270.0
 51
0.0
  0
LINE
  5
24BF1
330
18
100
AcDbEntity
  8
01
100
AcDbLine
 10
2127.004817572681
 20
-811.6484306046879
 30
0.0
 11
2147.80481857268
 21
-811.6484306046879
 31
0.0
  0
LINE
  5
24BF2
330
18
100
AcDbEntity
  8
01
100
AcDbLine
 10
2127.40481757268
 20
-812.0484306046878
 30
0.0
 11
2147.40481757268
 21
-812.0484306046878
 31
0.0
  0
LINE
  5
24BF3
330
18
100
AcDbEntity
  8
01
100
AcDbLine
 10
2127.40481757268
 20
-822.1484306046879
 30
0.0
 11
2147.40481757268
 21
-822.1484306046879
 31
0.0
  0
LINE
  5
24BF5
330
18
100
AcDbEntity
  8
01
100
AcDbLine
 10
2074.604815572681
 20
-773.7168774578715
 30
0.0
 11
2075.004817572681
 21
-773.7168774578715
 31
0.0
  0
LINE
  5
24BF6
330
18
100
AcDbEntity
  8
01
100
AcDbLine
 10
2127.004817572681
 20
-821.7484306046879
 30
0.0
 11
2127.004817572681
 21
-811.6484306046879
 31
0.0
  0
LINE
  5
24BF7
330
18
100
AcDbEntity
  8
01
100
AcDbLine
 10
2127.40481757268
 20
-812.0484306046878
 30
0.0
 11
2127.40481757268
 21
-822.1484306046879
 31
0.0
  0
ARC
  5
24BF8
330
18
100
AcDbEntity
  8
01
100
AcDbCircle
 10
2127.40481757268
 20
-821.7484306046879
 30
0.0
 40
0.4000000000000128
100
AcDbArc
 50
180.0
 51
270.0
  0
LINE
  5
24BF9
330
18
100
AcDbEntity
  8
01
100
AcDbLine
 10
2127.40481757268
 20
-811.6484306046879
 30
0.0
 11
2127.40481757268
 21
-812.0484306046878
 31
0.0
  0
LINE
  5
24BFA
330
18
100
AcDbEntity
  8
01
100
AcDbLine
 10
2147.80481857268
 20
-821.7484306046879
 30
0.0
 11
2147.80481857268
 21
-811.6484306046879
 31
0.0
  0
LINE
  5
24BFB
330
18
100
AcDbEntity
  8
01
100
AcDbLine
 10
2147.40481757268
 20
-812.0484306046878
 30
0.0
 11
2147.40481757268
 21
-822.1484306046879
 31
0.0
  0
ARC
  5
24BFC
330
18
100
AcDbEntity
  8
01
100
AcDbCircle
 10
2147.40481757268
 20
-821.7484306046879
 30
0.0
 40
0.4000000000000057
100
AcDbArc
 50
270.0
 51
0.0
  0
LINE
  5
24BFD
330
18
100
AcDbEntity
  8
01
100
AcDbLine
 10
2134.40481757268
 20
-812.0484306046878
 30
0.0
 11
2134.40481757268
 21
-811.6484306046879
 31
0.0
  0
LINE
  5
24BFE
330
18
100
AcDbEntity
  8
01
100
AcDbLine
 10
2140.40481757268
 20
-811.6484306046879
 30
0.0
 11
2140.40481757268
 21
-812.0484306046878
 31
0.0
  0
LINE
  5
24BFF
330
18
100
AcDbEntity
  8
01
100
AcDbLine
 10
2147.40481757268
 20
-811.6484306046879
 30
0.0
 11
2147.40481757268
 21
-812.0484306046878
 31
0.0
  0
LINE
  5
24C00
330
18
100
AcDbEntity
  8
1CENTER
100
AcDbLine
 10
2112.53971017268
 20
-739.7168778578715
 30
0.0
 11
2160.043093572681
 21
-739.7168778578715
 31
0.0
  0
LINE
  5
24C03
330
18
100
AcDbEntity
  8
01
100
AcDbLine
 10
2128.504817572681
 20
-755.7168788578715
 30
0.0
 11
2145.004817572681
 21
-755.7168788578715
 31
0.0
  0
LINE
  5
24C04
330
18
100
AcDbEntity
  8
01
100
AcDbLine
 10
2128.504817572681
 20
-723.7168778578715
 30
0.0
 11
2145.004817572681
 21
-723.7168778578715
 31
0.0
  0
LINE
  5
24C05
330
18
100
AcDbEntity
  8
1CENTER
100
AcDbLine
 10
2127.26190657268
 20
-712.7168778578715
 30
0.0
 11
2145.088831572681
 21
-712.7168778578715
 31
0.0
  0
LINE
  5
24C06
330
18
100
AcDbEntity
  8
01
100
AcDbLine
 10
2123.504817572681
 20
-704.7168778578715
 30
0.0
 11
2150.504817572681
 21
-704.7168778578715
 31
0.0
  0
LINE
  5
24C09
330
18
100
AcDbEntity
  8
01
100
AcDbLine
 10
2119.00481710268
 20
-722.2168778578715
 30
0.0
 11
2119.00481710268
 21
-757.2168786578715
 31
0.0
  0
LINE
  5
24C0A
330
18
100
AcDbEntity
  8
01
100
AcDbLine
 10
2128.504817572681
 20
-726.7168778578715
 30
0.0
 11
2128.504817572681
 21
-752.7168788578715
 31
0.0
  0
LINE
  5
24C0B
330
18
100
AcDbEntity
  8
01
100
AcDbLine
 10
2120.50481707268
 20
-758.7168786578715
 30
0.0
 11
2121.504817572681
 21
-758.7168786578715
 31
0.0
  0
ARC
  5
24C0C
330
18
100
AcDbEntity
  8
01
100
AcDbCircle
 10
2120.50481707268
 20
-757.2168786578715
 30
0.0
 40
1.5
100
AcDbArc
 50
179.999989999999
 51
270.0
  0
ARC
  5
24C0D
330
18
100
AcDbEntity
  8
01
100
AcDbCircle
 10
2121.504817572681
 20
-759.7168786578715
 30
0.0
 40
1.0
100
AcDbArc
 50
0.0
 51
90.00000299999769
  0
ARC
  5
24C0E
330
18
100
AcDbEntity
  8
01
100
AcDbCircle
 10
2128.504817572681
 20
-753.7168788578715
 30
0.0
 40
2.0
100
AcDbArc
 50
179.999989999999
 51
270.0
  0
LINE
  5
24C0F
330
18
100
AcDbEntity
  8
01
100
AcDbLine
 10
2127.504817572681
 20
-752.7168788578715
 30
0.0
 11
2128.504817572681
 21
-752.7168788578715
 31
0.0
  0
ARC
  5
24C10
330
18
100
AcDbEntity
  8
01
100
AcDbCircle
 10
2127.504817572681
 20
-753.7168788578715
 30
0.0
 40
1.0
100
AcDbArc
 50
90.00000299999769
 51
180.000010000001
  0
LINE
  5
24C11
330
18
100
AcDbEntity
  8
01
100
AcDbLine
 10
2122.504817572681
 20
-705.7168778578715
 30
0.0
 11
2122.504817572681
 21
-719.7168778578715
 31
0.0
  0
LINE
  5
24C12
330
18
100
AcDbEntity
  8
01
100
AcDbLine
 10
2120.50481707268
 20
-720.7168778578715
 30
0.0
 11
2121.504817572681
 21
-720.7168778578715
 31
0.0
  0
ARC
  5
24C13
330
18
100
AcDbEntity
  8
01
100
AcDbCircle
 10
2120.50481707268
 20
-722.2168778578715
 30
0.0
 40
1.5
100
AcDbArc
 50
90.00000299999769
 51
180.000010000001
  0
ARC
  5
24C14
330
18
100
AcDbEntity
  8
01
100
AcDbCircle
 10
2121.504817572681
 20
-719.7168778578715
 30
0.0
 40
1.0
100
AcDbArc
 50
270.0
 51
0.0
  0
ARC
  5
24C15
330
18
100
AcDbEntity
  8
01
100
AcDbCircle
 10
2123.504817572681
 20
-705.7168778578715
 30
0.0
 40
1.0
100
AcDbArc
 50
90.00000299999769
 51
180.000010000001
  0
ARC
  5
24C16
330
18
100
AcDbEntity
  8
01
100
AcDbCircle
 10
2127.504817572681
 20
-725.7168778578715
 30
0.0
 40
1.0
100
AcDbArc
 50
179.999989999999
 51
270.0
  0
LINE
  5
24C17
330
18
100
AcDbEntity
  8
01
100
AcDbLine
 10
2127.504817572681
 20
-726.7168778578715
 30
0.0
 11
2128.504817572681
 21
-726.7168778578715
 31
0.0
  0
ARC
  5
24C18
330
18
100
AcDbEntity
  8
01
100
AcDbCircle
 10
2128.504817572681
 20
-725.7168778578715
 30
0.0
 40
2.0
100
AcDbArc
 50
90.00000299999769
 51
180.000010000001
  0
CIRCLE
  5
24C19
330
18
100
AcDbEntity
  8
01
100
AcDbCircle
 10
2137.004817572681
 20
-712.7168778578715
 30
0.0
 40
4.400002
  0
CIRCLE
  5
24C1A
330
18
100
AcDbEntity
  8
01
100
AcDbCircle
 10
2137.004817572681
 20
-712.7168778578715
 30
0.0
 40
3.4000001
  0
LINE
  5
24C1C
330
18
100
AcDbEntity
  8
01
100
AcDbLine
 10
2147.004817572681
 20
-725.7168778578715
 30
0.0
 11
2147.004817572681
 21
-753.7168788578715
 31
0.0
  0
ARC
  5
24C1D
330
18
100
AcDbEntity
  8
01
100
AcDbCircle
 10
2145.004817572681
 20
-753.7168788578715
 30
0.0
 40
2.0
100
AcDbArc
 50
270.0
 51
0.0
  0
ARC
  5
24C1E
330
18
100
AcDbEntity
  8
01
100
AcDbCircle
 10
2145.004817572681
 20
-725.7168778578715
 30
0.0
 40
2.0
100
AcDbArc
 50
0.0
 51
90.00000299999769
  0
ARC
  5
24C1F
330
18
100
AcDbEntity
  8
01
100
AcDbCircle
 10
2150.504817572681
 20
-705.7168778578715
 30
0.0
 40
1.0
100
AcDbArc
 50
0.0
 51
90.00000299999769
  0
LINE
  5
24C20
330
18
100
AcDbEntity
  8
01
100
AcDbLine
 10
2064.504817572681
 20
-722.1168774578715
 30
0.0
 11
2064.504817572681
 21
-757.3168784578714
 31
0.0
  0
LINE
  5
24C22
330
18
100
AcDbEntity
  8
01
100
AcDbLine
 10
2064.904817572681
 20
-757.7168774578715
 30
0.0
 11
2075.004817572681
 21
-757.7168774578715
 31
0.0
  0
ARC
  5
24C24
330
18
100
AcDbEntity
  8
01
100
AcDbCircle
 10
2064.904817572681
 20
-757.3168784578714
 30
0.0
 40
0.3999999999999986
100
AcDbArc
 50
180.0
 51
270.0
  0
LINE
  5
24C25
330
18
100
AcDbEntity
  8
01
100
AcDbLine
 10
2074.604815572681
 20
-705.7168774578714
 30
0.0
 11
2074.604815572681
 21
-721.7168774578715
 31
0.0
  0
LINE
  5
24C26
330
18
100
AcDbEntity
  8
01
100
AcDbLine
 10
2064.904817572681
 20
-721.7168774578715
 30
0.0
 11
2075.004817572681
 21
-721.7168774578715
 31
0.0
  0
ARC
  5
24C28
330
18
100
AcDbEntity
  8
01
100
AcDbCircle
 10
2064.904817572681
 20
-722.1168774578715
 30
0.0
 40
0.4000000000000057
100
AcDbArc
 50
90.0
 51
180.0
  0
LINE
  5
24C29
330
18
100
AcDbEntity
  8
01
100
AcDbLine
 10
2074.604815572681
 20
-705.7168774578714
 30
0.0
 11
2075.004817572681
 21
-705.7168774578714
 31
0.0
  0
LINE
  5
24C2D
330
18
100
AcDbEntity
  8
01
100
AcDbLine
 10
2075.004817572681
 20
-704.7168774578715
 30
0.0
 11
2076.504817572681
 21
-704.7168774578715
 31
0.0
  0
LINE
  5
24FB1
330
18
100
AcDbEntity
  8
01
100
AcDbLine
 10
2122.504817572681
 20
-810.1484306046879
 30
0.0
 11
2122.504817572681
 21
-811.6484306046879
 31
0.0
  0
LINE
  5
267B3
330
18
100
AcDbEntity
  8
1CENTER
100
AcDbLine
 10
2058.937499417717
 20
-675.8168778578715
 30
0.0
 11
2188.786994880839
 21
-675.8168778578715
 31
0.0
  0
LINE
  5
26CC7
330
18
100
AcDbEntity
  8
1DIM
100
AcDbLine
 10
2187.786994880839
 20
-675.8168778578715
 30
0.0
 11
2189.786994880839
 21
-675.8168778578715
 31
0.0
1001
ACAD
1000
DSTYLE
1002
{
1070
    45
1040
0.5
1002
}
  0
LINE
  5
26CC8
330
18
100
AcDbEntity
  8
1DIM
100
AcDbLine
 10
2150.504817572681
 20
-704.7168778578715
 30
0.0
 11
2189.786994880839
 21
-704.7168778578715
 31
0.0
1001
ACAD
1000
DSTYLE
1002
{
1070
    45
1040
0.5
1002
}
  0
LINE
  5
26CC9
330
18
100
AcDbEntity
  8
1DIM
100
AcDbLine
 10
2188.786994880839
 20
-677.8168778578715
 30
0.0
 11
2188.786994880839
 21
-702.7168778578715
 31
0.0
1001
ACAD
1000
DSTYLE
1002
{
1070
    45
1040
0.5
1002
}
  0
TEXT
  5
26CCD
330
18
100
AcDbEntity
  8
1HATCH
  6
CONTINUOUS
100
AcDbText
 10
2025.769391082042
 20
-655.859714042309
 30
0.0
 40
8.0
  1
KLWS-18
100
AcDbText
1001
ACADANNOTATIVE
1000
AnnotativeData
1002
{
1070
     1
1070
     0
1002
}
  0
LINE
  5
26CCE
330
18
100
AcDbEntity
  8
1DIM
100
AcDbLine
 10
2145.329737572681
 20
-766.7168786878715
 30
0.0
 11
2179.33354466368
 21
-766.7168786878715
 31
0.0
1001
ACAD
1000
DSTYLE
1002
{
1070
    45
1040
0.5
1002
}
  0
LINE
  5
26CCF
330
18
100
AcDbEntity
  8
1DIM
100
AcDbLine
 10
2145.088831572681
 20
-712.7168778578715
 30
0.0
 11
2179.33354466368
 21
-712.7168778578715
 31
0.0
1001
ACAD
1000
DSTYLE
1002
{
1070
    45
1040
0.5
1002
}
  0
LINE
  5
26CD0
330
18
100
AcDbEntity
  8
1DIM
100
AcDbLine
 10
2178.33354466368
 20
-764.7168786878715
 30
0.0
 11
2178.33354466368
 21
-714.7168778578715
 31
0.0
1001
ACAD
1000
DSTYLE
1002
{
1070
    45
1040
0.5
1002
}
  0
LINE
  5
26CD4
330
18
100
AcDbEntity
  8
1DIM
100
AcDbLine
 10
2145.004817572681
 20
-755.7168788578715
 30
0.0
 11
2171.262060665418
 21
-755.7168788578715
 31
0.0
1001
ACAD
1000
DSTYLE
1002
{
1070
    45
1040
0.5
1002
}
  0
LINE
  5
26CD5
330
18
100
AcDbEntity
  8
1DIM
100
AcDbLine
 10
2145.00481746796
 20
-723.7168778578715
 30
0.0
 11
2171.262060665418
 21
-723.7168778578715
 31
0.0
1001
ACAD
1000
DSTYLE
1002
{
1070
    45
1040
0.5
1002
}
  0
LINE
  5
26CD6
330
18
100
AcDbEntity
  8
1DIM
100
AcDbLine
 10
2170.262060665418
 20
-753.7168788578715
 30
0.0
 11
2170.262060665418
 21
-725.7168778578715
 31
0.0
1001
ACAD
1000
DSTYLE
1002
{
1070
    45
1040
0.5
1002
}
  0
LINE
  5
26CDA
330
18
100
AcDbEntity
  8
1DIM
100
AcDbLine
 10
2150.504817572681
 20
-774.7168782578715
 30
0.0
 11
2189.786994880839
 21
-774.7168782578715
 31
0.0
1001
ACAD
1000
DSTYLE
1002
{
1070
    45
1040
0.5
1002
}
  0
LINE
  5
26CDB
330
18
100
AcDbEntity
  8
1DIM
100
AcDbLine
 10
2150.504817520321
 20
-704.7168778578715
 30
0.0
 11
2189.786994880839
 21
-704.7168778578715
 31
0.0
1001
ACAD
1000
DSTYLE
1002
{
1070
    45
1040
0.5
1002
}
  0
LINE
  5
26CDC
330
18
100
AcDbEntity
  8
1DIM
100
AcDbLine
 10
2188.786994880839
 20
-772.7168782578715
 30
0.0
 11
2188.786994880839
 21
-706.7168778578715
 31
0.0
1001
ACAD
1000
DSTYLE
1002
{
1070
    45
1040
0.5
1002
}
  0
LINE
  5
26CE0
330
18
100
AcDbEntity
  8
1DIM
100
AcDbLine
 10
2119.00481707268
 20
-757.216878396072
 30
0.0
 11
2119.00481707268
 21
-795.4141899872174
 31
0.0
1001
ACAD
1000
DSTYLE
1002
{
1070
    45
1040
0.5
1002
}
  0
LINE
  5
26CE1
330
18
100
AcDbEntity
  8
1DIM
100
AcDbLine
 10
2151.504817572681
 20
-773.7168782578715
 30
0.0
 11
2151.504817572681
 21
-795.4141899872174
 31
0.0
1001
ACAD
1000
DSTYLE
1002
{
1070
    45
1040
0.5
1002
}
  0
LINE
  5
26CE2
330
18
100
AcDbEntity
  8
1DIM
100
AcDbLine
 10
2121.00481707268
 20
-794.4141899872174
 30
0.0
 11
2149.504817572681
 21
-794.4141899872174
 31
0.0
1001
ACAD
1000
DSTYLE
1002
{
1070
    45
1040
0.5
1002
}
  0
SOLID
  5
26CE6
330
18
100
AcDbEntity
  8
1DIM
100
AcDbTrace
 10
2136.30684860553
 20
-711.981611172462
 30
0.0
 11
2137.004817572681
 21
-712.7168778578715
 31
0.0
 12
2136.106111786865
 22
-712.2477236312895
 32
0.0
 13
2136.106111786865
 23
-712.2477236312895
 33
0.0
1001
ACAD
1000
DSTYLE
1002
{
1070
   343
1005
42
1070
   344
1005
42
1002
}
  0
LINE
  5
26CE7
330
18
100
AcDbEntity
  8
1DIM
100
AcDbLine
 10
2136.206480196198
 20
-712.1146674018757
 30
0.0
 11
2111.72437356916
 21
-693.6470608110856
 31
0.0
1001
ACAD
1000
DSTYLE
1002
{
1070
   343
1005
42
1070
   344
1005
42
1002
}
  0
LINE
  5
26CE8
330
18
100
AcDbEntity
  8
1DIM
100
AcDbLine
 10
2111.72437356916
 20
-693.6470608110856
 30
0.0
 11
2076.891040235826
 21
-693.6470608110856
 31
0.0
1001
ACAD
1000
DSTYLE
1002
{
1070
   343
1005
42
1070
   344
1005
42
1002
}
  0
TEXT
  5
26CE9
330
18
100
AcDbEntity
  8
1DIM
  6
CONTINUOUS
100
AcDbText
 10
2079.22437356916
 20
-692.9470608110855
 30
0.0
 40
3.5
  1
4mm皿ねじ中心
100
AcDbText
1001
ACADANNOTATIVE
1000
AnnotativeData
1002
{
1070
     1
1070
     0
1002
}
  0
LINE
  5
26CEA
330
18
100
AcDbEntity
  8
1DIM
100
AcDbLine
 10
2064.904817572681
 20
-757.7168784578714
 30
0.0
 11
2057.444696789958
 21
-757.7168784578714
 31
0.0
1001
ACAD
1000
DSTYLE
1002
{
1070
    45
1040
0.5
1002
}
  0
LINE
  5
26CEB
330
18
100
AcDbEntity
  8
1DIM
100
AcDbLine
 10
2064.904817572681
 20
-721.7168774578715
 30
0.0
 11
2057.444696789958
 21
-721.7168774578715
 31
0.0
1001
ACAD
1000
DSTYLE
1002
{
1070
    45
1040
0.5
1002
}
  0
LINE
  5
26CEC
330
18
100
AcDbEntity
  8
1DIM
100
AcDbLine
 10
2058.444696789958
 20
-755.7168784578714
 30
0.0
 11
2058.444696789958
 21
-723.7168774578715
 31
0.0
1001
ACAD
1000
DSTYLE
1002
{
1070
    45
1040
0.5
1002
}
  0
LINE
  5
26CF0
330
18
100
AcDbEntity
  8
1DIM
100
AcDbLine
 10
2119.00481710268
 20
-811.6484306046879
 30
0.0
 11
2102.760791767822
 21
-811.6484306046879
 31
0.0
1001
ACAD
1000
DSTYLE
1002
{
1070
    45
1040
0.5
1002
}
  0
LINE
  5
26CF1
330
18
100
AcDbEntity
  8
1DIM
100
AcDbLine
 10
2119.00481710268
 20
-810.1484306046879
 30
0.0
 11
2102.760791767822
 21
-810.1484306046879
 31
0.0
1001
ACAD
1000
DSTYLE
1002
{
1070
    45
1040
0.5
1002
}
  0
LINE
  5
26CF2
330
18
100
AcDbEntity
  8
1DIM
100
AcDbLine
 10
2103.760791767822
 20
-811.6484306046879
 30
0.0
 11
2103.760791767822
 21
-823.8817639380205
 31
0.0
1001
ACAD
1000
DSTYLE
1002
{
1070
    45
1040
0.5
1002
}
  0
LINE
  5
26CF3
330
18
100
AcDbEntity
  8
1DIM
100
AcDbLine
 10
2103.760791767822
 20
-811.6484306046879
 30
0.0
 11
2103.760791767822
 21
-810.1484306046879
 31
0.0
1001
ACAD
1000
DSTYLE
1002
{
1070
    45
1040
0.5
1002
}
  0
LINE
  5
26CF4
330
18
100
AcDbEntity
  8
1DIM
100
AcDbLine
 10
2103.760791767822
 20
-813.6484306046879
 30
0.0
 11
2103.760791767822
 21
-815.6484306046879
 31
0.0
1001
ACAD
1000
DSTYLE
1002
{
1070
    45
1040
0.5
1002
}
  0
LINE
  5
26CF5
330
18
100
AcDbEntity
  8
1DIM
100
AcDbLine
 10
2103.760791767822
 20
-808.1484306046879
 30
0.0
 11
2103.760791767822
 21
-806.1484306046879
 31
0.0
1001
ACAD
1000
DSTYLE
1002
{
1070
    45
1040
0.5
1002
}
  0
LINE
  5
26CF9
330
18
100
AcDbEntity
  8
1DIM
100
AcDbLine
 10
2127.004817572681
 20
-821.7484306046879
 30
0.0
 11
2127.004817572681
 21
-834.800156127815
 31
0.0
1001
ACAD
1000
DSTYLE
1002
{
1070
    45
1040
0.5
1002
}
  0
LINE
  5
26CFA
330
18
100
AcDbEntity
  8
1DIM
100
AcDbLine
 10
2119.00481710268
 20
-811.6484306046879
 30
0.0
 11
2119.00481710268
 21
-834.800156127815
 31
0.0
1001
ACAD
1000
DSTYLE
1002
{
1070
    45
1040
0.5
1002
}
  0
LINE
  5
26CFB
330
18
100
AcDbEntity
  8
1DIM
100
AcDbLine
 10
2125.004817572681
 20
-833.800156127815
 30
0.0
 11
2121.00481710268
 21
-833.800156127815
 31
0.0
1001
ACAD
1000
DSTYLE
1002
{
1070
    45
1040
0.5
1002
}
  0
LINE
  5
26CFF
330
18
100
AcDbEntity
  8
1DIM
100
AcDbLine
 10
2127.00481757268
 20
-821.7484306046879
 30
0.0
 11
2127.00481757268
 21
-834.800156127815
 31
0.0
1001
ACAD
1000
DSTYLE
1002
{
1070
    45
1040
0.5
1002
}
  0
LINE
  5
26D00
330
18
100
AcDbEntity
  8
1DIM
100
AcDbLine
 10
2147.80481857268
 20
-821.7484306046879
 30
0.0
 11
2147.80481857268
 21
-834.800156127815
 31
0.0
1001
ACAD
1000
DSTYLE
1002
{
1070
    45
1040
0.5
1002
}
  0
LINE
  5
26D01
330
18
100
AcDbEntity
  8
1DIM
100
AcDbLine
 10
2129.00481757268
 20
-833.800156127815
 30
0.0
 11
2145.80481857268
 21
-833.800156127815
 31
0.0
1001
ACAD
1000
DSTYLE
1002
{
1070
    45
1040
0.5
1002
}
  0
LINE
  5
26D05
330
18
100
AcDbEntity
  8
1DIM
100
AcDbLine
 10
2147.40481757268
 20
-822.1484306046879
 30
0.0
 11
2176.072872914541
 21
-822.1484306046879
 31
0.0
1001
ACAD
1000
DSTYLE
1002
{
1070
    45
1040
0.5
1002
}
  0
LINE
  5
26D06
330
18
100
AcDbEntity
  8
1DIM
100
AcDbLine
 10
2151.504817572681
 20
-810.1484306046879
 30
0.0
 11
2176.072872914541
 21
-810.1484306046879
 31
0.0
1001
ACAD
1000
DSTYLE
1002
{
1070
    45
1040
0.5
1002
}
  0
LINE
  5
26D07
330
18
100
AcDbEntity
  8
1DIM
100
AcDbLine
 10
2175.072872914541
 20
-820.1484306046879
 30
0.0
 11
2175.072872914541
 21
-812.1484306046879
 31
0.0
1001
ACAD
1000
DSTYLE
1002
{
1070
    45
1040
0.5
1002
}
  0
LINE
  5
26D0B
330
18
100
AcDbEntity
  8
1DIM
100
AcDbLine
 10
2137.004817572681
 20
-777.5980658578715
 30
0.0
 11
2137.004817572681
 21
-787.7767039464057
 31
0.0
1001
ACAD
1000
DSTYLE
1002
{
1070
    45
1040
0.5
1002
}
  0
LINE
  5
26D0C
330
18
100
AcDbEntity
  8
1DIM
100
AcDbLine
 10
2119.00481707268
 20
-757.216878396072
 30
0.0
 11
2119.00481707268
 21
-787.7767039464057
 31
0.0
1001
ACAD
1000
DSTYLE
1002
{
1070
    45
1040
0.5
1002
}
  0
LINE
  5
26D0D
330
18
100
AcDbEntity
  8
1DIM
100
AcDbLine
 10
2135.004817572681
 20
-786.7767039464057
 30
0.0
 11
2121.00481707268
 21
-786.7767039464057
 31
0.0
1001
ACAD
1000
DSTYLE
1002
{
1070
    45
1040
0.5
1002
}
  0
LINE
  5
26D11
330
18
100
AcDbEntity
  8
1DIM
100
AcDbLine
 10
2074.604815572681
 20
-773.7168774578715
 30
0.0
 11
2074.604815572681
 21
-787.7767039464057
 31
0.0
1001
ACAD
1000
DSTYLE
1002
{
1070
    45
1040
0.5
1002
}
  0
LINE
  5
26D12
330
18
100
AcDbEntity
  8
1DIM
100
AcDbLine
 10
2076.504817572681
 20
-774.7168782578715
 30
0.0
 11
2076.504817572681
 21
-787.7767039464057
 31
0.0
1001
ACAD
1000
DSTYLE
1002
{
1070
    45
1040
0.5
1002
}
  0
LINE
  5
26D13
330
18
100
AcDbEntity
  8
1DIM
100
AcDbLine
 10
2076.504817572681
 20
-786.7767039464057
 30
0.0
 11
2084.238150906013
 21
-786.7767039464057
 31
0.0
1001
ACAD
1000
DSTYLE
1002
{
1070
    45
1040
0.5
1002
}
  0
LINE
  5
26D14
330
18
100
AcDbEntity
  8
1DIM
100
AcDbLine
 10
2074.604815572681
 20
-786.7767039464057
 30
0.0
 11
2076.504817572681
 21
-786.7767039464057
 31
0.0
1001
ACAD
1000
DSTYLE
1002
{
1070
    45
1040
0.5
1002
}
  0
LINE
  5
26D15
330
18
100
AcDbEntity
  8
1DIM
100
AcDbLine
 10
2072.604815572681
 20
-786.7767039464057
 30
0.0
 11
2070.604815572681
 21
-786.7767039464057
 31
0.0
1001
ACAD
1000
DSTYLE
1002
{
1070
    45
1040
0.5
1002
}
  0
LINE
  5
26D16
330
18
100
AcDbEntity
  8
1DIM
100
AcDbLine
 10
2078.504817572681
 20
-786.7767039464057
 30
0.0
 11
2080.504817572681
 21
-786.7767039464057
 31
0.0
1001
ACAD
1000
DSTYLE
1002
{
1070
    45
1040
0.5
1002
}
  0
LINE
  5
26D1A
330
18
100
AcDbEntity
  8
1DIM
100
AcDbLine
 10
2120.504816994141
 20
-720.7168778578715
 30
0.0
 11
2102.760791767822
 21
-720.7168778578715
 31
0.0
1001
ACAD
1000
DSTYLE
1002
{
1070
   343
1005
42
1070
   344
1005
42
1002
}
  0
LINE
  5
26D1B
330
18
100
AcDbEntity
  8
1DIM
100
AcDbLine
 10
2123.504817572681
 20
-704.7168778578715
 30
0.0
 11
2102.760791767822
 21
-704.7168778578715
 31
0.0
1001
ACAD
1000
DSTYLE
1002
{
1070
   343
1005
42
1070
   344
1005
42
1002
}
  0
LINE
  5
26D1C
330
18
100
AcDbEntity
  8
1DIM
100
AcDbLine
 10
2103.760791767822
 20
-719.7168778578715
 30
0.0
 11
2103.760791767822
 21
-705.7168778578715
 31
0.0
1001
ACAD
1000
DSTYLE
1002
{
1070
   343
1005
42
1070
   344
1005
42
1002
}
  0
LINE
  5
26D20
330
18
100
AcDbEntity
  8
1DIM
100
AcDbLine
 10
2120.50481707268
 20
-758.7168786578715
 30
0.0
 11
2102.760791767822
 21
-758.7168786578715
 31
0.0
1001
ACAD
1000
DSTYLE
1002
{
1070
   343
1005
42
1070
   344
1005
42
1002
}
  0
LINE
  5
26D21
330
18
100
AcDbEntity
  8
1DIM
100
AcDbLine
 10
2120.5048170465
 20
-720.7168778578715
 30
0.0
 11
2102.760791767822
 21
-720.7168778578715
 31
0.0
1001
ACAD
1000
DSTYLE
1002
{
1070
   343
1005
42
1070
   344
1005
42
1002
}
  0
LINE
  5
26D22
330
18
100
AcDbEntity
  8
1DIM
100
AcDbLine
 10
2103.760791767822
 20
-757.7168786578715
 30
0.0
 11
2103.760791767822
 21
-721.7168778578715
 31
0.0
1001
ACAD
1000
DSTYLE
1002
{
1070
   343
1005
42
1070
   344
1005
42
1002
}
  0
LINE
  5
26D26
330
18
100
AcDbEntity
  8
1DIM
100
AcDbLine
 10
2123.504817572681
 20
-774.7168782578715
 30
0.0
 11
2102.760791767822
 21
-774.7168782578715
 31
0.0
1001
ACAD
1000
DSTYLE
1002
{
1070
   343
1005
42
1070
   344
1005
42
1002
}
  0
LINE
  5
26D27
330
18
100
AcDbEntity
  8
1DIM
100
AcDbLine
 10
2120.50481712504
 20
-758.7168786578715
 30
0.0
 11
2102.760791767822
 21
-758.7168786578715
 31
0.0
1001
ACAD
1000
DSTYLE
1002
{
1070
   343
1005
42
1070
   344
1005
42
1002
}
  0
LINE
  5
26D28
330
18
100
AcDbEntity
  8
1DIM
100
AcDbLine
 10
2103.760791767822
 20
-773.7168782578715
 30
0.0
 11
2103.760791767822
 21
-759.7168786578715
 31
0.0
1001
ACAD
1000
DSTYLE
1002
{
1070
   343
1005
42
1070
   344
1005
42
1002
}
  0
TEXT
  5
26D2C
330
18
100
AcDbEntity
  8
1DIM
  6
CONTINUOUS
100
AcDbText
 10
2059.274926370045
 20
-674.5575833279396
 30
0.0
 40
3.5
  1
LJフロント上端
100
AcDbText
1001
ACADANNOTATIVE
1000
AnnotativeData
1002
{
1070
     1
1070
     0
1002
}
  0
LINE
  5
26D2D
330
18
100
AcDbEntity
  8
1DIM
100
AcDbLine
 10
2074.604815572681
 20
-773.7168774578715
 30
0.0
 11
2048.587396336129
 21
-773.7168774578715
 31
0.0
1001
ACAD
1000
DSTYLE
1002
{
1070
   343
1005
42
1070
   344
1005
42
1002
}
  0
LINE
  5
26D2E
330
18
100
AcDbEntity
  8
1DIM
100
AcDbLine
 10
2074.604815572681
 20
-705.7168774578714
 30
0.0
 11
2048.587396336129
 21
-705.7168774578714
 31
0.0
1001
ACAD
1000
DSTYLE
1002
{
1070
   343
1005
42
1070
   344
1005
42
1002
}
  0
LINE
  5
26D2F
330
18
100
AcDbEntity
  8
1DIM
100
AcDbLine
 10
2049.587396336129
 20
-772.7168774578715
 30
0.0
 11
2049.587396336129
 21
-706.7168774578714
 31
0.0
1001
ACAD
1000
DSTYLE
1002
{
1070
   343
1005
42
1070
   344
1005
42
1002
}
  0
LINE
  5
26D33
330
18
100
AcDbEntity
  8
1DIM
100
AcDbLine
 10
2122.504817572681
 20
-705.7168780324045
 30
0.0
 11
2122.504817572681
 21
-683.1885195774108
 31
0.0
1001
ACAD
1000
DSTYLE
1002
{
1070
   343
1005
42
1070
   344
1005
42
1002
}
  0
LINE
  5
26D34
330
18
100
AcDbEntity
  8
1DIM
100
AcDbLine
 10
2151.504817572681
 20
-705.7168778578715
 30
0.0
 11
2151.504817572681
 21
-683.1885195774108
 31
0.0
1001
ACAD
1000
DSTYLE
1002
{
1070
   343
1005
42
1070
   344
1005
42
1002
}
  0
LINE
  5
26D35
330
18
100
AcDbEntity
  8
1DIM
100
AcDbLine
 10
2123.504817572681
 20
-684.1885195774108
 30
0.0
 11
2150.504817572681
 21
-684.1885195774108
 31
0.0
1001
ACAD
1000
DSTYLE
1002
{
1070
   343
1005
42
1070
   344
1005
42
1002
}
  0
LINE
  5
26D39
330
18
100
AcDbEntity
  8
1DIM
100
AcDbLine
 10
2128.504817572681
 20
-726.7168778578715
 30
0.0
 11
2128.504817572681
 21
-697.7894201501241
 31
0.0
1001
ACAD
1000
DSTYLE
1002
{
1070
   343
1005
42
1070
   344
1005
42
1002
}
  0
LINE
  5
26D3A
330
18
100
AcDbEntity
  8
1DIM
100
AcDbLine
 10
2137.004817572681
 20
-701.4594238578715
 30
0.0
 11
2137.004817572681
 21
-697.7894201501241
 31
0.0
1001
ACAD
1000
DSTYLE
1002
{
1070
   343
1005
42
1070
   344
1005
42
1002
}
  0
LINE
  5
26D3B
330
18
100
AcDbEntity
  8
1DIM
100
AcDbLine
 10
2129.504817572681
 20
-698.7894201501241
 30
0.0
 11
2136.004817572681
 21
-698.7894201501241
 31
0.0
1001
ACAD
1000
DSTYLE
1002
{
1070
   343
1005
42
1070
   344
1005
42
1002
}
  0
LINE
  5
26D3F
330
18
100
AcDbEntity
  8
1DIM
100
AcDbLine
 10
2128.504817572681
 20
-739.7168783578716
 30
0.0
 11
2128.504817572681
 21
-690.4023669503993
 31
0.0
1001
ACAD
1000
DSTYLE
1002
{
1070
   343
1005
42
1070
   344
1005
42
1002
}
  0
LINE
  5
26D40
330
18
100
AcDbEntity
  8
1DIM
100
AcDbLine
 10
2147.004817572681
 20
-739.7168783578716
 30
0.0
 11
2147.004817572681
 21
-690.4023669503993
 31
0.0
1001
ACAD
1000
DSTYLE
1002
{
1070
   343
1005
42
1070
   344
1005
42
1002
}
  0
LINE
  5
26D41
330
18
100
AcDbEntity
  8
1DIM
100
AcDbLine
 10
2129.504817572681
 20
-691.4023669503993
 30
0.0
 11
2146.004817572681
 21
-691.4023669503993
 31
0.0
1001
ACAD
1000
DSTYLE
1002
{
1070
   343
1005
42
1070
   344
1005
42
1002
}
  0
LINE
  5
26D45
330
18
100
AcDbEntity
  8
0
  6
BYBLOCK
100
AcDbLine
 10
2188.251096500839
 20
-677.8168778578715
 30
0.0
 11
2188.786994880839
 21
-675.8168778578715
 31
0.0
  0
LINE
  5
26D46
330
18
100
AcDbEntity
  8
0
  6
BYBLOCK
100
AcDbLine
 10
2188.786994880839
 20
-675.8168778578715
 30
0.0
 11
2189.322893260839
 21
-677.8168778578715
 31
0.0
  0
LINE
  5
26D47
330
18
100
AcDbEntity
  8
0
  6
BYBLOCK
100
AcDbLine
 10
2188.786994880839
 20
-675.8168778578715
 30
0.0
 11
2188.786994880839
 21
-677.8168778578715
 31
0.0
  0
LINE
  5
26D48
330
18
100
AcDbEntity
  8
0
  6
BYBLOCK
100
AcDbLine
 10
2189.322893260839
 20
-702.7168778578715
 30
0.0
 11
2188.786994880839
 21
-704.7168778578715
 31
0.0
  0
LINE
  5
26D49
330
18
100
AcDbEntity
  8
0
  6
BYBLOCK
100
AcDbLine
 10
2188.786994880839
 20
-704.7168778578715
 30
0.0
 11
2188.251096500839
 21
-702.7168778578715
 31
0.0
  0
LINE
  5
26D4A
330
18
100
AcDbEntity
  8
0
  6
BYBLOCK
100
AcDbLine
 10
2188.786994880839
 20
-704.7168778578715
 30
0.0
 11
2188.786994880839
 21
-702.7168778578715
 31
0.0
  0
TEXT
  5
26D4B
330
18
100
AcDbEntity
  8
1DIM
  6
CONTINUOUS
100
AcDbText
 10
2188.086994880839
 20
-693.1843547097233
 30
0.0
 40
3.5
  1
29
 50
90.0
100
AcDbText
1001
ACAD
1000
DSTYLE
1002
{
1070
    45
1040
0.5
1002
}
  0
LINE
  5
26D4C
330
18
100
AcDbEntity
  8
0
  6
BYBLOCK
100
AcDbLine
 10
2178.86944304368
 20
-764.7168786878715
 30
0.0
 11
2178.33354466368
 21
-766.7168786878715
 31
0.0
  0
LINE
  5
26D4D
330
18
100
AcDbEntity
  8
0
  6
BYBLOCK
100
AcDbLine
 10
2178.33354466368
 20
-766.7168786878715
 30
0.0
 11
2177.79764628368
 21
-764.7168786878715
 31
0.0
  0
LINE
  5
26D4E
330
18
100
AcDbEntity
  8
0
  6
BYBLOCK
100
AcDbLine
 10
2178.33354466368
 20
-766.7168786878715
 30
0.0
 11
2178.33354466368
 21
-764.7168786878715
 31
0.0
  0
LINE
  5
26D4F
330
18
100
AcDbEntity
  8
0
  6
BYBLOCK
100
AcDbLine
 10
2177.79764628368
 20
-714.7168778578715
 30
0.0
 11
2178.33354466368
 21
-712.7168778578715
 31
0.0
  0
LINE
  5
26D50
330
18
100
AcDbEntity
  8
0
  6
BYBLOCK
100
AcDbLine
 10
2178.33354466368
 20
-712.7168778578715
 30
0.0
 11
2178.86944304368
 21
-714.7168778578715
 31
0.0
  0
LINE
  5
26D51
330
18
100
AcDbEntity
  8
0
  6
BYBLOCK
100
AcDbLine
 10
2178.33354466368
 20
-712.7168778578715
 30
0.0
 11
2178.33354466368
 21
-714.7168778578715
 31
0.0
  0
TEXT
  5
26D52
330
18
100
AcDbEntity
  8
1DIM
  6
CONTINUOUS
100
AcDbText
 10
2177.63354466368
 20
-742.6456977173161
 30
0.0
 40
3.5
  1
54
 50
90.0
100
AcDbText
1001
ACAD
1000
DSTYLE
1002
{
1070
    45
1040
0.5
1002
}
  0
LINE
  5
26D53
330
18
100
AcDbEntity
  8
0
  6
BYBLOCK
100
AcDbLine
 10
2170.797959045418
 20
-753.7168788578715
 30
0.0
 11
2170.262060665418
 21
-755.7168788578715
 31
0.0
  0
LINE
  5
26D54
330
18
100
AcDbEntity
  8
0
  6
BYBLOCK
100
AcDbLine
 10
2170.262060665418
 20
-755.7168788578715
 30
0.0
 11
2169.726162285418
 21
-753.7168788578715
 31
0.0
  0
LINE
  5
26D55
330
18
100
AcDbEntity
  8
0
  6
BYBLOCK
100
AcDbLine
 10
2170.262060665418
 20
-755.7168788578715
 30
0.0
 11
2170.262060665418
 21
-753.7168788578715
 31
0.0
  0
LINE
  5
26D56
330
18
100
AcDbEntity
  8
0
  6
BYBLOCK
100
AcDbLine
 10
2169.726162285418
 20
-725.7168778578715
 30
0.0
 11
2170.262060665418
 21
-723.7168778578715
 31
0.0
  0
LINE
  5
26D57
330
18
100
AcDbEntity
  8
0
  6
BYBLOCK
100
AcDbLine
 10
2170.262060665418
 20
-723.7168778578715
 30
0.0
 11
2170.797959045418
 21
-725.7168778578715
 31
0.0
  0
LINE
  5
26D58
330
18
100
AcDbEntity
  8
0
  6
BYBLOCK
100
AcDbLine
 10
2170.262060665418
 20
-723.7168778578715
 30
0.0
 11
2170.262060665418
 21
-725.7168778578715
 31
0.0
  0
TEXT
  5
26D59
330
18
100
AcDbEntity
  8
1DIM
  6
CONTINUOUS
100
AcDbText
 10
2169.562060665418
 20
-742.6335450245379
 30
0.0
 40
3.5
  1
32
 50
90.0
100
AcDbText
1001
ACAD
1000
DSTYLE
1002
{
1070
    45
1040
0.5
1002
}
  0
LINE
  5
26D5A
330
18
100
AcDbEntity
  8
0
  6
BYBLOCK
100
AcDbLine
 10
2189.322893260839
 20
-772.7168782578715
 30
0.0
 11
2188.786994880839
 21
-774.7168782578715
 31
0.0
  0
LINE
  5
26D5B
330
18
100
AcDbEntity
  8
0
  6
BYBLOCK
100
AcDbLine
 10
2188.786994880839
 20
-774.7168782578715
 30
0.0
 11
2188.251096500839
 21
-772.7168782578715
 31
0.0
  0
LINE
  5
26D5C
330
18
100
AcDbEntity
  8
0
  6
BYBLOCK
100
AcDbLine
 10
2188.786994880839
 20
-774.7168782578715
 30
0.0
 11
2188.786994880839
 21
-772.7168782578715
 31
0.0
  0
LINE
  5
26D5D
330
18
100
AcDbEntity
  8
0
  6
BYBLOCK
100
AcDbLine
 10
2188.251096500839
 20
-706.7168778578715
 30
0.0
 11
2188.786994880839
 21
-704.7168778578715
 31
0.0
  0
LINE
  5
26D5E
330
18
100
AcDbEntity
  8
0
  6
BYBLOCK
100
AcDbLine
 10
2188.786994880839
 20
-704.7168778578715
 30
0.0
 11
2189.322893260839
 21
-706.7168778578715
 31
0.0
  0
LINE
  5
26D5F
330
18
100
AcDbEntity
  8
0
  6
BYBLOCK
100
AcDbLine
 10
2188.786994880839
 20
-704.7168778578715
 30
0.0
 11
2188.786994880839
 21
-706.7168778578715
 31
0.0
  0
TEXT
  5
26D60
330
18
100
AcDbEntity
  8
1DIM
  6
CONTINUOUS
100
AcDbText
 10
2188.086994880839
 20
-742.4147947245383
 30
0.0
 40
3.5
  1
70
 50
90.0
100
AcDbText
1001
ACAD
1000
DSTYLE
1002
{
1070
    45
1040
0.5
1002
}
  0
LINE
  5
26D61
330
18
100
AcDbEntity
  8
0
  6
BYBLOCK
100
AcDbLine
 10
2121.00481707268
 20
-794.9500883672174
 30
0.0
 11
2119.00481707268
 21
-794.4141899872174
 31
0.0
  0
LINE
  5
26D62
330
18
100
AcDbEntity
  8
0
  6
BYBLOCK
100
AcDbLine
 10
2119.00481707268
 20
-794.4141899872174
 30
0.0
 11
2121.00481707268
 21
-793.8782916072173
 31
0.0
  0
LINE
  5
26D63
330
18
100
AcDbEntity
  8
0
  6
BYBLOCK
100
AcDbLine
 10
2119.00481707268
 20
-794.4141899872174
 30
0.0
 11
2121.00481707268
 21
-794.4141899872174
 31
0.0
  0
LINE
  5
26D64
330
18
100
AcDbEntity
  8
0
  6
BYBLOCK
100
AcDbLine
 10
2149.504817572681
 20
-793.8782916072173
 30
0.0
 11
2151.504817572681
 21
-794.4141899872174
 31
0.0
  0
LINE
  5
26D65
330
18
100
AcDbEntity
  8
0
  6
BYBLOCK
100
AcDbLine
 10
2151.504817572681
 20
-794.4141899872174
 30
0.0
 11
2149.504817572681
 21
-794.9500883672174
 31
0.0
  0
LINE
  5
26D66
330
18
100
AcDbEntity
  8
0
  6
BYBLOCK
100
AcDbLine
 10
2151.504817572681
 20
-794.4141899872174
 30
0.0
 11
2149.504817572681
 21
-794.4141899872174
 31
0.0
  0
TEXT
  5
26D67
330
18
100
AcDbEntity
  8
1DIM
  6
CONTINUOUS
100
AcDbText
 10
2130.004817322681
 20
-793.7141899872174
 30
0.0
 40
3.5
  1
32.5
100
AcDbText
1001
ACAD
1000
DSTYLE
1002
{
1070
    45
1040
0.5
1002
}
  0
LINE
  5
26D68
330
18
100
AcDbEntity
  8
0
  6
BYBLOCK
100
AcDbLine
 10
2058.980595169958
 20
-755.7168784578714
 30
0.0
 11
2058.444696789958
 21
-757.7168784578714
 31
0.0
  0
LINE
  5
26D69
330
18
100
AcDbEntity
  8
0
  6
BYBLOCK
100
AcDbLine
 10
2058.444696789958
 20
-757.7168784578714
 30
0.0
 11
2057.908798409958
 21
-755.7168784578714
 31
0.0
  0
LINE
  5
26D6A
330
18
100
AcDbEntity
  8
0
  6
BYBLOCK
100
AcDbLine
 10
2058.444696789958
 20
-757.7168784578714
 30
0.0
 11
2058.444696789958
 21
-755.7168784578714
 31
0.0
  0
LINE
  5
26D6B
330
18
100
AcDbEntity
  8
0
  6
BYBLOCK
100
AcDbLine
 10
2057.908798409958
 20
-723.7168774578715
 30
0.0
 11
2058.444696789958
 21
-721.7168774578715
 31
0.0
  0
LINE
  5
26D6C
330
18
100
AcDbEntity
  8
0
  6
BYBLOCK
100
AcDbLine
 10
2058.444696789958
 20
-721.7168774578715
 30
0.0
 11
2058.980595169958
 21
-723.7168774578715
 31
0.0
  0
LINE
  5
26D6D
330
18
100
AcDbEntity
  8
0
  6
BYBLOCK
100
AcDbLine
 10
2058.444696789958
 20
-721.7168774578715
 30
0.0
 11
2058.444696789958
 21
-723.7168774578715
 31
0.0
  0
TEXT
  5
26D6E
330
18
100
AcDbEntity
  8
1DIM
  6
CONTINUOUS
100
AcDbText
 10
2057.744696789958
 20
-742.633544624538
 30
0.0
 40
3.5
  1
36
 50
90.0
100
AcDbText
1001
ACAD
1000
DSTYLE
1002
{
1070
    45
1040
0.5
1002
}
  0
LINE
  5
26D6F
330
18
100
AcDbEntity
  8
0
  6
BYBLOCK
100
AcDbLine
 10
2103.224893387822
 20
-813.6484306046879
 30
0.0
 11
2103.760791767822
 21
-811.6484306046879
 31
0.0
  0
LINE
  5
26D70
330
18
100
AcDbEntity
  8
0
  6
BYBLOCK
100
AcDbLine
 10
2103.760791767822
 20
-811.6484306046879
 30
0.0
 11
2104.296690147822
 21
-813.6484306046879
 31
0.0
  0
LINE
  5
26D71
330
18
100
AcDbEntity
  8
0
  6
BYBLOCK
100
AcDbLine
 10
2103.760791767822
 20
-811.6484306046879
 30
0.0
 11
2103.760791767822
 21
-813.6484306046879
 31
0.0
  0
LINE
  5
26D72
330
18
100
AcDbEntity
  8
0
  6
BYBLOCK
100
AcDbLine
 10
2104.296690147822
 20
-808.1484306046879
 30
0.0
 11
2103.760791767822
 21
-810.1484306046879
 31
0.0
  0
LINE
  5
26D73
330
18
100
AcDbEntity
  8
0
  6
BYBLOCK
100
AcDbLine
 10
2103.760791767822
 20
-810.1484306046879
 30
0.0
 11
2103.224893387822
 21
-808.1484306046879
 31
0.0
  0
LINE
  5
26D74
330
18
100
AcDbEntity
  8
0
  6
BYBLOCK
100
AcDbLine
 10
2103.760791767822
 20
-810.1484306046879
 30
0.0
 11
2103.760791767822
 21
-808.1484306046879
 31
0.0
  0
TEXT
  5
26D75
330
18
100
AcDbEntity
  8
1DIM
  6
CONTINUOUS
100
AcDbText
 10
2103.060791767823
 20
-822.6817639380206
 30
0.0
 40
3.5
  1
1.5
 50
90.0
100
AcDbText
1001
ACAD
1000
DSTYLE
1002
{
1070
    45
1040
0.5
1002
}
  0
LINE
  5
26D76
330
18
100
AcDbEntity
  8
0
  6
BYBLOCK
100
AcDbLine
 10
2125.004817572681
 20
-833.2642577478149
 30
0.0
 11
2127.004817572681
 21
-833.800156127815
 31
0.0
  0
LINE
  5
26D77
330
18
100
AcDbEntity
  8
0
  6
BYBLOCK
100
AcDbLine
 10
2127.004817572681
 20
-833.800156127815
 30
0.0
 11
2125.004817572681
 21
-834.336054507815
 31
0.0
  0
LINE
  5
26D78
330
18
100
AcDbEntity
  8
0
  6
BYBLOCK
100
AcDbLine
 10
2127.004817572681
 20
-833.800156127815
 30
0.0
 11
2125.004817572681
 21
-833.800156127815
 31
0.0
  0
LINE
  5
26D79
330
18
100
AcDbEntity
  8
0
  6
BYBLOCK
100
AcDbLine
 10
2121.00481710268
 20
-834.336054507815
 30
0.0
 11
2119.00481710268
 21
-833.800156127815
 31
0.0
  0
LINE
  5
26D7A
330
18
100
AcDbEntity
  8
0
  6
BYBLOCK
100
AcDbLine
 10
2119.00481710268
 20
-833.800156127815
 30
0.0
 11
2121.00481710268
 21
-833.2642577478149
 31
0.0
  0
LINE
  5
26D7B
330
18
100
AcDbEntity
  8
0
  6
BYBLOCK
100
AcDbLine
 10
2119.00481710268
 20
-833.800156127815
 30
0.0
 11
2121.00481710268
 21
-833.800156127815
 31
0.0
  0
TEXT
  5
26D7C
330
18
100
AcDbEntity
  8
1DIM
  6
CONTINUOUS
100
AcDbText
 10
2121.838150671014
 20
-833.1001561278149
 30
0.0
 40
3.5
  1
8
100
AcDbText
1001
ACAD
1000
DSTYLE
1002
{
1070
    45
1040
0.5
1002
}
  0
LINE
  5
26D7D
330
18
100
AcDbEntity
  8
0
  6
BYBLOCK
100
AcDbLine
 10
2129.00481757268
 20
-834.336054507815
 30
0.0
 11
2127.00481757268
 21
-833.800156127815
 31
0.0
  0
LINE
  5
26D7E
330
18
100
AcDbEntity
  8
0
  6
BYBLOCK
100
AcDbLine
 10
2127.00481757268
 20
-833.800156127815
 30
0.0
 11
2129.00481757268
 21
-833.2642577478149
 31
0.0
  0
LINE
  5
26D7F
330
18
100
AcDbEntity
  8
0
  6
BYBLOCK
100
AcDbLine
 10
2127.00481757268
 20
-833.800156127815
 30
0.0
 11
2129.00481757268
 21
-833.800156127815
 31
0.0
  0
LINE
  5
26D80
330
18
100
AcDbEntity
  8
0
  6
BYBLOCK
100
AcDbLine
 10
2145.80481857268
 20
-833.2642577478149
 30
0.0
 11
2147.80481857268
 21
-833.800156127815
 31
0.0
  0
LINE
  5
26D81
330
18
100
AcDbEntity
  8
0
  6
BYBLOCK
100
AcDbLine
 10
2147.80481857268
 20
-833.800156127815
 30
0.0
 11
2145.80481857268
 21
-834.336054507815
 31
0.0
  0
LINE
  5
26D82
330
18
100
AcDbEntity
  8
0
  6
BYBLOCK
100
AcDbLine
 10
2147.80481857268
 20
-833.800156127815
 30
0.0
 11
2145.80481857268
 21
-833.800156127815
 31
0.0
  0
TEXT
  5
26D83
330
18
100
AcDbEntity
  8
1DIM
  6
CONTINUOUS
100
AcDbText
 10
2135.071484739347
 20
-833.1001561278149
 30
0.0
 40
3.5
  1
21
100
AcDbText
1001
ACAD
1000
DSTYLE
1002
{
1070
    45
1040
0.5
1002
}
  0
LINE
  5
26D84
330
18
100
AcDbEntity
  8
0
  6
BYBLOCK
100
AcDbLine
 10
2175.608771294541
 20
-820.1484306046879
 30
0.0
 11
2175.072872914541
 21
-822.1484306046879
 31
0.0
  0
LINE
  5
26D85
330
18
100
AcDbEntity
  8
0
  6
BYBLOCK
100
AcDbLine
 10
2175.072872914541
 20
-822.1484306046879
 30
0.0
 11
2174.536974534541
 21
-820.1484306046879
 31
0.0
  0
LINE
  5
26D86
330
18
100
AcDbEntity
  8
0
  6
BYBLOCK
100
AcDbLine
 10
2175.072872914541
 20
-822.1484306046879
 30
0.0
 11
2175.072872914541
 21
-820.1484306046879
 31
0.0
  0
LINE
  5
26D87
330
18
100
AcDbEntity
  8
0
  6
BYBLOCK
100
AcDbLine
 10
2174.536974534541
 20
-812.1484306046879
 30
0.0
 11
2175.072872914541
 21
-810.1484306046879
 31
0.0
  0
LINE
  5
26D88
330
18
100
AcDbEntity
  8
0
  6
BYBLOCK
100
AcDbLine
 10
2175.072872914541
 20
-810.1484306046879
 30
0.0
 11
2175.608771294541
 21
-812.1484306046879
 31
0.0
  0
LINE
  5
26D89
330
18
100
AcDbEntity
  8
0
  6
BYBLOCK
100
AcDbLine
 10
2175.072872914541
 20
-810.1484306046879
 30
0.0
 11
2175.072872914541
 21
-812.1484306046879
 31
0.0
  0
TEXT
  5
26D8A
330
18
100
AcDbEntity
  8
1DIM
  6
CONTINUOUS
100
AcDbText
 10
2174.372872914541
 20
-818.4817639380212
 30
0.0
 40
3.5
  1
12
 50
90.0
100
AcDbText
1001
ACAD
1000
DSTYLE
1002
{
1070
    45
1040
0.5
1002
}
  0
LINE
  5
26D8B
330
18
100
AcDbEntity
  8
0
  6
BYBLOCK
100
AcDbLine
 10
2135.004817572681
 20
-786.2408055664057
 30
0.0
 11
2137.004817572681
 21
-786.7767039464057
 31
0.0
  0
LINE
  5
26D8C
330
18
100
AcDbEntity
  8
0
  6
BYBLOCK
100
AcDbLine
 10
2137.004817572681
 20
-786.7767039464057
 30
0.0
 11
2135.004817572681
 21
-787.3126023264058
 31
0.0
  0
LINE
  5
26D8D
330
18
100
AcDbEntity
  8
0
  6
BYBLOCK
100
AcDbLine
 10
2137.004817572681
 20
-786.7767039464057
 30
0.0
 11
2135.004817572681
 21
-786.7767039464057
 31
0.0
  0
LINE
  5
26D8E
330
18
100
AcDbEntity
  8
0
  6
BYBLOCK
100
AcDbLine
 10
2121.00481707268
 20
-787.3126023264058
 30
0.0
 11
2119.00481707268
 21
-786.7767039464057
 31
0.0
  0
LINE
  5
26D8F
330
18
100
AcDbEntity
  8
0
  6
BYBLOCK
100
AcDbLine
 10
2119.00481707268
 20
-786.7767039464057
 30
0.0
 11
2121.00481707268
 21
-786.2408055664057
 31
0.0
  0
LINE
  5
26D90
330
18
100
AcDbEntity
  8
0
  6
BYBLOCK
100
AcDbLine
 10
2119.00481707268
 20
-786.7767039464057
 30
0.0
 11
2121.00481707268
 21
-786.7767039464057
 31
0.0
  0
TEXT
  5
26D91
330
18
100
AcDbEntity
  8
1DIM
  6
CONTINUOUS
100
AcDbText
 10
2125.671483989347
 20
-786.0767039464057
 30
0.0
 40
3.5
  1
18
100
AcDbText
1001
ACAD
1000
DSTYLE
1002
{
1070
    45
1040
0.5
1002
}
  0
LINE
  5
26D92
330
18
100
AcDbEntity
  8
0
  6
BYBLOCK
100
AcDbLine
 10
2072.604815572681
 20
-786.2408055664057
 30
0.0
 11
2074.604815572681
 21
-786.7767039464057
 31
0.0
  0
LINE
  5
26D93
330
18
100
AcDbEntity
  8
0
  6
BYBLOCK
100
AcDbLine
 10
2074.604815572681
 20
-786.7767039464057
 30
0.0
 11
2072.604815572681
 21
-787.3126023264058
 31
0.0
  0
LINE
  5
26D94
330
18
100
AcDbEntity
  8
0
  6
BYBLOCK
100
AcDbLine
 10
2074.604815572681
 20
-786.7767039464057
 30
0.0
 11
2072.604815572681
 21
-786.7767039464057
 31
0.0
  0
LINE
  5
26D95
330
18
100
AcDbEntity
  8
0
  6
BYBLOCK
100
AcDbLine
 10
2078.504817572681
 20
-787.3126023264058
 30
0.0
 11
2076.504817572681
 21
-786.7767039464057
 31
0.0
  0
LINE
  5
26D96
330
18
100
AcDbEntity
  8
0
  6
BYBLOCK
100
AcDbLine
 10
2076.504817572681
 20
-786.7767039464057
 30
0.0
 11
2078.504817572681
 21
-786.2408055664057
 31
0.0
  0
LINE
  5
26D97
330
18
100
AcDbEntity
  8
0
  6
BYBLOCK
100
AcDbLine
 10
2076.504817572681
 20
-786.7767039464057
 30
0.0
 11
2078.504817572681
 21
-786.7767039464057
 31
0.0
  0
TEXT
  5
26D98
330
18
100
AcDbEntity
  8
1DIM
  6
CONTINUOUS
100
AcDbText
 10
2081.20481757268
 20
-786.0767039464057
 30
0.0
 40
3.5
  1
2
100
AcDbText
1001
ACAD
1000
DSTYLE
1002
{
1070
    45
1040
0.5
1002
}
  0
LINE
  5
26D99
330
18
100
AcDbEntity
  8
0
  6
BYBLOCK
100
AcDbLine
 10
2104.028740957822
 20
-719.7168778578715
 30
0.0
 11
2103.760791767822
 21
-720.7168778578715
 31
0.0
  0
LINE
  5
26D9A
330
18
100
AcDbEntity
  8
0
  6
BYBLOCK
100
AcDbLine
 10
2103.760791767822
 20
-720.7168778578715
 30
0.0
 11
2103.492842577822
 21
-719.7168778578715
 31
0.0
  0
LINE
  5
26D9B
330
18
100
AcDbEntity
  8
0
  6
BYBLOCK
100
AcDbLine
 10
2103.760791767822
 20
-720.7168778578715
 30
0.0
 11
2103.760791767822
 21
-719.7168778578715
 31
0.0
  0
LINE
  5
26D9C
330
18
100
AcDbEntity
  8
0
  6
BYBLOCK
100
AcDbLine
 10
2103.492842577822
 20
-705.7168778578715
 30
0.0
 11
2103.760791767822
 21
-704.7168778578715
 31
0.0
  0
LINE
  5
26D9D
330
18
100
AcDbEntity
  8
0
  6
BYBLOCK
100
AcDbLine
 10
2103.760791767822
 20
-704.7168778578715
 30
0.0
 11
2104.028740957822
 21
-705.7168778578715
 31
0.0
  0
LINE
  5
26D9E
330
18
100
AcDbEntity
  8
0
  6
BYBLOCK
100
AcDbLine
 10
2103.760791767822
 20
-704.7168778578715
 30
0.0
 11
2103.760791767822
 21
-705.7168778578715
 31
0.0
  0
TEXT
  5
26D9F
330
18
100
AcDbEntity
  8
1DIM
  6
CONTINUOUS
100
AcDbText
 10
2103.060791767822
 20
-715.0502111912051
 30
0.0
 40
3.5
  1
16
 50
90.0
100
AcDbText
1001
ACAD
1000
DSTYLE
1002
{
1070
   343
1005
42
1070
   344
1005
42
1002
}
  0
LINE
  5
26DA0
330
18
100
AcDbEntity
  8
0
  6
BYBLOCK
100
AcDbLine
 10
2104.028740957822
 20
-757.7168786578715
 30
0.0
 11
2103.760791767822
 21
-758.7168786578715
 31
0.0
  0
LINE
  5
26DA1
330
18
100
AcDbEntity
  8
0
  6
BYBLOCK
100
AcDbLine
 10
2103.760791767822
 20
-758.7168786578715
 30
0.0
 11
2103.492842577822
 21
-757.7168786578715
 31
0.0
  0
LINE
  5
26DA2
330
18
100
AcDbEntity
  8
0
  6
BYBLOCK
100
AcDbLine
 10
2103.760791767822
 20
-758.7168786578715
 30
0.0
 11
2103.760791767822
 21
-757.7168786578715
 31
0.0
  0
LINE
  5
26DA3
330
18
100
AcDbEntity
  8
0
  6
BYBLOCK
100
AcDbLine
 10
2103.492842577822
 20
-721.7168778578715
 30
0.0
 11
2103.760791767822
 21
-720.7168778578715
 31
0.0
  0
LINE
  5
26DA4
330
18
100
AcDbEntity
  8
0
  6
BYBLOCK
100
AcDbLine
 10
2103.760791767822
 20
-720.7168778578715
 30
0.0
 11
2104.028740957822
 21
-721.7168778578715
 31
0.0
  0
LINE
  5
26DA5
330
18
100
AcDbEntity
  8
0
  6
BYBLOCK
100
AcDbLine
 10
2103.760791767822
 20
-720.7168778578715
 30
0.0
 11
2103.760791767822
 21
-721.7168778578715
 31
0.0
  0
TEXT
  5
26DA6
330
18
100
AcDbEntity
  8
1DIM
  6
CONTINUOUS
100
AcDbText
 10
2103.060791767822
 20
-742.633544924538
 30
0.0
 40
3.5
  1
38
 50
90.0
100
AcDbText
1001
ACAD
1000
DSTYLE
1002
{
1070
   343
1005
42
1070
   344
1005
42
1002
}
  0
LINE
  5
26DA7
330
18
100
AcDbEntity
  8
0
  6
BYBLOCK
100
AcDbLine
 10
2104.028740957822
 20
-773.7168782578715
 30
0.0
 11
2103.760791767822
 21
-774.7168782578715
 31
0.0
  0
LINE
  5
26DA8
330
18
100
AcDbEntity
  8
0
  6
BYBLOCK
100
AcDbLine
 10
2103.760791767822
 20
-774.7168782578715
 30
0.0
 11
2103.492842577822
 21
-773.7168782578715
 31
0.0
  0
LINE
  5
26DA9
330
18
100
AcDbEntity
  8
0
  6
BYBLOCK
100
AcDbLine
 10
2103.760791767822
 20
-774.7168782578715
 30
0.0
 11
2103.760791767822
 21
-773.7168782578715
 31
0.0
  0
LINE
  5
26DAA
330
18
100
AcDbEntity
  8
0
  6
BYBLOCK
100
AcDbLine
 10
2103.492842577822
 20
-759.7168786578715
 30
0.0
 11
2103.760791767822
 21
-758.7168786578715
 31
0.0
  0
LINE
  5
26DAB
330
18
100
AcDbEntity
  8
0
  6
BYBLOCK
100
AcDbLine
 10
2103.760791767822
 20
-758.7168786578715
 30
0.0
 11
2104.028740957822
 21
-759.7168786578715
 31
0.0
  0
LINE
  5
26DAC
330
18
100
AcDbEntity
  8
0
  6
BYBLOCK
100
AcDbLine
 10
2103.760791767822
 20
-758.7168786578715
 30
0.0
 11
2103.760791767822
 21
-759.7168786578715
 31
0.0
  0
TEXT
  5
26DAD
330
18
100
AcDbEntity
  8
1DIM
  6
CONTINUOUS
100
AcDbText
 10
2103.060791767822
 20
-769.0502117912047
 30
0.0
 40
3.5
  1
16
 50
90.0
100
AcDbText
1001
ACAD
1000
DSTYLE
1002
{
1070
   343
1005
42
1070
   344
1005
42
1002
}
  0
LINE
  5
26DAE
330
18
100
AcDbEntity
  8
0
  6
BYBLOCK
100
AcDbLine
 10
2049.855345526129
 20
-772.7168774578715
 30
0.0
 11
2049.587396336129
 21
-773.7168774578715
 31
0.0
  0
LINE
  5
26DAF
330
18
100
AcDbEntity
  8
0
  6
BYBLOCK
100
AcDbLine
 10
2049.587396336129
 20
-773.7168774578715
 30
0.0
 11
2049.319447146129
 21
-772.7168774578715
 31
0.0
  0
LINE
  5
26DB0
330
18
100
AcDbEntity
  8
0
  6
BYBLOCK
100
AcDbLine
 10
2049.587396336129
 20
-773.7168774578715
 30
0.0
 11
2049.587396336129
 21
-772.7168774578715
 31
0.0
  0
LINE
  5
26DB1
330
18
100
AcDbEntity
  8
0
  6
BYBLOCK
100
AcDbLine
 10
2049.319447146129
 20
-706.7168774578714
 30
0.0
 11
2049.587396336129
 21
-705.7168774578714
 31
0.0
  0
LINE
  5
26DB2
330
18
100
AcDbEntity
  8
0
  6
BYBLOCK
100
AcDbLine
 10
2049.587396336129
 20
-705.7168774578714
 30
0.0
 11
2049.855345526129
 21
-706.7168774578714
 31
0.0
  0
LINE
  5
26DB3
330
18
100
AcDbEntity
  8
0
  6
BYBLOCK
100
AcDbLine
 10
2049.587396336129
 20
-705.7168774578714
 30
0.0
 11
2049.587396336129
 21
-706.7168774578714
 31
0.0
  0
TEXT
  5
26DB4
330
18
100
AcDbEntity
  8
1DIM
  6
CONTINUOUS
100
AcDbText
 10
2048.887396336128
 20
-742.6456969023159
 30
0.0
 40
3.5
  1
68
 50
90.0
100
AcDbText
1001
ACAD
1000
DSTYLE
1002
{
1070
   343
1005
42
1070
   344
1005
42
1002
}
  0
LINE
  5
26DB5
330
18
100
AcDbEntity
  8
0
  6
BYBLOCK
100
AcDbLine
 10
2123.504817572681
 20
-684.4564687674108
 30
0.0
 11
2122.504817572681
 21
-684.1885195774108
 31
0.0
  0
LINE
  5
26DB6
330
18
100
AcDbEntity
  8
0
  6
BYBLOCK
100
AcDbLine
 10
2122.504817572681
 20
-684.1885195774108
 30
0.0
 11
2123.504817572681
 21
-683.9205703874109
 31
0.0
  0
LINE
  5
26DB7
330
18
100
AcDbEntity
  8
0
  6
BYBLOCK
100
AcDbLine
 10
2122.504817572681
 20
-684.1885195774108
 30
0.0
 11
2123.504817572681
 21
-684.1885195774108
 31
0.0
  0
LINE
  5
26DB8
330
18
100
AcDbEntity
  8
0
  6
BYBLOCK
100
AcDbLine
 10
2150.504817572681
 20
-683.9205703874109
 30
0.0
 11
2151.504817572681
 21
-684.1885195774108
 31
0.0
  0
LINE
  5
26DB9
330
18
100
AcDbEntity
  8
0
  6
BYBLOCK
100
AcDbLine
 10
2151.504817572681
 20
-684.1885195774108
 30
0.0
 11
2150.504817572681
 21
-684.4564687674108
 31
0.0
  0
LINE
  5
26DBA
330
18
100
AcDbEntity
  8
0
  6
BYBLOCK
100
AcDbLine
 10
2151.504817572681
 20
-684.1885195774108
 30
0.0
 11
2150.504817572681
 21
-684.1885195774108
 31
0.0
  0
TEXT
  5
26DBB
330
18
100
AcDbEntity
  8
1DIM
  6
CONTINUOUS
100
AcDbText
 10
2134.087340720829
 20
-683.4885195774108
 30
0.0
 40
3.5
  1
29
100
AcDbText
1001
ACAD
1000
DSTYLE
1002
{
1070
   343
1005
42
1070
   344
1005
42
1002
}
  0
LINE
  5
26DBC
330
18
100
AcDbEntity
  8
0
  6
BYBLOCK
100
AcDbLine
 10
2129.504817572681
 20
-699.0573693401241
 30
0.0
 11
2128.504817572681
 21
-698.7894201501241
 31
0.0
  0
LINE
  5
26DBD
330
18
100
AcDbEntity
  8
0
  6
BYBLOCK
100
AcDbLine
 10
2128.504817572681
 20
-698.7894201501241
 30
0.0
 11
2129.504817572681
 21
-698.5214709601241
 31
0.0
  0
LINE
  5
26DBE
330
18
100
AcDbEntity
  8
0
  6
BYBLOCK
100
AcDbLine
 10
2128.504817572681
 20
-698.7894201501241
 30
0.0
 11
2129.504817572681
 21
-698.7894201501241
 31
0.0
  0
LINE
  5
26DBF
330
18
100
AcDbEntity
  8
0
  6
BYBLOCK
100
AcDbLine
 10
2136.004817572681
 20
-698.5214709601241
 30
0.0
 11
2137.004817572681
 21
-698.7894201501241
 31
0.0
  0
LINE
  5
26DC0
330
18
100
AcDbEntity
  8
0
  6
BYBLOCK
100
AcDbLine
 10
2137.004817572681
 20
-698.7894201501241
 30
0.0
 11
2136.004817572681
 21
-699.0573693401241
 31
0.0
  0
LINE
  5
26DC1
330
18
100
AcDbEntity
  8
0
  6
BYBLOCK
100
AcDbLine
 10
2137.004817572681
 20
-698.7894201501241
 30
0.0
 11
2136.004817572681
 21
-698.7894201501241
 31
0.0
  0
TEXT
  5
26DC2
330
18
100
AcDbEntity
  8
1DIM
  6
CONTINUOUS
100
AcDbText
 10
2129.254817572681
 20
-698.0869895945686
 30
0.0
 40
3.5
  1
8.5
100
AcDbText
1001
ACAD
1000
DSTYLE
1002
{
1070
   343
1005
42
1070
   344
1005
42
1002
}
  0
LINE
  5
26DC3
330
18
100
AcDbEntity
  8
0
  6
BYBLOCK
100
AcDbLine
 10
2129.504817572681
 20
-691.6703161403992
 30
0.0
 11
2128.504817572681
 21
-691.4023669503993
 31
0.0
  0
LINE
  5
26DC4
330
18
100
AcDbEntity
  8
0
  6
BYBLOCK
100
AcDbLine
 10
2128.504817572681
 20
-691.4023669503993
 30
0.0
 11
2129.504817572681
 21
-691.1344177603993
 31
0.0
  0
LINE
  5
26DC5
330
18
100
AcDbEntity
  8
0
  6
BYBLOCK
100
AcDbLine
 10
2128.504817572681
 20
-691.4023669503993
 30
0.0
 11
2129.504817572681
 21
-691.4023669503993
 31
0.0
  0
LINE
  5
26DC6
330
18
100
AcDbEntity
  8
0
  6
BYBLOCK
100
AcDbLine
 10
2146.004817572681
 20
-691.1344177603993
 30
0.0
 11
2147.004817572681
 21
-691.4023669503993
 31
0.0
  0
LINE
  5
26DC7
330
18
100
AcDbEntity
  8
0
  6
BYBLOCK
100
AcDbLine
 10
2147.004817572681
 20
-691.4023669503993
 30
0.0
 11
2146.004817572681
 21
-691.6703161403992
 31
0.0
  0
LINE
  5
26DC8
330
18
100
AcDbEntity
  8
0
  6
BYBLOCK
100
AcDbLine
 10
2147.004817572681
 20
-691.4023669503993
 30
0.0
 11
2146.004817572681
 21
-691.4023669503993
 31
0.0
  0
TEXT
  5
26DC9
330
18
100
AcDbEntity
  8
1DIM
  6
CONTINUOUS
100
AcDbText
 10
2133.088150906014
 20
-690.6999363948438
 30
0.0
 40
3.5
  1
18.5
100
AcDbText
1001
ACAD
1000
DSTYLE
1002
{
1070
   343
1005
42
1070
   344
1005
42
1002
}
  0
VIEWPORT
  5
57
330
15
100
AcDbEntity
 67
     1
  8
0
100
AcDbViewport
 68
     1
 10
0.0
 20
0.0
 30
0.0
 40
551.8723404255319
 41
297.0
 68
     1
 69
     1
1001
ACAD
1000
MVIEW
1002
{
1070
    16
1010
0.0
1020
0.0
1030
0.0
1010
0.0
1020
0.0
1030
1.0
1040
0.0
1040
297.0
1040
61.5033837936877
1040
0.0033837936875045
1040
50.0
1040
0.0
1040
0.0
1070
    16
1070
   100
1070
     0
1070
     1
1070
     0
1070
     0
1070
     0
1070
     0
1040
0.0
1040
0.0
1040
0.0
1040
10.0
1040
10.0
1040
10.0
1040
10.0
1070
     0
1002
{
1002
}
1002
}
  0
ENDSEC
  0
SECTION
  2
OBJECTS
  0
DICTIONARY
  5
C
330
0
100
AcDbDictionary
  3
ACAD_COLOR
350
1C5
  3
ACAD_GROUP
350
D
  3
ACAD_LAYOUT
350
1C6
  3
ACAD_MATERIAL
350
1C4
  3
ACAD_MLEADERSTYLE
350
24A5C
  3
ACAD_MLINESTYLE
350
1B
  3
ACAD_PLOTSETTINGS
350
1C7
  3
ACAD_SCALELIST
350
24A4A
  3
ACAD_VISUALSTYLE
350
24A36
  3
ACDBHEADERROUNDTRIPXREC
350
26DCB
  3
ACDBVARIABLEDICTIONARY
350
37
  3
CONTENTDICTIONARY
350
D8
  3
DRAWINGVARIABLESDICT
350
20
  3
DWGPROPS
350
26DCE
1001
ACAD
1000
TREAT_AS_HARD
1070
     0
  0
DICTIONARY
  5
31D3
330
2
100
AcDbDictionary
  3
ACAD_LAYERSTATES
360
31D4
1001
ACAD
1000
TREAT_AS_HARD
1070
     1
  0
DICTIONARY
  5
237B
330
18
100
AcDbDictionary
  3
ACAD_SORTENTS
360
237C
1001
ACAD
1000
TREAT_AS_HARD
1070
     1
  0
DICTIONARY
  5
1C5
102
{ACAD_REACTORS
330
C
102
}
330
C
100
AcDbDictionary
1001
ACAD
1000
TREAT_AS_HARD
1070
     0
  0
DICTIONARY
  5
D
102
{ACAD_REACTORS
330
C
102
}
330
C
100
AcDbDictionary
1001
ACAD
1000
TREAT_AS_HARD
1070
     0
  0
DICTIONARY
  5
1C6
102
{ACAD_REACTORS
330
C
102
}
330
C
100
AcDbDictionary
1001
ACAD
1000
TREAT_AS_HARD
1070
     0
  0
DICTIONARY
  5
1C4
102
{ACAD_REACTORS
330
C
102
}
330
C
100
AcDbDictionary
  3
BYBLOCK
350
24A26
  3
BYLAYER
350
24A1E
  3
GLOBAL
350
24A2E
1001
ACAD
1000
TREAT_AS_HARD
1070
     0
  0
DICTIONARY
  5
24A5C
102
{ACAD_REACTORS
330
C
102
}
330
C
100
AcDbDictionary
  3
STANDARD
350
24A5D
1001
ACAD
1000
TREAT_AS_HARD
1070
     0
  0
DICTIONARY
  5
1B
102
{ACAD_REACTORS
330
C
102
}
330
C
100
AcDbDictionary
  3
STANDARD
350
1C
1001
ACAD
1000
TREAT_AS_HARD
1070
     0
  0
DICTIONARY
  5
1C7
102
{ACAD_REACTORS
330
C
102
}
330
C
100
AcDbDictionary
1001
ACAD
1000
TREAT_AS_HARD
1070
     0
  0
DICTIONARY
  5
24A4A
102
{ACAD_REACTORS
330
C
102
}
330
C
100
AcDbDictionary
  3
*A1
350
24A65
  3
*A10
350
24A67
  3
*A11
350
24A68
  3
*A12
350
24A69
  3
*A13
350
24A6A
  3
*A14
350
24A6B
  3
*A15
350
24A6C
  3
*A16
350
24A6D
  3
*A2
350
24A6E
  3
*A3
350
24A6F
  3
*A4
350
24A70
  3
*A5
350
24A71
  3
*A6
350
24A72
  3
*A7
350
24A73
  3
*A8
350
24A74
  3
*A9
350
24A66
  3
A0
350
24A4B
  3
A1
350
24A4C
  3
A2
350
24A4D
  3
A3
350
24A4E
  3
A4
350
24A4F
  3
A5
350
24A50
  3
A6
350
24A51
  3
A7
350
24A52
  3
A8
350
24A53
  3
A9
350
24A54
  3
B0
350
24A55
  3
B1
350
24A56
  3
B2
350
24A57
  3
B3
350
24A58
  3
B4
350
24A59
  3
B5
350
24A5A
  3
B6
350
24A5B
1001
ACAD
1000
TREAT_AS_HARD
1070
     0
  0
DICTIONARY
  5
24A36
102
{ACAD_REACTORS
330
C
102
}
330
C
100
AcDbDictionary
  3
2DWIREFRAME
350
24A3C
  3
3D_HIDDEN
350
24A3E
  3
3DWIREFRAME
350
24A3D
  3
BASIC
350
24A3B
  3
BRIGHTEN
350
24A42
  3
COLORCHANGE
350
24A46
  3
CONCEPTUAL
350
24A3F
  3
DIM
350
24A41
  3
EDGECOLOROFF
350
24A49
  3
FACEPATTERN
350
24A45
  3
FLAT
350
24A37
  3
FLATWITHEDGES
350
24A38
  3
GOURAUD
350
24A39
  3
GOURAUDWITHEDGES
350
24A3A
  3
HIDDEN
350
24FF6
  3
JITTEROFF
350
24A47
  3
LINEPATTERN
350
24A44
  3
MODELING
350
24FFC
  3
OVERHANGOFF
350
24A48
  3
REALISTIC
350
24A40
  3
SHADED
350
24FFB
  3
SHADED_WITH_EDGES
350
24FFA
  3
SHADES_OF_GRAY
350
24FF7
  3
SKETCHY
350
24FF8
  3
THICKEN
350
24A43
  3
WIREFRAME
350
24FF5
  3
X-RAY
350
24FF9
1001
ACAD
1000
TREAT_AS_HARD
1070
     0
  0
DICTIONARY
  5
26DCB
102
{ACAD_REACTORS
330
C
102
}
330
C
100
AcDbDictionary
  3
COLORDICT
350
26DCC
  3
MATERIALDICT
350
26DCD
1001
ACAD
1000
TREAT_AS_HARD
1070
     0
  0
DICTIONARY
  5
37
102
{ACAD_REACTORS
330
C
102
}
330
C
100
AcDbDictionary
  3
CANNOSCALE
350
25FE1
  3
CMLEADERSTYLE
350
24FF0
  3
CTABLESTYLE
350
23B8
  3
DIMADEC
350
38
  3
DIMASSOC
350
1063
  3
HIDETEXT
350
26DCA
  3
INDEXCTL
350
24FF3
  3
MSLTSCALE
350
25FE2
  3
PROJECTNAME
350
1064
  3
SORTENTS
350
24FF2
  3
XCLIPFRAME
350
24FF4
1001
ACAD
1000
TREAT_AS_HARD
1070
     0
  0
DICTIONARY
  5
D8
102
{ACAD_REACTORS
330
C
102
}
330
C
100
AcDbDictionary
1001
CONTENTTABDATA
1070
     8
1000
小図
1000
D:\ACLT\TABSET\CHILDREN.dwg
1070
     0
1070
     0
1070
     1
1000
HWﾈｼﾞ
1000
D:\ACLT\TABSET\REGION.dwg
1070
     0
1070
     0
1070
     1
1000
ﾔｹﾞﾝ
1000
D:\ACLT\TABSET\ﾔｹﾞﾝ.dwg
1070
     0
1070
     0
1070
     1
1000
断面注記
1000
D:\ACLT\TABSET\断面注記.dwg
1070
     0
1070
     0
1070
     1
1000
文字
1000
D:\ACLT\TABSET\白抜文字.dwg
1070
     0
1070
     0
1070
     1
1000
表＆印
1000
D:\ACLT\TABSET\部品表＆出図印.dwg
1070
     0
1070
     0
1070
     1
1000
記号
1000
D:\ACLT\TABSET\溶接記号.dwg
1070
     0
1070
     0
1070
     1
1000
ロゴ
1000
D:\ACLT\TABSET\社名ロゴ.dwg
1070
     0
1070
     0
1070
     1
1001
CONTENTCURRENTTAB
1070
     2
1001
ACAD
1000
TREAT_AS_HARD
1070
     0
  0
DICTIONARY
  5
20
102
{ACAD_REACTORS
330
C
102
}
330
C
100
AcDbDictionary
1001
DRAWINGVARIABLESXDATA
1000
POLARANG
1000
0.261799387799149410000000
1000
POLARMODE
1000
1
1000
POLARSTYLE
1000
1
1001
ACAD
1000
TREAT_AS_HARD
1070
     0
  0
XRECORD
  5
26DCE
102
{ACAD_REACTORS
330
C
102
}
330
C
100
AcDbXrecord
  1
DWGPROPS COOKIE
  2

  3

  4

  6

  7

  8
3684
  9

300
=
301
=
302
=
303
=
304
=
305
=
306
=
307
=
308
=
309
=
 40
0.0
 41
2451318.246352917
 42
2459515.023367153
  1

 90
        0
  0
DICTIONARY
  5
31D4
102
{ACAD_REACTORS
330
31D3
102
}
330
31D3
100
AcDbDictionary
1001
ACAD
1000
TREAT_AS_HARD
1070
     0
  0
SORTENTSTABLE
  5
237C
102
{ACAD_REACTORS
330
237B
102
}
330
237B
100
AcDbSortentsTable
330
18
331
0
  5
239C9
331
0
  5
239CA
331
24BC3
  5
24BE2
331
24BC4
  5
24BE3
331
24BC6
  5
24BE4
331
24BC7
  5
24BE5
331
24BCF
  5
24BE6
331
24BD0
  5
24BE9
331
24BD5
  5
24BEA
331
24BD6
  5
24BED
331
24BD7
  5
24BEF
331
24BD9
  5
24BF0
331
24BDB
  5
24BF1
331
24BDE
  5
24BF2
331
24BDF
  5
24BF3
331
24BE0
  5
24BF5
331
24BE2
  5
24BF6
331
24BE3
  5
24BF7
331
24BE4
  5
24BF8
331
24BE5
  5
24BF9
331
24BE6
  5
24BFA
331
24BE9
  5
24BFB
331
24BEA
  5
24BFC
331
24BED
  5
24BFD
331
24BEF
  5
24BFE
331
24BF0
  5
24BFF
331
24BF1
  5
24C00
331
24BF2
  5
24C03
331
24BF3
  5
24C04
331
24BF5
  5
24C05
331
24BF6
  5
24C06
331
24BF7
  5
24C09
331
24BF8
  5
24C0A
331
24BF9
  5
24C0B
331
24BFA
  5
24C0C
331
24BFB
  5
24C0D
331
24BFC
  5
24C0E
331
24BFD
  5
24C0F
331
24BFE
  5
24C10
331
24BFF
  5
24C11
331
24C00
  5
24C12
331
24C03
  5
24C13
331
24C04
  5
24C14
331
24C05
  5
24C15
331
24C06
  5
24C16
331
24C09
  5
24C17
331
24C0A
  5
24C18
331
24C0B
  5
24C19
331
24C0C
  5
24C1A
331
24C0D
  5
24C1C
331
24C0E
  5
24C1D
331
24C0F
  5
24C1E
331
24C10
  5
24C1F
331
24C11
  5
24C20
331
24C12
  5
24C22
331
24C13
  5
24C24
331
24C14
  5
24C25
331
24C15
  5
24C26
331
24C16
  5
24C28
331
24C17
  5
24C29
331
24C18
  5
24C2D
331
24C19
  5
24FB1
331
24C1A
  5
267B3
331
24C1C
  5
26CC7
331
24C1D
  5
26CC8
331
24C1E
  5
26CC9
331
24C1F
  5
26CCA
331
24C20
  5
26CCB
331
24C22
  5
26CCC
331
24C24
  5
26CCD
331
24C25
  5
26CCE
331
24C26
  5
26CD2
331
24C28
  5
26CD3
331
24C29
  5
26CD4
331
24C2D
  5
26CD8
331
24FB1
  5
26D74
331
267B3
  5
26DA0
331
26CC7
  5
24BC3
331
26CC8
  5
24BC4
331
26CC9
  5
24BC6
331
0
  5
24BC7
331
0
  5
24BCF
331
0
  5
24BD0
331
26CCD
  5
24BE0
331
26CCE
  5
26CD9
331
26CCF
  5
26CDA
331
26CD0
  5
26CDE
331
0
  5
26CCF
331
0
  5
26CD0
331
0
  5
26CD1
331
26CD4
  5
26CE9
331
26CD5
  5
26CEA
331
26CD6
  5
26CEE
331
0
  5
26CD5
331
0
  5
26CD6
331
0
  5
26CD7
331
26CDA
  5
26CF9
331
26CDB
  5
26CFD
331
26CDC
  5
26CFE
331
0
  5
26CDB
331
0
  5
26CDC
331
0
  5
26CDD
331
26CE0
  5
26D0F
331
26CE1
  5
26D10
331
26CE2
  5
26D11
331
0
  5
26CE1
331
0
  5
26CE2
331
0
  5
26CE3
331
26CE6
  5
26D1F
331
26CE7
  5
26D20
331
26CE8
  5
26D21
331
26CE9
  5
26D25
331
26CEA
  5
26D26
331
26CEB
  5
26D27
331
26CEC
  5
26D2B
331
0
  5
26CEB
331
0
  5
26CEC
331
0
  5
26CED
331
26CF0
  5
26D39
331
26CF1
  5
26D3A
331
26CF2
  5
26D3B
331
26CF3
  5
26D3F
331
26CF4
  5
26D40
331
26CF5
  5
26D41
331
0
  5
26CF4
331
0
  5
26CF5
331
0
  5
26CF6
331
26CF9
  5
26D4C
331
26CFA
  5
26D4D
331
26CFB
  5
26D4E
331
0
  5
26CFA
331
0
  5
26CFB
331
0
  5
26CFC
331
26CFF
  5
26D56
331
26D00
  5
26D57
331
26D01
  5
26D58
331
0
  5
26D00
331
0
  5
26D01
331
0
  5
26D02
331
26D05
  5
26D60
331
26D06
  5
26D61
331
26D07
  5
26D62
331
0
  5
26D06
331
0
  5
26D07
331
0
  5
26D08
331
26D0B
  5
26D6A
331
26D0C
  5
26D6B
331
26D0D
  5
26D6C
331
0
  5
26D0C
331
0
  5
26D0D
331
0
  5
26D0E
331
26D11
  5
26D75
331
26D12
  5
26D76
331
26D13
  5
26D77
331
26D14
  5
26D78
331
26D15
  5
26D79
331
26D16
  5
26D7A
331
0
  5
26D16
331
0
  5
26D17
331
0
  5
26D18
331
26D1A
  5
26D82
331
26D1B
  5
26D83
331
26D1C
  5
26D84
331
0
  5
26D1C
331
0
  5
26D1D
331
0
  5
26D1E
331
26D20
  5
26D8C
331
26D21
  5
26D8D
331
26D22
  5
26D8E
331
0
  5
26D22
331
0
  5
26D23
331
0
  5
26D24
331
26D26
  5
26D96
331
26D27
  5
26D97
331
26D28
  5
26D98
331
0
  5
26D28
331
0
  5
26D29
331
0
  5
26D2A
331
26D2C
  5
26DA1
331
26D2D
  5
26DA2
331
26D2E
  5
26DA3
331
26D2F
  5
26DA4
331
26D33
  5
26DAC
331
26D34
  5
26DAD
331
26D35
  5
26DAE
331
26D39
  5
26DB6
331
26D3A
  5
26DB7
331
26D3B
  5
26DB8
331
26D3F
  5
26DC0
331
26D40
  5
26DC1
331
26D41
  5
26DC2
331
26D45
  5
24BD5
331
26D46
  5
24BD6
331
26D47
  5
24BD7
331
26D48
  5
24BD9
331
26D49
  5
24BDB
331
26D4A
  5
24BDE
331
26D4B
  5
24BDF
331
26D4C
  5
26CDF
331
26D4D
  5
26CE0
331
26D4E
  5
26CE4
331
26D4F
  5
26CE5
331
26D50
  5
26CE6
331
26D51
  5
26CE7
331
26D52
  5
26CE8
331
26D53
  5
26CEF
331
26D54
  5
26CF0
331
26D55
  5
26CF1
331
26D56
  5
26CF2
331
26D57
  5
26CF3
331
26D58
  5
26CF7
331
26D59
  5
26CF8
331
26D5A
  5
26CFF
331
26D5B
  5
26D03
331
26D5C
  5
26D04
331
26D5D
  5
26D05
331
26D5E
  5
26D09
331
26D5F
  5
26D0A
331
26D60
  5
26D0B
331
26D61
  5
26D12
331
26D62
  5
26D13
331
26D63
  5
26D14
331
26D64
  5
26D15
331
26D65
  5
26D19
331
26D66
  5
26D1A
331
26D67
  5
26D1B
331
26D68
  5
26D2C
331
26D69
  5
26D2D
331
26D6A
  5
26D2E
331
26D6B
  5
26D2F
331
26D6C
  5
26D33
331
26D6D
  5
26D34
331
26D6E
  5
26D35
331
26D6F
  5
26D45
331
26D70
  5
26D46
331
26D71
  5
26D47
331
26D72
  5
26D48
331
26D73
  5
26D49
331
26D74
  5
26D4A
331
26D75
  5
26D4B
331
26D76
  5
26D4F
331
26D77
  5
26D50
331
26D78
  5
26D51
331
26D79
  5
26D52
331
26D7A
  5
26D53
331
26D7B
  5
26D54
331
26D7C
  5
26D55
331
26D7D
  5
26D59
331
26D7E
  5
26D5A
331
26D7F
  5
26D5B
331
26D80
  5
26D5C
331
26D81
  5
26D5D
331
26D82
  5
26D5E
331
26D83
  5
26D5F
331
26D84
  5
26D63
331
26D85
  5
26D64
331
26D86
  5
26D65
331
26D87
  5
26D66
331
26D88
  5
26D67
331
26D89
  5
26D68
331
26D8A
  5
26D69
331
26D8B
  5
26D6D
331
26D8C
  5
26D6E
331
26D8D
  5
26D6F
331
26D8E
  5
26D70
331
26D8F
  5
26D71
331
26D90
  5
26D72
331
26D91
  5
26D73
331
26D92
  5
26D7B
331
26D93
  5
26D7C
331
26D94
  5
26D7D
331
26D95
  5
26D7E
331
26D96
  5
26D7F
331
26D97
  5
26D80
331
26D98
  5
26D81
331
26D99
  5
26D85
331
26D9A
  5
26D86
331
26D9B
  5
26D87
331
26D9C
  5
26D88
331
26D9D
  5
26D89
331
26D9E
  5
26D8A
331
26D9F
  5
26D8B
331
26DA0
  5
26D8F
331
26DA1
  5
26D90
331
26DA2
  5
26D91
331
26DA3
  5
26D92
331
26DA4
  5
26D93
331
26DA5
  5
26D94
331
26DA6
  5
26D95
331
26DA7
  5
26D99
331
26DA8
  5
26D9A
331
26DA9
  5
26D9B
331
26DAA
  5
26D9C
331
26DAB
  5
26D9D
331
26DAC
  5
26D9E
331
26DAD
  5
26D9F
331
26DAE
  5
26DA5
331
26DAF
  5
26DA6
331
26DB0
  5
26DA7
331
26DB1
  5
26DA8
331
26DB2
  5
26DA9
331
26DB3
  5
26DAA
331
26DB4
  5
26DAB
331
26DB5
  5
26DAF
331
26DB6
  5
26DB0
331
26DB7
  5
26DB1
331
26DB8
  5
26DB2
331
26DB9
  5
26DB3
331
26DBA
  5
26DB4
331
26DBB
  5
26DB5
331
26DBC
  5
26DB9
331
26DBD
  5
26DBA
331
26DBE
  5
26DBB
331
26DBF
  5
26DBC
331
26DC0
  5
26DBD
331
26DC1
  5
26DBE
331
26DC2
  5
26DBF
  0
MATERIAL
  5
24A26
102
{ACAD_REACTORS
330
1C4
102
}
102
{ACAD_XDICTIONARY
360
26F6B
102
}
330
1C4
100
AcDbMaterial
  1
BYBLOCK
 72
     0
 73
     2
 43
0.0208333333333333
 43
0.0
 43
0.0
 43
0.0
 43
0.0
 43
0.0208333333333333
 43
0.0
 43
0.0
 43
0.0
 43
0.0
 43
1.0
 43
0.0
 43
0.0
 43
0.0
 43
0.0
 43
1.0
 77
     0
 78
     2
 47
0.0208333333333333
 47
0.0
 47
0.0
 47
0.0
 47
0.0
 47
0.0208333333333333
 47
0.0
 47
0.0
 47
0.0
 47
0.0
 47
1.0
 47
0.0
 47
0.0
 47
0.0
 47
0.0
 47
1.0
171
     0
172
     2
 49
0.0208333333333333
 49
0.0
 49
0.0
 49
0.0
 49
0.0
 49
0.0208333333333333
 49
0.0
 49
0.0
 49
0.0
 49
0.0
 49
1.0
 49
0.0
 49
0.0
 49
0.0
 49
0.0
 49
1.0
175
     0
176
     2
142
0.0208333333333333
142
0.0
142
0.0
142
0.0
142
0.0
142
0.0208333333333333
142
0.0
142
0.0
142
0.0
142
0.0
142
1.0
142
0.0
142
0.0
142
0.0
142
0.0
142
1.0
179
     0
270
     2
144
0.0208333333333333
144
0.0
144
0.0
144
0.0
144
0.0
144
0.0208333333333333
144
0.0
144
0.0
144
0.0
144
0.0
144
1.0
144
0.0
144
0.0
144
0.0
144
0.0
144
1.0
274
     2
147
0.0208333333333333
147
0.0
147
0.0
147
0.0
147
0.0
147
0.0208333333333333
147
0.0
147
0.0
147
0.0
147
0.0
147
1.0
147
0.0
147
0.0
147
0.0
147
0.0
147
1.0
  0
MATERIAL
  5
24A1E
102
{ACAD_REACTORS
330
1C4
102
}
102
{ACAD_XDICTIONARY
360
26F6D
102
}
330
1C4
100
AcDbMaterial
  1
BYLAYER
 72
     0
 73
     2
 43
0.0208333333333333
 43
0.0
 43
0.0
 43
0.0
 43
0.0
 43
0.0208333333333333
 43
0.0
 43
0.0
 43
0.0
 43
0.0
 43
1.0
 43
0.0
 43
0.0
 43
0.0
 43
0.0
 43
1.0
 77
     0
 78
     2
 47
0.0208333333333333
 47
0.0
 47
0.0
 47
0.0
 47
0.0
 47
0.0208333333333333
 47
0.0
 47
0.0
 47
0.0
 47
0.0
 47
1.0
 47
0.0
 47
0.0
 47
0.0
 47
0.0
 47
1.0
171
     0
172
     2
 49
0.0208333333333333
 49
0.0
 49
0.0
 49
0.0
 49
0.0
 49
0.0208333333333333
 49
0.0
 49
0.0
 49
0.0
 49
0.0
 49
1.0
 49
0.0
 49
0.0
 49
0.0
 49
0.0
 49
1.0
175
     0
176
     2
142
0.0208333333333333
142
0.0
142
0.0
142
0.0
142
0.0
142
0.0208333333333333
142
0.0
142
0.0
142
0.0
142
0.0
142
1.0
142
0.0
142
0.0
142
0.0
142
0.0
142
1.0
179
     0
270
     2
144
0.0208333333333333
144
0.0
144
0.0
144
0.0
144
0.0
144
0.0208333333333333
144
0.0
144
0.0
144
0.0
144
0.0
144
1.0
144
0.0
144
0.0
144
0.0
144
0.0
144
1.0
274
     2
147
0.0208333333333333
147
0.0
147
0.0
147
0.0
147
0.0
147
0.0208333333333333
147
0.0
147
0.0
147
0.0
147
0.0
147
1.0
147
0.0
147
0.0
147
0.0
147
0.0
147
1.0
  0
MATERIAL
  5
24A2E
102
{ACAD_REACTORS
330
1C4
102
}
102
{ACAD_XDICTIONARY
360
26F6F
102
}
330
1C4
100
AcDbMaterial
  1
GLOBAL
 72
     0
 73
     2
 43
0.0208333333333333
 43
0.0
 43
0.0
 43
0.0
 43
0.0
 43
0.0208333333333333
 43
0.0
 43
0.0
 43
0.0
 43
0.0
 43
1.0
 43
0.0
 43
0.0
 43
0.0
 43
0.0
 43
1.0
 77
     0
 78
     2
 47
0.0208333333333333
 47
0.0
 47
0.0
 47
0.0
 47
0.0
 47
0.0208333333333333
 47
0.0
 47
0.0
 47
0.0
 47
0.0
 47
1.0
 47
0.0
 47
0.0
 47
0.0
 47
0.0
 47
1.0
171
     0
172
     2
 49
0.0208333333333333
 49
0.0
 49
0.0
 49
0.0
 49
0.0
 49
0.0208333333333333
 49
0.0
 49
0.0
 49
0.0
 49
0.0
 49
1.0
 49
0.0
 49
0.0
 49
0.0
 49
0.0
 49
1.0
175
     0
176
     2
142
0.0208333333333333
142
0.0
142
0.0
142
0.0
142
0.0
142
0.0208333333333333
142
0.0
142
0.0
142
0.0
142
0.0
142
1.0
142
0.0
142
0.0
142
0.0
142
0.0
142
1.0
179
     0
270
     2
144
0.0208333333333333
144
0.0
144
0.0
144
0.0
144
0.0
144
0.0208333333333333
144
0.0
144
0.0
144
0.0
144
0.0
144
1.0
144
0.0
144
0.0
144
0.0
144
0.0
144
1.0
274
     2
147
0.0208333333333333
147
0.0
147
0.0
147
0.0
147
0.0
147
0.0208333333333333
147
0.0
147
0.0
147
0.0
147
0.0
147
1.0
147
0.0
147
0.0
147
0.0
147
0.0
147
1.0
  0
ACAD_PROXY_OBJECT
  5
24A5D
102
{ACAD_REACTORS
330
24A5C
102
}
330
24A5C
100
AcDbZombieObject
 90
      499
 91
      512
 93
      610
310
40901902A4063FBFFFFFE000000000000002040AD7A3703D0AD73F4214DD185B99185C990000000000000104090141901A00000000000004100000000000000041025764000000000000300FC0
340
12
340
0
340
F
340
0
 94
        0
1001
ACAD_MLEADERVER
1070
     2
  0
MLINESTYLE
  5
1C
102
{ACAD_REACTORS
330
1B
102
}
330
1B
100
AcDbMlineStyle
  2
STANDARD
 70
     0
  3

 62
   256
 51
90.0
 52
90.0
 71
     2
 49
0.5
 62
   256
  6
BYLAYER
 49
-0.5
 62
   256
  6
BYLAYER
  0
ACAD_PROXY_OBJECT
  5
24A65
102
{ACAD_REACTORS
330
24A4A
102
}
330
24A4A
100
AcDbZombieObject
 90
      499
 91
      511
 93
      297
310
913312F31323822203D2031272D30225F58524546000000000000200FC000000000000284000
  0
ACAD_PROXY_OBJECT
  5
24A67
102
{ACAD_REACTORS
330
24A4A
102
}
330
24A4A
100
AcDbZombieObject
 90
      499
 91
      511
 93
      289
310
912312F333222203D2031272D30225F58524546000000000000280FC000000000000284000
  0
ACAD_PROXY_OBJECT
  5
24A68
102
{ACAD_REACTORS
330
24A4A
102
}
330
24A4A
100
AcDbZombieObject
 90
      499
 91
      511
 93
      289
310
912312F313622203D2031272D30225F585245460000000000002C0FC000000000000284000
  0
ACAD_PROXY_OBJECT
  5
24A69
102
{ACAD_REACTORS
330
24A4A
102
}
330
24A4A
100
AcDbZombieObject
 90
      499
 91
      511
 93
      289
310
912332F333222203D2031272D30225F585245460000000000002E0FC000000000000284000
  0
ACAD_PROXY_OBJECT
  5
24A6A
102
{ACAD_REACTORS
330
24A4A
102
}
330
24A4A
100
AcDbZombieObject
 90
      499
 91
      511
 93
      281
310
911312F3822203D2031272D30225F58524546000000000000300FC000000000000284000
  0
ACAD_PROXY_OBJECT
  5
24A6B
102
{ACAD_REACTORS
330
24A4A
102
}
330
24A4A
100
AcDbZombieObject
 90
      499
 91
      511
 93
      289
310
912332F313622203D2031272D30225F58524546000000000000320FC000000000000284000
  0
ACAD_PROXY_OBJECT
  5
24A6C
102
{ACAD_REACTORS
330
24A4A
102
}
330
24A4A
100
AcDbZombieObject
 90
      499
 91
      511
 93
      281
310
911312F3422203D2031272D30225F58524546000000000000340FC000000000000284000
  0
ACAD_PROXY_OBJECT
  5
24A6D
102
{ACAD_REACTORS
330
24A4A
102
}
330
24A4A
100
AcDbZombieObject
 90
      499
 91
      511
 93
      281
310
911332F3822203D2031272D30225F58524546000000000000360FC000000000000284000
  0
ACAD_PROXY_OBJECT
  5
24A6E
102
{ACAD_REACTORS
330
24A4A
102
}
330
24A4A
100
AcDbZombieObject
 90
      499
 91
      511
 93
      281
310
911312F3222203D2031272D30225F58524546000000000000380FC000000000000284000
  0
ACAD_PROXY_OBJECT
  5
24A6F
102
{ACAD_REACTORS
330
24A4A
102
}
330
24A4A
100
AcDbZombieObject
 90
      499
 91
      511
 93
      281
310
911332F3422203D2031272D30225F585245460000000000003A0FC000000000000284000
  0
ACAD_PROXY_OBJECT
  5
24A70
102
{ACAD_REACTORS
330
24A4A
102
}
330
24A4A
100
AcDbZombieObject
 90
      499
 91
      511
 93
      201
310
90F3122203D2031272D30225F585245464000000000000284000
  0
ACAD_PROXY_OBJECT
  5
24A71
102
{ACAD_REACTORS
330
24A4A
102
}
330
24A4A
100
AcDbZombieObject
 90
      499
 91
      511
 93
      297
310
913312D312F3222203D2031272D30225F585245460000000000003E0FC000000000000284000
  0
ACAD_PROXY_OBJECT
  5
24A72
102
{ACAD_REACTORS
330
24A4A
102
}
330
24A4A
100
AcDbZombieObject
 90
      499
 91
      511
 93
      265
310
90F3322203D2031272D30225F5852454600000000000002100000000000000284000
  0
ACAD_PROXY_OBJECT
  5
24A73
102
{ACAD_REACTORS
330
24A4A
102
}
330
24A4A
100
AcDbZombieObject
 90
      499
 91
      511
 93
      265
310
90F3622203D2031272D30225F5852454600000000000006100000000000000284000
  0
ACAD_PROXY_OBJECT
  5
24A74
102
{ACAD_REACTORS
330
24A4A
102
}
330
24A4A
100
AcDbZombieObject
 90
      499
 91
      511
 93
      289
310
91231272D3022203D2031272D30225F585245460000000000000A100000000000000284000
  0
ACAD_PROXY_OBJECT
  5
24A66
102
{ACAD_REACTORS
330
24A4A
102
}
330
24A4A
100
AcDbZombieObject
 90
      499
 91
      511
 93
      289
310
912312F363422203D2031272D30225F58524546000000000000240FC000000000000284000
  0
ACAD_PROXY_OBJECT
  5
24A4B
102
{ACAD_REACTORS
330
24A4A
102
}
330
24A4A
100
AcDbZombieObject
 90
      499
 91
      511
 93
       41
310
903313A31580
  0
ACAD_PROXY_OBJECT
  5
24A4C
102
{ACAD_REACTORS
330
24A4A
102
}
330
24A4A
100
AcDbZombieObject
 90
      499
 91
      511
 93
      105
310
903313A324000000000000004000
  0
ACAD_PROXY_OBJECT
  5
24A4D
102
{ACAD_REACTORS
330
24A4A
102
}
330
24A4A
100
AcDbZombieObject
 90
      499
 91
      511
 93
      105
310
903313A344000000000000104000
  0
ACAD_PROXY_OBJECT
  5
24A4E
102
{ACAD_REACTORS
330
24A4A
102
}
330
24A4A
100
AcDbZombieObject
 90
      499
 91
      511
 93
      105
310
903313A354000000000000144000
  0
ACAD_PROXY_OBJECT
  5
24A4F
102
{ACAD_REACTORS
330
24A4A
102
}
330
24A4A
100
AcDbZombieObject
 90
      499
 91
      511
 93
      105
310
903313A384000000000000204000
  0
ACAD_PROXY_OBJECT
  5
24A50
102
{ACAD_REACTORS
330
24A4A
102
}
330
24A4A
100
AcDbZombieObject
 90
      499
 91
      511
 93
      113
310
904313A31304000000000000244000
  0
ACAD_PROXY_OBJECT
  5
24A51
102
{ACAD_REACTORS
330
24A4A
102
}
330
24A4A
100
AcDbZombieObject
 90
      499
 91
      511
 93
      113
310
904313A31364000000000000304000
  0
ACAD_PROXY_OBJECT
  5
24A52
102
{ACAD_REACTORS
330
24A4A
102
}
330
24A4A
100
AcDbZombieObject
 90
      499
 91
      511
 93
      113
310
904313A32304000000000000344000
  0
ACAD_PROXY_OBJECT
  5
24A53
102
{ACAD_REACTORS
330
24A4A
102
}
330
24A4A
100
AcDbZombieObject
 90
      499
 91
      511
 93
      113
310
904313A333040000000000003E4000
  0
ACAD_PROXY_OBJECT
  5
24A54
102
{ACAD_REACTORS
330
24A4A
102
}
330
24A4A
100
AcDbZombieObject
 90
      499
 91
      511
 93
      113
310
904313A34304000000000000444000
  0
ACAD_PROXY_OBJECT
  5
24A55
102
{ACAD_REACTORS
330
24A4A
102
}
330
24A4A
100
AcDbZombieObject
 90
      499
 91
      511
 93
      113
310
904313A35304000000000000494000
  0
ACAD_PROXY_OBJECT
  5
24A56
102
{ACAD_REACTORS
330
24A4A
102
}
330
24A4A
100
AcDbZombieObject
 90
      499
 91
      511
 93
      121
310
905313A3130304000000000000594000
  0
ACAD_PROXY_OBJECT
  5
24A57
102
{ACAD_REACTORS
330
24A4A
102
}
330
24A4A
100
AcDbZombieObject
 90
      499
 91
      511
 93
      105
310
903323A310000000000000010100
  0
ACAD_PROXY_OBJECT
  5
24A58
102
{ACAD_REACTORS
330
24A4A
102
}
330
24A4A
100
AcDbZombieObject
 90
      499
 91
      511
 93
      105
310
903343A310000000000000410100
  0
ACAD_PROXY_OBJECT
  5
24A59
102
{ACAD_REACTORS
330
24A4A
102
}
330
24A4A
100
AcDbZombieObject
 90
      499
 91
      511
 93
      105
310
903383A310000000000000810100
  0
ACAD_PROXY_OBJECT
  5
24A5A
102
{ACAD_REACTORS
330
24A4A
102
}
330
24A4A
100
AcDbZombieObject
 90
      499
 91
      511
 93
      113
310
90431303A310000000000000910100
  0
ACAD_PROXY_OBJECT
  5
24A5B
102
{ACAD_REACTORS
330
24A4A
102
}
330
24A4A
100
AcDbZombieObject
 90
      499
 91
      511
 93
      121
310
9053130303A310000000000001650100
  0
ACAD_PROXY_OBJECT
  5
24A3C
102
{ACAD_REACTORS
330
24A36
102
}
330
24A36
100
AcDbZombieObject
 90
      499
 91
      510
 93
      436
310
42CC9915DA5C99599C985B595049028333333333333E3BF0000000000000FB0107901411070040501600405405064090741402480A0340
1001
ACAD
1000
AcDbSavedByObjectVersion
1070
     0
  0
ACAD_PROXY_OBJECT
  5
24A3E
102
{ACAD_REACTORS
330
24A36
102
}
330
24A36
100
AcDbZombieObject
 90
      499
 91
      510
 93
      500
310
424CD108121A5919195B90640502408333333333333E3BF0000000000000FB01079024090700405020000000000181990200405405064090740C02480A0340
1001
ACAD
1000
AcDbSavedByObjectVersion
1070
     0
  0
ACAD_PROXY_OBJECT
  5
24A3D
102
{ACAD_REACTORS
330
24A36
102
}
330
24A36
100
AcDbZombieObject
 90
      499
 91
      510
 93
      436
310
42CCD915DA5C99599C985B595059028333333333333E3BF0000000000000FB0107901411070040501600405405064090741402480A0340
1001
ACAD
1000
AcDbSavedByObjectVersion
1070
     0
  0
ACAD_PROXY_OBJECT
  5
24A3B
102
{ACAD_REACTORS
330
24A36
102
}
330
24A36
100
AcDbZombieObject
 90
      499
 91
      510
 93
      388
310
4150985CDA58D07406404333333333333E3BF0000000000000FB0107A41107004050150841D405064090741402480A0350
1001
ACAD
1000
AcDbSavedByObjectVersion
1070
     0
  0
ACAD_PROXY_OBJECT
  5
24A42
102
{ACAD_REACTORS
330
24A36
102
}
330
24A36
100
AcDbZombieObject
 90
      499
 91
      510
 93
      428
310
42109C9A59DA1D195B90C409028333333333333E3BF0000000000000FB010790141107004050150841D405064090741402480A029950
1001
ACAD
1000
AcDbSavedByObjectVersion
1070
     0
  0
ACAD_PROXY_OBJECT
  5
24A46
102
{ACAD_REACTORS
330
24A36
102
}
330
24A36
100
AcDbZombieObject
 90
      499
 91
      510
 93
      452
310
42D0DBDB1BDC90DA185B99D95104090240C333333333333E3BF0000000000000FB0108901411070040501508421405064090741402480A0350
1001
ACAD
1000
AcDbSavedByObjectVersion
1070
     0
  0
ACAD_PROXY_OBJECT
  5
24A3F
102
{ACAD_REACTORS
330
24A36
102
}
330
24A36
100
AcDbZombieObject
 90
      499
 91
      510
 93
      500
310
4290DBDB98D95C1D1D585B10940D028333333333333E3BF0000000000000FB0107902409070040501000000000018199010841D405064090740C02480A0340
1001
ACAD
1000
AcDbSavedByObjectVersion
1070
     0
  0
ACAD_PROXY_OBJECT
  5
24A41
102
{ACAD_REACTORS
330
24A36
102
}
330
24A36
100
AcDbZombieObject
 90
      499
 91
      510
 93
      412
310
40D11A5B50B409028333333333333E3BF0000000000000FB010790141107004050150841D405064090741402480A02677FFFFFD0
1001
ACAD
1000
AcDbSavedByObjectVersion
1070
     0
  0
ACAD_PROXY_OBJECT
  5
24A49
102
{ACAD_REACTORS
330
24A36
102
}
330
24A36
100
AcDbZombieObject
 90
      499
 91
      510
 93
      452
310
43115919D950DBDB1BDC93D999916409028333333333333E3BF0000000000000FB010790141107004050150841D405064090741402480A0350
1001
ACAD
1000
AcDbSavedByObjectVersion
1070
     0
  0
ACAD_PROXY_OBJECT
  5
24A45
102
{ACAD_REACTORS
330
24A36
102
}
330
24A36
100
AcDbZombieObject
 90
      499
 91
      510
 93
      444
310
42D19858D95C185D1D195C9B90F409028333333333333E3BF0000000000000FB010790141107004050150841D405064090741402480A0350
1001
ACAD
1000
AcDbSavedByObjectVersion
1070
     0
  0
ACAD_PROXY_OBJECT
  5
24A37
102
{ACAD_REACTORS
330
24A36
102
}
330
24A36
100
AcDbZombieObject
 90
      499
 91
      510
 93
      388
310
41119B185D240901404333333333333E3BF0000000000000F9010740A41107004050150841D405064090741402480A1B50
1001
ACAD
1000
AcDbSavedByObjectVersion
1070
     0
  0
ACAD_PROXY_OBJECT
  5
24A38
102
{ACAD_REACTORS
330
24A36
102
}
330
24A36
100
AcDbZombieObject
 90
      499
 91
      510
 93
      476
310
43519B185D15DA5D1A115919D95CD0140901404333333333333E3BF0000000000000F9010740901411070040501600405405064090741402480A1B50
1001
ACAD
1000
AcDbSavedByObjectVersion
1070
     0
  0
ACAD_PROXY_OBJECT
  5
24A39
102
{ACAD_REACTORS
330
24A36
102
}
330
24A36
100
AcDbZombieObject
 90
      499
 91
      510
 93
      412
310
41D1DBDD5C985D5910240902404333333333333E3BF0000000000000F9010740A411070040501641D405064090741402480A1B50
1001
ACAD
1000
AcDbSavedByObjectVersion
1070
     0
  0
ACAD_PROXY_OBJECT
  5
24A3A
102
{ACAD_REACTORS
330
24A36
102
}
330
24A36
100
AcDbZombieObject
 90
      499
 91
      510
 93
      500
310
4411DBDD5C985D5915DA5D1A115919D95CD0340902404333333333333E3BF0000000000000F9010740901411070040501600405405064090741402480A1B50
1001
ACAD
1000
AcDbSavedByObjectVersion
1070
     0
  0
ACAD_PROXY_OBJECT
  5
24FF6
102
{ACAD_REACTORS
330
24A36
102
}
330
24A36
100
AcDbZombieObject
 90
      499
 91
      510
 93
      476
310
41921A5919195B90640502408333333333333E33F0000000000000F901079024090700405020000000000001110200405405064090740C02480A0340
1001
ACAD
1000
AcDbSavedByObjectVersion
1070
     0
  0
ACAD_PROXY_OBJECT
  5
24A47
102
{ACAD_REACTORS
330
24A36
102
}
330
24A36
100
AcDbZombieObject
 90
      499
 91
      510
 93
      428
310
42529A5D1D195C93D999914409028333333333333E3BF0000000000000FB010790141107004050150A41D405064090741402480A0350
1001
ACAD
1000
AcDbSavedByObjectVersion
1070
     0
  0
ACAD_PROXY_OBJECT
  5
24A44
102
{ACAD_REACTORS
330
24A36
102
}
330
24A36
100
AcDbZombieObject
 90
      499
 91
      510
 93
      444
310
42D31A5B995C185D1D195C9B90E409028333333333333E3BF0000000000000FB010790141107004050750841D405064090741402483A0350
1001
ACAD
1000
AcDbSavedByObjectVersion
1070
     0
  0
ACAD_PROXY_OBJECT
  5
24FFC
102
{ACAD_REACTORS
330
24A36
102
}
330
24A36
100
AcDbZombieObject
 90
      499
 91
      510
 93
      484
310
42135BD9195B1A5B99D0A409038333333333333E33F0000000000000F901074090290700405010000000000201990108421405064090741402480A1B40
1001
ACAD
1000
AcDbSavedByObjectVersion
1070
     0
  0
ACAD_PROXY_OBJECT
  5
24A48
102
{ACAD_REACTORS
330
24A36
102
}
330
24A36
100
AcDbZombieObject
 90
      499
 91
      510
 93
      444
310
42D3DD995C9A185B99D3D999915409028333333333333E3BF0000000000000FB010790141107004050150941D405064090741402480A0350
1001
ACAD
1000
AcDbSavedByObjectVersion
1070
     0
  0
ACAD_PROXY_OBJECT
  5
24A40
102
{ACAD_REACTORS
330
24A36
102
}
330
24A36
100
AcDbZombieObject
 90
      499
 91
      510
 93
      420
310
425499585B1A5CDD1A58D08409028333333333333E3BF0000000000000FB01079019070040501508421405064090741402480A1B40
1001
ACAD
1000
AcDbSavedByObjectVersion
1070
     0
  0
ACAD_PROXY_OBJECT
  5
24FFB
102
{ACAD_REACTORS
330
24A36
102
}
330
24A36
100
AcDbZombieObject
 90
      499
 91
      510
 93
      420
310
4194DA1859195911B40902404333333333333E33F0000000000000F9010740A41107004050150800405405064090840C02480A0B40
1001
ACAD
1000
AcDbSavedByObjectVersion
1070
     0
  0
ACAD_PROXY_OBJECT
  5
24FFA
102
{ACAD_REACTORS
330
24A36
102
}
330
24A36
100
AcDbZombieObject
 90
      499
 91
      510
 93
      516
310
4454DA18591959081DDA5D1A08195919D95CD1A40902404333333333333E33F0000000000000F901074090142907004050250800405405064090740C02480A0B40
1001
ACAD
1000
AcDbSavedByObjectVersion
1070
     0
  0
ACAD_PROXY_OBJECT
  5
24FF7
102
{ACAD_REACTORS
330
24A36
102
}
330
24A36
100
AcDbZombieObject
 90
      499
 91
      510
 93
      532
310
4394DA1859195CC81BD98811DC985E5174090240C333333333333E33F0000000000000F901079024090741D01000000000000111010841D405064090740C02480A0340
1001
ACAD
1000
AcDbSavedByObjectVersion
1070
     0
  0
ACAD_PROXY_OBJECT
  5
24FF8
102
{ACAD_REACTORS
330
24A36
102
}
330
24A36
100
AcDbZombieObject
 90
      499
 91
      510
 93
      476
310
41D4DAD95D18DA1E51840502408333333333333E33F0000000000000F901079024090741D01000000000000111010B41D405064090741802480A0340
1001
ACAD
1000
AcDbSavedByObjectVersion
1070
     0
  0
ACAD_PROXY_OBJECT
  5
24A43
102
{ACAD_REACTORS
330
24A36
102
}
330
24A36
100
AcDbZombieObject
 90
      499
 91
      510
 93
      412
310
41D51A1A58DAD95B90D409028333333333333E3BF0000000000000FB010790141107004050150C41D405064090741402480A0350
1001
ACAD
1000
AcDbSavedByObjectVersion
1070
     0
  0
ACAD_PROXY_OBJECT
  5
24FF5
102
{ACAD_REACTORS
330
24A36
102
}
330
24A36
100
AcDbZombieObject
 90
      499
 91
      510
 93
      420
310
4255DA5C99599C985B595059028333333333333E33F0000000000000F90107901411070040501600405405064090740C02480A0340
1001
ACAD
1000
AcDbSavedByObjectVersion
1070
     0
  0
ACAD_PROXY_OBJECT
  5
24FF9
102
{ACAD_REACTORS
330
24A36
102
}
330
24A36
100
AcDbZombieObject
 90
      499
 91
      510
 93
      404
310
41560B54985E51940902404000000000000E03F0000000000000F9010740501907004050150841D405064090740C02480A1B40
1001
ACAD
1000
AcDbSavedByObjectVersion
1070
     0
  0
XRECORD
  5
26DCC
102
{ACAD_REACTORS
330
26DCB
102
}
330
26DCB
100
AcDbXrecord
340
1C5
  0
XRECORD
  5
26DCD
102
{ACAD_REACTORS
330
26DCB
102
}
330
26DCB
100
AcDbXrecord
340
1C4
  0
DICTIONARYVAR
  5
25FE1
102
{ACAD_REACTORS
330
37
102
}
330
37
100
DictionaryVariables
280
     0
  1
1:1
  0
DICTIONARYVAR
  5
24FF0
102
{ACAD_REACTORS
330
37
102
}
330
37
100
DictionaryVariables
280
     0
  1
Standard
  0
DICTIONARYVAR
  5
23B8
102
{ACAD_REACTORS
330
37
102
}
330
37
100
DictionaryVariables
280
     0
  1
Standard
  0
DICTIONARYVAR
  5
38
102
{ACAD_REACTORS
330
37
102
}
330
37
100
DictionaryVariables
280
     0
  1
-1
  0
DICTIONARYVAR
  5
1063
102
{ACAD_REACTORS
330
37
102
}
330
37
100
DictionaryVariables
280
     0
  1
2
  0
DICTIONARYVAR
  5
26DCA
102
{ACAD_REACTORS
330
37
102
}
330
37
100
DictionaryVariables
280
     0
  1
1
  0
DICTIONARYVAR
  5
24FF3
102
{ACAD_REACTORS
330
37
102
}
330
37
100
DictionaryVariables
280
     0
  1
0
  0
DICTIONARYVAR
  5
25FE2
102
{ACAD_REACTORS
330
37
102
}
330
37
100
DictionaryVariables
280
     0
  1
0
  0
DICTIONARYVAR
  5
1064
102
{ACAD_REACTORS
330
37
102
}
330
37
100
DictionaryVariables
280
     0
  1

  0
DICTIONARYVAR
  5
24FF2
102
{ACAD_REACTORS
330
37
102
}
330
37
100
DictionaryVariables
280
     0
  1
127
  0
DICTIONARYVAR
  5
24FF4
102
{ACAD_REACTORS
330
37
102
}
330
37
100
DictionaryVariables
280
     0
  1
2
  0
DICTIONARY
  5
26F6B
330
24A26
100
AcDbDictionary
  3
ACAD_XREC_ROUNDTRIP
360
26F6C
1001
ACAD
1000
TREAT_AS_HARD
1070
     1
  0
DICTIONARY
  5
26F6D
330
24A1E
100
AcDbDictionary
  3
ACAD_XREC_ROUNDTRIP
360
26F6E
1001
ACAD
1000
TREAT_AS_HARD
1070
     1
  0
DICTIONARY
  5
26F6F
330
24A2E
100
AcDbDictionary
  3
ACAD_XREC_ROUNDTRIP
360
26F70
1001
ACAD
1000
TREAT_AS_HARD
1070
     1
  0
XRECORD
  5
26F6C
102
{ACAD_REACTORS
330
26F6B
102
}
330
26F6B
100
AcDbXrecord
102
MATERIAL
148
0.0
149
0.0
149
0.0
 93
        0
 94
      127
282
     0
 72
     0
 77
     0
171
     0
175
     0
179
     0
273
     0
  0
XRECORD
  5
26F6E
102
{ACAD_REACTORS
330
26F6D
102
}
330
26F6D
100
AcDbXrecord
102
MATERIAL
148
0.0
149
0.0
149
0.0
 93
        0
 94
      127
282
     0
 72
     0
 77
     0
171
     0
175
     0
179
     0
273
     0
  0
XRECORD
  5
26F70
102
{ACAD_REACTORS
330
26F6F
102
}
330
26F6F
100
AcDbXrecord
102
MATERIAL
148
0.0
149
0.0
149
0.0
 93
        0
 94
      127
282
     0
 72
     0
 77
     0
171
     0
175
     0
179
     0
273
     0
  0
ENDSEC
  0
EOF
