  0
SECTION
  2
HEADER
  9
$ACADVER
  1
AC1009
  9
$INSBASE
 10
0.0
 20
0.0
 30
0.0
  9
$EXTMIN
 10
-33.959395002114903
 20
-199.10989467691411
 30
0.0
  9
$EXTMAX
 10
326.32016563480647
 20
49.528639287409071
 30
0.0
  9
$LIMMIN
 10
0.0
 20
0.0
  9
$LIMMAX
 10
420.0
 20
297.0
  9
$ORTHOMODE
 70
     0
  9
$REGENMODE
 70
     1
  9
$FILLMODE
 70
     1
  9
$QTEXTMODE
 70
     0
  9
$MIRRTEXT
 70
     1
  9
$DRAGMODE
 70
     2
  9
$LTSCALE
 40
0.5
  9
$OSMODE
 70
  2175
  9
$ATTMODE
 70
     1
  9
$TEXTSIZE
 40
3.5
  9
$TRACEWID
 40
1.0
  9
$TEXTSTYLE
  7
STANDARD
  9
$CLAYER
  8
1TEXT
  9
$CELTYPE
  6
BYLAYER
  9
$CECOLOR
 62
   256
  9
$DIMSCALE
 40
1.0
  9
$DIMASZ
 40
2.0
  9
$DIMEXO
 40
0.0
  9
$DIMDLI
 40
7.0
  9
$DIMRND
 40
0.0
  9
$DIMDLE
 40
0.0
  9
$DIMEXE
 40
1.0
  9
$DIMTP
 40
0.0
  9
$DIMTM
 40
0.0
  9
$DIMTXT
 40
3.5
  9
$DIMCEN
 40
0.0
  9
$DIMTSZ
 40
0.0
  9
$DIMTOL
 70
     0
  9
$DIMLIM
 70
     0
  9
$DIMTIH
 70
     0
  9
$DIMTOH
 70
     0
  9
$DIMSE1
 70
     0
  9
$DIMSE2
 70
     0
  9
$DIMTAD
 70
     1
  9
$DIMZIN
 70
     8
  9
$DIMBLK
  1

  9
$DIMASO
 70
     1
  9
$DIMSHO
 70
     1
  9
$DIMPOST
  1
 
  9
$DIMAPOST
  1

  9
$DIMALT
 70
     0
  9
$DIMALTD
 70
     2
  9
$DIMALTF
 40
25.399999999999999
  9
$DIMLFAC
 40
1.0
  9
$DIMTOFL
 70
     1
  9
$DIMTVP
 40
0.0
  9
$DIMTIX
 70
     0
  9
$DIMSOXD
 70
     0
  9
$DIMSAH
 70
     1
  9
$DIMBLK1
  1
OPEN30
  9
$DIMBLK2
  1
OPEN30
  9
$DIMSTYLE
  2
NEWX10
  9
$DIMCLRD
 70
   256
  9
$DIMCLRE
 70
   256
  9
$DIMCLRT
 70
   201
  9
$DIMTFAC
 40
0.7
  9
$DIMGAP
 40
0.7
  9
$LUNITS
 70
     2
  9
$LUPREC
 70
     4
  9
$SKETCHINC
 40
1.0
  9
$FILLETRAD
 40
0.0
  9
$AUNITS
 70
     0
  9
$AUPREC
 70
     2
  9
$MENU
  1
acad
  9
$ELEVATION
 40
0.0
  9
$PELEVATION
 40
0.0
  9
$THICKNESS
 40
0.0
  9
$LIMCHECK
 70
     0
  9
$BLIPMODE
 70
     0
  9
$CHAMFERA
 40
1.1999999999999991
  9
$CHAMFERB
 40
1.1999999999999991
  9
$SKPOLY
 70
     0
  9
$TDCREATE
 40
2451318.621352917
  9
$TDUPDATE
 40
2455016.7236695141
  9
$TDINDWG
 40
0.5182283218
  9
$TDUSRTIMER
 40
0.5182283218
  9
$USRTIMER
 70
     1
  9
$ANGBASE
 50
0.0
  9
$ANGDIR
 70
     0
  9
$PDMODE
 70
     0
  9
$PDSIZE
 40
0.0
  9
$PLINEWID
 40
0.0
  9
$COORDS
 70
     2
  9
$SPLFRAME
 70
     0
  9
$SPLINETYPE
 70
     6
  9
$SPLINESEGS
 70
     8
  9
$ATTDIA
 70
     0
  9
$ATTREQ
 70
     1
  9
$HANDLING
 70
     1
  9
$HANDSEED
  5
4CC4
  9
$SURFTAB1
 70
     6
  9
$SURFTAB2
 70
     6
  9
$SURFTYPE
 70
     6
  9
$SURFU
 70
     6
  9
$SURFV
 70
     6
  9
$UCSNAME
  2

  9
$UCSORG
 10
0.0
 20
0.0
 30
0.0
  9
$UCSXDIR
 10
1.0
 20
0.0
 30
0.0
  9
$UCSYDIR
 10
0.0
 20
1.0
 30
0.0
  9
$PUCSNAME
  2

  9
$PUCSORG
 10
0.0
 20
0.0
 30
0.0
  9
$PUCSXDIR
 10
1.0
 20
0.0
 30
0.0
  9
$PUCSYDIR
 10
0.0
 20
1.0
 30
0.0
  9
$USERI1
 70
     0
  9
$USERI2
 70
     0
  9
$USERI3
 70
     0
  9
$USERI4
 70
     0
  9
$USERI5
 70
     0
  9
$USERR1
 40
0.0
  9
$USERR2
 40
0.0
  9
$USERR3
 40
0.0
  9
$USERR4
 40
0.0
  9
$USERR5
 40
0.0
  9
$WORLDVIEW
 70
     1
  9
$SHADEDGE
 70
     3
  9
$SHADEDIF
 70
    70
  9
$TILEMODE
 70
     1
  9
$MAXACTVP
 70
    48
  9
$PLIMCHECK
 70
     0
  9
$PEXTMIN
 10
1.0000000000000000E+020
 20
1.0000000000000000E+020
 30
1.0000000000000000E+020
  9
$PEXTMAX
 10
-1.0000000000000000E+020
 20
-1.0000000000000000E+020
 30
-1.0000000000000000E+020
  9
$PLIMMIN
 10
0.0
 20
0.0
  9
$PLIMMAX
 10
420.0
 20
297.0
  9
$UNITMODE
 70
     0
  9
$VISRETAIN
 70
     1
  9
$PLINEGEN
 70
     0
  9
$PSLTSCALE
 70
     1
  0
ENDSEC
  0
SECTION
  2
TABLES
  0
TABLE
  2
VPORT
 70
     1
  0
VPORT
  2
*ACTIVE
 70
     0
 10
0.0
 20
0.0
 11
1.0
 21
1.0
 12
146.17734072210331
 22
-74.787188583479804
 13
0.0
 23
0.0
 14
10.0
 24
10.0
 15
10.0
 25
10.0
 16
0.0
 26
0.0
 36
1.0
 17
0.0
 27
0.0
 37
0.0
 40
269.96949442538562
 41
1.4123581336696089
 42
50.0
 43
0.0
 44
0.0
 50
0.0
 51
0.0
 71
     0
 72
  1000
 73
     1
 74
     1
 75
     0
 76
     0
 77
     0
 78
     0
  0
ENDTAB
  0
TABLE
  2
LTYPE
 70
    12
  0
LTYPE
  2
CONTINUOUS
 70
     0
  3
Solid line
 72
    65
 73
     0
 40
0.0
  0
LTYPE
  2
XREF1|CENTER2
 70
    48
  3
Center (.5x) ___ _ ___ _ ___ _ ___ _ ___ _ ___
 72
    65
 73
     4
 40
28.574999999999999
 49
19.050000000000001
 49
-3.1749999999999989
 49
3.1749999999999989
 49
-3.1749999999999989
  0
LTYPE
  2
A3WAKUDAKE|CENTER2
 70
    48
  3
Center (.5x) ___ _ ___ _ ___ _ ___ _ ___ _ ___
 72
    65
 73
     4
 40
28.574999999999999
 49
19.050000000000001
 49
-3.1749999999999989
 49
3.1749999999999989
 49
-3.1749999999999989
  0
ENDTAB
  0
TABLE
  2
LAYER
 70
    40
  0
LAYER
  2
0
 70
     0
 62
     7
  6
CONTINUOUS
  0
LAYER
  2
1TEXT
 70
     0
 62
     7
  6
CONTINUOUS
  0
LAYER
  2
XREF1|1CENTER
 70
    48
 62
     7
  6
XREF1|CENTER2
  0
LAYER
  2
01
 70
     0
 62
     1
  6
CONTINUOUS
  0
LAYER
  2
A3WAKUDAKE|THICK
 70
    48
 62
     7
  6
CONTINUOUS
  0
LAYER
  2
A3WAKUDAKE|POINT
 70
    48
 62
     7
  6
CONTINUOUS
  0
LAYER
  2
A3WAKUDAKE|1CENTER
 70
    48
 62
     7
  6
A3WAKUDAKE|CENTER2
  0
LAYER
  2
A3WAKUDAKE|0-6
 70
    48
 62
     7
  6
CONTINUOUS
  0
LAYER
  2
A3WAKUDAKE|1DIM
 70
    48
 62
     7
  6
CONTINUOUS
  0
ENDTAB
  0
TABLE
  2
STYLE
 70
     4
  0
STYLE
  2
STANDARD
 70
     0
 40
0.0
 41
1.0
 50
0.0
 71
     0
 42
3.5
  3
romans.shx
  4
extfont2.shx
  0
ENDTAB
  0
TABLE
  2
VIEW
 70
     0
  0
ENDTAB
  0
TABLE
  2
UCS
 70
     0
  0
ENDTAB
  0
TABLE
  2
APPID
 70
    10
  0
APPID
  2
ACAD
 70
     0
  0
APPID
  2
DRAWINGVARIABLESXDATA
 70
     0
  0
APPID
  2
CONTENTTABDATA
 70
     0
  0
APPID
  2
CONTENTCURRENTTAB
 70
     0
  0
APPID
  2
CONTENTBLOCKDESCRIPTION
 70
     0
  0
APPID
  2
CONTENTBLOCKICON
 70
     0
  0
APPID
  2
CONTENTLONGBLOCKNAME
 70
     0
  0
APPID
  2
ACAD_PSEXT
 70
     0
  0
APPID
  2
ACAD_MLEADERVER
 70
     0
  0
APPID
  2
ACAD_DSTYLE_DIMRADIAL_EXTENSION
 70
     0
  0
ENDTAB
  0
TABLE
  2
DIMSTYLE
 70
     5
  0
DIMSTYLE
  2
NEWX10
 70
     0
  3
 
  4

  5

  6
OPEN30
  7
OPEN30
 40
1.0
 41
2.0
 42
0.0
 43
7.0
 44
1.0
 45
0.0
 46
0.0
 47
0.0
 48
0.0
140
3.5
141
0.0
142
0.0
143
25.399999999999999
144
1.0
145
0.0
146
0.7
147
0.7
 71
     0
 72
     0
 73
     0
 74
     0
 75
     0
 76
     0
 77
     1
 78
     8
170
     0
171
     2
172
     1
173
     1
174
     0
175
     0
176
   256
177
   256
178
   201
  0
ENDTAB
  0
ENDSEC
  0
SECTION
  2
BLOCKS
  0
BLOCK
  8
0
  2
$MODEL_SPACE
 70
     0
 10
0.0
 20
0.0
 30
0.0
  3
$MODEL_SPACE
  1

  0
ENDBLK
  5
1A
  8
0
  0
BLOCK
 67
     1
  8
0
  2
$PAPER_SPACE
 70
     0
 10
0.0
 20
0.0
 30
0.0
  3
$PAPER_SPACE
  1

  0
ENDBLK
  5
17
 67
     1
  8
0
  0
BLOCK
  8
0
  2
_OPEN30
 70
     0
 10
0.0
 20
0.0
 30
0.0
  3
_OPEN30
  1

  0
LINE
  5
44
  8
0
  6
BYBLOCK
 62
     0
 10
-1.0
 20
0.26794919
 30
0.0
 11
0.0
 21
0.0
 31
0.0
  0
LINE
  5
45
  8
0
  6
BYBLOCK
 62
     0
 10
0.0
 20
0.0
 30
0.0
 11
-1.0
 21
-0.26794919
 31
0.0
  0
LINE
  5
46
  8
0
  6
BYBLOCK
 62
     0
 10
0.0
 20
0.0
 30
0.0
 11
-1.0
 21
0.0
 31
0.0
  0
ENDBLK
  5
47
  8
0
  0
BLOCK
  8
0
  2
XREF1
 70
    36
 10
0.0
 20
0.0
 30
0.0
  3
XREF1
  1
D:\ACLT\FORMAT\KAWAJUN(9)図面用.dwg
  0
ENDBLK
  5
5D
  8
0
  0
BLOCK
  8
0
  2
A3WAKUDAKE
 70
    36
 10
0.0
 20
0.0
 30
0.0
  3
A3WAKUDAKE
  1
D:\ACLT\FORMAT\A3WAKUdake.dwg
  0
ENDBLK
  5
3366
  8
0
  0
BLOCK
  8
0
  2
*U55
 70
     1
 10
0.0
 20
0.0
 30
0.0
  3
*U55
  1

  0
LINE
  5
4A77
  8
0
 10
-4.7499941827476269
 20
1.500051962965244
 30
0.0
 11
-1.6999825490125879
 21
1.5000142687798641
 31
0.0
  0
LINE
  5
4A78
  8
0
 10
-4.9999912742822508
 20
1.250054871430506
 30
0.0
 11
-4.7499941827476269
 21
1.500051962965244
 31
0.0
  0
LINE
  5
4A79
  8
0
 10
-0.1999790588486121
 20
3.0000003080426718
 30
0.0
 11
-1.6999825490125879
 21
1.5000142687798641
 31
0.0
  0
LINE
  5
4A7A
  8
0
 10
-4.9999912742822508
 20
1.250054871430506
 30
0.0
 11
-5.0000087252440153
 21
-1.249945128534363
 31
0.0
  0
LINE
  5
4A7B
  8
0
 10
-0.1999790588486121
 20
3.0000003080426718
 30
0.0
 11
0.0000209411432479
 21
2.9999984466066958
 31
0.0
  0
LINE
  5
4A7C
  8
0
 10
-5.0000087252440153
 20
-1.249945128534363
 30
0.0
 11
-4.7500058167220232
 21
-1.4999480370562419
 31
0.0
  0
LINE
  5
4A7D
  8
0
 10
0.0000209411432479
 20
2.9999984466066958
 30
0.0
 11
-0.0000209411649621
 21
-3.000001553263246
 31
0.0
  0
LINE
  5
4A7E
  8
0
 10
-4.7500058167220232
 20
-1.4999480370562419
 30
0.0
 11
-1.7000244313859409
 21
-1.4999857309602469
 31
0.0
  0
LINE
  5
4A7F
  8
0
 10
-0.2000209411568221
 20
-2.9999996918273828
 30
0.0
 11
-0.0000209411649621
 21
-3.000001553263246
 31
0.0
  0
LINE
  5
4A80
  8
0
 10
-0.2000209411568221
 20
-2.9999996918273828
 30
0.0
 11
-1.7000244313859409
 21
-1.4999857309602469
 31
0.0
  0
ENDBLK
  5
4A82
  8
0
  0
BLOCK
  8
0
  2
*U56
 70
     1
 10
0.0
 20
0.0
 30
0.0
  3
*U56
  1

  0
TEXT
  5
4A87
  8
1TEXT
 62
   201
 10
54.566677819402038
 20
-4.2986816615381862
 30
0.0
 40
3.5
  1
11.5
 50
90.0
  0
ENDBLK
  5
4A89
  8
0
  0
BLOCK
  8
0
  2
*U57
 70
     1
 10
0.0
 20
0.0
 30
0.0
  3
*U57
  1

  0
TEXT
  5
4A8B
  8
1TEXT
 62
   201
 10
54.566677819402067
 20
-89.048681661538225
 30
0.0
 40
3.5
  1
取付けねじピッチ100
 50
90.0
  0
ENDBLK
  5
4A8D
  8
0
  0
BLOCK
  8
0
  2
*U58
 70
     1
 10
0.0
 20
0.0
 30
0.0
  3
*U58
  1

  0
TEXT
  5
4A8F
  8
1TEXT
 62
   201
 10
83.728790843481562
 20
-1.949887195938925
 30
0.0
 40
3.5
  1
R6
 50
43.605068500901332
  0
ENDBLK
  5
4A91
  8
0
  0
BLOCK
  8
0
  2
*U59
 70
     1
 10
0.0
 20
0.0
 30
0.0
  3
*U59
  1

  0
TEXT
  5
4A93
  8
1TEXT
 62
   201
 10
70.610010951011347
 20
-53.339885674626039
 30
0.0
 40
3.5
  1
9
  0
ENDBLK
  5
4A95
  8
0
  0
BLOCK
  8
0
  2
*U60
 70
     1
 10
0.0
 20
0.0
 30
0.0
  3
*U60
  1

  0
TEXT
  5
4A97
  8
1TEXT
 62
   201
 10
109.7052765178146
 20
-72.748681661538214
 30
0.0
 40
3.5
  1
123
 50
90.0
  0
ENDBLK
  5
4A99
  8
0
  0
BLOCK
  8
0
  2
*U61
 70
     1
 10
0.0
 20
0.0
 30
0.0
  3
*U61
  1

  0
TEXT
  5
4A9B
  8
1TEXT
 62
   201
 10
96.649987853391949
 20
-37.265348328204922
 30
0.0
 40
3.5
  1
上下調整範囲
 50
90.0
  0
TEXT
  5
4A9C
  8
1TEXT
 62
   201
 10
102.48332118672521
 20
-39.082014994871592
 30
0.0
 40
3.5
  1
34.5~42.5
 50
90.0
  0
ENDBLK
  5
4A9E
  8
0
  0
BLOCK
  8
0
  2
*U62
 70
     1
 10
0.0
 20
0.0
 30
0.0
  3
*U62
  1

  0
TEXT
  5
4AA0
  8
1TEXT
 62
   201
 10
102.48332118672531
 20
-66.082014994871642
 30
0.0
 40
3.5
  1
31.5
 50
90.0
  0
ENDBLK
  5
4AA2
  8
0
  0
BLOCK
  8
0
  2
*U63
 70
     1
 10
0.0
 20
0.0
 30
0.0
  3
*U63
  1

  0
TEXT
  5
4AA4
  8
1TEXT
 62
   201
 10
-4.2776629288719619
 20
-166.1169999676282
 30
0.0
 40
3.5
  1
13
 50
90.0
  0
ENDBLK
  5
4AA6
  8
0
  0
BLOCK
  8
0
  2
*U64
 70
     1
 10
0.0
 20
0.0
 30
0.0
  3
*U64
  1

  0
TEXT
  5
4AA8
  8
1TEXT
 62
   201
 10
32.754601825396492
 20
-166.1169999676282
 30
0.0
 40
3.5
  1
16
 50
90.0
  0
ENDBLK
  5
4AAA
  8
0
  0
BLOCK
  8
0
  2
*U65
 70
     1
 10
0.0
 20
0.0
 30
0.0
  3
*U65
  1

  0
TEXT
  5
4AAC
  8
1TEXT
 62
   201
 10
-12.36546522744886
 20
-24.298681661537721
 30
0.0
 40
3.5
  1
4 可動シロ
 50
90.0
  0
ENDBLK
  5
4AAE
  8
0
  0
BLOCK
  8
0
  2
*U66
 70
     1
 10
0.0
 20
0.0
 30
0.0
  3
*U66
  1

  0
TEXT
  5
4AB0
  8
1TEXT
 62
   201
 10
-12.365465227448871
 20
-130.89868166153829
 30
0.0
 40
3.5
  1
4 可動シロ
 50
90.0
  0
ENDBLK
  5
4AB2
  8
0
  0
BLOCK
  8
0
  2
*U67
 70
     1
 10
0.0
 20
0.0
 30
0.0
  3
*U67
  1

  0
TEXT
  5
4AB4
  8
1TEXT
 62
   201
 10
-19.546341933339431
 20
-83.782014994871332
 30
0.0
 40
3.5
  1
切欠き必要寸法75
 50
90.0
  0
ENDBLK
  5
4AB6
  8
0
  0
BLOCK
  8
0
  2
*U68
 70
     1
 10
0.0
 20
0.0
 30
0.0
  3
*U68
  1

  0
TEXT
  5
4AB8
  8
1TEXT
 62
   201
 10
-12.36546522744886
 20
-69.415348328204672
 30
0.0
 40
3.5
  1
67
 50
90.0
  0
ENDBLK
  5
4ABA
  8
0
  0
BLOCK
  8
0
  2
*U69
 70
     1
 10
0.0
 20
0.0
 30
0.0
  3
*U69
  1

  0
TEXT
  5
4ABC
  8
1TEXT
 62
   201
 10
68.610010951011347
 20
-142.70746661599631
 30
0.0
 40
3.5
  1
16
  0
ENDBLK
  5
4ABE
  8
0
  0
BLOCK
  8
0
  2
*U70
 70
     1
 10
0.0
 20
0.0
 30
0.0
  3
*U70
  1

  0
TEXT
  5
4AC0
  8
1TEXT
 62
   201
 10
5.2099151433499618
 20
-142.70746661599631
 30
0.0
 40
3.5
  1
14.5
  0
ENDBLK
  5
4AC2
  8
0
  0
BLOCK
  8
0
  2
*U71
 70
     1
 10
0.0
 20
0.0
 30
0.0
  3
*U71
  1

  0
TEXT
  5
4AC4
  8
1TEXT
 62
   201
 10
23.24324847668327
 20
-51.063271367091581
 30
0.0
 40
3.5
  1
前後調整範囲
  0
TEXT
  5
4AC5
  8
1TEXT
 62
   201
 10
23.076581810016609
 20
-56.896604700424909
 30
0.0
 40
3.5
  1
3.6 ～6.5
  0
ENDBLK
  5
4AC7
  8
0
  0
BLOCK
  8
0
  2
*U72
 70
     1
 10
0.0
 20
0.0
 30
0.0
  3
*U72
  1

  0
TEXT
  5
4AC9
  8
1TEXT
 62
   201
 10
3.5099151433501681
 20
-134.86834246331861
 30
0.0
 40
3.5
  1
2.5
  0
ENDBLK
  5
4ACB
  8
0
  0
BLOCK
  8
0
  2
*U73
 70
     1
 10
0.0
 20
0.0
 30
0.0
  3
*U73
  1

  0
TEXT
  5
4ACD
  8
1TEXT
 62
   201
 10
217.78366853067061
 20
2.653185306401793
 30
0.0
 40
3.5
  1
B.S.38
  0
ENDBLK
  5
4ACF
  8
0
  0
BLOCK
  8
0
  2
*U74
 70
     1
 10
0.0
 20
0.0
 30
0.0
  3
*U74
  1

  0
TEXT
  5
4AD1
  8
1TEXT
 62
   201
 10
278.52964952895201
 20
-19.482244740596531
 30
0.0
 40
3.5
  1
21
 50
90.0
  0
ENDBLK
  5
4AD3
  8
0
  0
BLOCK
  8
0
  2
*U75
 70
     1
 10
0.0
 20
0.0
 30
0.0
  3
*U75
  1

  0
TEXT
  5
4AD5
  8
1TEXT
 62
   201
 10
278.52964952895212
 20
-121.1822412405964
 30
0.0
 40
3.5
  1
21
 50
90.0
  0
ENDBLK
  5
4AD7
  8
0
  0
BLOCK
  8
0
  2
*U76
 70
     1
 10
0.0
 20
0.0
 30
0.0
  3
*U76
  1

  0
TEXT
  5
4AD9
  8
1TEXT
 62
   201
 10
288.03170213620149
 20
-111.0822422405964
 30
0.0
 40
3.5
  1
47.5
 50
90.0
  0
ENDBLK
  5
4ADB
  8
0
  0
BLOCK
  8
0
  2
*U77
 70
     1
 10
0.0
 20
0.0
 30
0.0
  3
*U77
  1

  0
TEXT
  5
4ADD
  8
1TEXT
 62
   201
 10
239.7503354323371
 20
-118.0749427414196
 30
0.0
 40
3.5
  1
φ36
  0
ENDBLK
  5
4ADF
  8
0
  0
BLOCK
  8
0
  2
*U78
 70
     1
 10
0.0
 20
0.0
 30
0.0
  3
*U78
  1

  0
TEXT
  5
4AE1
  8
1TEXT
 62
   201
 10
216.33366853067031
 20
-143.4158342788262
 30
0.0
 40
3.5
  1
58 （ケース奥行）
  0
ENDBLK
  5
4AE3
  8
0
  0
BLOCK
  8
0
  2
*U79
 70
     1
 10
0.0
 20
0.0
 30
0.0
  3
*U79
  1

  0
TEXT
  5
4AE5
  8
1TEXT
 62
   201
 10
277.80498998562632
 20
-164.20033430096129
 30
0.0
 40
3.5
  1
7
 50
90.0
  0
ENDBLK
  5
4AE7
  8
0
  0
BLOCK
  8
0
  2
*U80
 70
     1
 10
0.0
 20
0.0
 30
0.0
  3
*U80
  1

  0
TEXT
  5
4AE9
  8
1TEXT
 62
   201
 10
182.7094566610993
 20
-166.11699996762809
 30
0.0
 40
3.5
  1
16
 50
90.0
  0
ENDBLK
  5
4AEB
  8
0
  0
BLOCK
  8
0
  2
*U81
 70
     1
 10
0.0
 20
0.0
 30
0.0
  3
*U81
  1

  0
TEXT
  5
4AED
  8
1TEXT
 62
   201
 10
158.2287826688941
 20
-142.70746661599631
 30
0.0
 40
3.5
  1
16
  0
ENDBLK
  5
4AEF
  8
0
  0
BLOCK
  8
0
  2
*U82
 70
     1
 10
0.0
 20
0.0
 30
0.0
  3
*U82
  1

  0
TEXT
  5
4AF1
  8
1TEXT
 62
   201
 10
202.5336417181241
 20
-90.677510285564765
 30
0.0
 40
3.5
  1
6
  0
ENDBLK
  5
4AF3
  8
0
  0
BLOCK
  8
0
  2
*U83
 70
     1
 10
0.0
 20
0.0
 30
0.0
  3
*U83
  1

  0
TEXT
  5
4AF5
  8
1TEXT
 62
   201
 10
278.52964952895201
 20
-85.548910207263177
 30
0.0
 40
3.5
  1
81（ケース高さ）
 50
90.0
  0
ENDBLK
  5
4AF7
  8
0
  0
BLOCK
  8
0
  2
*U84
 70
     1
 10
0.0
 20
0.0
 30
0.0
  3
*U84
  1

  0
TEXT
  5
4AF9
  8
1TEXT
 62
   201
 10
194.75033496233689
 20
-137.39410573926199
 30
0.0
 40
3.5
  1
2.7
  0
ENDBLK
  5
4AFB
  8
0
  0
BLOCK
  8
0
  2
*U85
 70
     1
 10
0.0
 20
0.0
 30
0.0
  3
*U85
  1

  0
LINE
  5
4AFD
  8
0
 10
-0.0000093071795959
 20
-4.0
 30
0.0
 11
0.0000093071795959
 21
4.0
 31
0.0
  0
LINE
  5
4AFE
  8
0
 10
-0.2999906928214955
 20
4.0
 30
0.0
 11
0.0000093071795959
 21
4.0
 31
0.0
  0
LINE
  5
4AFF
  8
0
 10
-0.3000093071805736
 20
-4.0
 30
0.0
 11
-0.0000093071795959
 21
-4.0
 31
0.0
  0
LINE
  5
4B00
  8
0
 10
-0.2999906928214955
 20
4.0
 30
0.0
 11
-2.8000197779268201
 21
1.5
 31
0.0
  0
LINE
  5
4B01
  8
0
 10
-0.3000093071805736
 20
-4.0
 30
0.0
 11
-2.799991856279632
 21
-1.5
 31
0.0
  0
LINE
  5
4B02
  8
0
 10
-14.69999650980861
 20
1.5
 30
0.0
 11
-2.8000197779268201
 21
1.5
 31
0.0
  0
LINE
  5
4B03
  8
0
 10
-14.700003490193289
 20
-1.5
 30
0.0
 11
-2.799991856279632
 21
-1.5
 31
0.0
  0
LINE
  5
4B04
  8
0
 10
-20.000000000054168
 20
0.0
 30
0.0
 11
-14.69999650980861
 21
1.5
 31
0.0
  0
LINE
  5
4B05
  8
0
 10
-20.000000000054168
 20
0.0
 30
0.0
 11
-14.700003490193289
 21
-1.5
 31
0.0
  0
ENDBLK
  5
4B07
  8
0
  0
BLOCK
  8
0
  2
*U86
 70
     1
 10
0.0
 20
0.0
 30
0.0
  3
*U86
  1

  0
TEXT
  5
4B09
  8
1TEXT
 62
   201
 10
308.38223345646207
 20
-119.7277843907148
 30
0.0
 40
3.5
  1
20
  0
ENDBLK
  5
4B0B
  8
0
  0
BLOCK
  8
0
  2
*U87
 70
     1
 10
0.0
 20
0.0
 30
0.0
  3
*U87
  1

  0
TEXT
  5
4B0D
  8
1TEXT
 62
   201
 10
288.03170213620137
 20
-49.582242240596493
 30
0.0
 40
3.5
  1
75.5
 50
90.0
  0
ENDBLK
  5
4B0F
  8
0
  0
BLOCK
  8
0
  2
*U88
 70
     1
 10
0.0
 20
0.0
 30
0.0
  3
*U88
  1

  0
TEXT
  5
4B11
  8
1TEXT
 62
   201
 10
308.2777403014731
 20
-48.854433691428952
 30
0.0
 40
3.5
  1
27
  0
ENDBLK
  5
4B13
  8
0
  0
BLOCK
  8
0
  2
*U89
 70
     1
 10
0.0
 20
0.0
 30
0.0
  3
*U89
  1

  0
TEXT
  5
4B15
  8
1TEXT
 62
   201
 10
310.7777403014731
 20
-27.60071169142897
 30
0.0
 40
3.5
  1
22
  0
ENDBLK
  5
4B17
  8
0
  0
BLOCK
  8
0
  2
*U90
 70
     1
 10
0.0
 20
0.0
 30
0.0
  3
*U90
  1

  0
TEXT
  5
4B19
  8
1TEXT
 62
   201
 10
305.7777423014731
 20
-67.757042436904428
 30
0.0
 40
3.5
  1
32
  0
ENDBLK
  5
4B1B
  8
0
  0
BLOCK
  8
0
  2
*U91
 70
     1
 10
0.0
 20
0.0
 30
0.0
  3
*U91
  1

  0
TEXT
  5
4B1D
  8
1TEXT
 62
   201
 10
295.17953285745227
 20
-102.0749725014642
 30
0.0
 40
3.5
  1
φ4
 50
90.0
  0
ENDBLK
  5
4B1F
  8
0
  0
BLOCK
  8
0
  2
*U92
 70
     1
 10
0.0
 20
0.0
 30
0.0
  3
*U92
  1

  0
TEXT
  5
4B21
  8
1TEXT
 62
   201
 10
68.288077079361116
 20
-163.86420392306491
 30
0.0
 40
3.5
  1
25
  0
ENDBLK
  5
4B23
  8
0
  0
BLOCK
  8
0
  2
*U93
 70
     1
 10
0.0
 20
0.0
 30
0.0
  3
*U93
  1

  0
TEXT
  5
4B25
  8
1TEXT
 62
   201
 10
50.012672671398292
 20
-194.11655952417311
 30
0.0
 40
3.5
  1
φ3.5
 50
90.0
  0
ENDBLK
  5
4B27
  8
0
  0
BLOCK
  8
0
  2
*U94
 70
     1
 10
0.0
 20
0.0
 30
0.0
  3
*U94
  1

  0
TEXT
  5
4B29
  8
1TEXT
 62
   201
 10
134.0624637656739
 20
-72.74890910726316
 30
0.0
 40
3.5
  1
123
 50
90.0
  0
ENDBLK
  5
4B2B
  8
0
  0
BLOCK
  8
0
  2
*U95
 70
     1
 10
0.0
 20
0.0
 30
0.0
  3
*U95
  1

  0
TEXT
  5
4B2D
  8
1TEXT
 62
   201
 10
142.1768745130251
 20
-3.7989091072631611
 30
0.0
 40
3.5
  1
8.5
 50
90.0
  0
ENDBLK
  5
4B2F
  8
0
  0
BLOCK
  8
0
  2
*U96
 70
     1
 10
0.0
 20
0.0
 30
0.0
  3
*U96
  1

  0
TEXT
  5
4B31
  8
1TEXT
 62
   201
 10
168.43448722736559
 20
-5.3914792967045724
 30
0.0
 40
3.5
  1
R6
 50
50.044451309186201
  0
ENDBLK
  5
4B33
  8
0
  0
BLOCK
  8
0
  2
*U97
 70
     1
 10
0.0
 20
0.0
 30
0.0
  3
*U97
  1

  0
TEXT
  5
4B35
  8
1TEXT
 62
   201
 10
142.1768745130251
 20
-89.048909107263128
 30
0.0
 40
3.5
  1
取付けネジピッチ106
 50
90.0
  0
ENDBLK
  5
4B37
  8
0
  0
BLOCK
  8
0
  2
*U98
 70
     1
 10
0.0
 20
0.0
 30
0.0
  3
*U98
  1

  0
TEXT
  5
4B39
  8
1TEXT
 62
   201
 10
202.1170018640037
 20
-99.522566708395104
 30
0.0
 40
3.5
  1
7
  0
ENDBLK
  5
4B3B
  8
0
  0
BLOCK
  8
0
  2
*U99
 70
     1
 10
0.0
 20
0.0
 30
0.0
  3
*U99
  1

  0
TEXT
  5
4B3D
  8
1TEXT
 62
   201
 10
189.48033651349351
 20
-164.2003333009614
 30
0.0
 40
3.5
  1
3
 50
90.0
  0
ENDBLK
  5
4B3F
  8
0
  0
ENDSEC
  0
SECTION
  2
ENTITIES
  0
LINE
  5
DA9
  8
01
 10
209.98366836567041
 20
-106.49890970726319
 30
0.0
 11
215.98366526567051
 21
-106.49890970726319
 31
0.0
  0
LINE
  5
DAA
  8
01
 10
209.9836652656704
 20
-107.69890670726321
 30
0.0
 11
263.78366876567031
 21
-107.69890670726321
 31
0.0
  0
LINE
  5
DAC
  8
01
 10
209.98366836567041
 20
-28.49891070726321
 30
0.0
 11
215.98366526567051
 21
-28.49891070726321
 31
0.0
  0
LINE
  5
DAD
  8
01
 10
209.98366836567041
 20
-27.298913707263271
 30
0.0
 11
263.78366876567031
 21
-27.298913707263271
 31
0.0
  0
LINE
  5
DAE
  8
01
 10
208.78362638336219
 20
-90.49890870711701
 30
0.0
 11
208.78366826567029
 21
-99.498908707263212
 31
0.0
  0
LINE
  5
DB0
  8
01
 10
208.78366826567029
 20
-107.6989097072632
 30
0.0
 11
208.78366826567029
 21
-128.49890910726319
 31
0.0
  0
LINE
  5
DB1
  8
01
 10
209.9836652656704
 20
-107.69890670726321
 30
0.0
 11
209.9836652656704
 21
-128.49890910726319
 31
0.0
  0
LINE
  5
DB3
  8
01
 10
208.78366826567029
 20
-128.49890910726319
 30
0.0
 11
209.9836652656704
 21
-128.49890910726319
 31
0.0
  0
LINE
  5
DB4
  8
01
 10
215.9836652656704
 20
-106.49890970726319
 30
0.0
 11
215.9836652656704
 21
-107.69890670726321
 31
0.0
  0
ARC
  5
DB9
  8
01
 10
209.98366836567041
 20
-107.6989097072632
 30
0.0
 40
1.1999999999999991
 50
90.000003000000149
 51
180.00000999999941
  0
CIRCLE
  5
DBA
  8
01
 10
221.48360723213031
 20
-97.399636112875015
 30
0.0
 40
1.5
  0
LINE
  5
DC0
  8
01
 10
239.98366476567031
 20
-106.49890970726319
 30
0.0
 11
239.98366476567031
 21
-107.69890670726321
 31
0.0
  0
LINE
  5
DC5
  8
01
 10
244.98366476567031
 20
-106.49890970726319
 30
0.0
 11
244.98366476567031
 21
-107.69890670726321
 31
0.0
  0
LINE
  5
DC8
  8
01
 10
208.78366826567029
 20
-35.498910707263207
 30
0.0
 11
208.78366826567029
 21
-72.498910707263207
 31
0.0
  0
CIRCLE
  5
DD3
  8
01
 10
245.2836687656704
 20
-68.998910707263207
 30
0.0
 40
3.5
  0
CIRCLE
  5
DD4
  8
01
 10
245.2836687656704
 20
-81.498908707263226
 30
0.0
 40
4.0999998999999994
  0
POINT
  5
DD5
  8
01
 10
245.2836687656704
 20
-81.498908707263226
 30
0.0
  0
LINE
  5
DD6
  8
01
 10
215.9836652656704
 20
-27.298913707263271
 30
0.0
 11
215.9836652656704
 21
-28.49891070726321
 31
0.0
  0
ARC
  5
DD7
  8
01
 10
209.98366836567041
 20
-27.298913707263271
 30
0.0
 40
1.1999999999999991
 50
179.99999000000059
 51
270.0
  0
LINE
  5
DEC
  8
01
 10
208.78366826567029
 20
-6.4989137072631991
 30
0.0
 11
208.78366826567029
 21
-27.298913707263271
 31
0.0
  0
LINE
  5
DED
  8
01
 10
209.98366836567041
 20
-6.4989137072631991
 30
0.0
 11
209.98366836567041
 21
-27.298913707263271
 31
0.0
  0
LINE
  5
DEE
  8
01
 10
209.93921486567029
 20
-23.029567707263229
 30
0.0
 11
209.98373596567041
 21
-22.985046707263201
 31
0.0
  0
LINE
  5
DF1
  8
01
 10
208.78366826567029
 20
-6.4989137072631991
 30
0.0
 11
209.98366836567041
 21
-6.4989137072631991
 31
0.0
  0
LINE
  5
DF4
  8
01
 10
239.98366476567031
 20
-27.298913707263271
 30
0.0
 11
239.98366476567031
 21
-28.49891070726321
 31
0.0
  0
LINE
  5
DF5
  8
01
 10
244.98366476567031
 20
-27.298913707263271
 30
0.0
 11
244.98366476567031
 21
-28.49891070726321
 31
0.0
  0
LINE
  5
DF7
  8
01
 10
264.98366876567019
 20
-28.49891370726327
 30
0.0
 11
264.98366876567019
 21
-106.4989067072632
 31
0.0
  0
LINE
  5
DFA
  8
01
 10
263.78366876567043
 20
-64.498910707263207
 30
0.0
 11
264.98366876567019
 21
-64.498910707263207
 31
0.0
  0
LINE
  5
DFB
  8
01
 10
263.78366876567043
 20
-70.498910707263207
 30
0.0
 11
264.98366876567019
 21
-70.498910707263207
 31
0.0
  0
LINE
  5
17A8
  8
01
 10
169.81211600222741
 20
-11.998909107263181
 30
0.0
 11
169.81211600222741
 21
-122.9989091072631
 31
0.0
  0
LINE
  5
17A9
  8
01
 10
153.81211600222741
 20
-11.998909107263181
 30
0.0
 11
153.81211600222741
 21
-122.9989091072631
 31
0.0
  0
LINE
  5
17AA
  8
01
 10
159.81211600222741
 20
-128.99890910726319
 30
0.0
 11
163.81211600222741
 21
-128.99890910726319
 31
0.0
  0
LINE
  5
17AB
  8
01
 10
159.81211600222741
 20
-5.9989091072631791
 30
0.0
 11
163.81211600222741
 21
-5.9989091072631791
 31
0.0
  0
LINE
  5
17AC
  8
01
 10
160.51211200222741
 20
-42.998909107263167
 30
0.0
 11
163.11211900222739
 21
-42.998909107263167
 31
0.0
  0
LINE
  5
17AE
  8
01
 10
156.3070420022274
 20
-14.498909107263181
 30
0.0
 11
167.8883100022274
 21
-14.498909107263181
 31
0.0
  0
LINE
  5
17AF
  8
01
 10
156.3070420022274
 20
-120.4989091072631
 30
0.0
 11
167.8883100022274
 21
-120.4989091072631
 31
0.0
  0
LINE
  5
17B0
  8
01
 10
160.01211200222741
 20
-43.498909107263181
 30
0.0
 11
160.01211200222741
 21
-74.998907107263179
 31
0.0
  0
LINE
  5
17B1
  8
01
 10
163.61211900222739
 20
-43.498909107263181
 30
0.0
 11
163.61211900222739
 21
-74.998907107263179
 31
0.0
  0
ARC
  5
17B2
  8
01
 10
159.81211600222741
 20
-11.998909107263181
 30
0.0
 40
6.0
 50
90.000002999999325
 51
180.000010000001
  0
ARC
  5
17B3
  8
01
 10
163.81211600222741
 20
-11.998909107263181
 30
0.0
 40
6.0
 50
0.0
 51
90.000002999999325
  0
ARC
  5
17B4
  8
01
 10
163.81211600222741
 20
-122.9989091072631
 30
0.0
 40
6.0
 50
270.0
 51
0.0
  0
ARC
  5
17B5
  8
01
 10
159.81211600222741
 20
-122.9989091072631
 30
0.0
 40
6.0
 50
179.999989999999
 51
270.0
  0
CIRCLE
  5
17B6
  8
01
 10
161.81211600222741
 20
-14.498909107263181
 30
0.0
 40
3.4000015000000001
  0
CIRCLE
  5
17B7
  8
01
 10
161.81211600222741
 20
-14.498909107263181
 30
0.0
 40
4.4000009999999996
  0
CIRCLE
  5
17B8
  8
01
 10
161.81211600222741
 20
-120.4989091072631
 30
0.0
 40
4.4000009999999996
  0
CIRCLE
  5
17B9
  8
01
 10
161.81211600222741
 20
-120.4989091072631
 30
0.0
 40
3.4000015000000001
  0
ARC
  5
17BA
  8
01
 10
160.51211200222741
 20
-43.498909107263181
 30
0.0
 40
0.5
 50
90.000002999999325
 51
180.000010000001
  0
ARC
  5
17BB
  8
01
 10
163.11211900222739
 20
-43.498909107263181
 30
0.0
 40
0.5
 50
0.0
 51
90.000002999999325
  0
ARC
  5
17BC
  8
01
 10
163.11211900222739
 20
-74.998907107263179
 30
0.0
 40
0.5
 50
293.57774087518669
 51
0.0
  0
ARC
  5
17BD
  8
01
 10
160.51211200222741
 20
-74.998907107263179
 30
0.0
 40
0.5
 50
179.999989999999
 51
246.42225912481331
  0
CIRCLE
  5
17D8
  8
01
 10
161.8121595766298
 20
-102.7992344172343
 30
0.0
 40
2.149999999999999
  0
LINE
  5
1920
  8
01
 10
207.28366829567031
 20
-5.998909107263187
 30
0.0
 11
207.28366829567031
 21
-128.9989091072631
 31
0.0
  0
LINE
  5
1921
  8
01
 10
208.78366826567029
 20
-5.998909107263187
 30
0.0
 11
208.78366826567029
 21
-128.9989091072631
 31
0.0
  0
LINE
  5
1922
  8
01
 10
205.55842380772421
 20
-120.4989091072632
 30
0.0
 11
213.01941454462781
 21
-120.4989091072632
 31
0.0
  0
LINE
  5
1924
  8
01
 10
209.9836652656704
 20
-117.0989141072632
 30
0.0
 11
208.53367628567031
 21
-117.0989141072631
 31
0.0
  0
LINE
  5
1925
  8
01
 10
209.9836652656704
 20
-123.8989111072632
 30
0.0
 11
208.5336651956703
 21
-123.8989111072631
 31
0.0
  0
LINE
  5
1927
  8
01
 10
207.28366829567031
 20
-128.9989091072631
 30
0.0
 11
208.78366826567029
 21
-128.9989091072631
 31
0.0
  0
LINE
  5
1928
  8
01
 10
208.53366829567031
 20
-123.8989071072631
 30
0.0
 11
207.28366825567031
 21
-125.1489071072631
 31
0.0
  0
LINE
  5
192A
  8
01
 10
208.53367092567029
 20
-117.0989081072631
 30
0.0
 11
207.28366825567031
 21
-115.8489041072631
 31
0.0
  0
LINE
  5
192E
  8
01
 10
203.8834457656703
 20
-14.49890910726319
 30
0.0
 11
215.38005426567031
 21
-14.49890910726319
 31
0.0
  0
LINE
  5
1932
  8
01
 10
209.98366836567041
 20
-17.89890310726318
 30
0.0
 11
208.53367628567031
 21
-17.89890310726318
 31
0.0
  0
LINE
  5
1934
  8
01
 10
208.53367092567029
 20
-17.89891110726316
 30
0.0
 11
207.2836696056703
 21
-19.14891110726316
 31
0.0
  0
LINE
  5
1936
  8
01
 10
207.28366829567031
 20
-5.998909107263187
 30
0.0
 11
208.78366826567029
 21
-5.998909107263187
 31
0.0
  0
LINE
  5
1937
  8
01
 10
209.98366836567041
 20
-11.09890810726316
 30
0.0
 11
208.5336651956703
 21
-11.098908107263149
 31
0.0
  0
LINE
  5
1938
  8
01
 10
208.53366829567031
 20
-11.098908107263149
 30
0.0
 11
207.2836696056703
 21
-9.8489081072631564
 31
0.0
  0
LINE
  5
2783
  8
01
 10
244.98366476567031
 20
-160.43367563429479
 30
0.0
 11
264.98366476567031
 21
-160.43367563429479
 31
0.0
  0
LINE
  5
2785
  8
01
 10
193.14357691026001
 20
-162.5336666342948
 30
0.0
 11
270.81972076567018
 21
-162.5336666342948
 31
0.0
  0
LINE
  5
2786
  8
01
 10
209.9836652656704
 20
-165.8336616342948
 30
0.0
 11
263.78366476567032
 21
-165.8336616342948
 31
0.0
  0
LINE
  5
278C
  8
01
 10
215.9836652656704
 20
-160.43367563429479
 30
0.0
 11
239.98366476567031
 21
-160.43367563429479
 31
0.0
  0
LINE
  5
278D
  8
01
 10
215.9836652656704
 20
-159.2336706342947
 30
0.0
 11
215.9836652656704
 21
-160.43367563429479
 31
0.0
  0
LINE
  5
278E
  8
01
 10
209.9836652656704
 20
-154.5336666342948
 30
0.0
 11
209.9836652656704
 21
-162.5336666342948
 31
0.0
  0
LINE
  5
278F
  8
01
 10
208.78366826567029
 20
-154.5336666342948
 30
0.0
 11
208.78366826567029
 21
-170.5336666342948
 31
0.0
  0
LINE
  5
2790
  8
01
 10
211.48366526567031
 20
-164.63365663429471
 30
0.0
 11
211.48366526567031
 21
-165.8336616342948
 31
0.0
  0
LINE
  5
2791
  8
01
 10
209.9836652656704
 20
-164.63365663429471
 30
0.0
 11
211.48366526567031
 21
-164.63365663429471
 31
0.0
  0
LINE
  5
2792
  8
01
 10
208.78366826567029
 20
-170.5336666342948
 30
0.0
 11
209.9836652656704
 21
-170.5336666342948
 31
0.0
  0
LINE
  5
2793
  8
01
 10
209.9836652656704
 20
-162.5336666342948
 30
0.0
 11
209.9836652656704
 21
-170.5336666342948
 31
0.0
  0
LINE
  5
2795
  8
01
 10
209.9836652656704
 20
-159.2336706342947
 30
0.0
 11
264.98366476567031
 21
-159.2336706342947
 31
0.0
  0
LINE
  5
2796
  8
01
 10
208.78366826567029
 20
-154.5336666342948
 30
0.0
 11
209.9836652656704
 21
-154.5336666342948
 31
0.0
  0
LINE
  5
2798
  8
01
 10
239.98366476567031
 20
-159.2336706342947
 30
0.0
 11
239.98366476567031
 21
-160.43367563429479
 31
0.0
  0
LINE
  5
2799
  8
01
 10
244.98366476567031
 20
-159.2336706342947
 30
0.0
 11
244.98366476567031
 21
-160.43367563429479
 31
0.0
  0
LINE
  5
27A1
  8
01
 10
263.78366876567031
 20
-159.2336706342947
 30
0.0
 11
263.78366876567031
 21
-165.8336616342948
 31
0.0
  0
LINE
  5
27A2
  8
01
 10
264.98366476567031
 20
-159.2336706342947
 30
0.0
 11
264.98366476567031
 21
-164.63366463429469
 31
0.0
  0
ARC
  5
27A5
  8
01
 10
263.78366476567032
 20
-164.63366463429469
 30
0.0
 40
1.1999999999999991
 50
270.0
 51
0.0
  0
LINE
  5
2883
  8
01
 10
207.28366829567031
 20
-154.5336666342948
 30
0.0
 11
208.78366826567029
 21
-154.5336666342948
 31
0.0
  0
LINE
  5
2884
  8
01
 10
207.28366829567031
 20
-170.5336666342948
 30
0.0
 11
208.78366826567029
 21
-170.5336666342948
 31
0.0
  0
LINE
  5
2885
  8
01
 10
207.28366829567031
 20
-154.5336666342948
 30
0.0
 11
207.28366829567031
 21
-170.5336666342948
 31
0.0
  0
LINE
  5
3037
  8
01
 10
239.98366476567031
 20
-28.49891070726321
 30
0.0
 11
244.9836647656702
 21
-28.49891070726321
 31
0.0
  0
LINE
  5
3039
  8
01
 10
263.78366876567043
 20
-64.498910707263207
 30
0.0
 11
263.78366876567043
 21
-70.498910707263207
 31
0.0
  0
LINE
  5
303C
  8
01
 10
239.98366476567031
 20
-106.49890970726319
 30
0.0
 11
244.98366476567031
 21
-106.49890970726319
 31
0.0
  0
CIRCLE
  5
303D
  8
01
 10
245.2836687656704
 20
-93.998908707263226
 30
0.0
 40
3.499999999999996
  0
ARC
  5
303E
  8
01
 10
222.4816797181241
 20
-61.998906910435181
 30
0.0
 40
5.0
 50
227.16658000000029
 51
270.0
  0
ARC
  5
303F
  8
01
 10
229.2836417181241
 20
-84.998906910435181
 30
0.0
 40
10.0
 50
179.9999899999998
 51
270.0
  0
ARC
  5
3048
  8
01
 10
217.2836417181241
 20
-76.998906910435181
 30
0.0
 40
2.0
 50
0.0
 51
90.000002999999325
  0
LINE
  5
3049
  8
01
 10
207.2836417181241
 20
-74.998906910435181
 30
0.0
 11
217.2836417181241
 21
-74.998906910435181
 31
0.0
  0
LINE
  5
304A
  8
01
 10
219.2836417181241
 20
-76.998906910435181
 30
0.0
 11
219.2836417181241
 21
-84.998906910435181
 31
0.0
  0
ARC
  5
304E
  8
01
 10
212.2836417181241
 20
-72.998906910435181
 30
0.0
 40
10.0
 50
47.166571000000211
 51
120.0000000000002
  0
ARC
  5
304F
  8
01
 10
252.2836417181241
 20
-74.498906910435181
 30
0.0
 40
2.0
 50
0.0
 51
90.000002999999325
  0
LINE
  5
3050
  8
01
 10
229.2836417181241
 20
-71.998906910435181
 30
0.0
 11
229.2836417181241
 21
-81.498906910435181
 31
0.0
  0
ARC
  5
3051
  8
01
 10
245.2836417181241
 20
-81.498906910435181
 30
0.0
 40
9.0
 50
90.000002999999325
 51
180.0000100000002
  0
ARC
  5
3052
  8
01
 10
237.7836417181241
 20
-89.998906910435181
 30
0.0
 40
5.0
 50
270.0
 51
331.92750999999993
  0
ARC
  5
3053
  8
01
 10
232.7836417181241
 20
-81.498906910435181
 30
0.0
 40
3.5
 50
179.9999899999998
 51
0.0000100179130762
  0
LINE
  5
3054
  8
01
 10
229.2836417181241
 20
-94.998906910435181
 30
0.0
 11
237.7836417181241
 21
-94.998906910435181
 31
0.0
  0
ARC
  5
3055
  8
01
 10
243.43364171812411
 20
-79.648906910435272
 30
0.0
 40
0.2
 50
90.000002999999325
 51
180.0000100000002
  0
ARC
  5
3056
  8
01
 10
243.43364171812411
 20
-83.348906910435105
 30
0.0
 40
0.2
 50
179.9999899999998
 51
270.0
  0
ARC
  5
3057
  8
01
 10
247.1336417181241
 20
-83.348906910435105
 30
0.0
 40
0.2
 50
270.0
 51
0.0
  0
ARC
  5
3058
  8
01
 10
247.1336417181241
 20
-79.648906910435272
 30
0.0
 40
0.2
 50
0.0
 51
90.000002999999325
  0
ARC
  5
305E
  8
01
 10
245.2836417181241
 20
-93.998906910435181
 30
0.0
 40
3.5
 50
90.000002999999325
 51
151.92751999999979
  0
ARC
  5
305F
  8
01
 10
245.2836417181241
 20
-81.498906910435181
 30
0.0
 40
9.0
 50
270.0
 51
0.0
  0
LINE
  5
3060
  8
01
 10
243.23364171812409
 20
-79.648906910435272
 30
0.0
 11
243.23364171812409
 21
-83.348906910435105
 31
0.0
  0
LINE
  5
3061
  8
01
 10
243.43364171812411
 20
-83.548906910435136
 30
0.0
 11
247.1336417181241
 21
-83.548906910435136
 31
0.0
  0
LINE
  5
3062
  8
01
 10
247.333641718124
 20
-79.648906910435272
 30
0.0
 11
247.333641718124
 21
-83.348906910435105
 31
0.0
  0
LINE
  5
3063
  8
01
 10
243.43364171812411
 20
-79.448906910435227
 30
0.0
 11
247.1336417181241
 21
-79.448906910435227
 31
0.0
  0
LINE
  5
3064
  8
01
 10
254.2836417181241
 20
-74.498906910435181
 30
0.0
 11
254.2836417181241
 21
-81.498906910435181
 31
0.0
  0
LINE
  5
3065
  8
01
 10
245.2836417181241
 20
-72.498906910435181
 30
0.0
 11
252.2836417181241
 21
-72.498906910435181
 31
0.0
  0
ARC
  5
306A
  8
01
 10
224.2836417181241
 20
-71.998906910435181
 30
0.0
 40
5.0
 50
0.0
 51
90.000002999999325
  0
LINE
  5
306B
  8
01
 10
222.4816797181241
 20
-66.998906910435181
 30
0.0
 11
224.2836417181241
 21
-66.998906910435181
 31
0.0
  0
LINE
  5
306C
  8
01
 10
263.78366876567031
 20
-27.298913707263271
 30
0.0
 11
264.98366876567019
 21
-28.49891370726327
 31
0.0
  0
LINE
  5
306D
  8
01
 10
263.78366876567031
 20
-107.69890670726321
 30
0.0
 11
264.98366876567019
 21
-106.4989067072632
 31
0.0
  0
CIRCLE
  5
306F
  8
01
 10
216.78366826567029
 20
-34.498910707263207
 30
0.0
 40
3.0
  0
CIRCLE
  5
3071
  8
01
 10
258.9836687656703
 20
-101.69890570726319
 30
0.0
 40
3.0
  0
LINE
  5
3073
  8
01
 10
163.31211550222741
 20
-62.998906910435181
 30
0.0
 11
160.31211550222741
 21
-62.998906910435181
 31
0.0
  0
LINE
  5
3074
  8
01
 10
160.31211550222741
 20
-84.998906910435181
 30
0.0
 11
163.31211550222741
 21
-84.998906910435181
 31
0.0
  0
LINE
  5
3076
  8
01
 10
161.81211550222741
 20
-2.711456680379797
 30
0.0
 11
161.81211550222741
 21
-132.29591090953591
 31
0.0
  0
LINE
  5
3077
  8
01
 10
160.31211550222741
 20
-62.998906910435181
 30
0.0
 11
160.31211550222741
 21
-84.998906910435181
 31
0.0
  0
LINE
  5
3078
  8
01
 10
163.31211550222741
 20
-62.998906910435181
 30
0.0
 11
163.31211550222741
 21
-84.998906910435181
 31
0.0
  0
LINE
  5
3079
  8
01
 10
195.3532204017566
 20
-161.0336666342948
 30
0.0
 11
195.3532204017566
 21
-164.0336666342948
 31
0.0
  0
LINE
  5
307A
  8
01
 10
195.3532204017566
 20
-164.0336666342948
 30
0.0
 11
207.28366829567031
 21
-164.0336666342948
 31
0.0
  0
LINE
  5
307B
  8
01
 10
195.3532204017566
 20
-161.0336666342948
 30
0.0
 11
207.28366829567031
 21
-161.0336666342948
 31
0.0
  0
LINE
  5
307F
  8
01
 10
223.68366876567089
 20
-81.498908707263197
 30
0.0
 11
266.8836687656709
 21
-81.498908707263197
 31
0.0
  0
LINE
  5
3080
  8
01
 10
245.28366876567091
 20
-103.09890870726301
 30
0.0
 11
245.28366876567091
 21
-59.898908707263203
 31
0.0
  0
LINE
  5
3B48
  8
01
  6
BYBLOCK
 10
76.693344284344676
 20
-79.998681661538313
 30
0.0
 11
76.693344284344676
 21
-40.498681661538313
 31
0.0
  0
LINE
  5
3B49
  8
01
  6
BYBLOCK
 10
67.693344284344676
 20
-79.998681661538313
 30
0.0
 11
67.693344284344676
 21
-40.498681661538313
 31
0.0
  0
LINE
  5
3B4A
  8
01
  6
BYBLOCK
 10
67.693344284344676
 20
-79.998681661538313
 30
0.0
 11
76.693344284344676
 21
-79.998681661538313
 31
0.0
  0
LINE
  5
3B4B
  8
01
  6
BYBLOCK
 10
68.193344284344676
 20
-75.998681661538313
 30
0.0
 11
65.693344284344676
 21
-75.998681661538313
 31
0.0
  0
LINE
  5
3B4C
  8
01
  6
BYBLOCK
 10
76.193344284344676
 20
-75.998681661538313
 30
0.0
 11
78.693344284344676
 21
-75.998681661538313
 31
0.0
  0
LINE
  5
3B4D
  8
01
  6
BYBLOCK
 10
67.693344284344676
 20
-79.998681661538313
 30
0.0
 11
66.693344284344676
 21
-79.998681661538313
 31
0.0
  0
LINE
  5
3B4E
  8
01
  6
BYBLOCK
 10
66.693344284344676
 20
-78.998681661538313
 30
0.0
 11
67.693344284344676
 21
-78.998681661538313
 31
0.0
  0
LINE
  5
3B4F
  8
01
  6
BYBLOCK
 10
66.693344284344676
 20
-77.998681661538313
 30
0.0
 11
67.693344284344676
 21
-77.998681661538313
 31
0.0
  0
LINE
  5
3B50
  8
01
  6
BYBLOCK
 10
66.693344284344676
 20
-76.998681661538313
 30
0.0
 11
67.693344284344676
 21
-76.998681661538313
 31
0.0
  0
LINE
  5
3B51
  8
01
  6
BYBLOCK
 10
76.693344284344676
 20
-79.998681661538313
 30
0.0
 11
77.693344284344676
 21
-79.998681661538313
 31
0.0
  0
LINE
  5
3B52
  8
01
  6
BYBLOCK
 10
76.693344284344676
 20
-78.998681661538313
 30
0.0
 11
77.693344284344676
 21
-78.998681661538313
 31
0.0
  0
LINE
  5
3B53
  8
01
  6
BYBLOCK
 10
76.693344284344676
 20
-77.998681661538313
 30
0.0
 11
77.693344284344676
 21
-77.998681661538313
 31
0.0
  0
LINE
  5
3B54
  8
01
  6
BYBLOCK
 10
76.693344284344676
 20
-76.998681661538313
 30
0.0
 11
77.693344284344676
 21
-76.998681661538313
 31
0.0
  0
LINE
  5
3B55
  8
01
  6
BYBLOCK
 10
76.693344284344676
 20
-74.998681661538313
 30
0.0
 11
77.693344284344676
 21
-74.998681661538313
 31
0.0
  0
LINE
  5
3B56
  8
01
  6
BYBLOCK
 10
76.693344284344676
 20
-73.998681661538313
 30
0.0
 11
77.693344284344676
 21
-73.998681661538313
 31
0.0
  0
LINE
  5
3B57
  8
01
  6
BYBLOCK
 10
76.693344284344676
 20
-72.998681661538313
 30
0.0
 11
77.693344284344676
 21
-72.998681661538313
 31
0.0
  0
LINE
  5
3B58
  8
01
  6
BYBLOCK
 10
76.693344284344676
 20
-71.998681661538313
 30
0.0
 11
77.693344284344676
 21
-71.998681661538313
 31
0.0
  0
LINE
  5
3B59
  8
01
  6
BYBLOCK
 10
66.693344284344676
 20
-74.998681661538313
 30
0.0
 11
67.693344284344676
 21
-74.998681661538313
 31
0.0
  0
LINE
  5
3B5A
  8
01
  6
BYBLOCK
 10
66.693344284344676
 20
-73.998681661538313
 30
0.0
 11
67.693344284344676
 21
-73.998681661538313
 31
0.0
  0
LINE
  5
3B5B
  8
01
  6
BYBLOCK
 10
66.693344284344676
 20
-72.998681661538313
 30
0.0
 11
67.693344284344676
 21
-72.998681661538313
 31
0.0
  0
LINE
  5
3B5C
  8
01
  6
BYBLOCK
 10
66.693344284344676
 20
-71.998681661538313
 30
0.0
 11
67.693344284344676
 21
-71.998681661538313
 31
0.0
  0
TEXT
  5
3B5D
  8
01
  6
BYBLOCK
 10
65.987802834140666
 20
-35.532043060582197
 30
0.0
 40
4.0
  1
KAWAJUN
 41
0.45
  0
LINE
  5
3B73
  8
01
  6
BYBLOCK
 10
67.693344284344676
 20
-75.998681661538313
 30
0.0
 11
76.693344284344676
 21
-75.998681661538313
 31
0.0
  0
LINE
  5
3B74
  8
01
  6
BYBLOCK
 10
70.193344284344676
 20
-128.99868166153831
 30
0.0
 11
74.193344284344676
 21
-128.99868166153831
 31
0.0
  0
ARC
  5
3B75
  8
01
  6
BYBLOCK
 10
70.193344284344676
 20
-122.9986816615383
 30
0.0
 40
6.0
 50
180.0
 51
270.0
  0
LINE
  5
3B76
  8
01
 10
64.193344284344448
 20
-117.4986816615383
 30
0.0
 11
80.193344284344448
 21
-117.4986816615383
 31
0.0
  0
LINE
  5
3B77
  8
01
  6
BYBLOCK
 10
70.193344284344676
 20
-5.9986816615381988
 30
0.0
 11
74.193344284344676
 21
-5.9986816615381988
 31
0.0
  0
LINE
  5
3B78
  8
01
 10
64.193344284344676
 20
-17.4986816615382
 30
0.0
 11
80.193344284344676
 21
-17.4986816615382
 31
0.0
  0
LINE
  5
3B79
  8
01
  6
BYBLOCK
 10
67.693344284344676
 20
-44.498681661538313
 30
0.0
 11
76.693344284344676
 21
-44.498681661538313
 31
0.0
  0
LINE
  5
3B7A
  8
01
  6
BYBLOCK
 10
67.693344284344676
 20
-40.498681661538313
 30
0.0
 11
76.693344284344676
 21
-40.498681661538313
 31
0.0
  0
LINE
  5
3B7B
  8
01
 10
72.193344284344676
 20
2.7662334730666478
 30
0.0
 11
72.193344284344676
 21
-136.0125598294278
 31
0.0
  0
LINE
  5
3B7C
  8
01
  6
BYBLOCK
 10
64.193344284344676
 20
-11.9986816615382
 30
0.0
 11
64.193344284344676
 21
-122.9986816615383
 31
0.0
  0
ARC
  5
3B7D
  8
01
  6
BYBLOCK
 10
70.193344284344676
 20
-11.9986816615382
 30
0.0
 40
6.0
 50
90.0
 51
180.0
  0
LINE
  5
3B7E
  8
01
  6
BYBLOCK
 10
80.193344284344676
 20
-11.9986816615382
 30
0.0
 11
80.193344284344676
 21
-122.9986816615383
 31
0.0
  0
ARC
  5
3B7F
  8
01
  6
BYBLOCK
 10
74.193344284344676
 20
-122.9986816615383
 30
0.0
 40
6.0
 50
270.0
 51
0.0
  0
ARC
  5
3B80
  8
01
  6
BYBLOCK
 10
74.193344284344676
 20
-11.9986816615382
 30
0.0
 40
6.0
 50
0.0
 51
90.0
  0
LINE
  5
3B81
  8
01
 10
80.193344284344676
 20
-91.498681661538086
 30
0.0
 11
64.193344284344676
 21
-91.498681661538086
 31
0.0
  0
LINE
  5
3B82
  8
01
  6
BYBLOCK
 10
68.693344284344676
 20
-95.498681661538086
 30
0.0
 11
68.693344284344676
 21
-87.498681661538086
 31
0.0
  0
ARC
  5
3B83
  8
01
  6
BYBLOCK
 10
72.193344284344676
 20
-87.498681661538086
 30
0.0
 40
3.5
 50
0.0
 51
180.0
  0
ARC
  5
3B84
  8
01
  6
BYBLOCK
 10
72.193344284344676
 20
-95.498681661538086
 30
0.0
 40
3.5
 50
180.0
 51
0.0
  0
LINE
  5
3B85
  8
01
 10
66.79184428434462
 20
-95.498681661538086
 30
0.0
 11
77.469544284344693
 21
-95.498681661538086
 31
0.0
  0
LINE
  5
3B86
  8
01
 10
66.79184428434462
 20
-87.498681661538086
 30
0.0
 11
77.469544284344693
 21
-87.498681661538086
 31
0.0
  0
LINE
  5
3B87
  8
01
  6
BYBLOCK
 10
75.693344284344676
 20
-95.498681661538086
 30
0.0
 11
75.693344284344676
 21
-87.498681661538086
 31
0.0
  0
CIRCLE
  5
3B88
  8
01
  6
BYBLOCK
 10
72.193344284344676
 20
-91.498681661538086
 30
0.0
 40
3.5
  0
LINE
  5
3B89
  8
01
  6
BYBLOCK
 10
70.001344284344668
 20
-93.124681661538062
 30
0.0
 11
70.567044284344533
 21
-93.690681661538093
 31
0.0
  0
ARC
  5
3B8A
  8
01
  6
BYBLOCK
 10
69.50634428434455
 20
-91.498681661538086
 30
0.0
 40
1.5
 50
314.99999999999949
 51
45.000000000000568
  0
LINE
  5
3B8B
  8
01
  6
BYBLOCK
 10
70.001344284344668
 20
-93.124681661538062
 30
0.0
 11
70.567044284344533
 21
-92.559681661538008
 31
0.0
  0
LINE
  5
3B8C
  8
01
  6
BYBLOCK
 10
73.819744284344551
 20
-93.690681661538093
 30
0.0
 11
74.385344284344683
 21
-93.124681661538062
 31
0.0
  0
LINE
  5
3B8D
  8
01
  6
BYBLOCK
 10
70.567044284344533
 20
-93.690681661538093
 30
0.0
 11
71.132644284344678
 21
-93.124681661538062
 31
0.0
  0
ARC
  5
3B8E
  8
01
  6
BYBLOCK
 10
72.193344284344676
 20
-94.185681661537984
 30
0.0
 40
1.5
 50
45.000000000000568
 51
134.9999999999994
  0
LINE
  5
3B8F
  8
01
  6
BYBLOCK
 10
73.254044284344673
 20
-93.124681661538062
 30
0.0
 11
73.819744284344551
 21
-93.690681661538093
 31
0.0
  0
ARC
  5
3B90
  8
01
  6
BYBLOCK
 10
74.880344284344687
 20
-91.498681661538086
 30
0.0
 40
1.5
 50
134.9999999999994
 51
225.0000000000006
  0
LINE
  5
3B91
  8
01
  6
BYBLOCK
 10
73.819744284344551
 20
-92.559681661538008
 30
0.0
 11
74.385344284344683
 21
-93.124681661538062
 31
0.0
  0
LINE
  5
3B92
  8
01
  6
BYBLOCK
 10
73.819744284344551
 20
-89.306681661538065
 30
0.0
 11
74.385344284344683
 21
-89.872681661538095
 31
0.0
  0
LINE
  5
3B93
  8
01
  6
BYBLOCK
 10
73.819744284344551
 20
-90.437681661537937
 30
0.0
 11
74.385344284344683
 21
-89.872681661538095
 31
0.0
  0
LINE
  5
3B94
  8
01
  6
BYBLOCK
 10
70.567044284344533
 20
-89.306681661538065
 30
0.0
 11
71.132644284344678
 21
-89.872681661538095
 31
0.0
  0
ARC
  5
3B95
  8
01
  6
BYBLOCK
 10
72.193344284344676
 20
-88.811681661538074
 30
0.0
 40
1.5
 50
225.0000000000006
 51
314.99999999999949
  0
LINE
  5
3B96
  8
01
  6
BYBLOCK
 10
73.254044284344673
 20
-89.872681661538095
 30
0.0
 11
73.819744284344551
 21
-89.306681661538065
 31
0.0
  0
LINE
  5
3B97
  8
01
  6
BYBLOCK
 10
70.001344284344668
 20
-89.872681661538095
 30
0.0
 11
70.567044284344533
 21
-89.306681661538065
 31
0.0
  0
LINE
  5
3B98
  8
01
  6
BYBLOCK
 10
70.001344284344668
 20
-89.872681661538095
 30
0.0
 11
70.567044284344533
 21
-90.437681661537937
 31
0.0
  0
ARC
  5
3B99
  8
01
  6
BYBLOCK
 10
72.193344284344676
 20
-94.784681661537917
 30
0.0
 40
6.4142900000000003
 50
231.41999999999859
 51
308.58000000000141
  0
LINE
  5
3B9A
  8
01
  6
BYBLOCK
 10
68.780744284344564
 20
-100.4986816615381
 30
0.0
 11
68.193344284344676
 21
-99.798681661538055
 31
0.0
  0
LINE
  5
3B9B
  8
01
  6
BYBLOCK
 10
68.193344284344676
 20
-99.798681661538055
 30
0.0
 11
69.052044284344674
 21
-100.1116816615379
 31
0.0
  0
LINE
  5
3B9C
  8
01
  6
BYBLOCK
 10
75.605944284344545
 20
-100.4986816615381
 30
0.0
 11
76.193344284344676
 21
-99.798681661538055
 31
0.0
  0
LINE
  5
3B9D
  8
01
  6
BYBLOCK
 10
76.193344284344676
 20
-99.798681661538055
 30
0.0
 11
75.334644284344677
 21
-100.1116816615379
 31
0.0
  0
TEXT
  5
3B9E
  8
01
  6
BYBLOCK
 10
66.555177617678012
 20
-104.41368166153801
 30
0.0
 40
2.5
  1
前後調整
 72
     1
 11
72.221844284344684
 21
-103.16368166153801
 31
0.0
 73
     2
  0
CIRCLE
  5
3B9F
  8
01
  6
BYBLOCK
 10
72.193344284344676
 20
-117.4986816615383
 30
0.0
 40
2.0
  0
CIRCLE
  5
3BA0
  8
01
  6
BYBLOCK
 10
72.193344284344676
 20
-117.4986816615383
 30
0.0
 40
3.5
  0
CIRCLE
  5
3BA2
  8
01
  6
BYBLOCK
 10
72.193344284344676
 20
-17.4986816615382
 30
0.0
 40
2.0
  0
CIRCLE
  5
3BA3
  8
01
  6
BYBLOCK
 10
72.193344284344676
 20
-17.4986816615382
 30
0.0
 40
3.5
  0
LINE
  5
3BA5
  8
01
  6
BYBLOCK
 10
16.043248476683502
 20
-32.498681661537717
 30
0.0
 11
5.543248476683388
 21
-32.498681661537717
 31
0.0
  0
LINE
  5
3BA6
  8
01
  6
BYBLOCK
 10
16.543248476683392
 20
-32.998681661537717
 30
0.0
 11
5.5432484766832744
 21
-32.998681661537717
 31
0.0
  0
LINE
  5
3BAA
  8
01
  6
BYBLOCK
 10
16.543248476683392
 20
-10.99868166153817
 30
0.0
 11
16.543248476683392
 21
-88.998681661538058
 31
0.0
  0
LINE
  5
3BAD
  8
01
  6
BYBLOCK
 10
16.543248476683392
 20
-93.998681661538399
 30
0.0
 11
16.543248476683392
 21
-123.9986816615383
 31
0.0
  0
LINE
  5
3BB1
  8
01
  6
BYBLOCK
 10
17.543248476683399
 20
-5.9986816615379999
 30
0.0
 11
17.543248476683249
 21
-128.99868166153831
 31
0.0
  0
LINE
  5
3BB3
  8
01
  6
BYBLOCK
 10
18.543248476683392
 20
-5.9986816615380567
 30
0.0
 11
18.543248476683392
 21
-128.99868166153831
 31
0.0
  0
LINE
  5
3BB4
  8
01
  6
BYBLOCK
 10
18.543248476683392
 20
-5.9986816615380567
 30
0.0
 11
18.543248476683271
 21
-128.99868166153831
 31
0.0
  0
LINE
  5
3BB5
  8
01
  6
BYBLOCK
 10
16.04324847668304
 20
-10.99868166153817
 30
0.0
 11
16.043248476683502
 21
-32.498681661537717
 31
0.0
  0
LINE
  5
3BB6
  8
01
  6
BYBLOCK
 10
16.043248476683392
 20
-99.498681661538285
 30
0.0
 11
16.043248476683502
 21
-123.9986816615383
 31
0.0
  0
LINE
  5
3BB7
  8
01
  6
BYBLOCK
 10
5.5432484766832744
 20
-32.498681661537717
 30
0.0
 11
5.5432484766832744
 21
-99.498681661538285
 31
0.0
  0
LINE
  5
3BBA
  8
01
  6
BYBLOCK
 10
18.543248476683271
 20
-5.9986816615381713
 30
0.0
 11
17.543248476683399
 21
-5.9986816615379999
 31
0.0
  0
LINE
  5
3BBB
  8
01
  6
BYBLOCK
 10
17.543248476683392
 20
-10.99868166153817
 30
0.0
 11
16.043248476683271
 21
-10.99868166153817
 31
0.0
  0
LINE
  5
3BBC
  8
01
  6
BYBLOCK
 10
17.543248476683392
 20
-44.498681661538278
 30
0.0
 11
16.543248476683392
 21
-44.498681661538278
 31
0.0
  0
LINE
  5
3BBD
  8
01
  6
BYBLOCK
 10
18.543248476683392
 20
-40.498681661538278
 30
0.0
 11
17.543248476683392
 21
-40.498681661538278
 31
0.0
  0
LINE
  5
3BBE
  8
01
 10
26.53983160840367
 20
-117.4986816615383
 30
0.0
 11
6.1241095648621089
 21
-117.4986816615383
 31
0.0
  0
LINE
  5
3BBF
  8
01
  6
BYBLOCK
 10
18.543248476683051
 20
-128.99868166153831
 30
0.0
 11
17.543248476683271
 21
-128.99868166153831
 31
0.0
  0
LINE
  5
3BC0
  8
01
  6
BYBLOCK
 10
17.543248476683271
 20
-123.9986816615383
 30
0.0
 11
16.043248476683392
 21
-123.9986816615383
 31
0.0
  0
LINE
  5
3BC1
  8
01
  6
BYBLOCK
 10
18.543248476683271
 20
-98.998681661538285
 30
0.0
 11
17.543248476683271
 21
-98.998681661538285
 31
0.0
  0
LINE
  5
3BC2
  8
01
  6
BYBLOCK
 10
18.543248476683392
 20
-83.998681661538285
 30
0.0
 11
17.543248476683392
 21
-83.998681661538285
 31
0.0
  0
LINE
  5
3BC3
  8
01
  6
BYBLOCK
 10
17.543248476683392
 20
-94.998681661538285
 30
0.0
 11
16.143248476683411
 21
-93.598681661538293
 31
0.0
  0
LINE
  5
3BC4
  8
01
  6
BYBLOCK
 10
16.143248476683411
 20
-89.398681661538134
 30
0.0
 11
17.543248476683392
 21
-87.998681661538285
 31
0.0
  0
LINE
  5
3BC5
  8
01
  6
BYBLOCK
 10
16.143248476683411
 20
-89.398681661538134
 30
0.0
 11
16.143248476683411
 21
-93.598681661538293
 31
0.0
  0
LINE
  5
3BC6
  8
01
  6
BYBLOCK
 10
15.843248476683449
 20
-92.998681661538285
 30
0.0
 11
15.743248476683201
 21
-92.998681661538285
 31
0.0
  0
LINE
  5
3BC7
  8
01
  6
BYBLOCK
 10
15.843248476683449
 20
-89.998681661538285
 30
0.0
 11
15.743248476683201
 21
-89.998681661538285
 31
0.0
  0
LINE
  5
3BC8
  8
01
  6
BYBLOCK
 10
5.5432484766832744
 20
-95.498681661538285
 30
0.0
 11
4.7432484766832061
 21
-95.498681661538285
 31
0.0
  0
LINE
  5
3BC9
  8
01
  6
BYBLOCK
 10
4.7432484766832061
 20
-95.498681661538285
 30
0.0
 11
4.7432484766832061
 21
-87.498681661538285
 31
0.0
  0
LINE
  5
3BCA
  8
01
  6
BYBLOCK
 10
5.5432484766832744
 20
-87.498681661538285
 30
0.0
 11
4.7432484766832061
 21
-87.498681661538285
 31
0.0
  0
ARC
  5
3BCB
  8
01
  6
BYBLOCK
 10
8.2432484766832061
 20
-91.498681661538285
 30
0.0
 40
4.2000000000000002
 50
146.44269023808101
 51
213.55730976191899
  0
LINE
  5
3BCC
  8
01
 10
21.582248476683262
 20
-91.498681661538285
 30
0.0
 11
-1.9187515233167141
 21
-91.498681661538285
 31
0.0
  0
LINE
  5
3BCD
  8
01
  6
BYBLOCK
 10
18.543248476683392
 20
-79.998681661538285
 30
0.0
 11
17.543248476683392
 21
-79.998681661538285
 31
0.0
  0
LINE
  5
3BCE
  8
01
  6
BYBLOCK
 10
17.543248476683271
 20
-75.998681661538285
 30
0.0
 11
9.9432484766833653
 21
-75.998681661538285
 31
0.0
  0
LINE
  5
3BCF
  8
01
  6
BYBLOCK
 10
14.94324847668336
 20
-98.498681661538285
 30
0.0
 11
14.94324847668336
 21
-95.458681661538208
 31
0.0
  0
ARC
  5
3BD0
  8
01
  6
BYBLOCK
 10
14.44324847668336
 20
-95.458681661538208
 30
0.0
 40
0.5
 50
0.0
 51
85.236400000004394
  0
LINE
  5
3BD1
  8
01
  6
BYBLOCK
 10
14.48524847668339
 20
-94.960681661538274
 30
0.0
 11
8.9432484766833653
 21
-94.498681661538285
 31
0.0
  0
LINE
  5
3BD2
  8
01
  6
BYBLOCK
 10
14.94324847668336
 20
-87.538681661538249
 30
0.0
 11
14.94324847668336
 21
-75.998681661538285
 31
0.0
  0
ARC
  5
3BD3
  8
01
  6
BYBLOCK
 10
14.44324847668336
 20
-87.538681661538249
 30
0.0
 40
0.5
 50
274.76400000000473
 51
0.0
  0
LINE
  5
3BD4
  8
01
  6
BYBLOCK
 10
14.48524847668339
 20
-88.036681661538296
 30
0.0
 11
8.9432484766833653
 21
-88.498681661538285
 31
0.0
  0
LINE
  5
3BD5
  8
01
  6
BYBLOCK
 10
16.543248476683392
 20
-98.498681661538285
 30
0.0
 11
9.9432484766833653
 21
-98.498681661538285
 31
0.0
  0
LINE
  5
3BD6
  8
01
  6
BYBLOCK
 10
16.543248476683392
 20
-98.998681661538285
 30
0.0
 11
5.5432484766832744
 21
-98.998681661538285
 31
0.0
  0
LINE
  5
3BD7
  8
01
  6
BYBLOCK
 10
16.043248476683392
 20
-99.498681661538285
 30
0.0
 11
5.5432484766832744
 21
-99.498681661538285
 31
0.0
  0
ARC
  5
3BD8
  8
01
  6
BYBLOCK
 10
9.9432484766833653
 20
-97.498681661538285
 30
0.0
 40
1.0
 50
180.0
 51
270.0
  0
ARC
  5
3BD9
  8
01
  6
BYBLOCK
 10
9.9432484766833653
 20
-76.998681661538285
 30
0.0
 40
1.0
 50
90.0
 51
179.99999999997391
  0
LINE
  5
3BDA
  8
01
  6
BYBLOCK
 10
16.143248476683411
 20
-89.398681661538134
 30
0.0
 11
6.8873642304577984
 21
-89.398681661538134
 31
0.0
  0
LINE
  5
3BDB
  8
01
  6
BYBLOCK
 10
16.143248476683411
 20
-89.998681661538285
 30
0.0
 11
6.8748186911798541
 21
-89.998681661538285
 31
0.0
  0
LINE
  5
3BDC
  8
01
  6
BYBLOCK
 10
16.143248476683411
 20
-92.998681661538285
 30
0.0
 11
6.920706406146663
 21
-92.998681661538285
 31
0.0
  0
LINE
  5
3BDD
  8
01
  6
BYBLOCK
 10
16.143248476683411
 20
-93.598681661538293
 30
0.0
 11
6.9575293000944098
 21
-93.598681661538293
 31
0.0
  0
LINE
  5
3BDE
  8
01
  6
BYBLOCK
 10
8.9432484766833653
 20
-97.498681661538285
 30
0.0
 11
8.9432484766833653
 21
-92.998681661538285
 31
0.0
  0
LINE
  5
3BDF
  8
01
  6
BYBLOCK
 10
8.9432484766833653
 20
-89.998681661538285
 30
0.0
 11
8.9432484766833653
 21
-76.998681661538285
 31
0.0
  0
LINE
  5
3BF2
  8
01
 10
26.53983160840367
 20
-17.498681661538171
 30
0.0
 11
6.1241095648621089
 21
-17.498681661538171
 31
0.0
  0
LINE
  5
3BF5
  8
01
  6
BYBLOCK
 10
5.5432484766832744
 20
-156.0336666342948
 30
0.0
 11
5.5432484766832744
 21
-169.0336666342948
 31
0.0
  0
LINE
  5
3BF6
  8
01
  6
BYBLOCK
 10
5.5432484766832744
 20
-158.5336666342948
 30
0.0
 11
4.7432484766832061
 21
-158.5336666342948
 31
0.0
  0
LINE
  5
3BF7
  8
01
  6
BYBLOCK
 10
4.7432484766832061
 20
-158.5336666342948
 30
0.0
 11
4.7432484766832061
 21
-166.5336666342948
 31
0.0
  0
ARC
  5
3BF8
  8
01
  6
BYBLOCK
 10
8.1432484766832971
 20
-162.5336666342948
 30
0.0
 40
4.2000000000000002
 50
144.04899999999719
 51
215.95100000000269
  0
LINE
  5
3BF9
  8
01
  6
BYBLOCK
 10
5.5432484766832744
 20
-166.5336666342948
 30
0.0
 11
4.7432484766832061
 21
-166.5336666342948
 31
0.0
  0
LINE
  5
3BFA
  8
01
  6
BYBLOCK
 10
5.5432484766832744
 20
-168.5336666342948
 30
0.0
 11
16.043248476683271
 21
-168.5336666342948
 31
0.0
  0
LINE
  5
3BFB
  8
01
  6
BYBLOCK
 10
5.5432484766832744
 20
-156.5336666342948
 30
0.0
 11
16.043248476683271
 21
-156.5336666342948
 31
0.0
  0
LINE
  5
3BFC
  8
01
  6
BYBLOCK
 10
16.043248476683271
 20
-169.0336666342948
 30
0.0
 11
16.043248476683271
 21
-156.0336666342948
 31
0.0
  0
LINE
  5
3BFD
  8
01
  6
BYBLOCK
 10
5.5432484766832744
 20
-169.0336666342948
 30
0.0
 11
17.543248476683271
 21
-169.0336666342948
 31
0.0
  0
LINE
  5
3BFE
  8
01
  6
BYBLOCK
 10
5.5432484766832744
 20
-156.0336666342948
 30
0.0
 11
17.543248476683271
 21
-156.0336666342948
 31
0.0
  0
LINE
  5
3BFF
  8
01
  6
BYBLOCK
 10
16.043248476683271
 20
-169.0336666342948
 30
0.0
 11
16.043248476683271
 21
-156.0336666342948
 31
0.0
  0
LINE
  5
3C00
  8
01
  6
BYBLOCK
 10
17.543248476683271
 20
-170.5336666342948
 30
0.0
 11
18.543248476683271
 21
-170.5336666342948
 31
0.0
  0
LINE
  5
3C01
  8
01
  6
BYBLOCK
 10
17.543248476683271
 20
-154.5336666342948
 30
0.0
 11
18.543248476683271
 21
-154.5336666342948
 31
0.0
  0
LINE
  5
3C02
  8
01
 10
0.1622881575296873
 20
-162.5336666342948
 30
0.0
 11
20.68461478133672
 21
-162.5336666342948
 31
0.0
  0
LINE
  5
3C03
  8
01
  6
BYBLOCK
 10
16.543248476683271
 20
-158.53366663429489
 30
0.0
 11
17.543248476683271
 21
-158.5336666342948
 31
0.0
  0
LINE
  5
3C04
  8
01
  6
BYBLOCK
 10
16.543248476683271
 20
-166.5336666342948
 30
0.0
 11
17.543248476683271
 21
-166.5336666342948
 31
0.0
  0
LINE
  5
3C05
  8
01
  6
BYBLOCK
 10
18.543248476683271
 20
-170.5336666342948
 30
0.0
 11
18.543248476683271
 21
-154.5336666342948
 31
0.0
  0
LINE
  5
3C06
  8
01
  6
BYBLOCK
 10
5.5432484766832744
 20
-169.0336666342948
 30
0.0
 11
5.5432484766832744
 21
-156.0336666342948
 31
0.0
  0
LINE
  5
3C07
  8
01
  6
BYBLOCK
 10
17.543248476683271
 20
-170.5336666342948
 30
0.0
 11
17.543248476683271
 21
-154.5336666342948
 31
0.0
  0
LINE
  5
3C08
  8
01
  6
BYBLOCK
 10
16.543248476683271
 20
-169.0336666342948
 30
0.0
 11
16.543248476683271
 21
-165.6336666342948
 31
0.0
  0
LINE
  5
3C09
  8
01
  6
BYBLOCK
 10
16.543248476683271
 20
-159.43366663429489
 30
0.0
 11
16.543248476683271
 21
-156.0336666342948
 31
0.0
  0
LINE
  5
3C0A
  8
01
  6
BYBLOCK
 10
16.543248476683271
 20
-159.2836666342948
 30
0.0
 11
16.043248476683271
 21
-159.2836666342948
 31
0.0
  0
LINE
  5
3C0B
  8
01
  6
BYBLOCK
 10
16.543248476683271
 20
-165.7836666342948
 30
0.0
 11
16.043248476683271
 21
-165.7836666342948
 31
0.0
  0
LINE
  5
3C2E
  8
01
  6
BYBLOCK
 10
17.54324847668321
 20
-166.44766663429479
 30
0.0
 11
16.729248476683189
 21
-165.6336666342948
 31
0.0
  0
LINE
  5
3C2F
  8
01
  6
BYBLOCK
 10
17.54324847668321
 20
-158.61966663429479
 30
0.0
 11
16.729248476683189
 21
-159.43366663429489
 31
0.0
  0
LINE
  5
3C30
  8
01
  6
BYBLOCK
 10
16.729248476683189
 20
-159.43366663429489
 30
0.0
 11
16.04324847668304
 21
-159.43366663429489
 31
0.0
  0
LINE
  5
3C31
  8
01
  6
BYBLOCK
 10
16.729248476683189
 20
-165.6336666342948
 30
0.0
 11
16.043248476683221
 21
-165.6336666342948
 31
0.0
  0
LINE
  5
3C32
  8
01
  6
BYBLOCK
 10
16.729248476683189
 20
-165.6336666342948
 30
0.0
 11
16.729248476683189
 21
-159.43366663429489
 31
0.0
  0
LINE
  5
3E74
  8
01
 10
15.014532852560549
 20
-28.49868166153772
 30
0.0
 11
5.543248476683388
 21
-28.49868166153772
 31
0.0
  0
LINE
  5
3E75
  8
01
 10
14.826543793794819
 20
-103.4986816615383
 30
0.0
 11
5.5432484766832744
 21
-103.4986816615383
 31
0.0
  0
LINE
  5
3E76
  8
01
 10
5.5432484766832744
 20
-103.4986816615383
 30
0.0
 11
5.5432484766832744
 21
-101.67905271500599
 31
0.0
  0
LINE
  5
3E78
  8
01
 10
5.543248476683388
 20
-28.49868166153772
 30
0.0
 11
5.543248476683388
 21
-30.839714324008241
 31
0.0
  0
POLYLINE
  8
01
  5
4B40
  66
     1
 10
0.000000
 20
0.000000
 30
0.000000
  70
     8
  0
VERTEX
  8
01
  5
4B41
 10
18.5432
 20
-68.0633
 30
0.000000
  70
    32
  0
VERTEX
  8
01
  5
4B42
 10
18.3904
 20
-68.0825
 30
0.000000
  70
    32
  0
VERTEX
  8
01
  5
4B43
 10
18.2377
 20
-68.1023
 30
0.000000
  70
    32
  0
VERTEX
  8
01
  5
4B44
 10
18.0854
 20
-68.1225
 30
0.000000
  70
    32
  0
VERTEX
  8
01
  5
4B45
 10
17.9334
 20
-68.1433
 30
0.000000
  70
    32
  0
VERTEX
  8
01
  5
4B46
 10
17.7818
 20
-68.1647
 30
0.000000
  70
    32
  0
VERTEX
  8
01
  5
4B47
 10
17.6305
 20
-68.1867
 30
0.000000
  70
    32
  0
VERTEX
  8
01
  5
4B48
 10
17.4796
 20
-68.2094
 30
0.000000
  70
    32
  0
VERTEX
  8
01
  5
4B49
 10
17.3291
 20
-68.2328
 30
0.000000
  70
    32
  0
VERTEX
  8
01
  5
4B4A
 10
17.1790
 20
-68.2569
 30
0.000000
  70
    32
  0
VERTEX
  8
01
  5
4B4B
 10
17.0294
 20
-68.2819
 30
0.000000
  70
    32
  0
VERTEX
  8
01
  5
4B4C
 10
16.8803
 20
-68.3076
 30
0.000000
  70
    32
  0
VERTEX
  8
01
  5
4B4D
 10
16.7317
 20
-68.3342
 30
0.000000
  70
    32
  0
VERTEX
  8
01
  5
4B4E
 10
16.5836
 20
-68.3618
 30
0.000000
  70
    32
  0
VERTEX
  8
01
  5
4B4F
 10
16.4361
 20
-68.3903
 30
0.000000
  70
    32
  0
VERTEX
  8
01
  5
4B50
 10
16.2891
 20
-68.4197
 30
0.000000
  70
    32
  0
VERTEX
  8
01
  5
4B51
 10
16.1428
 20
-68.4502
 30
0.000000
  70
    32
  0
VERTEX
  8
01
  5
4B52
 10
15.9970
 20
-68.4818
 30
0.000000
  70
    32
  0
VERTEX
  8
01
  5
4B53
 10
15.8519
 20
-68.5144
 30
0.000000
  70
    32
  0
VERTEX
  8
01
  5
4B54
 10
15.7075
 20
-68.5483
 30
0.000000
  70
    32
  0
VERTEX
  8
01
  5
4B55
 10
15.5638
 20
-68.5833
 30
0.000000
  70
    32
  0
VERTEX
  8
01
  5
4B56
 10
15.4207
 20
-68.6195
 30
0.000000
  70
    32
  0
VERTEX
  8
01
  5
4B57
 10
15.2784
 20
-68.6570
 30
0.000000
  70
    32
  0
VERTEX
  8
01
  5
4B58
 10
15.1369
 20
-68.6958
 30
0.000000
  70
    32
  0
VERTEX
  8
01
  5
4B59
 10
14.9962
 20
-68.7359
 30
0.000000
  70
    32
  0
VERTEX
  8
01
  5
4B5A
 10
14.8562
 20
-68.7775
 30
0.000000
  70
    32
  0
VERTEX
  8
01
  5
4B5B
 10
14.7171
 20
-68.8204
 30
0.000000
  70
    32
  0
VERTEX
  8
01
  5
4B5C
 10
14.5788
 20
-68.8648
 30
0.000000
  70
    32
  0
VERTEX
  8
01
  5
4B5D
 10
14.4415
 20
-68.9108
 30
0.000000
  70
    32
  0
VERTEX
  8
01
  5
4B5E
 10
14.3050
 20
-68.9583
 30
0.000000
  70
    32
  0
VERTEX
  8
01
  5
4B5F
 10
14.1694
 20
-69.0073
 30
0.000000
  70
    32
  0
VERTEX
  8
01
  5
4B60
 10
14.0348
 20
-69.0580
 30
0.000000
  70
    32
  0
VERTEX
  8
01
  5
4B61
 10
13.9011
 20
-69.1104
 30
0.000000
  70
    32
  0
VERTEX
  8
01
  5
4B62
 10
13.7685
 20
-69.1644
 30
0.000000
  70
    32
  0
VERTEX
  8
01
  5
4B63
 10
13.6368
 20
-69.2202
 30
0.000000
  70
    32
  0
VERTEX
  8
01
  5
4B64
 10
13.5062
 20
-69.2778
 30
0.000000
  70
    32
  0
VERTEX
  8
01
  5
4B65
 10
13.3767
 20
-69.3372
 30
0.000000
  70
    32
  0
VERTEX
  8
01
  5
4B66
 10
13.2482
 20
-69.3985
 30
0.000000
  70
    32
  0
VERTEX
  8
01
  5
4B67
 10
13.1209
 20
-69.4617
 30
0.000000
  70
    32
  0
VERTEX
  8
01
  5
4B68
 10
12.9946
 20
-69.5268
 30
0.000000
  70
    32
  0
VERTEX
  8
01
  5
4B69
 10
12.8696
 20
-69.5940
 30
0.000000
  70
    32
  0
VERTEX
  8
01
  5
4B6A
 10
12.7457
 20
-69.6631
 30
0.000000
  70
    32
  0
VERTEX
  8
01
  5
4B6B
 10
12.6230
 20
-69.7343
 30
0.000000
  70
    32
  0
VERTEX
  8
01
  5
4B6C
 10
12.5015
 20
-69.8076
 30
0.000000
  70
    32
  0
VERTEX
  8
01
  5
4B6D
 10
12.3813
 20
-69.8831
 30
0.000000
  70
    32
  0
VERTEX
  8
01
  5
4B6E
 10
12.2623
 20
-69.9607
 30
0.000000
  70
    32
  0
VERTEX
  8
01
  5
4B6F
 10
12.1447
 20
-70.0406
 30
0.000000
  70
    32
  0
VERTEX
  8
01
  5
4B70
 10
12.0283
 20
-70.1227
 30
0.000000
  70
    32
  0
VERTEX
  8
01
  5
4B71
 10
11.9133
 20
-70.2070
 30
0.000000
  70
    32
  0
VERTEX
  8
01
  5
4B72
 10
11.7996
 20
-70.2935
 30
0.000000
  70
    32
  0
VERTEX
  8
01
  5
4B73
 10
11.6872
 20
-70.3821
 30
0.000000
  70
    32
  0
VERTEX
  8
01
  5
4B74
 10
11.5761
 20
-70.4729
 30
0.000000
  70
    32
  0
VERTEX
  8
01
  5
4B75
 10
11.4664
 20
-70.5657
 30
0.000000
  70
    32
  0
VERTEX
  8
01
  5
4B76
 10
11.3580
 20
-70.6605
 30
0.000000
  70
    32
  0
VERTEX
  8
01
  5
4B77
 10
11.2509
 20
-70.7573
 30
0.000000
  70
    32
  0
VERTEX
  8
01
  5
4B78
 10
11.1452
 20
-70.8561
 30
0.000000
  70
    32
  0
VERTEX
  8
01
  5
4B79
 10
11.0408
 20
-70.9568
 30
0.000000
  70
    32
  0
VERTEX
  8
01
  5
4B7A
 10
10.9377
 20
-71.0594
 30
0.000000
  70
    32
  0
VERTEX
  8
01
  5
4B7B
 10
10.8360
 20
-71.1638
 30
0.000000
  70
    32
  0
VERTEX
  8
01
  5
4B7C
 10
10.7357
 20
-71.2700
 30
0.000000
  70
    32
  0
VERTEX
  8
01
  5
4B7D
 10
10.6367
 20
-71.3780
 30
0.000000
  70
    32
  0
VERTEX
  8
01
  5
4B7E
 10
10.5390
 20
-71.4877
 30
0.000000
  70
    32
  0
VERTEX
  8
01
  5
4B7F
 10
10.4427
 20
-71.5991
 30
0.000000
  70
    32
  0
VERTEX
  8
01
  5
4B80
 10
10.3478
 20
-71.7122
 30
0.000000
  70
    32
  0
VERTEX
  8
01
  5
4B81
 10
10.2542
 20
-71.8269
 30
0.000000
  70
    32
  0
VERTEX
  8
01
  5
4B82
 10
10.1620
 20
-71.9431
 30
0.000000
  70
    32
  0
VERTEX
  8
01
  5
4B83
 10
10.0711
 20
-72.0610
 30
0.000000
  70
    32
  0
VERTEX
  8
01
  5
4B84
 10
9.98167
 20
-72.1803
 30
0.000000
  70
    32
  0
VERTEX
  8
01
  5
4B85
 10
9.89357
 20
-72.3011
 30
0.000000
  70
    32
  0
VERTEX
  8
01
  5
4B86
 10
9.80686
 20
-72.4233
 30
0.000000
  70
    32
  0
VERTEX
  8
01
  5
4B87
 10
9.72152
 20
-72.5469
 30
0.000000
  70
    32
  0
VERTEX
  8
01
  5
4B88
 10
9.63757
 20
-72.6718
 30
0.000000
  70
    32
  0
VERTEX
  8
01
  5
4B89
 10
9.55500
 20
-72.7981
 30
0.000000
  70
    32
  0
VERTEX
  8
01
  5
4B8A
 10
9.47382
 20
-72.9257
 30
0.000000
  70
    32
  0
VERTEX
  8
01
  5
4B8B
 10
9.39404
 20
-73.0545
 30
0.000000
  70
    32
  0
VERTEX
  8
01
  5
4B8C
 10
9.31565
 20
-73.1845
 30
0.000000
  70
    32
  0
VERTEX
  8
01
  5
4B8D
 10
9.23866
 20
-73.3157
 30
0.000000
  70
    32
  0
VERTEX
  8
01
  5
4B8E
 10
9.16307
 20
-73.4480
 30
0.000000
  70
    32
  0
VERTEX
  8
01
  5
4B8F
 10
9.08888
 20
-73.5814
 30
0.000000
  70
    32
  0
VERTEX
  8
01
  5
4B90
 10
9.01610
 20
-73.7159
 30
0.000000
  70
    32
  0
VERTEX
  8
01
  5
4B91
 10
8.94474
 20
-73.8514
 30
0.000000
  70
    32
  0
VERTEX
  8
01
  5
4B92
 10
8.87478
 20
-73.9879
 30
0.000000
  70
    32
  0
VERTEX
  8
01
  5
4B93
 10
8.80624
 20
-74.1253
 30
0.000000
  70
    32
  0
VERTEX
  8
01
  5
4B94
 10
8.73912
 20
-74.2637
 30
0.000000
  70
    32
  0
VERTEX
  8
01
  5
4B95
 10
8.67342
 20
-74.4029
 30
0.000000
  70
    32
  0
VERTEX
  8
01
  5
4B96
 10
8.60914
 20
-74.5429
 30
0.000000
  70
    32
  0
VERTEX
  8
01
  5
4B97
 10
8.54629
 20
-74.6838
 30
0.000000
  70
    32
  0
VERTEX
  8
01
  5
4B98
 10
8.48487
 20
-74.8254
 30
0.000000
  70
    32
  0
VERTEX
  8
01
  5
4B99
 10
8.42489
 20
-74.9677
 30
0.000000
  70
    32
  0
VERTEX
  8
01
  5
4B9A
 10
8.36634
 20
-75.1107
 30
0.000000
  70
    32
  0
VERTEX
  8
01
  5
4B9B
 10
8.30923
 20
-75.2544
 30
0.000000
  70
    32
  0
VERTEX
  8
01
  5
4B9C
 10
8.25357
 20
-75.3987
 30
0.000000
  70
    32
  0
VERTEX
  8
01
  5
4B9D
 10
8.19934
 20
-75.5435
 30
0.000000
  70
    32
  0
VERTEX
  8
01
  5
4B9E
 10
8.14657
 20
-75.6889
 30
0.000000
  70
    32
  0
VERTEX
  8
01
  5
4B9F
 10
8.09525
 20
-75.8348
 30
0.000000
  70
    32
  0
VERTEX
  8
01
  5
4BA0
 10
8.04538
 20
-75.9811
 30
0.000000
  70
    32
  0
VERTEX
  8
01
  5
4BA1
 10
7.99697
 20
-76.1279
 30
0.000000
  70
    32
  0
VERTEX
  8
01
  5
4BA2
 10
7.95001
 20
-76.2751
 30
0.000000
  70
    32
  0
VERTEX
  8
01
  5
4BA3
 10
7.90452
 20
-76.4226
 30
0.000000
  70
    32
  0
VERTEX
  8
01
  5
4BA4
 10
7.86050
 20
-76.5704
 30
0.000000
  70
    32
  0
VERTEX
  8
01
  5
4BA5
 10
7.81794
 20
-76.7185
 30
0.000000
  70
    32
  0
VERTEX
  8
01
  5
4BA6
 10
7.77686
 20
-76.8668
 30
0.000000
  70
    32
  0
VERTEX
  8
01
  5
4BA7
 10
7.73725
 20
-77.0154
 30
0.000000
  70
    32
  0
VERTEX
  8
01
  5
4BA8
 10
7.69912
 20
-77.1641
 30
0.000000
  70
    32
  0
VERTEX
  8
01
  5
4BA9
 10
7.66246
 20
-77.3129
 30
0.000000
  70
    32
  0
VERTEX
  8
01
  5
4BAA
 10
7.62729
 20
-77.4618
 30
0.000000
  70
    32
  0
VERTEX
  8
01
  5
4BAB
 10
7.59361
 20
-77.6108
 30
0.000000
  70
    32
  0
VERTEX
  8
01
  5
4BAC
 10
7.56142
 20
-77.7598
 30
0.000000
  70
    32
  0
VERTEX
  8
01
  5
4BAD
 10
7.53072
 20
-77.9087
 30
0.000000
  70
    32
  0
VERTEX
  8
01
  5
4BAE
 10
7.50151
 20
-78.0576
 30
0.000000
  70
    32
  0
VERTEX
  8
01
  5
4BAF
 10
7.47380
 20
-78.2064
 30
0.000000
  70
    32
  0
VERTEX
  8
01
  5
4BB0
 10
7.44756
 20
-78.3551
 30
0.000000
  70
    32
  0
VERTEX
  8
01
  5
4BB1
 10
7.42275
 20
-78.5037
 30
0.000000
  70
    32
  0
VERTEX
  8
01
  5
4BB2
 10
7.39933
 20
-78.6521
 30
0.000000
  70
    32
  0
VERTEX
  8
01
  5
4BB3
 10
7.37724
 20
-78.8005
 30
0.000000
  70
    32
  0
VERTEX
  8
01
  5
4BB4
 10
7.35645
 20
-78.9487
 30
0.000000
  70
    32
  0
VERTEX
  8
01
  5
4BB5
 10
7.33691
 20
-79.0969
 30
0.000000
  70
    32
  0
VERTEX
  8
01
  5
4BB6
 10
7.31857
 20
-79.2449
 30
0.000000
  70
    32
  0
VERTEX
  8
01
  5
4BB7
 10
7.30139
 20
-79.3928
 30
0.000000
  70
    32
  0
VERTEX
  8
01
  5
4BB8
 10
7.28532
 20
-79.5406
 30
0.000000
  70
    32
  0
VERTEX
  8
01
  5
4BB9
 10
7.27033
 20
-79.6883
 30
0.000000
  70
    32
  0
VERTEX
  8
01
  5
4BBA
 10
7.25635
 20
-79.8359
 30
0.000000
  70
    32
  0
VERTEX
  8
01
  5
4BBB
 10
7.24336
 20
-79.9833
 30
0.000000
  70
    32
  0
VERTEX
  8
01
  5
4BBC
 10
7.23130
 20
-80.1307
 30
0.000000
  70
    32
  0
VERTEX
  8
01
  5
4BBD
 10
7.22012
 20
-80.2779
 30
0.000000
  70
    32
  0
VERTEX
  8
01
  5
4BBE
 10
7.20979
 20
-80.4251
 30
0.000000
  70
    32
  0
VERTEX
  8
01
  5
4BBF
 10
7.20026
 20
-80.5721
 30
0.000000
  70
    32
  0
VERTEX
  8
01
  5
4BC0
 10
7.19148
 20
-80.7190
 30
0.000000
  70
    32
  0
VERTEX
  8
01
  5
4BC1
 10
7.18342
 20
-80.8658
 30
0.000000
  70
    32
  0
VERTEX
  8
01
  5
4BC2
 10
7.17601
 20
-81.0125
 30
0.000000
  70
    32
  0
VERTEX
  8
01
  5
4BC3
 10
7.16922
 20
-81.1591
 30
0.000000
  70
    32
  0
VERTEX
  8
01
  5
4BC4
 10
7.16301
 20
-81.3056
 30
0.000000
  70
    32
  0
VERTEX
  8
01
  5
4BC5
 10
7.15732
 20
-81.4520
 30
0.000000
  70
    32
  0
VERTEX
  8
01
  5
4BC6
 10
7.15212
 20
-81.5983
 30
0.000000
  70
    32
  0
VERTEX
  8
01
  5
4BC7
 10
7.14736
 20
-81.7445
 30
0.000000
  70
    32
  0
VERTEX
  8
01
  5
4BC8
 10
7.14298
 20
-81.8906
 30
0.000000
  70
    32
  0
VERTEX
  8
01
  5
4BC9
 10
7.13896
 20
-82.0365
 30
0.000000
  70
    32
  0
VERTEX
  8
01
  5
4BCA
 10
7.13524
 20
-82.1824
 30
0.000000
  70
    32
  0
VERTEX
  8
01
  5
4BCB
 10
7.13178
 20
-82.3282
 30
0.000000
  70
    32
  0
VERTEX
  8
01
  5
4BCC
 10
7.12853
 20
-82.4738
 30
0.000000
  70
    32
  0
VERTEX
  8
01
  5
4BCD
 10
7.12545
 20
-82.6194
 30
0.000000
  70
    32
  0
VERTEX
  8
01
  5
4BCE
 10
7.12249
 20
-82.7648
 30
0.000000
  70
    32
  0
VERTEX
  8
01
  5
4BCF
 10
7.11961
 20
-82.9102
 30
0.000000
  70
    32
  0
VERTEX
  8
01
  5
4BD0
 10
7.11676
 20
-83.0554
 30
0.000000
  70
    32
  0
VERTEX
  8
01
  5
4BD1
 10
7.11390
 20
-83.2006
 30
0.000000
  70
    32
  0
VERTEX
  8
01
  5
4BD2
 10
7.11098
 20
-83.3456
 30
0.000000
  70
    32
  0
VERTEX
  8
01
  5
4BD3
 10
7.10796
 20
-83.4906
 30
0.000000
  70
    32
  0
VERTEX
  8
01
  5
4BD4
 10
7.10480
 20
-83.6354
 30
0.000000
  70
    32
  0
VERTEX
  8
01
  5
4BD5
 10
7.10144
 20
-83.7802
 30
0.000000
  70
    32
  0
VERTEX
  8
01
  5
4BD6
 10
7.09784
 20
-83.9248
 30
0.000000
  70
    32
  0
VERTEX
  8
01
  5
4BD7
 10
7.09397
 20
-84.0693
 30
0.000000
  70
    32
  0
VERTEX
  8
01
  5
4BD8
 10
7.08982
 20
-84.2138
 30
0.000000
  70
    32
  0
VERTEX
  8
01
  5
4BD9
 10
7.08542
 20
-84.3582
 30
0.000000
  70
    32
  0
VERTEX
  8
01
  5
4BDA
 10
7.08077
 20
-84.5024
 30
0.000000
  70
    32
  0
VERTEX
  8
01
  5
4BDB
 10
7.07589
 20
-84.6467
 30
0.000000
  70
    32
  0
VERTEX
  8
01
  5
4BDC
 10
7.07080
 20
-84.7908
 30
0.000000
  70
    32
  0
VERTEX
  8
01
  5
4BDD
 10
7.06552
 20
-84.9349
 30
0.000000
  70
    32
  0
VERTEX
  8
01
  5
4BDE
 10
7.06005
 20
-85.0789
 30
0.000000
  70
    32
  0
VERTEX
  8
01
  5
4BDF
 10
7.05441
 20
-85.2229
 30
0.000000
  70
    32
  0
VERTEX
  8
01
  5
4BE0
 10
7.04863
 20
-85.3668
 30
0.000000
  70
    32
  0
VERTEX
  8
01
  5
4BE1
 10
7.04270
 20
-85.5107
 30
0.000000
  70
    32
  0
VERTEX
  8
01
  5
4BE2
 10
7.03666
 20
-85.6546
 30
0.000000
  70
    32
  0
VERTEX
  8
01
  5
4BE3
 10
7.03051
 20
-85.7984
 30
0.000000
  70
    32
  0
VERTEX
  8
01
  5
4BE4
 10
7.02427
 20
-85.9422
 30
0.000000
  70
    32
  0
VERTEX
  8
01
  5
4BE5
 10
7.01795
 20
-86.0861
 30
0.000000
  70
    32
  0
VERTEX
  8
01
  5
4BE6
 10
7.01158
 20
-86.2299
 30
0.000000
  70
    32
  0
VERTEX
  8
01
  5
4BE7
 10
7.00516
 20
-86.3737
 30
0.000000
  70
    32
  0
VERTEX
  8
01
  5
4BE8
 10
6.99871
 20
-86.5175
 30
0.000000
  70
    32
  0
VERTEX
  8
01
  5
4BE9
 10
6.99225
 20
-86.6614
 30
0.000000
  70
    32
  0
VERTEX
  8
01
  5
4BEA
 10
6.98579
 20
-86.8052
 30
0.000000
  70
    32
  0
VERTEX
  8
01
  5
4BEB
 10
6.97935
 20
-86.9491
 30
0.000000
  70
    32
  0
VERTEX
  8
01
  5
4BEC
 10
6.97293
 20
-87.0931
 30
0.000000
  70
    32
  0
VERTEX
  8
01
  5
4BED
 10
6.96657
 20
-87.2370
 30
0.000000
  70
    32
  0
VERTEX
  8
01
  5
4BEE
 10
6.96027
 20
-87.3810
 30
0.000000
  70
    32
  0
VERTEX
  8
01
  5
4BEF
 10
6.95404
 20
-87.5251
 30
0.000000
  70
    32
  0
VERTEX
  8
01
  5
4BF0
 10
6.94791
 20
-87.6692
 30
0.000000
  70
    32
  0
VERTEX
  8
01
  5
4BF1
 10
6.94189
 20
-87.8134
 30
0.000000
  70
    32
  0
VERTEX
  8
01
  5
4BF2
 10
6.93599
 20
-87.9577
 30
0.000000
  70
    32
  0
VERTEX
  8
01
  5
4BF3
 10
6.93023
 20
-88.1021
 30
0.000000
  70
    32
  0
VERTEX
  8
01
  5
4BF4
 10
6.92463
 20
-88.2465
 30
0.000000
  70
    32
  0
VERTEX
  8
01
  5
4BF5
 10
6.91919
 20
-88.3910
 30
0.000000
  70
    32
  0
VERTEX
  8
01
  5
4BF6
 10
6.91394
 20
-88.5357
 30
0.000000
  70
    32
  0
VERTEX
  8
01
  5
4BF7
 10
6.90889
 20
-88.6804
 30
0.000000
  70
    32
  0
VERTEX
  8
01
  5
4BF8
 10
6.90406
 20
-88.8253
 30
0.000000
  70
    32
  0
VERTEX
  8
01
  5
4BF9
 10
6.89945
 20
-88.9702
 30
0.000000
  70
    32
  0
VERTEX
  8
01
  5
4BFA
 10
6.89510
 20
-89.1153
 30
0.000000
  70
    32
  0
VERTEX
  8
01
  5
4BFB
 10
6.89100
 20
-89.2605
 30
0.000000
  70
    32
  0
VERTEX
  8
01
  5
4BFC
 10
6.88718
 20
-89.4059
 30
0.000000
  70
    32
  0
VERTEX
  8
01
  5
4BFD
 10
6.88365
 20
-89.5514
 30
0.000000
  70
    32
  0
VERTEX
  8
01
  5
4BFE
 10
6.88043
 20
-89.6971
 30
0.000000
  70
    32
  0
VERTEX
  8
01
  5
4BFF
 10
6.87754
 20
-89.8429
 30
0.000000
  70
    32
  0
VERTEX
  8
01
  5
4C00
 10
6.87498
 20
-89.9889
 30
0.000000
  70
    32
  0
VERTEX
  8
01
  5
4C01
 10
6.87277
 20
-90.1350
 30
0.000000
  70
    32
  0
VERTEX
  8
01
  5
4C02
 10
6.87093
 20
-90.2814
 30
0.000000
  70
    32
  0
VERTEX
  8
01
  5
4C03
 10
6.86948
 20
-90.4279
 30
0.000000
  70
    32
  0
VERTEX
  8
01
  5
4C04
 10
6.86843
 20
-90.5746
 30
0.000000
  70
    32
  0
VERTEX
  8
01
  5
4C05
 10
6.86779
 20
-90.7215
 30
0.000000
  70
    32
  0
VERTEX
  8
01
  5
4C06
 10
6.86758
 20
-90.8685
 30
0.000000
  70
    32
  0
VERTEX
  8
01
  5
4C07
 10
6.86781
 20
-91.0159
 30
0.000000
  70
    32
  0
VERTEX
  8
01
  5
4C08
 10
6.86851
 20
-91.1634
 30
0.000000
  70
    32
  0
VERTEX
  8
01
  5
4C09
 10
6.86968
 20
-91.3111
 30
0.000000
  70
    32
  0
VERTEX
  8
01
  5
4C0A
 10
6.87134
 20
-91.4591
 30
0.000000
  70
    32
  0
VERTEX
  8
01
  5
4C0B
 10
6.87351
 20
-91.6073
 30
0.000000
  70
    32
  0
VERTEX
  8
01
  5
4C0C
 10
6.87620
 20
-91.7557
 30
0.000000
  70
    32
  0
VERTEX
  8
01
  5
4C0D
 10
6.87942
 20
-91.9044
 30
0.000000
  70
    32
  0
VERTEX
  8
01
  5
4C0E
 10
6.88320
 20
-92.0534
 30
0.000000
  70
    32
  0
VERTEX
  8
01
  5
4C0F
 10
6.88755
 20
-92.2026
 30
0.000000
  70
    32
  0
VERTEX
  8
01
  5
4C10
 10
6.89247
 20
-92.3521
 30
0.000000
  70
    32
  0
VERTEX
  8
01
  5
4C11
 10
6.89800
 20
-92.5018
 30
0.000000
  70
    32
  0
VERTEX
  8
01
  5
4C12
 10
6.90414
 20
-92.6518
 30
0.000000
  70
    32
  0
VERTEX
  8
01
  5
4C13
 10
6.91091
 20
-92.8021
 30
0.000000
  70
    32
  0
VERTEX
  8
01
  5
4C14
 10
6.91832
 20
-92.9528
 30
0.000000
  70
    32
  0
VERTEX
  8
01
  5
4C15
 10
6.92639
 20
-93.1037
 30
0.000000
  70
    32
  0
VERTEX
  8
01
  5
4C16
 10
6.93514
 20
-93.2549
 30
0.000000
  70
    32
  0
VERTEX
  8
01
  5
4C17
 10
6.94457
 20
-93.4064
 30
0.000000
  70
    32
  0
VERTEX
  8
01
  5
4C18
 10
6.95471
 20
-93.5582
 30
0.000000
  70
    32
  0
VERTEX
  8
01
  5
4C19
 10
6.96557
 20
-93.7104
 30
0.000000
  70
    32
  0
VERTEX
  8
01
  5
4C1A
 10
6.97717
 20
-93.8629
 30
0.000000
  70
    32
  0
VERTEX
  8
01
  5
4C1B
 10
6.98951
 20
-94.0157
 30
0.000000
  70
    32
  0
VERTEX
  8
01
  5
4C1C
 10
7.00263
 20
-94.1689
 30
0.000000
  70
    32
  0
VERTEX
  8
01
  5
4C1D
 10
7.01652
 20
-94.3224
 30
0.000000
  70
    32
  0
VERTEX
  8
01
  5
4C1E
 10
7.03121
 20
-94.4763
 30
0.000000
  70
    32
  0
VERTEX
  8
01
  5
4C1F
 10
7.04672
 20
-94.6306
 30
0.000000
  70
    32
  0
VERTEX
  8
01
  5
4C20
 10
7.06305
 20
-94.7852
 30
0.000000
  70
    32
  0
VERTEX
  8
01
  5
4C21
 10
7.08022
 20
-94.9402
 30
0.000000
  70
    32
  0
VERTEX
  8
01
  5
4C22
 10
7.09826
 20
-95.0955
 30
0.000000
  70
    32
  0
VERTEX
  8
01
  5
4C23
 10
7.11717
 20
-95.2513
 30
0.000000
  70
    32
  0
VERTEX
  8
01
  5
4C24
 10
7.13702
 20
-95.4073
 30
0.000000
  70
    32
  0
VERTEX
  8
01
  5
4C25
 10
7.15788
 20
-95.5635
 30
0.000000
  70
    32
  0
VERTEX
  8
01
  5
4C26
 10
7.17980
 20
-95.7199
 30
0.000000
  70
    32
  0
VERTEX
  8
01
  5
4C27
 10
7.20284
 20
-95.8762
 30
0.000000
  70
    32
  0
VERTEX
  8
01
  5
4C28
 10
7.22708
 20
-96.0324
 30
0.000000
  70
    32
  0
VERTEX
  8
01
  5
4C29
 10
7.25258
 20
-96.1884
 30
0.000000
  70
    32
  0
VERTEX
  8
01
  5
4C2A
 10
7.27939
 20
-96.3441
 30
0.000000
  70
    32
  0
VERTEX
  8
01
  5
4C2B
 10
7.30758
 20
-96.4994
 30
0.000000
  70
    32
  0
VERTEX
  8
01
  5
4C2C
 10
7.33722
 20
-96.6543
 30
0.000000
  70
    32
  0
VERTEX
  8
01
  5
4C2D
 10
7.36836
 20
-96.8085
 30
0.000000
  70
    32
  0
VERTEX
  8
01
  5
4C2E
 10
7.40107
 20
-96.9621
 30
0.000000
  70
    32
  0
VERTEX
  8
01
  5
4C2F
 10
7.43542
 20
-97.1149
 30
0.000000
  70
    32
  0
VERTEX
  8
01
  5
4C30
 10
7.47146
 20
-97.2668
 30
0.000000
  70
    32
  0
VERTEX
  8
01
  5
4C31
 10
7.50927
 20
-97.4177
 30
0.000000
  70
    32
  0
VERTEX
  8
01
  5
4C32
 10
7.54889
 20
-97.5676
 30
0.000000
  70
    32
  0
VERTEX
  8
01
  5
4C33
 10
7.59041
 20
-97.7162
 30
0.000000
  70
    32
  0
VERTEX
  8
01
  5
4C34
 10
7.63387
 20
-97.8637
 30
0.000000
  70
    32
  0
VERTEX
  8
01
  5
4C35
 10
7.67934
 20
-98.0097
 30
0.000000
  70
    32
  0
VERTEX
  8
01
  5
4C36
 10
7.72689
 20
-98.1543
 30
0.000000
  70
    32
  0
VERTEX
  8
01
  5
4C37
 10
7.77658
 20
-98.2974
 30
0.000000
  70
    32
  0
VERTEX
  8
01
  5
4C38
 10
7.82847
 20
-98.4388
 30
0.000000
  70
    32
  0
VERTEX
  8
01
  5
4C39
 10
7.88263
 20
-98.5784
 30
0.000000
  70
    32
  0
VERTEX
  8
01
  5
4C3A
 10
7.93911
 20
-98.7162
 30
0.000000
  70
    32
  0
VERTEX
  8
01
  5
4C3B
 10
7.99799
 20
-98.8520
 30
0.000000
  70
    32
  0
VERTEX
  8
01
  5
4C3C
 10
8.05932
 20
-98.9858
 30
0.000000
  70
    32
  0
VERTEX
  8
01
  5
4C3D
 10
8.12317
 20
-99.1175
 30
0.000000
  70
    32
  0
VERTEX
  8
01
  5
4C3E
 10
8.18960
 20
-99.2469
 30
0.000000
  70
    32
  0
VERTEX
  8
01
  5
4C3F
 10
8.25867
 20
-99.3740
 30
0.000000
  70
    32
  0
VERTEX
  8
01
  5
4C40
 10
8.33045
 20
-99.4987
 30
0.000000
  70
    32
  0
SEQEND
  8
01
  5
4C41
  0
POLYLINE
  8
01
  5
4C42
  66
     1
 10
0.000000
 20
0.000000
 30
0.000000
  70
     8
  0
VERTEX
  8
01
  5
4C43
 10
16.0432
 20
-102.808
 30
0.000000
  70
    32
  0
VERTEX
  8
01
  5
4C44
 10
16.0631
 20
-102.812
 30
0.000000
  70
    32
  0
VERTEX
  8
01
  5
4C45
 10
16.0829
 20
-102.815
 30
0.000000
  70
    32
  0
VERTEX
  8
01
  5
4C46
 10
16.1027
 20
-102.819
 30
0.000000
  70
    32
  0
VERTEX
  8
01
  5
4C47
 10
16.1225
 20
-102.822
 30
0.000000
  70
    32
  0
VERTEX
  8
01
  5
4C48
 10
16.1423
 20
-102.826
 30
0.000000
  70
    32
  0
VERTEX
  8
01
  5
4C49
 10
16.1621
 20
-102.829
 30
0.000000
  70
    32
  0
VERTEX
  8
01
  5
4C4A
 10
16.1819
 20
-102.833
 30
0.000000
  70
    32
  0
VERTEX
  8
01
  5
4C4B
 10
16.2018
 20
-102.836
 30
0.000000
  70
    32
  0
VERTEX
  8
01
  5
4C4C
 10
16.2216
 20
-102.839
 30
0.000000
  70
    32
  0
VERTEX
  8
01
  5
4C4D
 10
16.2413
 20
-102.843
 30
0.000000
  70
    32
  0
VERTEX
  8
01
  5
4C4E
 10
16.2611
 20
-102.846
 30
0.000000
  70
    32
  0
VERTEX
  8
01
  5
4C4F
 10
16.2809
 20
-102.850
 30
0.000000
  70
    32
  0
VERTEX
  8
01
  5
4C50
 10
16.3007
 20
-102.853
 30
0.000000
  70
    32
  0
VERTEX
  8
01
  5
4C51
 10
16.3205
 20
-102.857
 30
0.000000
  70
    32
  0
VERTEX
  8
01
  5
4C52
 10
16.3403
 20
-102.860
 30
0.000000
  70
    32
  0
VERTEX
  8
01
  5
4C53
 10
16.3601
 20
-102.863
 30
0.000000
  70
    32
  0
VERTEX
  8
01
  5
4C54
 10
16.3799
 20
-102.867
 30
0.000000
  70
    32
  0
VERTEX
  8
01
  5
4C55
 10
16.3996
 20
-102.870
 30
0.000000
  70
    32
  0
VERTEX
  8
01
  5
4C56
 10
16.4194
 20
-102.874
 30
0.000000
  70
    32
  0
VERTEX
  8
01
  5
4C57
 10
16.4392
 20
-102.877
 30
0.000000
  70
    32
  0
VERTEX
  8
01
  5
4C58
 10
16.4589
 20
-102.880
 30
0.000000
  70
    32
  0
VERTEX
  8
01
  5
4C59
 10
16.4787
 20
-102.884
 30
0.000000
  70
    32
  0
VERTEX
  8
01
  5
4C5A
 10
16.4985
 20
-102.887
 30
0.000000
  70
    32
  0
VERTEX
  8
01
  5
4C5B
 10
16.5182
 20
-102.891
 30
0.000000
  70
    32
  0
VERTEX
  8
01
  5
4C5C
 10
16.5380
 20
-102.894
 30
0.000000
  70
    32
  0
VERTEX
  8
01
  5
4C5D
 10
16.5577
 20
-102.897
 30
0.000000
  70
    32
  0
VERTEX
  8
01
  5
4C5E
 10
16.5775
 20
-102.901
 30
0.000000
  70
    32
  0
VERTEX
  8
01
  5
4C5F
 10
16.5972
 20
-102.904
 30
0.000000
  70
    32
  0
VERTEX
  8
01
  5
4C60
 10
16.6170
 20
-102.907
 30
0.000000
  70
    32
  0
VERTEX
  8
01
  5
4C61
 10
16.6367
 20
-102.911
 30
0.000000
  70
    32
  0
VERTEX
  8
01
  5
4C62
 10
16.6565
 20
-102.914
 30
0.000000
  70
    32
  0
VERTEX
  8
01
  5
4C63
 10
16.6762
 20
-102.917
 30
0.000000
  70
    32
  0
VERTEX
  8
01
  5
4C64
 10
16.6960
 20
-102.921
 30
0.000000
  70
    32
  0
VERTEX
  8
01
  5
4C65
 10
16.7157
 20
-102.924
 30
0.000000
  70
    32
  0
VERTEX
  8
01
  5
4C66
 10
16.7354
 20
-102.927
 30
0.000000
  70
    32
  0
VERTEX
  8
01
  5
4C67
 10
16.7552
 20
-102.931
 30
0.000000
  70
    32
  0
VERTEX
  8
01
  5
4C68
 10
16.7749
 20
-102.934
 30
0.000000
  70
    32
  0
VERTEX
  8
01
  5
4C69
 10
16.7946
 20
-102.937
 30
0.000000
  70
    32
  0
VERTEX
  8
01
  5
4C6A
 10
16.8143
 20
-102.941
 30
0.000000
  70
    32
  0
VERTEX
  8
01
  5
4C6B
 10
16.8341
 20
-102.944
 30
0.000000
  70
    32
  0
VERTEX
  8
01
  5
4C6C
 10
16.8538
 20
-102.947
 30
0.000000
  70
    32
  0
VERTEX
  8
01
  5
4C6D
 10
16.8735
 20
-102.951
 30
0.000000
  70
    32
  0
VERTEX
  8
01
  5
4C6E
 10
16.8932
 20
-102.954
 30
0.000000
  70
    32
  0
VERTEX
  8
01
  5
4C6F
 10
16.9129
 20
-102.957
 30
0.000000
  70
    32
  0
VERTEX
  8
01
  5
4C70
 10
16.9326
 20
-102.960
 30
0.000000
  70
    32
  0
VERTEX
  8
01
  5
4C71
 10
16.9524
 20
-102.964
 30
0.000000
  70
    32
  0
VERTEX
  8
01
  5
4C72
 10
16.9721
 20
-102.967
 30
0.000000
  70
    32
  0
VERTEX
  8
01
  5
4C73
 10
16.9918
 20
-102.970
 30
0.000000
  70
    32
  0
VERTEX
  8
01
  5
4C74
 10
17.0115
 20
-102.974
 30
0.000000
  70
    32
  0
VERTEX
  8
01
  5
4C75
 10
17.0312
 20
-102.977
 30
0.000000
  70
    32
  0
VERTEX
  8
01
  5
4C76
 10
17.0509
 20
-102.980
 30
0.000000
  70
    32
  0
VERTEX
  8
01
  5
4C77
 10
17.0706
 20
-102.983
 30
0.000000
  70
    32
  0
VERTEX
  8
01
  5
4C78
 10
17.0903
 20
-102.987
 30
0.000000
  70
    32
  0
VERTEX
  8
01
  5
4C79
 10
17.1099
 20
-102.990
 30
0.000000
  70
    32
  0
VERTEX
  8
01
  5
4C7A
 10
17.1296
 20
-102.993
 30
0.000000
  70
    32
  0
VERTEX
  8
01
  5
4C7B
 10
17.1493
 20
-102.996
 30
0.000000
  70
    32
  0
VERTEX
  8
01
  5
4C7C
 10
17.1690
 20
-102.999
 30
0.000000
  70
    32
  0
VERTEX
  8
01
  5
4C7D
 10
17.1887
 20
-103.003
 30
0.000000
  70
    32
  0
VERTEX
  8
01
  5
4C7E
 10
17.2084
 20
-103.006
 30
0.000000
  70
    32
  0
VERTEX
  8
01
  5
4C7F
 10
17.2281
 20
-103.009
 30
0.000000
  70
    32
  0
VERTEX
  8
01
  5
4C80
 10
17.2477
 20
-103.012
 30
0.000000
  70
    32
  0
VERTEX
  8
01
  5
4C81
 10
17.2674
 20
-103.016
 30
0.000000
  70
    32
  0
VERTEX
  8
01
  5
4C82
 10
17.2871
 20
-103.019
 30
0.000000
  70
    32
  0
VERTEX
  8
01
  5
4C83
 10
17.3068
 20
-103.022
 30
0.000000
  70
    32
  0
VERTEX
  8
01
  5
4C84
 10
17.3264
 20
-103.025
 30
0.000000
  70
    32
  0
VERTEX
  8
01
  5
4C85
 10
17.3461
 20
-103.028
 30
0.000000
  70
    32
  0
VERTEX
  8
01
  5
4C86
 10
17.3658
 20
-103.032
 30
0.000000
  70
    32
  0
VERTEX
  8
01
  5
4C87
 10
17.3854
 20
-103.035
 30
0.000000
  70
    32
  0
VERTEX
  8
01
  5
4C88
 10
17.4051
 20
-103.038
 30
0.000000
  70
    32
  0
VERTEX
  8
01
  5
4C89
 10
17.4248
 20
-103.041
 30
0.000000
  70
    32
  0
VERTEX
  8
01
  5
4C8A
 10
17.4444
 20
-103.044
 30
0.000000
  70
    32
  0
VERTEX
  8
01
  5
4C8B
 10
17.4641
 20
-103.047
 30
0.000000
  70
    32
  0
VERTEX
  8
01
  5
4C8C
 10
17.4837
 20
-103.051
 30
0.000000
  70
    32
  0
VERTEX
  8
01
  5
4C8D
 10
17.5034
 20
-103.054
 30
0.000000
  70
    32
  0
VERTEX
  8
01
  5
4C8E
 10
17.5231
 20
-103.057
 30
0.000000
  70
    32
  0
VERTEX
  8
01
  5
4C8F
 10
17.5427
 20
-103.060
 30
0.000000
  70
    32
  0
VERTEX
  8
01
  5
4C90
 10
17.5624
 20
-103.063
 30
0.000000
  70
    32
  0
VERTEX
  8
01
  5
4C91
 10
17.5820
 20
-103.066
 30
0.000000
  70
    32
  0
VERTEX
  8
01
  5
4C92
 10
17.6017
 20
-103.070
 30
0.000000
  70
    32
  0
VERTEX
  8
01
  5
4C93
 10
17.6213
 20
-103.073
 30
0.000000
  70
    32
  0
VERTEX
  8
01
  5
4C94
 10
17.6410
 20
-103.076
 30
0.000000
  70
    32
  0
VERTEX
  8
01
  5
4C95
 10
17.6606
 20
-103.079
 30
0.000000
  70
    32
  0
VERTEX
  8
01
  5
4C96
 10
17.6802
 20
-103.082
 30
0.000000
  70
    32
  0
VERTEX
  8
01
  5
4C97
 10
17.6999
 20
-103.085
 30
0.000000
  70
    32
  0
VERTEX
  8
01
  5
4C98
 10
17.7195
 20
-103.088
 30
0.000000
  70
    32
  0
VERTEX
  8
01
  5
4C99
 10
17.7392
 20
-103.092
 30
0.000000
  70
    32
  0
VERTEX
  8
01
  5
4C9A
 10
17.7588
 20
-103.095
 30
0.000000
  70
    32
  0
VERTEX
  8
01
  5
4C9B
 10
17.7784
 20
-103.098
 30
0.000000
  70
    32
  0
VERTEX
  8
01
  5
4C9C
 10
17.7981
 20
-103.101
 30
0.000000
  70
    32
  0
VERTEX
  8
01
  5
4C9D
 10
17.8177
 20
-103.104
 30
0.000000
  70
    32
  0
VERTEX
  8
01
  5
4C9E
 10
17.8373
 20
-103.107
 30
0.000000
  70
    32
  0
VERTEX
  8
01
  5
4C9F
 10
17.8569
 20
-103.110
 30
0.000000
  70
    32
  0
VERTEX
  8
01
  5
4CA0
 10
17.8766
 20
-103.113
 30
0.000000
  70
    32
  0
VERTEX
  8
01
  5
4CA1
 10
17.8962
 20
-103.117
 30
0.000000
  70
    32
  0
VERTEX
  8
01
  5
4CA2
 10
17.9158
 20
-103.120
 30
0.000000
  70
    32
  0
VERTEX
  8
01
  5
4CA3
 10
17.9355
 20
-103.123
 30
0.000000
  70
    32
  0
VERTEX
  8
01
  5
4CA4
 10
17.9551
 20
-103.126
 30
0.000000
  70
    32
  0
VERTEX
  8
01
  5
4CA5
 10
17.9747
 20
-103.129
 30
0.000000
  70
    32
  0
VERTEX
  8
01
  5
4CA6
 10
17.9943
 20
-103.132
 30
0.000000
  70
    32
  0
VERTEX
  8
01
  5
4CA7
 10
18.0139
 20
-103.135
 30
0.000000
  70
    32
  0
VERTEX
  8
01
  5
4CA8
 10
18.0336
 20
-103.138
 30
0.000000
  70
    32
  0
VERTEX
  8
01
  5
4CA9
 10
18.0532
 20
-103.141
 30
0.000000
  70
    32
  0
VERTEX
  8
01
  5
4CAA
 10
18.0728
 20
-103.144
 30
0.000000
  70
    32
  0
VERTEX
  8
01
  5
4CAB
 10
18.0924
 20
-103.147
 30
0.000000
  70
    32
  0
VERTEX
  8
01
  5
4CAC
 10
18.1120
 20
-103.151
 30
0.000000
  70
    32
  0
VERTEX
  8
01
  5
4CAD
 10
18.1316
 20
-103.154
 30
0.000000
  70
    32
  0
VERTEX
  8
01
  5
4CAE
 10
18.1512
 20
-103.157
 30
0.000000
  70
    32
  0
VERTEX
  8
01
  5
4CAF
 10
18.1708
 20
-103.160
 30
0.000000
  70
    32
  0
VERTEX
  8
01
  5
4CB0
 10
18.1905
 20
-103.163
 30
0.000000
  70
    32
  0
VERTEX
  8
01
  5
4CB1
 10
18.2101
 20
-103.166
 30
0.000000
  70
    32
  0
VERTEX
  8
01
  5
4CB2
 10
18.2297
 20
-103.169
 30
0.000000
  70
    32
  0
VERTEX
  8
01
  5
4CB3
 10
18.2493
 20
-103.172
 30
0.000000
  70
    32
  0
VERTEX
  8
01
  5
4CB4
 10
18.2689
 20
-103.175
 30
0.000000
  70
    32
  0
VERTEX
  8
01
  5
4CB5
 10
18.2885
 20
-103.178
 30
0.000000
  70
    32
  0
VERTEX
  8
01
  5
4CB6
 10
18.3081
 20
-103.181
 30
0.000000
  70
    32
  0
VERTEX
  8
01
  5
4CB7
 10
18.3277
 20
-103.184
 30
0.000000
  70
    32
  0
VERTEX
  8
01
  5
4CB8
 10
18.3473
 20
-103.187
 30
0.000000
  70
    32
  0
VERTEX
  8
01
  5
4CB9
 10
18.3669
 20
-103.190
 30
0.000000
  70
    32
  0
VERTEX
  8
01
  5
4CBA
 10
18.3865
 20
-103.194
 30
0.000000
  70
    32
  0
VERTEX
  8
01
  5
4CBB
 10
18.4061
 20
-103.197
 30
0.000000
  70
    32
  0
VERTEX
  8
01
  5
4CBC
 10
18.4257
 20
-103.200
 30
0.000000
  70
    32
  0
VERTEX
  8
01
  5
4CBD
 10
18.4453
 20
-103.203
 30
0.000000
  70
    32
  0
VERTEX
  8
01
  5
4CBE
 10
18.4649
 20
-103.206
 30
0.000000
  70
    32
  0
VERTEX
  8
01
  5
4CBF
 10
18.4845
 20
-103.209
 30
0.000000
  70
    32
  0
VERTEX
  8
01
  5
4CC0
 10
18.5041
 20
-103.212
 30
0.000000
  70
    32
  0
VERTEX
  8
01
  5
4CC1
 10
18.5237
 20
-103.215
 30
0.000000
  70
    32
  0
VERTEX
  8
01
  5
4CC2
 10
18.5432
 20
-103.218
 30
0.000000
  70
    32
  0
SEQEND
  8
01
  5
4CC3
  0
LINE
  5
42FF
  8
01
 10
84.121394125130166
 20
-191.63439135820971
 30
0.0
 11
84.121410412694388
 21
-184.6343913582098
 31
0.0
  0
LINE
  5
4300
  8
01
 10
83.858910412693433
 20
-184.6343913582098
 30
0.0
 11
84.121410412694388
 21
-184.6343913582098
 31
0.0
  0
LINE
  5
4301
  8
01
 10
83.858894125129325
 20
-191.63439135820971
 30
0.0
 11
84.121394125130166
 21
-191.63439135820971
 31
0.0
  0
LINE
  5
4302
  8
01
 10
83.858910412693433
 20
-184.6343913582098
 30
0.0
 11
81.671384963226345
 21
-186.82189135820971
 31
0.0
  0
LINE
  5
4303
  8
01
 10
83.858894125129325
 20
-191.63439135820971
 30
0.0
 11
81.671409394667606
 21
-189.44689135820971
 31
0.0
  0
LINE
  5
4304
  8
01
 10
63.758913466659422
 20
-186.82189135820971
 30
0.0
 11
81.671384963226345
 21
-186.82189135820971
 31
0.0
  0
LINE
  5
4305
  8
01
 10
63.75890735882281
 20
-189.44689135820971
 30
0.0
 11
81.671409394667606
 21
-189.44689135820971
 31
0.0
  0
LINE
  5
4306
  8
01
 10
59.121410412694509
 20
-188.1343913582098
 30
0.0
 11
63.758913466659422
 21
-186.82189135820971
 31
0.0
  0
LINE
  5
4307
  8
01
 10
59.121410412694509
 20
-188.1343913582098
 30
0.0
 11
63.75890735882281
 21
-189.44689135820971
 31
0.0
  0
LINE
  5
4308
  8
01
 10
83.858894125129325
 20
-191.63439135820971
 30
0.0
 11
83.858910412693433
 21
-184.6343913582098
 31
0.0
  0
LINE
  5
4309
  8
01
 10
73.558906340850015
 20
-189.8843913582098
 30
0.0
 11
72.858914484634013
 21
-186.38439135820971
 31
0.0
  0
LINE
  5
430A
  8
01
 10
72.858914484634013
 20
-186.38439135820971
 30
0.0
 11
72.771413466661045
 21
-186.82189135820971
 31
0.0
  0
LINE
  5
430B
  8
01
 10
70.758906340850061
 20
-189.8843913582098
 30
0.0
 11
70.058914484630307
 21
-186.38439135820971
 31
0.0
  0
LINE
  5
430C
  8
01
 10
72.158906340849924
 20
-189.8843913582098
 30
0.0
 11
71.458914484630171
 21
-186.38439135820971
 31
0.0
  0
LINE
  5
430D
  8
01
 10
67.958906340849992
 20
-189.8843913582098
 30
0.0
 11
67.258914484630225
 21
-186.38439135820971
 31
0.0
  0
LINE
  5
430E
  8
01
 10
69.35890634084997
 20
-189.8843913582098
 30
0.0
 11
68.658914484630216
 21
-186.38439135820971
 31
0.0
  0
LINE
  5
430F
  8
01
 10
65.158906340849924
 20
-189.8843913582098
 30
0.0
 11
64.458914484630171
 21
-186.38439135820971
 31
0.0
  0
LINE
  5
4310
  8
01
 10
63.058914023677929
 20
-186.58249752888821
 30
0.0
 11
62.945802163251713
 21
-187.0520170472505
 31
0.0
  0
LINE
  5
4311
  8
01
 10
63.758906340850061
 20
-189.8843913582098
 30
0.0
 11
63.058914023677929
 21
-186.58249752888821
 31
0.0
  0
LINE
  5
4312
  8
01
 10
66.558906340850015
 20
-189.8843913582098
 30
0.0
 11
65.858914484630262
 21
-186.38439135820971
 31
0.0
  0
LINE
  5
4313
  8
01
 10
70.058914484630307
 20
-186.38439135820971
 30
0.0
 11
69.971413466657694
 21
-186.82189135820971
 31
0.0
  0
LINE
  5
4314
  8
01
 10
71.458914484630171
 20
-186.38439135820971
 30
0.0
 11
71.371413466657785
 21
-186.82189135820971
 31
0.0
  0
LINE
  5
4315
  8
01
 10
67.258914484630225
 20
-186.38439135820971
 30
0.0
 11
67.171413466657626
 21
-186.82189135820971
 31
0.0
  0
LINE
  5
4316
  8
01
 10
68.658914484630216
 20
-186.38439135820971
 30
0.0
 11
68.571413466657717
 21
-186.82189135820971
 31
0.0
  0
LINE
  5
4317
  8
01
 10
64.458914484630171
 20
-186.38439135820971
 30
0.0
 11
64.371413466657785
 21
-186.82189135820971
 31
0.0
  0
LINE
  5
4318
  8
01
 10
65.858914484630262
 20
-186.38439135820971
 30
0.0
 11
65.771413466657876
 21
-186.82189135820971
 31
0.0
  0
LINE
  5
4319
  8
01
 10
58.016410520821587
 20
-188.1343913582098
 30
0.0
 11
85.578885697241446
 21
-188.1343913582098
 31
0.0
  0
LINE
  5
431A
  8
01
 10
62.457580586065163
 20
-189.07859108565211
 30
0.0
 11
62.35890726275894
 21
-189.4881772339084
 31
0.0
  0
LINE
  5
431B
  8
01
 10
60.258912179867998
 20
-187.37492221160011
 30
0.0
 11
59.986113555647378
 21
-187.88966421476229
 31
0.0
  0
LINE
  5
431C
  8
01
 10
61.09141450654802
 20
-188.69194005381391
 30
0.0
 11
60.958908184662583
 21
-189.09196541436609
 31
0.0
  0
LINE
  5
431D
  8
01
 10
61.658913101772967
 20
-186.97870987024419
 30
0.0
 11
61.498994476973472
 21
-187.46149065107201
 31
0.0
  0
LINE
  5
431E
  8
01
 10
60.958908184662583
 20
-189.09196541436609
 30
0.0
 11
60.258912179867998
 21
-187.37492221160011
 31
0.0
  0
LINE
  5
431F
  8
01
 10
62.35890726275894
 20
-189.4881772339084
 30
0.0
 11
61.658913101772967
 21
-186.97870987024419
 31
0.0
  0
LINE
  5
4320
  8
01
 10
70.84640735882256
 20
-189.44689135820971
 30
0.0
 11
70.758906340850061
 21
-189.8843913582098
 31
0.0
  0
LINE
  5
4321
  8
01
 10
72.246407358822992
 20
-189.44689135820971
 30
0.0
 11
72.158906340849924
 21
-189.8843913582098
 31
0.0
  0
LINE
  5
4322
  8
01
 10
66.646407358822515
 20
-189.44689135820971
 30
0.0
 11
66.558906340850015
 21
-189.8843913582098
 31
0.0
  0
LINE
  5
4323
  8
01
 10
68.046407358822492
 20
-189.44689135820971
 30
0.0
 11
67.958906340849992
 21
-189.8843913582098
 31
0.0
  0
LINE
  5
4324
  8
01
 10
69.446407358822356
 20
-189.44689135820971
 30
0.0
 11
69.35890634084997
 21
-189.8843913582098
 31
0.0
  0
LINE
  5
4325
  8
01
 10
65.246407358822424
 20
-189.44689135820971
 30
0.0
 11
65.158906340849924
 21
-189.8843913582098
 31
0.0
  0
LINE
  5
4326
  8
01
 10
63.84640735882256
 20
-189.44689135820971
 30
0.0
 11
63.758906340850061
 21
-189.8843913582098
 31
0.0
  0
LINE
  5
4327
  8
01
 10
73.646407358822955
 20
-189.44689135820971
 30
0.0
 11
73.558906340850015
 21
-189.8843913582098
 31
0.0
  0
LINE
  5
4328
  8
01
 10
74.958906340852039
 20
-189.8843913582098
 30
0.0
 11
74.258914484636037
 21
-186.38439135820971
 31
0.0
  0
LINE
  5
4329
  8
01
 10
74.258914484636037
 20
-186.38439135820971
 30
0.0
 11
74.171413466663083
 21
-186.82189135820971
 31
0.0
  0
LINE
  5
432A
  8
01
 10
75.046407358824993
 20
-189.44689135820971
 30
0.0
 11
74.958906340852039
 21
-189.8843913582098
 31
0.0
  0
LINE
  5
432B
  8
01
 10
76.358906340854062
 20
-189.8843913582098
 30
0.0
 11
75.658914484638061
 21
-186.38439135820971
 31
0.0
  0
LINE
  5
432C
  8
01
 10
75.658914484638061
 20
-186.38439135820971
 30
0.0
 11
75.571413466665106
 21
-186.82189135820971
 31
0.0
  0
LINE
  5
432D
  8
01
 10
76.446407358827017
 20
-189.44689135820971
 30
0.0
 11
76.358906340854062
 21
-189.8843913582098
 31
0.0
  0
LINE
  5
432E
  8
01
 10
77.758906340856086
 20
-189.8843913582098
 30
0.0
 11
77.058914484640084
 21
-186.38439135820971
 31
0.0
  0
LINE
  5
432F
  8
01
 10
77.058914484640084
 20
-186.38439135820971
 30
0.0
 11
76.97141346666713
 21
-186.82189135820971
 31
0.0
  0
LINE
  5
4330
  8
01
 10
77.84640735882904
 20
-189.44689135820971
 30
0.0
 11
77.758906340856086
 21
-189.8843913582098
 31
0.0
  0
LINE
  5
4331
  8
01
 10
79.15890634085811
 20
-189.8843913582098
 30
0.0
 11
78.458914484642108
 21
-186.38439135820971
 31
0.0
  0
LINE
  5
4332
  8
01
 10
78.458914484642108
 20
-186.38439135820971
 30
0.0
 11
78.371413466669154
 21
-186.82189135820971
 31
0.0
  0
LINE
  5
4333
  8
01
 10
79.246407358831064
 20
-189.44689135820971
 30
0.0
 11
79.15890634085811
 21
-189.8843913582098
 31
0.0
  0
LINE
  5
4334
  8
01
 10
80.558906340860133
 20
-189.8843913582098
 30
0.0
 11
79.858914484644131
 21
-186.38439135820971
 31
0.0
  0
LINE
  5
4335
  8
01
 10
79.858914484644131
 20
-186.38439135820971
 30
0.0
 11
79.771413466671163
 21
-186.82189135820971
 31
0.0
  0
LINE
  5
4336
  8
01
 10
80.646407358833073
 20
-189.44689135820971
 30
0.0
 11
80.558906340860133
 21
-189.8843913582098
 31
0.0
  0
LINE
  5
4337
  8
01
 10
84.121394125130166
 20
-179.13322619083991
 30
0.0
 11
84.121410412694388
 21
-172.13322619083991
 31
0.0
  0
LINE
  5
4338
  8
01
 10
83.858910412693433
 20
-172.13322619083991
 30
0.0
 11
84.121410412694388
 21
-172.13322619083991
 31
0.0
  0
LINE
  5
4339
  8
01
 10
83.858894125129325
 20
-179.13322619083991
 30
0.0
 11
84.121394125130166
 21
-179.13322619083991
 31
0.0
  0
LINE
  5
433A
  8
01
 10
83.858910412693433
 20
-172.13322619083991
 30
0.0
 11
81.671384963226345
 21
-174.32072619083991
 31
0.0
  0
LINE
  5
433B
  8
01
 10
83.858894125129325
 20
-179.13322619083991
 30
0.0
 11
81.671409394667606
 21
-176.94572619083991
 31
0.0
  0
LINE
  5
433C
  8
01
 10
63.758913466659422
 20
-174.32072619083991
 30
0.0
 11
81.671384963226345
 21
-174.32072619083991
 31
0.0
  0
LINE
  5
433D
  8
01
 10
63.75890735882281
 20
-176.94572619083991
 30
0.0
 11
81.671409394667606
 21
-176.94572619083991
 31
0.0
  0
LINE
  5
433E
  8
01
 10
59.121410412694509
 20
-175.63322619083979
 30
0.0
 11
63.758913466659422
 21
-174.32072619083991
 31
0.0
  0
LINE
  5
433F
  8
01
 10
59.121410412694509
 20
-175.63322619083979
 30
0.0
 11
63.75890735882281
 21
-176.94572619083991
 31
0.0
  0
LINE
  5
4340
  8
01
 10
83.858894125129325
 20
-179.13322619083991
 30
0.0
 11
83.858910412693433
 21
-172.13322619083991
 31
0.0
  0
LINE
  5
4341
  8
01
 10
73.558906340850015
 20
-177.38322619083991
 30
0.0
 11
72.858914484634013
 21
-173.88322619083991
 31
0.0
  0
LINE
  5
4342
  8
01
 10
72.858914484634013
 20
-173.88322619083991
 30
0.0
 11
72.771413466661045
 21
-174.32072619083991
 31
0.0
  0
LINE
  5
4343
  8
01
 10
70.758906340850061
 20
-177.38322619083991
 30
0.0
 11
70.058914484630307
 21
-173.88322619083991
 31
0.0
  0
LINE
  5
4344
  8
01
 10
72.158906340849924
 20
-177.38322619083991
 30
0.0
 11
71.458914484630171
 21
-173.88322619083991
 31
0.0
  0
LINE
  5
4345
  8
01
 10
67.958906340849992
 20
-177.38322619083991
 30
0.0
 11
67.258914484630225
 21
-173.88322619083991
 31
0.0
  0
LINE
  5
4346
  8
01
 10
69.35890634084997
 20
-177.38322619083991
 30
0.0
 11
68.658914484630216
 21
-173.88322619083991
 31
0.0
  0
LINE
  5
4347
  8
01
 10
65.158906340849924
 20
-177.38322619083991
 30
0.0
 11
64.458914484630171
 21
-173.88322619083991
 31
0.0
  0
LINE
  5
4348
  8
01
 10
63.058914023677929
 20
-174.08133236151829
 30
0.0
 11
62.945802163251713
 21
-174.55085187988061
 31
0.0
  0
LINE
  5
4349
  8
01
 10
63.758906340850061
 20
-177.38322619083991
 30
0.0
 11
63.058914023677929
 21
-174.08133236151829
 31
0.0
  0
LINE
  5
434A
  8
01
 10
66.558906340850015
 20
-177.38322619083991
 30
0.0
 11
65.858914484630262
 21
-173.88322619083991
 31
0.0
  0
LINE
  5
434B
  8
01
 10
70.058914484630307
 20
-173.88322619083991
 30
0.0
 11
69.971413466657694
 21
-174.32072619083991
 31
0.0
  0
LINE
  5
434C
  8
01
 10
71.458914484630171
 20
-173.88322619083991
 30
0.0
 11
71.371413466657785
 21
-174.32072619083991
 31
0.0
  0
LINE
  5
434D
  8
01
 10
67.258914484630225
 20
-173.88322619083991
 30
0.0
 11
67.171413466657626
 21
-174.32072619083991
 31
0.0
  0
LINE
  5
434E
  8
01
 10
68.658914484630216
 20
-173.88322619083991
 30
0.0
 11
68.571413466657717
 21
-174.32072619083991
 31
0.0
  0
LINE
  5
434F
  8
01
 10
64.458914484630171
 20
-173.88322619083991
 30
0.0
 11
64.371413466657785
 21
-174.32072619083991
 31
0.0
  0
LINE
  5
4350
  8
01
 10
65.858914484630262
 20
-173.88322619083991
 30
0.0
 11
65.771413466657876
 21
-174.32072619083991
 31
0.0
  0
LINE
  5
4351
  8
01
 10
58.016410520821587
 20
-175.63322619083979
 30
0.0
 11
85.578885697241446
 21
-175.63322619083979
 31
0.0
  0
LINE
  5
4352
  8
01
 10
62.457580586065163
 20
-176.57742591828219
 30
0.0
 11
62.35890726275894
 21
-176.98701206653851
 31
0.0
  0
LINE
  5
4353
  8
01
 10
60.258912179867998
 20
-174.87375704423019
 30
0.0
 11
59.986113555647378
 21
-175.38849904739229
 31
0.0
  0
LINE
  5
4354
  8
01
 10
61.09141450654802
 20
-176.19077488644399
 30
0.0
 11
60.958908184662583
 21
-176.5908002469962
 31
0.0
  0
LINE
  5
4355
  8
01
 10
61.658913101772967
 20
-174.4775447028743
 30
0.0
 11
61.498994476973472
 21
-174.96032548370209
 31
0.0
  0
LINE
  5
4356
  8
01
 10
60.958908184662583
 20
-176.5908002469962
 30
0.0
 11
60.258912179867998
 21
-174.87375704423019
 31
0.0
  0
LINE
  5
4357
  8
01
 10
62.35890726275894
 20
-176.98701206653851
 30
0.0
 11
61.658913101772967
 21
-174.4775447028743
 31
0.0
  0
LINE
  5
4358
  8
01
 10
70.84640735882256
 20
-176.94572619083991
 30
0.0
 11
70.758906340850061
 21
-177.38322619083991
 31
0.0
  0
LINE
  5
4359
  8
01
 10
72.246407358822992
 20
-176.94572619083991
 30
0.0
 11
72.158906340849924
 21
-177.38322619083991
 31
0.0
  0
LINE
  5
435A
  8
01
 10
66.646407358822515
 20
-176.94572619083991
 30
0.0
 11
66.558906340850015
 21
-177.38322619083991
 31
0.0
  0
LINE
  5
435B
  8
01
 10
68.046407358822492
 20
-176.94572619083991
 30
0.0
 11
67.958906340849992
 21
-177.38322619083991
 31
0.0
  0
LINE
  5
435C
  8
01
 10
69.446407358822356
 20
-176.94572619083991
 30
0.0
 11
69.35890634084997
 21
-177.38322619083991
 31
0.0
  0
LINE
  5
435D
  8
01
 10
65.246407358822424
 20
-176.94572619083991
 30
0.0
 11
65.158906340849924
 21
-177.38322619083991
 31
0.0
  0
LINE
  5
435E
  8
01
 10
63.84640735882256
 20
-176.94572619083991
 30
0.0
 11
63.758906340850061
 21
-177.38322619083991
 31
0.0
  0
LINE
  5
435F
  8
01
 10
73.646407358822955
 20
-176.94572619083991
 30
0.0
 11
73.558906340850015
 21
-177.38322619083991
 31
0.0
  0
LINE
  5
4360
  8
01
 10
74.958906340852039
 20
-177.38322619083991
 30
0.0
 11
74.258914484636037
 21
-173.88322619083991
 31
0.0
  0
LINE
  5
4361
  8
01
 10
74.258914484636037
 20
-173.88322619083991
 30
0.0
 11
74.171413466663083
 21
-174.32072619083991
 31
0.0
  0
LINE
  5
4362
  8
01
 10
75.046407358824993
 20
-176.94572619083991
 30
0.0
 11
74.958906340852039
 21
-177.38322619083991
 31
0.0
  0
LINE
  5
4363
  8
01
 10
76.358906340854062
 20
-177.38322619083991
 30
0.0
 11
75.658914484638061
 21
-173.88322619083991
 31
0.0
  0
LINE
  5
4364
  8
01
 10
75.658914484638061
 20
-173.88322619083991
 30
0.0
 11
75.571413466665106
 21
-174.32072619083991
 31
0.0
  0
LINE
  5
4365
  8
01
 10
76.446407358827017
 20
-176.94572619083991
 30
0.0
 11
76.358906340854062
 21
-177.38322619083991
 31
0.0
  0
LINE
  5
4366
  8
01
 10
77.758906340856086
 20
-177.38322619083991
 30
0.0
 11
77.058914484640084
 21
-173.88322619083991
 31
0.0
  0
LINE
  5
4367
  8
01
 10
77.058914484640084
 20
-173.88322619083991
 30
0.0
 11
76.97141346666713
 21
-174.32072619083991
 31
0.0
  0
LINE
  5
4368
  8
01
 10
77.84640735882904
 20
-176.94572619083991
 30
0.0
 11
77.758906340856086
 21
-177.38322619083991
 31
0.0
  0
LINE
  5
4369
  8
01
 10
79.15890634085811
 20
-177.38322619083991
 30
0.0
 11
78.458914484642108
 21
-173.88322619083991
 31
0.0
  0
LINE
  5
436A
  8
01
 10
78.458914484642108
 20
-173.88322619083991
 30
0.0
 11
78.371413466669154
 21
-174.32072619083991
 31
0.0
  0
LINE
  5
436B
  8
01
 10
79.246407358831064
 20
-176.94572619083991
 30
0.0
 11
79.15890634085811
 21
-177.38322619083991
 31
0.0
  0
LINE
  5
436C
  8
01
 10
80.558906340860133
 20
-177.38322619083991
 30
0.0
 11
79.858914484644131
 21
-173.88322619083991
 31
0.0
  0
LINE
  5
436D
  8
01
 10
79.858914484644131
 20
-173.88322619083991
 30
0.0
 11
79.771413466671163
 21
-174.32072619083991
 31
0.0
  0
LINE
  5
436E
  8
01
 10
80.646407358833073
 20
-176.94572619083991
 30
0.0
 11
80.558906340860133
 21
-177.38322619083991
 31
0.0
  0
TEXT
  5
4371
  8
01
 10
63.462378284123197
 20
-199.10989467691411
 30
0.0
 40
4.0
  1
付属ねじ
  0
TEXT
  5
4372
  8
01
 10
-33.279505104507741
 20
41.528639287409078
 30
0.0
 40
8.0
  1
KM-01+KM-01-E7R
  0
POINT
  5
44FF
  8
01
  6
CONTINUOUS
 10
293.11107563480641
 20
-75.348249293528255
 30
0.0
  0
POINT
  5
4500
  8
01
  6
CONTINUOUS
 10
293.11107563480641
 20
-75.348249293528255
 30
0.0
  0
POINT
  5
4501
  8
01
  6
CONTINUOUS
 10
325.11107163480642
 20
-75.348249293528255
 30
0.0
  0
POINT
  5
4502
  8
01
  6
CONTINUOUS
 10
325.11107163480642
 20
-79.348249293528255
 30
0.0
  0
POINT
  5
4504
  8
01
 10
325.11107163480642
 20
-59.348250193528258
 30
0.0
  0
POINT
  5
4505
  8
01
 10
325.11107163480642
 20
-55.348247193528259
 30
0.0
  0
POINT
  5
4508
  8
01
 10
298.11106903480658
 20
-55.857393391428957
 30
0.0
  0
POINT
  5
4509
  8
01
 10
325.1110686348066
 20
-59.857394091428972
 30
0.0
  0
POINT
  5
450A
  8
01
 10
303.11106903480658
 20
-35.857393091428982
 30
0.0
  0
POINT
  5
450B
  8
01
 10
325.1110686348066
 20
-39.857393791428962
 30
0.0
  0
POINT
  5
450C
  8
01
 10
298.11106903480658
 20
-55.857393391428957
 30
0.0
  0
POINT
  5
450D
  8
01
 10
325.1110686348066
 20
-55.857393391428957
 30
0.0
  0
POINT
  5
450E
  8
01
 10
303.11106903480658
 20
-35.857393091428982
 30
0.0
  0
POINT
  5
450F
  8
01
 10
325.1110686348066
 20
-35.857393091428982
 30
0.0
  0
LINE
  5
4510
  8
01
 10
298.11106903480658
 20
-59.857394091428972
 30
0.0
 11
298.11106903480658
 21
-55.857393391428957
 31
0.0
  0
LINE
  5
4511
  8
01
 10
325.1110686348066
 20
-59.857394091428972
 30
0.0
 11
325.1110686348066
 21
-55.857393391428957
 31
0.0
  0
LINE
  5
4512
  8
01
 10
298.11106903480658
 20
-59.857394091428972
 30
0.0
 11
325.1110686348066
 21
-59.857394091428972
 31
0.0
  0
LINE
  5
4513
  8
01
 10
298.11106903480658
 20
-55.857393391428957
 30
0.0
 11
325.1110686348066
 21
-55.857393391428957
 31
0.0
  0
LINE
  5
4514
  8
01
 10
296.59611363480639
 20
-57.857392891428951
 30
0.0
 11
326.32016363480648
 21
-57.857392891428951
 31
0.0
  0
LINE
  5
4515
  8
01
 10
298.11106903480658
 20
-55.857393791428962
 30
0.0
 11
325.11107063480648
 21
-59.857394091428972
 31
0.0
  0
LINE
  5
4516
  8
01
 10
298.1110681348066
 20
-59.857393091428968
 30
0.0
 11
325.11107063480648
 21
-55.857392891428958
 31
0.0
  0
LINE
  5
4517
  8
01
 10
303.11106903480658
 20
-39.857393791428962
 30
0.0
 11
303.11106903480658
 21
-35.857393091428982
 31
0.0
  0
LINE
  5
4518
  8
01
 10
325.1110686348066
 20
-39.857393791428962
 30
0.0
 11
325.1110686348066
 21
-35.857393091428982
 31
0.0
  0
LINE
  5
4519
  8
01
 10
303.11106903480658
 20
-39.857393791428962
 30
0.0
 11
325.1110686348066
 21
-39.857393791428962
 31
0.0
  0
LINE
  5
451A
  8
01
 10
303.11106903480658
 20
-35.857393091428982
 30
0.0
 11
325.1110686348066
 21
-35.857393091428982
 31
0.0
  0
LINE
  5
451B
  8
01
 10
301.59611403480648
 20
-37.857393091428968
 30
0.0
 11
326.32016363480648
 21
-37.857393091428968
 31
0.0
  0
LINE
  5
451C
  8
01
 10
303.11106863480649
 20
-35.857393091428982
 30
0.0
 11
325.1110686348066
 21
-39.857392891428958
 31
0.0
  0
LINE
  5
451D
  8
01
 10
303.11106903480658
 20
-39.857392891428958
 30
0.0
 11
325.1110686348066
 21
-35.857393091428982
 31
0.0
  0
LINE
  5
451E
  8
01
 10
293.11107103480663
 20
-75.857394091428972
 30
0.0
 11
325.11107263480648
 21
-79.857394391428983
 31
0.0
  0
LINE
  5
451F
  8
01
 10
293.1110701348066
 20
-79.857393391428985
 30
0.0
 11
325.11107263480648
 21
-75.857393191428969
 31
0.0
  0
LINE
  5
4520
  8
01
 10
291.59611563480638
 20
-77.857393191428969
 30
0.0
 11
326.32016563480647
 21
-77.857393191428969
 31
0.0
  0
LINE
  5
4521
  8
01
 10
293.11107103480663
 20
-79.857394391428983
 30
0.0
 11
325.11107063480648
 21
-79.857394391428983
 31
0.0
  0
LINE
  5
4522
  8
01
 10
293.11107103480663
 20
-75.857393691428953
 30
0.0
 11
325.11107063480648
 21
-75.857393691428953
 31
0.0
  0
POINT
  5
4524
  8
01
 10
293.11107103480663
 20
-75.857393691428953
 30
0.0
  0
POINT
  5
4525
  8
01
 10
293.11107103480663
 20
-75.857393691428953
 30
0.0
  0
LINE
  5
4526
  8
01
 10
293.11107103480663
 20
-79.857394391428983
 30
0.0
 11
293.11107103480663
 21
-75.857393691428953
 31
0.0
  0
POINT
  5
4527
  8
01
 10
325.11107363480642
 20
-79.348250493528269
 30
0.0
  0
POINT
  5
4528
  8
01
 10
325.11107363480642
 20
-75.348247493528277
 30
0.0
  0
POINT
  5
4529
  8
01
 10
325.11107063480648
 20
-79.857394391428983
 30
0.0
  0
POINT
  5
452A
  8
01
 10
325.11107063480648
 20
-75.857393691428953
 30
0.0
  0
LINE
  5
452B
  8
01
 10
325.11107063480648
 20
-79.857394391428983
 30
0.0
 11
325.11107063480648
 21
-75.857393691428953
 31
0.0
  0
TEXT
  5
45D7
  8
01
 10
301.58421907299117
 20
-127.7236509263964
 30
0.0
 40
4.0
  1
付属ねじ
  0
TEXT
  5
45D8
  8
01
 10
301.2121169733544
 20
-86.501106942873776
 30
0.0
 40
4.0
  1
付属角芯
  0
LINE
  5
46CC
  8
01
 10
201.28369534321669
 20
-74.998906910435196
 30
0.0
 11
207.28366829567031
 21
-74.998906910435181
 31
0.0
  0
ARC
  5
46CD
  8
01
 10
201.28369534321669
 20
-75.998906910435196
 30
0.0
 40
1.0
 50
90.0
 51
180.0
  0
LINE
  5
46CE
  8
01
 10
200.3532204017568
 20
-66.998908707263141
 30
0.0
 11
202.08562829567029
 21
-66.998906910435167
 31
0.0
  0
ARC
  5
46CF
  8
01
 10
212.28366829567031
 20
-72.998906910435167
 30
0.0
 40
10.0
 50
120.0000000000001
 51
132.8334200000015
  0
ARC
  5
46D0
  8
01
 10
202.08562829567029
 20
-61.998906910435167
 30
0.0
 40
5.0
 50
270.0
 51
312.83343000000048
  0
LINE
  5
46D1
  8
01
 10
200.28369534321669
 20
-83.998908707263155
 30
0.0
 11
200.28369534321669
 21
-75.998906910435196
 31
0.0
  0
LINE
  5
46D2
  8
01
 10
198.47827343331821
 20
-84.998908707263141
 30
0.0
 11
199.28369534321669
 21
-84.998908707263141
 31
0.0
  0
ARC
  5
46D3
  8
01
 10
199.28369534321669
 20
-83.998908707263155
 30
0.0
 40
1.0
 50
270.0
 51
0.0
  0
ARC
  5
46D4
  8
01
 10
245.28372239076339
 20
-69.498910504091114
 30
0.0
 40
50.0
 50
183.1847362453864
 51
197.21261266230439
  0
ARC
  5
46D5
  8
01
 10
198.47827343331821
 20
-83.998908707263155
 30
0.0
 40
1.0
 50
197.2126126623036
 51
270.00000000000648
  0
ARC
  5
46D6
  8
01
 10
200.3532204017566
 20
-71.998908707263141
 30
0.0
 40
5.0
 50
90.0
 51
183.1847362453864
  0
LINE
  5
4772
  8
01
 10
200.28369534321669
 20
-83.998908707263155
 30
0.0
 11
200.28369534321669
 21
-101.22256670839511
 31
0.0
  0
LINE
  5
4773
  8
01
 10
207.2836417181241
 20
-74.998906910435181
 30
0.0
 11
207.2836417181241
 21
-101.22256670839511
 31
0.0
  0
LINE
  5
4774
  8
01
 10
202.28369534321669
 20
-100.22256670839511
 30
0.0
 11
205.2836417181241
 21
-100.22256670839511
 31
0.0
  0
LINE
  5
4778
  8
01
 10
163.81211600222741
 20
-11.99890910726317
 30
0.0
 11
166.38088841181019
 21
-8.9327375028407943
 31
0.0
  0
LINE
  5
4779
  8
01
 10
167.66527461660161
 20
-7.3996517006296036
 30
0.0
 11
173.4878254116559
 21
-0.4496627306054961
 31
0.0
  0
LINE
  5
477C
  8
01
 10
157.41211500222741
 20
-14.498909107263181
 30
0.0
 11
141.87687451302509
 21
-14.49890910726317
 31
0.0
  0
LINE
  5
477D
  8
01
 10
157.41211500222741
 20
-5.998909107263187
 30
0.0
 11
141.87687451302509
 21
-5.9989091072631826
 31
0.0
  0
LINE
  5
477E
  8
01
 10
142.87687451302509
 20
-12.49890910726317
 30
0.0
 11
142.87687451302509
 21
-7.9989091072631844
 31
0.0
  0
LINE
  5
477F
  8
01
 10
142.87687451302509
 20
-5.9989091072631844
 30
0.0
 11
142.87687451302509
 21
4.734424226070149
 31
0.0
  0
LINE
  5
4783
  8
01
 10
156.3070420022274
 20
-14.498909107263181
 30
0.0
 11
141.87687451302509
 21
-14.498909107263181
 31
0.0
  0
LINE
  5
4784
  8
01
 10
156.3070420022274
 20
-120.4989091072631
 30
0.0
 11
141.87687451302509
 21
-120.4989091072631
 31
0.0
  0
LINE
  5
4785
  8
01
 10
142.87687451302509
 20
-16.49890910726317
 30
0.0
 11
142.87687451302509
 21
-118.4989091072631
 31
0.0
  0
LINE
  5
4789
  8
01
 10
159.81211568806819
 20
-5.9989091072631879
 30
0.0
 11
133.7624637656738
 21
-5.9989091072631799
 31
0.0
  0
LINE
  5
478A
  8
01
 10
159.81211568806819
 20
-128.9989091072631
 30
0.0
 11
133.7624637656738
 21
-128.9989091072631
 31
0.0
  0
LINE
  5
478B
  8
01
 10
134.7624637656738
 20
-7.9989091072631808
 30
0.0
 11
134.7624637656738
 21
-126.9989091072631
 31
0.0
  0
TEXT
  5
478F
  8
01
 10
160.69386100203261
 20
7.731923874765072
 30
0.0
 40
3.5
  1
材質：ステンレス
  0
SOLID
  5
4790
  8
01
 10
203.28873785272339
 20
-66.763378475034884
 30
0.0
 11
203.14286517229391
 21
-68.785711848199526
 31
0.0
 12
202.62496093816031
 22
-66.825383733985575
 32
0.0
 13
202.62496093816031
 23
-66.825383733985575
 33
0.0
1001
ACAD
1000
DSTYLE
1002
{
1070
   341
1005
0
1002
}
  0
TEXT
  5
4792
  8
01
 10
266.42073259285121
 20
7.7319238747650756
 30
0.0
 40
3.5
  1
材質：スチール（亜鉛メッキ）
  0
SOLID
  5
4793
  8
01
 10
252.64572545391309
 20
-31.84173056050054
 30
0.0
 11
251.76207938748919
 21
-33.666636240365847
 31
0.0
 12
252.00609950009601
 22
-31.653786197328749
 32
0.0
 13
252.00609950009601
 23
-31.653786197328749
 33
0.0
1001
ACAD
1000
DSTYLE
1002
{
1070
   341
1005
0
1002
}
  0
TEXT
  5
4795
  8
01
 10
118.44371640889349
 20
7.731923874765072
 30
0.0
 40
3.5
  1
材質：ステンレス
  0
SOLID
  5
4796
  8
01
 10
160.35021882920969
 20
-6.215374685327232
 30
0.0
 11
160.8927205791548
 21
-8.1690386693371693
 31
0.0
 12
159.74592249655481
 22
-6.4969246574180843
 32
0.0
 13
159.74592249655481
 23
-6.4969246574180843
 33
0.0
1001
ACAD
1000
DSTYLE
1002
{
1070
   341
1005
0
1002
}
  0
LINE
  5
4798
  8
01
 10
308.61556678982151
 20
-110.0749725014642
 30
0.0
 11
294.87953285745232
 21
-110.0749725014642
 31
0.0
  0
LINE
  5
4799
  8
01
 10
307.81557609699888
 20
-106.0749725014642
 30
0.0
 11
294.87953285745232
 21
-106.0749725014642
 31
0.0
  0
LINE
  5
479A
  8
01
 10
295.87953285745232
 20
-112.0749725014642
 30
0.0
 11
295.87953285745232
 21
-114.0749725014642
 31
0.0
  0
LINE
  5
479B
  8
01
 10
295.87953285745232
 20
-104.0749725014642
 30
0.0
 11
295.87953285745232
 21
-94.174972501464225
 31
0.0
  0
LINE
  5
479C
  8
01
 10
295.87953285745232
 20
-110.0749725014642
 30
0.0
 11
295.87953285745232
 21
-106.0749725014642
 31
0.0
  0
LINE
  5
47A0
  8
01
 10
301.7155714433581
 20
-108.0749725014642
 30
0.0
 11
301.7155714433581
 21
-121.42778439071481
 31
0.0
  0
LINE
  5
47A1
  8
01
 10
321.71556213623262
 20
-112.0749725014642
 30
0.0
 11
321.71556213623262
 21
-121.42778439071481
 31
0.0
  0
LINE
  5
47A2
  8
01
 10
303.7155714433581
 20
-120.42778439071481
 30
0.0
 11
319.71556213623262
 21
-120.42778439071481
 31
0.0
  0
LINE
  5
47A6
  8
01
 10
293.11107763480641
 20
-75.857394091428972
 30
0.0
 11
293.11107763480641
 21
-67.45704243690443
 31
0.0
  0
LINE
  5
47A7
  8
01
 10
325.11107363480642
 20
-75.857394091428972
 30
0.0
 11
325.11107363480642
 21
-67.45704243690443
 31
0.0
  0
LINE
  5
47A8
  8
01
 10
295.11107763480641
 20
-68.45704243690443
 30
0.0
 11
323.11107363480642
 21
-68.45704243690443
 31
0.0
  0
LINE
  5
47AD
  8
01
 10
321.4155621362317
 20
-101.75810389448409
 30
0.0
 11
321.41558075059078
 21
-93.758103894484123
 31
0.0
  0
LINE
  5
47AE
  8
01
 10
318.21556678982148
 20
-99.758103894484123
 30
0.0
 11
317.41557609700322
 21
-95.758103894484108
 31
0.0
  0
LINE
  5
47AF
  8
01
 10
317.41557609700322
 20
-95.758103894484108
 30
0.0
 11
317.31557493360549
 21
-96.258103894484123
 31
0.0
  0
LINE
  5
47B0
  8
01
 10
315.01556678982161
 20
-99.758103894484123
 30
0.0
 11
314.21557609699897
 21
-95.758103894484108
 31
0.0
  0
LINE
  5
47B1
  8
01
 10
316.61556678982151
 20
-99.758103894484123
 30
0.0
 11
315.81557609699888
 21
-95.758103894484108
 31
0.0
  0
LINE
  5
47B2
  8
01
 10
311.8155667898215
 20
-99.758103894484123
 30
0.0
 11
311.01557609699893
 21
-95.758103894484108
 31
0.0
  0
LINE
  5
47B3
  8
01
 10
313.41556678982141
 20
-99.758103894484123
 30
0.0
 11
312.61557609699889
 21
-95.758103894484108
 31
0.0
  0
LINE
  5
47B4
  8
01
 10
308.61556678982151
 20
-99.758103894484123
 30
0.0
 11
307.81557609699888
 21
-95.758103894484108
 31
0.0
  0
LINE
  5
47B5
  8
01
 10
306.21557557019622
 20
-95.984510946688076
 30
0.0
 11
306.08630487256642
 21
-96.52110468195923
 31
0.0
  0
LINE
  5
47B6
  8
01
 10
307.01556678982161
 20
-99.758103894484123
 30
0.0
 11
306.21557557019622
 21
-95.984510946688076
 31
0.0
  0
LINE
  5
47B7
  8
01
 10
310.21556678982148
 20
-99.758103894484123
 30
0.0
 11
309.4155760969989
 21
-95.758103894484108
 31
0.0
  0
LINE
  5
47B8
  8
01
 10
314.21557609699897
 20
-95.758103894484108
 30
0.0
 11
314.11557493360181
 21
-96.258103894484123
 31
0.0
  0
LINE
  5
47B9
  8
01
 10
315.81557609699888
 20
-95.758103894484108
 30
0.0
 11
315.71557493360177
 21
-96.258103894484123
 31
0.0
  0
LINE
  5
47BA
  8
01
 10
311.01557609699893
 20
-95.758103894484108
 30
0.0
 11
310.9155749336017
 21
-96.258103894484123
 31
0.0
  0
LINE
  5
47BB
  8
01
 10
312.61557609699889
 20
-95.758103894484108
 30
0.0
 11
312.51557493360173
 21
-96.258103894484123
 31
0.0
  0
LINE
  5
47BC
  8
01
 10
307.81557609699888
 20
-95.758103894484108
 30
0.0
 11
307.71557493360177
 21
-96.258103894484123
 31
0.0
  0
LINE
  5
47BD
  8
01
 10
309.4155760969989
 20
-95.758103894484108
 30
0.0
 11
309.31557493360191
 21
-96.258103894484123
 31
0.0
  0
LINE
  5
47BE
  8
01
 10
301.7155714433581
 20
-97.758103894484123
 30
0.0
 11
323.38126679007422
 21
-97.758103894484123
 31
0.0
  0
LINE
  5
47BF
  8
01
 10
305.52833735578167
 20
-98.837189297275415
 30
0.0
 11
305.41556784343169
 21
-99.305287752425386
 31
0.0
  0
LINE
  5
47C0
  8
01
 10
303.01557346298489
 20
-96.890139155501686
 30
0.0
 11
302.70380360673278
 21
-97.4784157305441
 31
0.0
  0
LINE
  5
47C1
  8
01
 10
303.96700469347633
 20
-98.39530240374603
 30
0.0
 11
303.81556889703592
 21
-98.852474244377106
 31
0.0
  0
LINE
  5
47C2
  8
01
 10
304.61557451659058
 20
-96.437325051094902
 30
0.0
 11
304.43281037396258
 21
-96.989074514898164
 31
0.0
  0
LINE
  5
47C3
  8
01
 10
303.81556889703592
 20
-98.852474244377106
 30
0.0
 11
303.01557346298489
 21
-96.890139155501686
 31
0.0
  0
LINE
  5
47C4
  8
01
 10
305.41556784343169
 20
-99.305287752425386
 30
0.0
 11
304.61557451659058
 21
-96.437325051094902
 31
0.0
  0
LINE
  5
47C5
  8
01
 10
315.11556795321872
 20
-99.258103894484137
 30
0.0
 11
315.01556678982161
 21
-99.758103894484123
 31
0.0
  0
LINE
  5
47C6
  8
01
 10
316.71556795321919
 20
-99.258103894484137
 30
0.0
 11
316.61556678982151
 21
-99.758103894484123
 31
0.0
  0
LINE
  5
47C7
  8
01
 10
310.3155679532187
 20
-99.258103894484137
 30
0.0
 11
310.21556678982148
 21
-99.758103894484123
 31
0.0
  0
LINE
  5
47C8
  8
01
 10
311.91556795321861
 20
-99.258103894484137
 30
0.0
 11
311.8155667898215
 21
-99.758103894484123
 31
0.0
  0
LINE
  5
47C9
  8
01
 10
313.51556795321852
 20
-99.258103894484137
 30
0.0
 11
313.41556678982141
 21
-99.758103894484123
 31
0.0
  0
LINE
  5
47CA
  8
01
 10
308.71556795321862
 20
-99.258103894484137
 30
0.0
 11
308.61556678982151
 21
-99.758103894484123
 31
0.0
  0
LINE
  5
47CB
  8
01
 10
307.11556795321872
 20
-99.258103894484137
 30
0.0
 11
307.01556678982161
 21
-99.758103894484123
 31
0.0
  0
LINE
  5
47CC
  8
01
 10
318.31556795321922
 20
-99.258103894484137
 30
0.0
 11
318.21556678982148
 21
-99.758103894484123
 31
0.0
  0
LINE
  5
47CE
  8
01
 10
321.4155621362317
 20
-112.0749725014642
 30
0.0
 11
321.41558075059078
 21
-104.0749725014642
 31
0.0
  0
LINE
  5
47CF
  8
01
 10
318.21556678982148
 20
-110.0749725014642
 30
0.0
 11
317.41557609700322
 21
-106.0749725014642
 31
0.0
  0
LINE
  5
47D0
  8
01
 10
317.41557609700322
 20
-106.0749725014642
 30
0.0
 11
317.31557493360549
 21
-106.5749725014642
 31
0.0
  0
LINE
  5
47D1
  8
01
 10
315.01556678982161
 20
-110.0749725014642
 30
0.0
 11
314.21557609699897
 21
-106.0749725014642
 31
0.0
  0
LINE
  5
47D2
  8
01
 10
316.61556678982151
 20
-110.0749725014642
 30
0.0
 11
315.81557609699888
 21
-106.0749725014642
 31
0.0
  0
LINE
  5
47D3
  8
01
 10
311.8155667898215
 20
-110.0749725014642
 30
0.0
 11
311.01557609699893
 21
-106.0749725014642
 31
0.0
  0
LINE
  5
47D4
  8
01
 10
313.41556678982141
 20
-110.0749725014642
 30
0.0
 11
312.61557609699889
 21
-106.0749725014642
 31
0.0
  0
LINE
  5
47D5
  8
01
 10
308.61556678982151
 20
-110.0749725014642
 30
0.0
 11
307.81557609699888
 21
-106.0749725014642
 31
0.0
  0
LINE
  5
47D6
  8
01
 10
306.21557557019622
 20
-106.3013795536682
 30
0.0
 11
306.08630487256642
 21
-106.8379732889393
 31
0.0
  0
LINE
  5
47D7
  8
01
 10
307.01556678982161
 20
-110.0749725014642
 30
0.0
 11
306.21557557019622
 21
-106.3013795536682
 31
0.0
  0
LINE
  5
47D8
  8
01
 10
310.21556678982148
 20
-110.0749725014642
 30
0.0
 11
309.4155760969989
 21
-106.0749725014642
 31
0.0
  0
LINE
  5
47D9
  8
01
 10
314.21557609699897
 20
-106.0749725014642
 30
0.0
 11
314.11557493360181
 21
-106.5749725014642
 31
0.0
  0
LINE
  5
47DA
  8
01
 10
315.81557609699888
 20
-106.0749725014642
 30
0.0
 11
315.71557493360177
 21
-106.5749725014642
 31
0.0
  0
LINE
  5
47DB
  8
01
 10
311.01557609699893
 20
-106.0749725014642
 30
0.0
 11
310.9155749336017
 21
-106.5749725014642
 31
0.0
  0
LINE
  5
47DC
  8
01
 10
312.61557609699889
 20
-106.0749725014642
 30
0.0
 11
312.51557493360173
 21
-106.5749725014642
 31
0.0
  0
LINE
  5
47DD
  8
01
 10
307.81557609699888
 20
-106.0749725014642
 30
0.0
 11
307.71557493360177
 21
-106.5749725014642
 31
0.0
  0
LINE
  5
47DE
  8
01
 10
309.4155760969989
 20
-106.0749725014642
 30
0.0
 11
309.31557493360191
 21
-106.5749725014642
 31
0.0
  0
LINE
  5
47DF
  8
01
 10
301.7155714433581
 20
-108.0749725014642
 30
0.0
 11
323.38126679007422
 21
-108.0749725014642
 31
0.0
  0
LINE
  5
47E0
  8
01
 10
305.52833735578167
 20
-109.1540579042555
 30
0.0
 11
305.41556784343169
 21
-109.62215635940549
 31
0.0
  0
LINE
  5
47E1
  8
01
 10
303.01557346298489
 20
-107.20700776248179
 30
0.0
 11
302.70380360673278
 21
-107.79528433752419
 31
0.0
  0
LINE
  5
47E2
  8
01
 10
303.96700469347633
 20
-108.7121710107261
 30
0.0
 11
303.81556889703592
 21
-109.1693428513572
 31
0.0
  0
LINE
  5
47E3
  8
01
 10
304.61557451659058
 20
-106.754193658075
 30
0.0
 11
304.43281037396258
 21
-107.3059431218782
 31
0.0
  0
LINE
  5
47E4
  8
01
 10
303.81556889703592
 20
-109.1693428513572
 30
0.0
 11
303.01557346298489
 21
-107.20700776248179
 31
0.0
  0
LINE
  5
47E5
  8
01
 10
305.41556784343169
 20
-109.62215635940549
 30
0.0
 11
304.61557451659058
 21
-106.754193658075
 31
0.0
  0
LINE
  5
47E6
  8
01
 10
315.11556795321872
 20
-109.5749725014642
 30
0.0
 11
315.01556678982161
 21
-110.0749725014642
 31
0.0
  0
LINE
  5
47E7
  8
01
 10
316.71556795321919
 20
-109.5749725014642
 30
0.0
 11
316.61556678982151
 21
-110.0749725014642
 31
0.0
  0
LINE
  5
47E8
  8
01
 10
310.3155679532187
 20
-109.5749725014642
 30
0.0
 11
310.21556678982148
 21
-110.0749725014642
 31
0.0
  0
LINE
  5
47E9
  8
01
 10
311.91556795321861
 20
-109.5749725014642
 30
0.0
 11
311.8155667898215
 21
-110.0749725014642
 31
0.0
  0
LINE
  5
47EA
  8
01
 10
313.51556795321852
 20
-109.5749725014642
 30
0.0
 11
313.41556678982141
 21
-110.0749725014642
 31
0.0
  0
LINE
  5
47EB
  8
01
 10
308.71556795321862
 20
-109.5749725014642
 30
0.0
 11
308.61556678982151
 21
-110.0749725014642
 31
0.0
  0
LINE
  5
47EC
  8
01
 10
307.11556795321872
 20
-109.5749725014642
 30
0.0
 11
307.01556678982161
 21
-110.0749725014642
 31
0.0
  0
LINE
  5
47ED
  8
01
 10
318.31556795321922
 20
-109.5749725014642
 30
0.0
 11
318.21556678982148
 21
-110.0749725014642
 31
0.0
  0
LINE
  5
47EE
  8
01
 10
303.11107563480641
 20
-35.857391691428973
 30
0.0
 11
303.11107563480641
 21
-27.30071169142898
 31
0.0
  0
LINE
  5
47EF
  8
01
 10
325.11107163480642
 20
-35.857391691428973
 30
0.0
 11
325.11107163480642
 21
-27.30071169142898
 31
0.0
  0
LINE
  5
47F0
  8
01
 10
305.11107563480641
 20
-28.300711691428969
 30
0.0
 11
323.11107163480642
 21
-28.300711691428969
 31
0.0
  0
LINE
  5
47F4
  8
01
 10
298.11107563480641
 20
-55.857393791428962
 30
0.0
 11
298.11107563480641
 21
-48.554433691428947
 31
0.0
  0
LINE
  5
47F5
  8
01
 10
325.11107163480642
 20
-55.857393791428962
 30
0.0
 11
325.11107163480642
 21
-48.554433691428947
 31
0.0
  0
LINE
  5
47F6
  8
01
 10
300.11107563480641
 20
-49.554433691428947
 30
0.0
 11
323.11107163480642
 21
-49.554433691428947
 31
0.0
  0
TEXT
  5
47FA
  8
01
 10
37.284672174254872
 20
-151.47470382050781
 30
0.0
 40
3.5
  1
材質：亜鉛ダイキャスト
  0
SOLID
  5
47FB
  8
01
 10
15.31749679760131
 20
-100.49143084430089
 30
0.0
 11
14.94324847668336
 21
-98.498681661538285
 31
0.0
 12
15.943564190880119
 22
-100.2623368384485
 32
0.0
 13
15.943564190880119
 23
-100.2623368384485
 33
0.0
1001
ACAD
1000
DSTYLE
1002
{
1070
   341
1005
0
1002
}
  0
TEXT
  5
47FD
  8
01
 10
-33.959395002114903
 20
8.3787915846719656
 30
0.0
 40
3.5
  1
材質：スチール
  0
TEXT
  5
47FE
  8
01
 10
-34.426061668781578
 20
2.5454582513386308
 30
0.0
 40
3.5
  1
（亜鉛メッキ）
  0
SOLID
  5
47FF
  8
01
 10
10.08049373541145
 20
-34.349714175272801
 30
0.0
 11
10.41929586047865
 21
-36.348795021852311
 31
0.0
 12
9.4504568189568623
 22
-34.5676543697043
 32
0.0
 13
9.4504568189568623
 23
-34.5676543697043
 33
0.0
1001
ACAD
1000
DSTYLE
1002
{
1070
   341
1005
0
1002
}
  0
TEXT
  5
4801
  8
01
 10
20.04087044777388
 20
12.38070106504386
 30
0.0
 40
3.5
  1
材質：ステンレス
  0
SOLID
  5
4802
  8
01
 10
68.794837980394206
 20
-8.7505979400871041
 30
0.0
 11
69.58675355863636
 21
-10.61714041965956
 31
0.0
 12
68.232279099356759
 22
-9.1083296130073954
 32
0.0
 13
68.232279099356759
 23
-9.1083296130073954
 33
0.0
1001
ACAD
1000
DSTYLE
1002
{
1070
   341
1005
0
1002
}
  0
LINE
  5
4804
  8
01
 10
65.858914484630262
 20
-173.88322619083991
 30
0.0
 11
49.712672671398273
 21
-173.88322619083979
 31
0.0
  0
LINE
  5
4805
  8
01
 10
65.158906340849924
 20
-177.38322619083991
 30
0.0
 11
49.712672671398259
 21
-177.38322619083979
 31
0.0
  0
LINE
  5
4806
  8
01
 10
50.712672671398273
 20
-171.88322619083979
 30
0.0
 11
50.712672671398273
 21
-169.88322619083979
 31
0.0
  0
LINE
  5
4807
  8
01
 10
50.712672671398273
 20
-179.38322619083979
 30
0.0
 11
50.712672671398273
 21
-194.11655952417311
 31
0.0
  0
LINE
  5
4808
  8
01
 10
50.712672671398273
 20
-173.88322619083979
 30
0.0
 11
50.712672671398273
 21
-177.38322619083979
 31
0.0
  0
LINE
  5
480C
  8
01
 10
59.121410412694509
 20
-175.63322619083979
 30
0.0
 11
59.121410412694509
 21
-163.56420392306489
 31
0.0
  0
LINE
  5
480D
  8
01
 10
84.121410412694388
 20
-172.13322619083991
 30
0.0
 11
84.121410412694388
 21
-163.56420392306489
 31
0.0
  0
LINE
  5
480E
  8
01
 10
61.121410412694523
 20
-164.56420392306489
 30
0.0
 11
82.121410412694374
 21
-164.56420392306489
 31
0.0
  0
LINE
  5
4812
  8
01
 10
74.193344284344676
 20
-5.9986816615381988
 30
0.0
 11
111.4052765178146
 21
-5.9986816615382104
 31
0.0
  0
LINE
  5
4813
  8
01
 10
74.193344284344676
 20
-128.99868166153831
 30
0.0
 11
111.4052765178146
 21
-128.99868166153831
 31
0.0
  0
LINE
  5
4814
  8
01
 10
110.4052765178146
 20
-7.9986816615382086
 30
0.0
 11
110.4052765178146
 21
-126.9986816615383
 31
0.0
  0
LINE
  5
4818
  8
01
 10
64.193344284344676
 20
-122.9986816615383
 30
0.0
 11
64.193344284344676
 21
-144.4074666159963
 31
0.0
  0
LINE
  5
4819
  8
01
 10
80.193344284344676
 20
-122.9986816615383
 30
0.0
 11
80.193344284344676
 21
-144.4074666159963
 31
0.0
  0
LINE
  5
481A
  8
01
 10
66.193344284344676
 20
-143.4074666159963
 30
0.0
 11
78.193344284344676
 21
-143.4074666159963
 31
0.0
  0
LINE
  5
481E
  8
01
 10
5.5432484766832744
 20
-99.498681661538285
 30
0.0
 11
-12.66546522744888
 21
-99.498681661538285
 31
0.0
  0
LINE
  5
481F
  8
01
 10
5.5432484766832744
 20
-103.4986816615383
 30
0.0
 11
-12.66546522744888
 21
-103.4986816615383
 31
0.0
  0
LINE
  5
4820
  8
01
 10
-11.66546522744888
 20
-97.498681661538285
 30
0.0
 11
-11.66546522744888
 21
-95.498681661538285
 31
0.0
  0
LINE
  5
4821
  8
01
 10
-11.66546522744888
 20
-105.4986816615383
 30
0.0
 11
-11.665465227448889
 21
-131.09868166153831
 31
0.0
  0
LINE
  5
4822
  8
01
 10
-11.66546522744888
 20
-99.498681661538285
 30
0.0
 11
-11.66546522744888
 21
-103.4986816615383
 31
0.0
  0
LINE
  5
4826
  8
01
 10
5.543248476683388
 20
-32.498681661537717
 30
0.0
 11
-12.665465227448861
 21
-32.498681661537717
 31
0.0
  0
LINE
  5
4827
  8
01
 10
5.543248476683388
 20
-28.49868166153772
 30
0.0
 11
-12.665465227448861
 21
-28.49868166153772
 31
0.0
  0
LINE
  5
4828
  8
01
 10
-11.665465227448861
 20
-34.498681661537717
 30
0.0
 11
-11.66546522744887
 21
-36.498681661537717
 31
0.0
  0
LINE
  5
4829
  8
01
 10
-11.665465227448861
 20
-26.498681661537709
 30
0.0
 11
-11.665465227448861
 21
-0.8986816615377161
 31
0.0
  0
LINE
  5
482A
  8
01
 10
-11.665465227448861
 20
-32.498681661537717
 30
0.0
 11
-11.665465227448861
 21
-28.49868166153772
 31
0.0
  0
LINE
  5
482E
  8
01
 10
5.5432484766832744
 20
-32.498681661537717
 30
0.0
 11
-12.665465227448861
 21
-32.498681661537717
 31
0.0
  0
LINE
  5
482F
  8
01
 10
5.5432484766832744
 20
-99.498681661538285
 30
0.0
 11
-12.66546522744888
 21
-99.498681661538285
 31
0.0
  0
LINE
  5
4830
  8
01
 10
-11.665465227448861
 20
-34.498681661537717
 30
0.0
 11
-11.66546522744888
 21
-97.498681661538285
 31
0.0
  0
LINE
  5
4834
  8
01
 10
5.543248476683388
 20
-28.49868166153772
 30
0.0
 11
-19.846341933339431
 21
-28.49868166153772
 31
0.0
  0
LINE
  5
4835
  8
01
 10
5.5432484766833729
 20
-103.4986816615383
 30
0.0
 11
-19.846341933339449
 21
-103.4986816615383
 31
0.0
  0
LINE
  5
4836
  8
01
 10
-18.846341933339431
 20
-30.49868166153772
 30
0.0
 11
-18.846341933339449
 21
-101.4986816615383
 31
0.0
  0
LINE
  5
483A
  8
01
 10
14.943248476683319
 20
-76.212176879922737
 30
0.0
 11
15.15674369506783
 21
-75.998681661538257
 31
0.0
1001
ACAD
1010
0.0
1020
0.0
1030
0.0
  0
LINE
  5
483B
  8
01
 10
14.943248476683349
 20
-77.1102024920296
 30
0.0
 11
16.054769307174691
 21
-75.998681661538257
 31
0.0
1001
ACAD
1010
0.0
1020
0.0
1030
0.0
  0
LINE
  5
483C
  8
01
 10
14.943248476683319
 20
-78.008228104136577
 30
0.0
 11
16.543248476683321
 21
-76.408228104136583
 31
0.0
1001
ACAD
1010
0.0
1020
0.0
1030
0.0
  0
LINE
  5
483D
  8
01
 10
14.943248476683349
 20
-78.906253716243469
 30
0.0
 11
16.543248476683338
 21
-77.306253716243475
 31
0.0
1001
ACAD
1010
0.0
1020
0.0
1030
0.0
  0
LINE
  5
483E
  8
01
 10
14.943248476683319
 20
-79.804279328350361
 30
0.0
 11
16.543248476683338
 21
-78.204279328350339
 31
0.0
1001
ACAD
1010
0.0
1020
0.0
1030
0.0
  0
LINE
  5
483F
  8
01
 10
14.943248476683349
 20
-80.702304940457296
 30
0.0
 11
16.543248476683338
 21
-79.102304940457287
 31
0.0
1001
ACAD
1010
0.0
1020
0.0
1030
0.0
  0
LINE
  5
4840
  8
01
 10
14.943248476683349
 20
-81.600330552564202
 30
0.0
 11
16.543248476683338
 21
-80.000330552564179
 31
0.0
1001
ACAD
1010
0.0
1020
0.0
1030
0.0
  0
LINE
  5
4841
  8
01
 10
14.94324847668338
 20
-82.498356164671122
 30
0.0
 11
16.54324847668337
 21
-80.898356164671114
 31
0.0
1001
ACAD
1010
0.0
1020
0.0
1030
0.0
  0
LINE
  5
4842
  8
01
 10
8.9432484766833795
 20
-89.396381776777986
 30
0.0
 11
9.9225898228760059
 21
-88.417040430585359
 31
0.0
1001
ACAD
1010
0.0
1020
0.0
1030
0.0
  0
LINE
  5
4843
  8
01
 10
14.943248476683319
 20
-83.396381776778028
 30
0.0
 11
16.543248476683338
 21
-81.796381776778006
 31
0.0
1001
ACAD
1010
0.0
1020
0.0
1030
0.0
  0
LINE
  5
4844
  8
01
 10
9.8389742040301371
 20
-89.398681661538134
 30
0.0
 11
10.902286268209989
 21
-88.335369597358266
 31
0.0
1001
ACAD
1010
0.0
1020
0.0
1030
0.0
  0
LINE
  5
4845
  8
01
 10
14.943248476683319
 20
-84.294407388884935
 30
0.0
 11
16.54324847668337
 21
-82.694407388884912
 31
0.0
1001
ACAD
1010
0.0
1020
0.0
1030
0.0
  0
LINE
  5
4846
  8
01
 10
10.736999816137111
 20
-89.398681661538134
 30
0.0
 11
11.88198271354397
 21
-88.253698764131244
 31
0.0
1001
ACAD
1010
0.0
1020
0.0
1030
0.0
  0
LINE
  5
4847
  8
01
 10
14.943248476683349
 20
-85.192433000991883
 30
0.0
 11
16.543248476683338
 21
-83.592433000991889
 31
0.0
1001
ACAD
1010
0.0
1020
0.0
1030
0.0
  0
LINE
  5
4848
  8
01
 10
11.63502542824398
 20
-89.398681661538134
 30
0.0
 11
12.86167915887787
 21
-88.172027930904193
 31
0.0
1001
ACAD
1010
0.0
1020
0.0
1030
0.0
  0
LINE
  5
4849
  8
01
 10
14.943248476683319
 20
-86.090458613098775
 30
0.0
 11
16.543248476683321
 21
-84.490458613098781
 31
0.0
1001
ACAD
1010
0.0
1020
0.0
1030
0.0
  0
LINE
  5
484A
  8
01
 10
12.5330510403509
 20
-89.398681661538134
 30
0.0
 11
13.84137560421186
 21
-88.090357097677185
 31
0.0
1001
ACAD
1010
0.0
1020
0.0
1030
0.0
  0
LINE
  5
484B
  8
01
 10
14.943248476683291
 20
-86.988484225205724
 30
0.0
 11
16.543248476683338
 21
-85.388484225205715
 31
0.0
1001
ACAD
1010
0.0
1020
0.0
1030
0.0
  0
LINE
  5
484C
  8
01
 10
8.9432484766833511
 20
-93.886509837312616
 30
0.0
 11
9.2310766524577161
 21
-93.598681661538251
 31
0.0
1001
ACAD
1010
0.0
1020
0.0
1030
0.0
  0
LINE
  5
484D
  8
01
 10
13.43107665245782
 20
-89.398681661538134
 30
0.0
 11
16.54324847668337
 21
-86.286509837312593
 31
0.0
1001
ACAD
1010
0.0
1020
0.0
1030
0.0
  0
LINE
  5
484E
  8
01
 10
9.2071061869495452
 20
-94.520677739153342
 30
0.0
 11
10.12910226456464
 21
-93.598681661538251
 31
0.0
1001
ACAD
1010
0.0
1020
0.0
1030
0.0
  0
LINE
  5
484F
  8
01
 10
14.329102264564771
 20
-89.398681661538134
 30
0.0
 11
16.543248476683399
 21
-87.184535449419485
 31
0.0
1001
ACAD
1010
0.0
1020
0.0
1030
0.0
  0
LINE
  5
4850
  8
01
 10
10.03602989486029
 20
-94.589779643349473
 30
0.0
 11
11.0271278766715
 21
-93.598681661538279
 31
0.0
1001
ACAD
1010
0.0
1020
0.0
1030
0.0
  0
LINE
  5
4851
  8
01
 10
15.227127876671659
 20
-89.398681661538134
 30
0.0
 11
16.543248476683321
 21
-88.082561061526448
 31
0.0
1001
ACAD
1010
0.0
1020
0.0
1030
0.0
  0
LINE
  5
4852
  8
01
 10
10.86495360277115
 20
-94.658881547545548
 30
0.0
 11
11.92515348877842
 21
-93.598681661538279
 31
0.0
1001
ACAD
1010
0.0
1020
0.0
1030
0.0
  0
LINE
  5
4853
  8
01
 10
16.125153488778579
 20
-89.398681661538092
 30
0.0
 11
16.54324847668337
 21
-88.980586673633326
 31
0.0
1001
ACAD
1010
0.0
1020
0.0
1030
0.0
  0
LINE
  5
4854
  8
01
 10
11.69387731068201
 20
-94.727983451741636
 30
0.0
 11
12.823179100885341
 21
-93.598681661538279
 31
0.0
1001
ACAD
1010
0.0
1020
0.0
1030
0.0
  0
LINE
  5
4855
  8
01
 10
12.522801018592761
 20
-94.797085355937753
 30
0.0
 11
13.721204712992231
 21
-93.598681661538279
 31
0.0
1001
ACAD
1010
0.0
1020
0.0
1030
0.0
  0
LINE
  5
4856
  8
01
 10
13.35172472650356
 20
-94.866187260133884
 30
0.0
 11
14.619230325099149
 21
-93.598681661538293
 31
0.0
1001
ACAD
1010
0.0
1020
0.0
1030
0.0
  0
LINE
  5
4857
  8
01
 10
14.18064843441436
 20
-94.935289164329987
 30
0.0
 11
15.5172559372061
 21
-93.598681661538251
 31
0.0
1001
ACAD
1010
0.0
1020
0.0
1030
0.0
  0
LINE
  5
4858
  8
01
 10
14.84835260610239
 20
-95.165610604748835
 30
0.0
 11
16.27926501299817
 21
-93.734698197853078
 31
0.0
1001
ACAD
1010
0.0
1020
0.0
1030
0.0
  0
LINE
  5
4859
  8
01
 10
14.943248476683319
 20
-95.968740346274885
 30
0.0
 11
16.543248476683321
 21
-94.368740346274876
 31
0.0
1001
ACAD
1010
0.0
1020
0.0
1030
0.0
  0
LINE
  5
485A
  8
01
 10
14.943248476683349
 20
-96.866765958381777
 30
0.0
 11
16.543248476683338
 21
-95.266765958381768
 31
0.0
1001
ACAD
1010
0.0
1020
0.0
1030
0.0
  0
LINE
  5
485B
  8
01
 10
14.94324847668338
 20
-97.764791570488683
 30
0.0
 11
16.543248476683399
 21
-96.16479157048866
 31
0.0
1001
ACAD
1010
0.0
1020
0.0
1030
0.0
  0
LINE
  5
485C
  8
01
 10
15.107383997740641
 20
-98.498681661538257
 30
0.0
 11
16.543248476683338
 21
-97.062817182595595
 31
0.0
1001
ACAD
1010
0.0
1020
0.0
1030
0.0
  0
LINE
  5
485D
  8
01
 10
16.005409609847622
 20
-98.498681661538228
 30
0.0
 11
16.543248476683321
 21
-97.960842794702529
 31
0.0
1001
ACAD
1010
0.0
1020
0.0
1030
0.0
  0
LINE
  5
485E
  8
01
 10
17.54324847668331
 20
-102.5793803885383
 30
0.0
 11
16.543248476683399
 21
-101.5793803885384
 31
0.0
1001
ACAD
1010
0.0
1020
0.0
1030
0.0
  0
LINE
  5
485F
  8
01
 10
17.54324847668331
 20
-101.232341970378
 30
0.0
 11
16.54324847668337
 21
-100.232341970378
 31
0.0
1001
ACAD
1010
0.0
1020
0.0
1030
0.0
  0
LINE
  5
4860
  8
01
 10
17.543248476683289
 20
-99.885303552217621
 30
0.0
 11
16.543248476683399
 21
-98.885303552217692
 31
0.0
1001
ACAD
1010
0.0
1020
0.0
1030
0.0
  0
LINE
  5
4861
  8
01
 10
17.543248476683289
 20
-98.538265134057241
 30
0.0
 11
16.543248476683399
 21
-97.538265134057355
 31
0.0
1001
ACAD
1010
0.0
1020
0.0
1030
0.0
  0
LINE
  5
4862
  8
01
 10
17.543248476683338
 20
-97.191226715896903
 30
0.0
 11
16.54324847668337
 21
-96.191226715896931
 31
0.0
1001
ACAD
1010
0.0
1020
0.0
1030
0.0
  0
LINE
  5
4863
  8
01
 10
17.543248476683289
 20
-95.844188297736508
 30
0.0
 11
16.54324847668337
 21
-94.844188297736594
 31
0.0
1001
ACAD
1010
0.0
1020
0.0
1030
0.0
  0
LINE
  5
4864
  8
01
 10
16.9880912039851
 20
-88.553838934236438
 30
0.0
 11
16.543248476683431
 21
-88.108996206934762
 31
0.0
1001
ACAD
1010
0.0
1020
0.0
1030
0.0
  0
LINE
  5
4865
  8
01
 10
17.54324847668331
 20
-87.761957788774254
 30
0.0
 11
16.543248476683459
 21
-86.761957788774396
 31
0.0
1001
ACAD
1010
0.0
1020
0.0
1030
0.0
  0
LINE
  5
4866
  8
01
 10
17.543248476683289
 20
-86.414919370613873
 30
0.0
 11
16.543248476683399
 21
-85.414919370613987
 31
0.0
1001
ACAD
1010
0.0
1020
0.0
1030
0.0
  0
LINE
  5
4867
  8
01
 10
17.54324847668331
 20
-85.067880952453535
 30
0.0
 11
16.543248476683431
 21
-84.067880952453635
 31
0.0
1001
ACAD
1010
0.0
1020
0.0
1030
0.0
  0
LINE
  5
4868
  8
01
 10
17.543248476683289
 20
-83.720842534293155
 30
0.0
 11
16.54324847668337
 21
-82.720842534293254
 31
0.0
1001
ACAD
1010
0.0
1020
0.0
1030
0.0
  0
LINE
  5
4869
  8
01
 10
17.54324847668331
 20
-82.373804116132774
 30
0.0
 11
16.543248476683399
 21
-81.373804116132845
 31
0.0
1001
ACAD
1010
0.0
1020
0.0
1030
0.0
  0
LINE
  5
486A
  8
01
 10
17.54324847668337
 20
-81.026765697972422
 30
0.0
 11
16.543248476683431
 21
-80.026765697972479
 31
0.0
1001
ACAD
1010
0.0
1020
0.0
1030
0.0
  0
LINE
  5
486B
  8
01
 10
17.543248476683289
 20
-79.679727279812013
 30
0.0
 11
16.54324847668337
 21
-78.679727279812084
 31
0.0
1001
ACAD
1010
0.0
1020
0.0
1030
0.0
  0
LINE
  5
486C
  8
01
 10
17.543248476683338
 20
-78.332688861651661
 30
0.0
 11
16.543248476683399
 21
-77.332688861651718
 31
0.0
1001
ACAD
1010
0.0
1020
0.0
1030
0.0
  0
LINE
  5
486D
  8
01
 10
17.54324847668326
 20
-76.985650443491267
 30
0.0
 11
16.5562796947303
 21
-75.998681661538285
 31
0.0
1001
ACAD
1010
0.0
1020
0.0
1030
0.0
  0
LINE
  5
486E
  8
01
 10
17.54324847668326
 20
-81.245394582831494
 30
0.0
 11
18.543248476683289
 21
-80.245394582831466
 31
0.0
1001
ACAD
1010
0.0
1020
0.0
1030
0.0
  0
LINE
  5
486F
  8
01
 10
17.54324847668331
 20
-82.592433000991846
 30
0.0
 11
18.543248476683321
 21
-81.592433000991818
 31
0.0
1001
ACAD
1010
0.0
1020
0.0
1030
0.0
  0
LINE
  5
4870
  8
01
 10
17.543248476683289
 20
-83.939471419152255
 30
0.0
 11
18.543248476683321
 21
-82.939471419152227
 31
0.0
1001
ACAD
1010
0.0
1020
0.0
1030
0.0
  0
LINE
  5
4871
  8
01
 10
17.54324847668326
 20
-100.10393243707669
 30
0.0
 11
18.54324847668326
 21
-99.103932437076708
 31
0.0
1001
ACAD
1010
0.0
1020
0.0
1030
0.0
  0
LINE
  5
4872
  8
01
 10
17.543248476683289
 20
-101.450970855237
 30
0.0
 11
18.543248476683289
 21
-100.450970855237
 31
0.0
1001
ACAD
1010
0.0
1020
0.0
1030
0.0
  0
LINE
  5
4873
  8
01
 10
17.54324847668326
 20
-102.7980092733974
 30
0.0
 11
18.543248476683289
 21
-101.7980092733974
 31
0.0
1001
ACAD
1010
0.0
1020
0.0
1030
0.0
  0
LINE
  5
4874
  8
01
 10
18.480191106276951
 20
-103.2081050619642
 30
0.0
 11
18.543248476683321
 21
-103.14504769155781
 31
0.0
1001
ACAD
1010
0.0
1020
0.0
1030
0.0
  0
LINE
  5
4875
  8
01
 10
16.043248476683502
 20
-123.9986816615383
 30
0.0
 11
16.043248476683502
 21
-136.56834246331849
 31
0.0
  0
LINE
  5
4876
  8
01
 10
18.543248476683392
 20
-128.99868166153831
 30
0.0
 11
18.543248476683392
 21
-136.56834246331849
 31
0.0
  0
LINE
  5
4877
  8
01
 10
20.543248476683392
 20
-135.56834246331849
 30
0.0
 11
22.543248476683392
 21
-135.56834246331849
 31
0.0
  0
LINE
  5
4878
  8
01
 10
14.0432484766835
 20
-135.56834246331849
 30
0.0
 11
3.3099151433501688
 21
-135.56834246331849
 31
0.0
  0
LINE
  5
4879
  8
01
 10
18.543248476683392
 20
-135.56834246331849
 30
0.0
 11
16.043248476683502
 21
-135.56834246331849
 31
0.0
  0
LINE
  5
487D
  8
01
 10
18.543248476683392
 20
-128.99868166153831
 30
0.0
 11
18.543248476683392
 21
-144.4074666159963
 31
0.0
  0
LINE
  5
487E
  8
01
 10
4.043248476683206
 20
-91.498681661538285
 30
0.0
 11
4.0432484766832033
 21
-144.4074666159963
 31
0.0
  0
LINE
  5
487F
  8
01
 10
16.543248476683392
 20
-143.4074666159963
 30
0.0
 11
6.0432484766832033
 21
-143.4074666159963
 31
0.0
  0
LINE
  5
4883
  8
01
 10
18.543248476683271
 20
-170.5336666342948
 30
0.0
 11
34.454601825396473
 21
-170.5336666342948
 31
0.0
  0
LINE
  5
4884
  8
01
 10
18.543248476683271
 20
-154.5336666342948
 30
0.0
 11
34.454601825396473
 21
-154.5336666342948
 31
0.0
  0
LINE
  5
4885
  8
01
 10
33.454601825396473
 20
-168.5336666342948
 30
0.0
 11
33.454601825396473
 21
-156.5336666342948
 31
0.0
  0
LINE
  5
4889
  8
01
 10
69.693344284344676
 20
-54.039885674626042
 30
0.0
 11
74.693344284344676
 21
-54.039885674626042
 31
0.0
  0
LINE
  5
488D
  8
01
 10
74.193344284344676
 20
-11.998681661538191
 30
0.0
 11
77.089787698184963
 21
-9.2399472505405669
 31
0.0
  0
LINE
  5
488E
  8
01
 10
78.538009405105086
 20
-7.8605800450418144
 30
0.0
 11
89.304482368075114
 21
2.3940098793096918
 31
0.0
  0
LINE
  5
4891
  8
01
 10
14.94324847668336
 20
-75.998681661538285
 30
0.0
 11
14.943248476683371
 21
-56.596604700424898
 31
0.0
  0
LINE
  5
4892
  8
01
 10
12.943248476683371
 20
-57.596604700424898
 30
0.0
 11
10.94324847668336
 21
-57.596604700424898
 31
0.0
  0
LINE
  5
4893
  8
01
 10
20.543248476683271
 20
-57.596604700424898
 30
0.0
 11
47.976581810016597
 21
-57.596604700424898
 31
0.0
  0
LINE
  5
4894
  8
01
 10
14.943248476683371
 20
-57.596604700424898
 30
0.0
 11
18.543248476683271
 21
-57.596604700424898
 31
0.0
  0
LINE
  5
4898
  8
01
 10
5.5432484766832744
 20
-169.0336666342948
 30
0.0
 11
-4.5776629288719901
 21
-169.0336666342948
 31
0.0
  0
LINE
  5
4899
  8
01
 10
5.5432484766832744
 20
-156.0336666342948
 30
0.0
 11
-4.5776629288719866
 21
-156.0336666342948
 31
0.0
  0
LINE
  5
489A
  8
01
 10
-3.5776629288719901
 20
-167.0336666342948
 30
0.0
 11
-3.577662928871987
 21
-158.0336666342948
 31
0.0
  0
LINE
  5
489E
  8
01
 10
76.693344284344676
 20
-44.498681661538313
 30
0.0
 11
104.18332118672529
 21
-44.49868166153832
 31
0.0
  0
LINE
  5
489F
  8
01
 10
78.693344284344676
 20
-75.998681661538313
 30
0.0
 11
104.18332118672529
 21
-75.998681661538313
 31
0.0
  0
LINE
  5
48A0
  8
01
 10
103.18332118672529
 20
-46.49868166153832
 30
0.0
 11
103.18332118672529
 21
-73.998681661538328
 31
0.0
  0
LINE
  5
48A4
  8
01
 10
74.193344284344676
 20
-5.9986816615381988
 30
0.0
 11
104.18332118672529
 21
-5.9986816615382068
 31
0.0
  0
LINE
  5
48A5
  8
01
 10
76.693344284344676
 20
-44.498681661538313
 30
0.0
 11
104.18332118672529
 21
-44.49868166153832
 31
0.0
  0
LINE
  5
48A6
  8
01
 10
103.18332118672529
 20
-7.9986816615382068
 30
0.0
 11
103.18332118672529
 21
-42.49868166153832
 31
0.0
  0
LINE
  5
48AA
  8
01
 10
64.193344284344676
 20
-17.4986816615382
 30
0.0
 11
54.266677819402062
 21
-17.498681661538189
 31
0.0
  0
LINE
  5
48AB
  8
01
 10
64.193344284344676
 20
-117.4986816615383
 30
0.0
 11
54.266677819402048
 21
-117.4986816615383
 31
0.0
  0
LINE
  5
48AC
  8
01
 10
55.266677819402069
 20
-19.498681661538189
 30
0.0
 11
55.266677819402041
 21
-115.4986816615383
 31
0.0
  0
LINE
  5
48B0
  8
01
 10
64.193344284344676
 20
-17.4986816615382
 30
0.0
 11
54.266677819402041
 21
-17.498681661538189
 31
0.0
  0
LINE
  5
48B1
  8
01
 10
70.193344284344676
 20
-5.9986816615381988
 30
0.0
 11
54.266677819402048
 21
-5.9986816615381953
 31
0.0
  0
LINE
  5
48B2
  8
01
 10
55.266677819402041
 20
-15.4986816615382
 30
0.0
 11
55.266677819402041
 21
-7.9986816615381953
 31
0.0
  0
LINE
  5
48B3
  8
01
 10
55.266677819402041
 20
-5.9986816615381953
 30
0.0
 11
55.266677819402041
 21
7.5679850051284712
 31
0.0
  0
LINE
  5
48B7
  8
01
 10
209.9836652656704
 20
-128.49890910726319
 30
0.0
 11
209.9836652656704
 21
-139.09410573926189
 31
0.0
  0
LINE
  5
48B8
  8
01
 10
207.28366829567031
 20
-129.22237111494121
 30
0.0
 11
207.28366829567031
 21
-139.09410573926189
 31
0.0
  0
LINE
  5
48B9
  8
01
 10
211.9836652656704
 20
-138.09410573926189
 30
0.0
 11
213.9836652656704
 21
-138.09410573926189
 31
0.0
  0
LINE
  5
48BA
  8
01
 10
205.28366829567031
 20
-138.09410573926189
 30
0.0
 11
194.5503349623369
 21
-138.09410573926189
 31
0.0
  0
LINE
  5
48BB
  8
01
 10
209.9836652656704
 20
-138.09410573926189
 30
0.0
 11
207.28366829567031
 21
-138.09410573926189
 31
0.0
  0
LINE
  5
48BF
  8
01
 10
263.78366876567031
 20
-27.298913707263271
 30
0.0
 11
280.229649528952
 21
-27.298913707263281
 31
0.0
  0
LINE
  5
48C0
  8
01
 10
263.78366876567031
 20
-107.69890670726321
 30
0.0
 11
280.229649528952
 21
-107.69890670726321
 31
0.0
  0
LINE
  5
48C1
  8
01
 10
279.229649528952
 20
-29.298913707263271
 30
0.0
 11
279.229649528952
 21
-105.69890670726321
 31
0.0
  0
TEXT
  5
48C5
  8
01
 10
87.754235059921484
 20
-98.081866412449983
 30
0.0
 40
3.5
  1
隙間調整板
  0
TEXT
  5
48C6
  8
01
 10
87.754235059921484
 20
-103.9151997457833
 30
0.0
 40
3.5
  1
取付けねじ
  0
LINE
  5
48C9
  8
01
 10
169.81211600222741
 20
-122.9989091072632
 30
0.0
 11
169.81211600222741
 21
-144.4074666159963
 31
0.0
  0
LINE
  5
48CA
  8
01
 10
153.8121160022275
 20
-122.9989080600655
 30
0.0
 11
153.8121160022275
 21
-144.4074666159963
 31
0.0
  0
LINE
  5
48CB
  8
01
 10
167.81211600222741
 20
-143.4074666159963
 30
0.0
 11
155.8121160022275
 21
-143.4074666159963
 31
0.0
  0
LINE
  5
48CF
  8
01
 10
207.28366829567031
 20
-170.5336666342948
 30
0.0
 11
182.4094566610992
 21
-170.5336666342948
 31
0.0
  0
LINE
  5
48D0
  8
01
 10
207.28366829567031
 20
-154.5336666342948
 30
0.0
 11
182.4094566610992
 21
-154.5336666342948
 31
0.0
  0
LINE
  5
48D1
  8
01
 10
183.4094566610992
 20
-168.5336666342948
 30
0.0
 11
183.4094566610992
 21
-156.5336666342948
 31
0.0
  0
LINE
  5
48D5
  8
01
 10
195.3532204017566
 20
-164.0336666342948
 30
0.0
 11
189.18033651349339
 21
-164.0336666342948
 31
0.0
  0
LINE
  5
48D6
  8
01
 10
195.3532204017566
 20
-161.0336666342948
 30
0.0
 11
189.18033651349339
 21
-161.0336666342948
 31
0.0
  0
LINE
  5
48D7
  8
01
 10
190.18033651349339
 20
-166.0336666342948
 30
0.0
 11
190.18033651349339
 21
-168.0336666342948
 31
0.0
  0
LINE
  5
48D8
  8
01
 10
190.18033651349339
 20
-159.0336666342948
 30
0.0
 11
190.18033651349339
 21
-157.0336666342948
 31
0.0
  0
LINE
  5
48D9
  8
01
 10
190.18033651349339
 20
-164.0336666342948
 30
0.0
 11
190.18033651349339
 21
-161.0336666342948
 31
0.0
  0
LINE
  5
48DD
  8
01
 10
264.98366476567031
 20
-159.2336706342947
 30
0.0
 11
279.5049899856262
 21
-159.2336706342947
 31
0.0
  0
LINE
  5
48DE
  8
01
 10
263.78366476567032
 20
-165.83366463429471
 30
0.0
 11
279.5049899856262
 21
-165.83366463429471
 31
0.0
  0
LINE
  5
48DF
  8
01
 10
278.50498998562631
 20
-161.2336706342947
 30
0.0
 11
278.50498998562631
 21
-163.83366463429471
 31
0.0
  0
LINE
  5
48E3
  8
01
 10
207.28366829567031
 20
-128.9989091072631
 30
0.0
 11
207.28366829567031
 21
-145.11583427882621
 31
0.0
  0
LINE
  5
48E4
  8
01
 10
264.98366876567019
 20
-106.4989067072632
 30
0.0
 11
264.98366876567019
 21
-145.11583427882621
 31
0.0
  0
LINE
  5
48E5
  8
01
 10
209.28366829567031
 20
-144.11583427882621
 30
0.0
 11
262.98366876567019
 21
-144.11583427882621
 31
0.0
  0
LINE
  5
48E9
  8
01
 10
263.28366876567043
 20
-81.498908707263226
 30
0.0
 11
263.28366876567043
 21
-119.77494274141959
 31
0.0
  0
LINE
  5
48EA
  8
01
 10
227.28366876567051
 20
-81.498908707263226
 30
0.0
 11
227.28366876567051
 21
-119.77494274141959
 31
0.0
  0
LINE
  5
48EB
  8
01
 10
261.28366876567043
 20
-118.77494274141959
 30
0.0
 11
229.28366876567051
 21
-118.77494274141959
 31
0.0
  0
LINE
  5
48EF
  8
01
 10
266.8836687656709
 20
-81.498908707263197
 30
0.0
 11
289.73170213620148
 21
-81.498908707263226
 31
0.0
  0
LINE
  5
48F0
  8
01
 10
208.78366826567029
 20
-128.9989091072631
 30
0.0
 11
289.73170213620142
 21
-128.9989091072631
 31
0.0
  0
LINE
  5
48F1
  8
01
 10
288.73170213620148
 20
-83.498908707263212
 30
0.0
 11
288.73170213620148
 21
-126.9989091072631
 31
0.0
  0
LINE
  5
48F5
  8
01
 10
208.78366826567029
 20
-5.998909107263187
 30
0.0
 11
289.73170213620142
 21
-5.998909107263211
 31
0.0
  0
LINE
  5
48F6
  8
01
 10
266.8836687656709
 20
-81.498908707263197
 30
0.0
 11
289.73170213620142
 21
-81.498908707263226
 31
0.0
  0
LINE
  5
48F7
  8
01
 10
288.73170213620142
 20
-7.998909107263211
 30
0.0
 11
288.73170213620142
 21
-79.498908707263212
 31
0.0
  0
LINE
  5
48FB
  8
01
 10
263.78366876567031
 20
-107.69890670726321
 30
0.0
 11
280.22964952895211
 21
-107.69890670726321
 31
0.0
  0
LINE
  5
48FC
  8
01
 10
208.78366826567029
 20
-128.9989091072631
 30
0.0
 11
280.229649528952
 21
-128.9989091072631
 31
0.0
  0
LINE
  5
48FD
  8
01
 10
279.229649528952
 20
-109.69890670726321
 30
0.0
 11
279.229649528952
 21
-126.9989091072631
 31
0.0
  0
LINE
  5
4901
  8
01
 10
208.78366826567029
 20
-5.998909107263187
 30
0.0
 11
280.229649528952
 21
-5.9989091072632084
 31
0.0
  0
LINE
  5
4902
  8
01
 10
263.78366876567031
 20
-27.298913707263271
 30
0.0
 11
280.229649528952
 21
-27.298913707263281
 31
0.0
  0
LINE
  5
4903
  8
01
 10
279.229649528952
 20
-7.9989091072632084
 30
0.0
 11
279.229649528952
 21
-25.298913707263271
 31
0.0
  0
LINE
  5
4907
  8
01
 10
207.28366829567031
 20
-5.998909107263187
 30
0.0
 11
207.28366829567031
 21
2.9531853064017919
 31
0.0
  0
LINE
  5
4908
  8
01
 10
245.28366876567091
 20
-59.898908707263203
 30
0.0
 11
245.28366876567091
 21
2.9531853064017919
 31
0.0
  0
LINE
  5
4909
  8
01
 10
209.28366829567031
 20
1.9531853064017921
 30
0.0
 11
243.28366876567091
 21
1.9531853064017921
 31
0.0
  0
LINE
  5
490D
  8
01
 10
260.93055838327717
 20
-102.7589167800451
 30
0.0
 11
259.8705869982191
 21
-101.6989305968677
 31
0.0
  0
LINE
  5
490E
  8
01
 10
260.93055219254609
 20
-100.6389506045077
 30
0.0
 11
260.04367684783182
 21
-99.752062878244843
 31
0.0
  0
LINE
  5
490F
  8
01
 10
260.93055219254609
 20
-100.6389506045077
 30
0.0
 11
259.8705869982191
 21
-101.6989305968677
 31
0.0
  0
LINE
  5
4910
  8
01
 10
260.04367065701427
 20
-103.6457921247594
 30
0.0
 11
260.93055838327717
 21
-102.7589167800451
 31
0.0
  0
LINE
  5
4911
  8
01
 10
260.04367065701427
 20
-103.6457921247594
 30
0.0
 11
258.9836968555752
 21
-102.5858331212668
 31
0.0
  0
LINE
  5
4912
  8
01
 10
258.9836968555752
 20
-102.5858331212668
 30
0.0
 11
257.92372547032733
 21
-103.645819304634
 31
0.0
  0
LINE
  5
4913
  8
01
 10
258.096781949248
 20
-101.6989305968677
 30
0.0
 11
257.03680195688798
 21
-100.63896540254061
 31
0.0
  0
LINE
  5
4914
  8
01
 10
258.096781949248
 20
-101.6989305968677
 30
0.0
 11
257.0368081479985
 21
-102.7588896001706
 31
0.0
  0
LINE
  5
4915
  8
01
 10
257.0368081479985
 20
-102.7588896001706
 30
0.0
 11
257.92372547032733
 21
-103.645819304634
 31
0.0
  0
LINE
  5
4916
  8
01
 10
258.9836968555752
 20
-100.81202807246849
 30
0.0
 11
257.92373166135138
 21
-99.752048080211907
 31
0.0
  0
LINE
  5
4917
  8
01
 10
257.92373166135138
 20
-99.752048080211907
 30
0.0
 11
257.03680195688798
 21
-100.63896540254061
 31
0.0
  0
LINE
  5
4918
  8
01
 10
260.04367684783182
 20
-99.752062878244843
 30
0.0
 11
258.9836968555752
 21
-100.81202807246849
 31
0.0
  0
LINE
  5
4919
  8
01
 10
218.7305578832773
 20
-35.558921780045161
 30
0.0
 11
217.67058649821911
 21
-34.49893559686771
 31
0.0
  0
LINE
  5
491A
  8
01
 10
218.73055169254619
 20
-33.43895560450774
 30
0.0
 11
217.8436763478318
 21
-32.55206787824482
 31
0.0
  0
LINE
  5
491B
  8
01
 10
218.73055169254619
 20
-33.43895560450774
 30
0.0
 11
217.67058649821911
 21
-34.49893559686771
 31
0.0
  0
LINE
  5
491C
  8
01
 10
217.84367015701429
 20
-36.445797124759473
 30
0.0
 11
218.7305578832773
 21
-35.558921780045161
 31
0.0
  0
LINE
  5
491D
  8
01
 10
217.84367015701429
 20
-36.445797124759473
 30
0.0
 11
216.78369635557519
 21
-35.38583812126685
 31
0.0
  0
LINE
  5
491E
  8
01
 10
216.78369635557519
 20
-35.38583812126685
 30
0.0
 11
215.72372497032731
 21
-36.445824304634051
 31
0.0
  0
LINE
  5
491F
  8
01
 10
215.8967814492481
 20
-34.498935596867703
 30
0.0
 11
214.836801456888
 21
-33.438970402540662
 31
0.0
  0
LINE
  5
4920
  8
01
 10
215.8967814492481
 20
-34.498935596867703
 30
0.0
 11
214.8368076479986
 21
-35.558894600170653
 31
0.0
  0
LINE
  5
4921
  8
01
 10
214.8368076479986
 20
-35.558894600170653
 30
0.0
 11
215.72372497032731
 21
-36.445824304634051
 31
0.0
  0
LINE
  5
4922
  8
01
 10
216.78369635557519
 20
-33.612033072468527
 30
0.0
 11
215.7237311613514
 21
-32.552053080211913
 31
0.0
  0
LINE
  5
4923
  8
01
 10
215.7237311613514
 20
-32.552053080211913
 30
0.0
 11
214.836801456888
 21
-33.438970402540662
 31
0.0
  0
LINE
  5
4924
  8
01
 10
217.8436763478318
 20
-32.55206787824482
 30
0.0
 11
216.78369635557519
 21
-33.612033072468527
 31
0.0
  0
TEXT
  5
4925
  8
01
 10
217.78366853067061
 20
2.653185306401793
 30
0.0
 40
3.5
  1
B.S.38
  0
LINE
  5
4926
  8
01
  6
BYBLOCK
 10
243.28366876567091
 20
2.4890836864017918
 30
0.0
 11
245.28366876567091
 21
1.9531853064017921
 31
0.0
  0
LINE
  5
4927
  8
01
  6
BYBLOCK
 10
245.28366876567091
 20
1.9531853064017921
 30
0.0
 11
243.28366876567091
 21
1.417286926401792
 31
0.0
  0
LINE
  5
4928
  8
01
  6
BYBLOCK
 10
245.28366876567091
 20
1.9531853064017921
 30
0.0
 11
243.28366876567091
 21
1.9531853064017921
 31
0.0
  0
LINE
  5
4929
  8
01
  6
BYBLOCK
 10
209.28366829567031
 20
1.4172869264017911
 30
0.0
 11
207.28366829567031
 21
1.9531853064017921
 31
0.0
  0
LINE
  5
492A
  8
01
  6
BYBLOCK
 10
207.28366829567031
 20
1.9531853064017921
 30
0.0
 11
209.28366829567031
 21
2.4890836864017918
 31
0.0
  0
LINE
  5
492B
  8
01
  6
BYBLOCK
 10
207.28366829567031
 20
1.9531853064017921
 30
0.0
 11
209.28366829567031
 21
1.9531853064017921
 31
0.0
  0
TEXT
  5
492C
  8
01
 10
278.52964952895201
 20
-19.482244740596531
 30
0.0
 40
3.5
  1
21
 50
90.0
  0
LINE
  5
492D
  8
01
  6
BYBLOCK
 10
279.76554790895199
 20
-25.298913707263271
 30
0.0
 11
279.229649528952
 21
-27.298913707263271
 31
0.0
  0
LINE
  5
492E
  8
01
  6
BYBLOCK
 10
279.229649528952
 20
-27.298913707263271
 30
0.0
 11
278.693751148952
 21
-25.298913707263271
 31
0.0
  0
LINE
  5
492F
  8
01
  6
BYBLOCK
 10
279.229649528952
 20
-27.298913707263271
 30
0.0
 11
279.229649528952
 21
-25.298913707263271
 31
0.0
  0
LINE
  5
4930
  8
01
  6
BYBLOCK
 10
278.693751148952
 20
-7.9989091072632084
 30
0.0
 11
279.229649528952
 21
-5.9989091072632084
 31
0.0
  0
LINE
  5
4931
  8
01
  6
BYBLOCK
 10
279.229649528952
 20
-5.9989091072632084
 30
0.0
 11
279.76554790895199
 21
-7.9989091072632084
 31
0.0
  0
LINE
  5
4932
  8
01
  6
BYBLOCK
 10
279.229649528952
 20
-5.9989091072632084
 30
0.0
 11
279.229649528952
 21
-7.9989091072632084
 31
0.0
  0
TEXT
  5
4933
  8
01
 10
278.52964952895212
 20
-121.1822412405964
 30
0.0
 40
3.5
  1
21
 50
90.0
  0
LINE
  5
4934
  8
01
  6
BYBLOCK
 10
279.76554790895199
 20
-126.9989091072631
 30
0.0
 11
279.229649528952
 21
-128.9989091072631
 31
0.0
  0
LINE
  5
4935
  8
01
  6
BYBLOCK
 10
279.229649528952
 20
-128.9989091072631
 30
0.0
 11
278.693751148952
 21
-126.9989091072631
 31
0.0
  0
LINE
  5
4936
  8
01
  6
BYBLOCK
 10
279.229649528952
 20
-128.9989091072631
 30
0.0
 11
279.229649528952
 21
-126.9989091072631
 31
0.0
  0
LINE
  5
4937
  8
01
  6
BYBLOCK
 10
278.693751148952
 20
-109.69890670726321
 30
0.0
 11
279.229649528952
 21
-107.69890670726321
 31
0.0
  0
LINE
  5
4938
  8
01
  6
BYBLOCK
 10
279.229649528952
 20
-107.69890670726321
 30
0.0
 11
279.76554790895199
 21
-109.69890670726321
 31
0.0
  0
LINE
  5
4939
  8
01
  6
BYBLOCK
 10
279.229649528952
 20
-107.69890670726321
 30
0.0
 11
279.229649528952
 21
-109.69890670726321
 31
0.0
  0
TEXT
  5
493A
  8
01
 10
288.03170213620137
 20
-49.582242240596493
 30
0.0
 40
3.5
  1
75.5
 50
90.0
  0
LINE
  5
493B
  8
01
  6
BYBLOCK
 10
289.26760051620141
 20
-79.498908707263212
 30
0.0
 11
288.73170213620142
 21
-81.498908707263226
 31
0.0
  0
LINE
  5
493C
  8
01
  6
BYBLOCK
 10
288.73170213620142
 20
-81.498908707263226
 30
0.0
 11
288.19580375620143
 21
-79.498908707263212
 31
0.0
  0
LINE
  5
493D
  8
01
  6
BYBLOCK
 10
288.73170213620142
 20
-81.498908707263226
 30
0.0
 11
288.73170213620142
 21
-79.498908707263212
 31
0.0
  0
LINE
  5
493E
  8
01
  6
BYBLOCK
 10
288.19580375620143
 20
-7.998909107263211
 30
0.0
 11
288.73170213620142
 21
-5.998909107263211
 31
0.0
  0
LINE
  5
493F
  8
01
  6
BYBLOCK
 10
288.73170213620142
 20
-5.998909107263211
 30
0.0
 11
289.26760051620141
 21
-7.998909107263211
 31
0.0
  0
LINE
  5
4940
  8
01
  6
BYBLOCK
 10
288.73170213620142
 20
-5.998909107263211
 30
0.0
 11
288.73170213620142
 21
-7.998909107263211
 31
0.0
  0
TEXT
  5
4941
  8
01
 10
288.03170213620149
 20
-111.0822422405964
 30
0.0
 40
3.5
  1
47.5
 50
90.0
  0
LINE
  5
4942
  8
01
  6
BYBLOCK
 10
289.26760051620141
 20
-126.9989091072631
 30
0.0
 11
288.73170213620142
 21
-128.9989091072631
 31
0.0
  0
LINE
  5
4943
  8
01
  6
BYBLOCK
 10
288.73170213620142
 20
-128.9989091072631
 30
0.0
 11
288.19580375620143
 21
-126.9989091072631
 31
0.0
  0
LINE
  5
4944
  8
01
  6
BYBLOCK
 10
288.73170213620142
 20
-128.9989091072631
 30
0.0
 11
288.73170213620142
 21
-126.9989091072631
 31
0.0
  0
LINE
  5
4945
  8
01
  6
BYBLOCK
 10
288.19580375620149
 20
-83.498908707263212
 30
0.0
 11
288.73170213620148
 21
-81.498908707263226
 31
0.0
  0
LINE
  5
4946
  8
01
  6
BYBLOCK
 10
288.73170213620148
 20
-81.498908707263226
 30
0.0
 11
289.26760051620141
 21
-83.498908707263212
 31
0.0
  0
LINE
  5
4947
  8
01
  6
BYBLOCK
 10
288.73170213620148
 20
-81.498908707263226
 30
0.0
 11
288.73170213620148
 21
-83.498908707263212
 31
0.0
  0
TEXT
  5
4948
  8
01
 10
239.7503354323371
 20
-118.0749427414196
 30
0.0
 40
3.5
  1
φ36
  0
LINE
  5
4949
  8
01
  6
BYBLOCK
 10
229.28366876567051
 20
-119.3108411214196
 30
0.0
 11
227.28366876567051
 21
-118.77494274141959
 31
0.0
  0
LINE
  5
494A
  8
01
  6
BYBLOCK
 10
227.28366876567051
 20
-118.77494274141959
 30
0.0
 11
229.28366876567051
 21
-118.2390443614196
 31
0.0
  0
LINE
  5
494B
  8
01
  6
BYBLOCK
 10
227.28366876567051
 20
-118.77494274141959
 30
0.0
 11
229.28366876567051
 21
-118.77494274141959
 31
0.0
  0
LINE
  5
494C
  8
01
  6
BYBLOCK
 10
261.28366876567043
 20
-118.2390443614196
 30
0.0
 11
263.28366876567043
 21
-118.77494274141959
 31
0.0
  0
LINE
  5
494D
  8
01
  6
BYBLOCK
 10
263.28366876567043
 20
-118.77494274141959
 30
0.0
 11
261.28366876567043
 21
-119.3108411214196
 31
0.0
  0
LINE
  5
494E
  8
01
  6
BYBLOCK
 10
263.28366876567043
 20
-118.77494274141959
 30
0.0
 11
261.28366876567043
 21
-118.77494274141959
 31
0.0
  0
TEXT
  5
494F
  8
01
 10
216.33366853067031
 20
-143.4158342788262
 30
0.0
 40
3.5
  1
58 （ケース奥行）
  0
LINE
  5
4950
  8
01
  6
BYBLOCK
 10
262.98366876567019
 20
-143.57993589882619
 30
0.0
 11
264.98366876567019
 21
-144.11583427882621
 31
0.0
  0
LINE
  5
4951
  8
01
  6
BYBLOCK
 10
264.98366876567019
 20
-144.11583427882621
 30
0.0
 11
262.98366876567019
 21
-144.65173265882621
 31
0.0
  0
LINE
  5
4952
  8
01
  6
BYBLOCK
 10
264.98366876567019
 20
-144.11583427882621
 30
0.0
 11
262.98366876567019
 21
-144.11583427882621
 31
0.0
  0
LINE
  5
4953
  8
01
  6
BYBLOCK
 10
209.28366829567031
 20
-144.65173265882621
 30
0.0
 11
207.28366829567031
 21
-144.11583427882621
 31
0.0
  0
LINE
  5
4954
  8
01
  6
BYBLOCK
 10
207.28366829567031
 20
-144.11583427882621
 30
0.0
 11
209.28366829567031
 21
-143.57993589882619
 31
0.0
  0
LINE
  5
4955
  8
01
  6
BYBLOCK
 10
207.28366829567031
 20
-144.11583427882621
 30
0.0
 11
209.28366829567031
 21
-144.11583427882621
 31
0.0
  0
TEXT
  5
4956
  8
01
 10
277.80498998562632
 20
-164.20033430096129
 30
0.0
 40
3.5
  1
7
 50
90.0
  0
LINE
  5
4957
  8
01
  6
BYBLOCK
 10
279.0408883656263
 20
-163.83366463429471
 30
0.0
 11
278.50498998562631
 21
-165.83366463429471
 31
0.0
  0
LINE
  5
4958
  8
01
  6
BYBLOCK
 10
278.50498998562631
 20
-165.83366463429471
 30
0.0
 11
277.96909160562632
 21
-163.83366463429471
 31
0.0
  0
LINE
  5
4959
  8
01
  6
BYBLOCK
 10
278.50498998562631
 20
-165.83366463429471
 30
0.0
 11
278.50498998562631
 21
-163.83366463429471
 31
0.0
  0
LINE
  5
495A
  8
01
  6
BYBLOCK
 10
277.96909160562632
 20
-161.2336706342947
 30
0.0
 11
278.50498998562631
 21
-159.2336706342947
 31
0.0
  0
LINE
  5
495B
  8
01
  6
BYBLOCK
 10
278.50498998562631
 20
-159.2336706342947
 30
0.0
 11
279.0408883656263
 21
-161.2336706342947
 31
0.0
  0
LINE
  5
495C
  8
01
  6
BYBLOCK
 10
278.50498998562631
 20
-159.2336706342947
 30
0.0
 11
278.50498998562631
 21
-161.2336706342947
 31
0.0
  0
TEXT
  5
495D
  8
01
 10
189.48033651349351
 20
-164.2003333009614
 30
0.0
 40
3.5
  1
3
 50
90.0
  0
LINE
  5
495E
  8
01
  6
BYBLOCK
 10
190.71623489349341
 20
-159.0336666342948
 30
0.0
 11
190.18033651349339
 21
-161.0336666342948
 31
0.0
  0
LINE
  5
495F
  8
01
  6
BYBLOCK
 10
190.18033651349339
 20
-161.0336666342948
 30
0.0
 11
189.6444381334934
 21
-159.0336666342948
 31
0.0
  0
LINE
  5
4960
  8
01
  6
BYBLOCK
 10
190.18033651349339
 20
-161.0336666342948
 30
0.0
 11
190.18033651349339
 21
-159.0336666342948
 31
0.0
  0
LINE
  5
4961
  8
01
  6
BYBLOCK
 10
189.6444381334934
 20
-166.0336666342948
 30
0.0
 11
190.18033651349339
 21
-164.0336666342948
 31
0.0
  0
LINE
  5
4962
  8
01
  6
BYBLOCK
 10
190.18033651349339
 20
-164.0336666342948
 30
0.0
 11
190.71623489349341
 21
-166.0336666342948
 31
0.0
  0
LINE
  5
4963
  8
01
  6
BYBLOCK
 10
190.18033651349339
 20
-164.0336666342948
 30
0.0
 11
190.18033651349339
 21
-166.0336666342948
 31
0.0
  0
TEXT
  5
4964
  8
01
 10
182.7094566610993
 20
-166.11699996762809
 30
0.0
 40
3.5
  1
16
 50
90.0
  0
LINE
  5
4965
  8
01
  6
BYBLOCK
 10
182.87355828109921
 20
-156.5336666342948
 30
0.0
 11
183.4094566610992
 21
-154.5336666342948
 31
0.0
  0
LINE
  5
4966
  8
01
  6
BYBLOCK
 10
183.4094566610992
 20
-154.5336666342948
 30
0.0
 11
183.94535504109919
 21
-156.5336666342948
 31
0.0
  0
LINE
  5
4967
  8
01
  6
BYBLOCK
 10
183.4094566610992
 20
-154.5336666342948
 30
0.0
 11
183.4094566610992
 21
-156.5336666342948
 31
0.0
  0
LINE
  5
4968
  8
01
  6
BYBLOCK
 10
183.94535504109919
 20
-168.5336666342948
 30
0.0
 11
183.4094566610992
 21
-170.5336666342948
 31
0.0
  0
LINE
  5
4969
  8
01
  6
BYBLOCK
 10
183.4094566610992
 20
-170.5336666342948
 30
0.0
 11
182.87355828109921
 21
-168.5336666342948
 31
0.0
  0
LINE
  5
496A
  8
01
  6
BYBLOCK
 10
183.4094566610992
 20
-170.5336666342948
 30
0.0
 11
183.4094566610992
 21
-168.5336666342948
 31
0.0
  0
TEXT
  5
496B
  8
01
 10
158.2287826688941
 20
-142.70746661599631
 30
0.0
 40
3.5
  1
16
  0
LINE
  5
496C
  8
01
  6
BYBLOCK
 10
155.8121160022275
 20
-143.94336499599629
 30
0.0
 11
153.8121160022275
 21
-143.4074666159963
 31
0.0
  0
LINE
  5
496D
  8
01
  6
BYBLOCK
 10
153.8121160022275
 20
-143.4074666159963
 30
0.0
 11
155.8121160022275
 21
-142.87156823599631
 31
0.0
  0
LINE
  5
496E
  8
01
  6
BYBLOCK
 10
153.8121160022275
 20
-143.4074666159963
 30
0.0
 11
155.8121160022275
 21
-143.4074666159963
 31
0.0
  0
LINE
  5
496F
  8
01
  6
BYBLOCK
 10
167.81211600222741
 20
-142.87156823599631
 30
0.0
 11
169.81211600222741
 21
-143.4074666159963
 31
0.0
  0
LINE
  5
4970
  8
01
  6
BYBLOCK
 10
169.81211600222741
 20
-143.4074666159963
 30
0.0
 11
167.81211600222741
 21
-143.94336499599629
 31
0.0
  0
LINE
  5
4971
  8
01
  6
BYBLOCK
 10
169.81211600222741
 20
-143.4074666159963
 30
0.0
 11
167.81211600222741
 21
-143.4074666159963
 31
0.0
  0
LINE
  5
4972
  8
01
 10
76.043975094514863
 20
-95.425848880255415
 30
0.0
 11
85.054235059921481
 21
-104.6151997457833
 31
0.0
  0
LINE
  5
4973
  8
01
 10
85.054235059921481
 20
-104.6151997457833
 30
0.0
 11
107.8209017265881
 21
-104.6151997457833
 31
0.0
  0
LINE
  5
4974
  8
01
  6
BYBLOCK
 10
75.661327358060376
 20
-95.801039209918756
 30
0.0
 11
74.643745708998438
 21
-93.997788073449144
 31
0.0
  0
LINE
  5
4975
  8
01
  6
BYBLOCK
 10
74.643745708998438
 20
-93.997788073449144
 30
0.0
 11
76.426622830969364
 21
-95.050658550592104
 31
0.0
  0
LINE
  5
4976
  8
01
  6
BYBLOCK
 10
74.643745708998438
 20
-93.997788073449144
 30
0.0
 11
76.043975094514863
 21
-95.425848880255415
 31
0.0
  0
TEXT
  5
4977
  8
01
 10
278.52964952895201
 20
-85.548910207263177
 30
0.0
 40
3.5
  1
81（ケース高さ）
 50
90.0
  0
LINE
  5
4978
  8
01
  6
BYBLOCK
 10
279.76554790895199
 20
-105.69890670726321
 30
0.0
 11
279.229649528952
 21
-107.69890670726321
 31
0.0
  0
LINE
  5
4979
  8
01
  6
BYBLOCK
 10
279.229649528952
 20
-107.69890670726321
 30
0.0
 11
278.693751148952
 21
-105.69890670726321
 31
0.0
  0
LINE
  5
497A
  8
01
  6
BYBLOCK
 10
279.229649528952
 20
-107.69890670726321
 30
0.0
 11
279.229649528952
 21
-105.69890670726321
 31
0.0
  0
LINE
  5
497B
  8
01
  6
BYBLOCK
 10
278.693751148952
 20
-29.298913707263271
 30
0.0
 11
279.229649528952
 21
-27.298913707263271
 31
0.0
  0
LINE
  5
497C
  8
01
  6
BYBLOCK
 10
279.229649528952
 20
-27.298913707263271
 30
0.0
 11
279.76554790895199
 21
-29.298913707263271
 31
0.0
  0
LINE
  5
497D
  8
01
  6
BYBLOCK
 10
279.229649528952
 20
-27.298913707263271
 30
0.0
 11
279.229649528952
 21
-29.298913707263271
 31
0.0
  0
TEXT
  5
497E
  8
01
 10
194.75033496233689
 20
-137.39410573926199
 30
0.0
 40
3.5
  1
2.7
  0
LINE
  5
497F
  8
01
  6
BYBLOCK
 10
205.28366829567031
 20
-137.55820735926201
 30
0.0
 11
207.28366829567031
 21
-138.09410573926189
 31
0.0
  0
LINE
  5
4980
  8
01
  6
BYBLOCK
 10
207.28366829567031
 20
-138.09410573926189
 30
0.0
 11
205.28366829567031
 21
-138.63000411926191
 31
0.0
  0
LINE
  5
4981
  8
01
  6
BYBLOCK
 10
207.28366829567031
 20
-138.09410573926189
 30
0.0
 11
205.28366829567031
 21
-138.09410573926189
 31
0.0
  0
LINE
  5
4982
  8
01
  6
BYBLOCK
 10
211.9836652656704
 20
-138.63000411926191
 30
0.0
 11
209.9836652656704
 21
-138.09410573926189
 31
0.0
  0
LINE
  5
4983
  8
01
  6
BYBLOCK
 10
209.9836652656704
 20
-138.09410573926189
 30
0.0
 11
211.9836652656704
 21
-137.55820735926201
 31
0.0
  0
LINE
  5
4984
  8
01
  6
BYBLOCK
 10
209.9836652656704
 20
-138.09410573926189
 30
0.0
 11
211.9836652656704
 21
-138.09410573926189
 31
0.0
  0
TEXT
  5
4985
  8
01
 10
54.566677819402038
 20
-4.2986816615381862
 30
0.0
 40
3.5
  1
11.5
 50
90.0
  0
LINE
  5
4986
  8
01
  6
BYBLOCK
 10
54.730779439402049
 20
-7.9986816615381953
 30
0.0
 11
55.266677819402041
 21
-5.9986816615381953
 31
0.0
  0
LINE
  5
4987
  8
01
  6
BYBLOCK
 10
55.266677819402041
 20
-5.9986816615381953
 30
0.0
 11
55.802576199402047
 21
-7.9986816615381953
 31
0.0
  0
LINE
  5
4988
  8
01
  6
BYBLOCK
 10
55.266677819402041
 20
-5.9986816615381953
 30
0.0
 11
55.266677819402041
 21
-7.9986816615381953
 31
0.0
  0
LINE
  5
4989
  8
01
  6
BYBLOCK
 10
55.80257619940204
 20
-15.498681661538191
 30
0.0
 11
55.266677819402041
 21
-17.498681661538189
 31
0.0
  0
LINE
  5
498A
  8
01
  6
BYBLOCK
 10
55.266677819402041
 20
-17.498681661538189
 30
0.0
 11
54.730779439402042
 21
-15.498681661538191
 31
0.0
  0
LINE
  5
498B
  8
01
  6
BYBLOCK
 10
55.266677819402041
 20
-17.498681661538189
 30
0.0
 11
55.266677819402041
 21
-15.498681661538191
 31
0.0
  0
TEXT
  5
498C
  8
01
 10
54.566677819402067
 20
-89.048681661538225
 30
0.0
 40
3.5
  1
取付けねじピッチ100
 50
90.0
  0
LINE
  5
498D
  8
01
  6
BYBLOCK
 10
55.802576199402047
 20
-115.4986816615383
 30
0.0
 11
55.266677819402041
 21
-117.4986816615383
 31
0.0
  0
LINE
  5
498E
  8
01
  6
BYBLOCK
 10
55.266677819402041
 20
-117.4986816615383
 30
0.0
 11
54.730779439402049
 21
-115.4986816615383
 31
0.0
  0
LINE
  5
498F
  8
01
  6
BYBLOCK
 10
55.266677819402041
 20
-117.4986816615383
 30
0.0
 11
55.266677819402041
 21
-115.4986816615383
 31
0.0
  0
LINE
  5
4990
  8
01
  6
BYBLOCK
 10
54.73077943940207
 20
-19.498681661538189
 30
0.0
 11
55.266677819402069
 21
-17.498681661538189
 31
0.0
  0
LINE
  5
4991
  8
01
  6
BYBLOCK
 10
55.266677819402069
 20
-17.498681661538189
 30
0.0
 11
55.802576199402068
 21
-19.498681661538189
 31
0.0
  0
LINE
  5
4992
  8
01
  6
BYBLOCK
 10
55.266677819402069
 20
-17.498681661538189
 30
0.0
 11
55.266677819402069
 21
-19.498681661538189
 31
0.0
  0
TEXT
  5
4993
  8
01
 10
96.649987853391949
 20
-37.265348328204922
 30
0.0
 40
3.5
  1
上下調整範囲
 50
90.0
  0
TEXT
  5
4994
  8
01
 10
102.48332118672521
 20
-39.082014994871592
 30
0.0
 40
3.5
  1
34.5~42.5
 50
90.0
  0
LINE
  5
4995
  8
01
  6
BYBLOCK
 10
103.7192195667253
 20
-42.49868166153832
 30
0.0
 11
103.18332118672529
 21
-44.49868166153832
 31
0.0
  0
LINE
  5
4996
  8
01
  6
BYBLOCK
 10
103.18332118672529
 20
-44.49868166153832
 30
0.0
 11
102.6474228067252
 21
-42.49868166153832
 31
0.0
  0
LINE
  5
4997
  8
01
  6
BYBLOCK
 10
103.18332118672529
 20
-44.49868166153832
 30
0.0
 11
103.18332118672529
 21
-42.49868166153832
 31
0.0
  0
LINE
  5
4998
  8
01
  6
BYBLOCK
 10
102.6474228067253
 20
-7.9986816615382068
 30
0.0
 11
103.18332118672529
 21
-5.9986816615382068
 31
0.0
  0
LINE
  5
4999
  8
01
  6
BYBLOCK
 10
103.18332118672529
 20
-5.9986816615382068
 30
0.0
 11
103.7192195667253
 21
-7.9986816615382068
 31
0.0
  0
LINE
  5
499A
  8
01
  6
BYBLOCK
 10
103.18332118672529
 20
-5.9986816615382068
 30
0.0
 11
103.18332118672529
 21
-7.9986816615382068
 31
0.0
  0
TEXT
  5
499B
  8
01
 10
102.48332118672531
 20
-66.082014994871642
 30
0.0
 40
3.5
  1
31.5
 50
90.0
  0
LINE
  5
499C
  8
01
  6
BYBLOCK
 10
103.7192195667253
 20
-73.998681661538328
 30
0.0
 11
103.18332118672529
 21
-75.998681661538313
 31
0.0
  0
LINE
  5
499D
  8
01
  6
BYBLOCK
 10
103.18332118672529
 20
-75.998681661538313
 30
0.0
 11
102.6474228067252
 21
-73.998681661538328
 31
0.0
  0
LINE
  5
499E
  8
01
  6
BYBLOCK
 10
103.18332118672529
 20
-75.998681661538313
 30
0.0
 11
103.18332118672529
 21
-73.998681661538328
 31
0.0
  0
LINE
  5
499F
  8
01
  6
BYBLOCK
 10
102.6474228067252
 20
-46.49868166153832
 30
0.0
 11
103.18332118672529
 21
-44.49868166153832
 31
0.0
  0
LINE
  5
49A0
  8
01
  6
BYBLOCK
 10
103.18332118672529
 20
-44.49868166153832
 30
0.0
 11
103.7192195667253
 21
-46.49868166153832
 31
0.0
  0
LINE
  5
49A1
  8
01
  6
BYBLOCK
 10
103.18332118672529
 20
-44.49868166153832
 30
0.0
 11
103.18332118672529
 21
-46.49868166153832
 31
0.0
  0
TEXT
  5
49A2
  8
01
 10
-4.2776629288719619
 20
-166.1169999676282
 30
0.0
 40
3.5
  1
13
 50
90.0
  0
LINE
  5
49A3
  8
01
  6
BYBLOCK
 10
-4.1135613088719873
 20
-158.0336666342948
 30
0.0
 11
-3.577662928871987
 21
-156.0336666342948
 31
0.0
  0
LINE
  5
49A4
  8
01
  6
BYBLOCK
 10
-3.577662928871987
 20
-156.0336666342948
 30
0.0
 11
-3.0417645488719871
 21
-158.0336666342948
 31
0.0
  0
LINE
  5
49A5
  8
01
  6
BYBLOCK
 10
-3.577662928871987
 20
-156.0336666342948
 30
0.0
 11
-3.577662928871987
 21
-158.0336666342948
 31
0.0
  0
LINE
  5
49A6
  8
01
  6
BYBLOCK
 10
-3.0417645488719902
 20
-167.0336666342948
 30
0.0
 11
-3.5776629288719901
 21
-169.0336666342948
 31
0.0
  0
LINE
  5
49A7
  8
01
  6
BYBLOCK
 10
-3.5776629288719901
 20
-169.0336666342948
 30
0.0
 11
-4.11356130887199
 21
-167.0336666342948
 31
0.0
  0
LINE
  5
49A8
  8
01
  6
BYBLOCK
 10
-3.5776629288719901
 20
-169.0336666342948
 30
0.0
 11
-3.5776629288719901
 21
-167.0336666342948
 31
0.0
  0
TEXT
  5
49A9
  8
01
 10
23.24324847668327
 20
-51.063271367091581
 30
0.0
 40
3.5
  1
前後調整範囲
  0
TEXT
  5
49AA
  8
01
 10
23.076581810016609
 20
-56.896604700424909
 30
0.0
 40
3.5
  1
3.6 ～6.5
  0
LINE
  5
49AB
  8
01
  6
BYBLOCK
 10
20.543248476683271
 20
-58.132503080424911
 30
0.0
 11
18.543248476683271
 21
-57.596604700424898
 31
0.0
  0
LINE
  5
49AC
  8
01
  6
BYBLOCK
 10
18.543248476683271
 20
-57.596604700424898
 30
0.0
 11
20.543248476683271
 21
-57.060706320424899
 31
0.0
  0
LINE
  5
49AD
  8
01
  6
BYBLOCK
 10
18.543248476683271
 20
-57.596604700424898
 30
0.0
 11
20.543248476683271
 21
-57.596604700424898
 31
0.0
  0
LINE
  5
49AE
  8
01
  6
BYBLOCK
 10
12.943248476683371
 20
-57.060706320424899
 30
0.0
 11
14.943248476683371
 21
-57.596604700424898
 31
0.0
  0
LINE
  5
49AF
  8
01
  6
BYBLOCK
 10
14.943248476683371
 20
-57.596604700424898
 30
0.0
 11
12.943248476683371
 21
-58.132503080424911
 31
0.0
  0
LINE
  5
49B0
  8
01
  6
BYBLOCK
 10
14.943248476683371
 20
-57.596604700424898
 30
0.0
 11
12.943248476683371
 21
-57.596604700424898
 31
0.0
  0
TEXT
  5
49B1
  8
01
 10
83.728790843481562
 20
-1.949887195938925
 30
0.0
 40
3.5
  1
R6
 50
43.605068500901332
  0
LINE
  5
49B2
  8
01
  6
BYBLOCK
 10
76.720187372759042
 20
-8.8518974172309157
 30
0.0
 11
78.538009405105086
 21
-7.8605800450418144
 31
0.0
  0
LINE
  5
49B3
  8
01
  6
BYBLOCK
 10
78.538009405105086
 20
-7.8605800450418144
 30
0.0
 11
77.459388023610956
 21
-9.6279970838502287
 31
0.0
  0
LINE
  5
49B4
  8
01
  6
BYBLOCK
 10
78.538009405105086
 20
-7.8605800450418144
 30
0.0
 11
77.089787698184992
 21
-9.2399472505405722
 31
0.0
  0
TEXT
  5
49B5
  8
01
 10
70.610010951011347
 20
-53.339885674626039
 30
0.0
 40
3.5
  1
9
  0
LINE
  5
49B6
  8
01
  6
BYBLOCK
 10
74.693344284344676
 20
-53.50398729462605
 30
0.0
 11
76.693344284344676
 21
-54.039885674626042
 31
0.0
  0
LINE
  5
49B7
  8
01
  6
BYBLOCK
 10
76.693344284344676
 20
-54.039885674626042
 30
0.0
 11
74.693344284344676
 21
-54.575784054626048
 31
0.0
  0
LINE
  5
49B8
  8
01
  6
BYBLOCK
 10
76.693344284344676
 20
-54.039885674626042
 30
0.0
 11
74.693344284344676
 21
-54.039885674626042
 31
0.0
  0
LINE
  5
49B9
  8
01
  6
BYBLOCK
 10
69.693344284344676
 20
-54.575784054626048
 30
0.0
 11
67.693344284344676
 21
-54.039885674626042
 31
0.0
  0
LINE
  5
49BA
  8
01
  6
BYBLOCK
 10
67.693344284344676
 20
-54.039885674626042
 30
0.0
 11
69.693344284344676
 21
-53.50398729462605
 31
0.0
  0
LINE
  5
49BB
  8
01
  6
BYBLOCK
 10
67.693344284344676
 20
-54.039885674626042
 30
0.0
 11
69.693344284344676
 21
-54.039885674626042
 31
0.0
  0
TEXT
  5
49BC
  8
01
 10
32.754601825396492
 20
-166.1169999676282
 30
0.0
 40
3.5
  1
16
 50
90.0
  0
LINE
  5
49BD
  8
01
  6
BYBLOCK
 10
32.918703445396467
 20
-156.5336666342948
 30
0.0
 11
33.454601825396473
 21
-154.5336666342948
 31
0.0
  0
LINE
  5
49BE
  8
01
  6
BYBLOCK
 10
33.454601825396473
 20
-154.5336666342948
 30
0.0
 11
33.990500205396472
 21
-156.5336666342948
 31
0.0
  0
LINE
  5
49BF
  8
01
  6
BYBLOCK
 10
33.454601825396473
 20
-154.5336666342948
 30
0.0
 11
33.454601825396473
 21
-156.5336666342948
 31
0.0
  0
LINE
  5
49C0
  8
01
  6
BYBLOCK
 10
33.990500205396472
 20
-168.5336666342948
 30
0.0
 11
33.454601825396473
 21
-170.5336666342948
 31
0.0
  0
LINE
  5
49C1
  8
01
  6
BYBLOCK
 10
33.454601825396473
 20
-170.5336666342948
 30
0.0
 11
32.918703445396467
 21
-168.5336666342948
 31
0.0
  0
LINE
  5
49C2
  8
01
  6
BYBLOCK
 10
33.454601825396473
 20
-170.5336666342948
 30
0.0
 11
33.454601825396473
 21
-168.5336666342948
 31
0.0
  0
TEXT
  5
49C3
  8
01
 10
5.2099151433499618
 20
-142.70746661599631
 30
0.0
 40
3.5
  1
14.5
  0
LINE
  5
49C4
  8
01
  6
BYBLOCK
 10
6.0432484766832033
 20
-143.94336499599629
 30
0.0
 11
4.0432484766832033
 21
-143.4074666159963
 31
0.0
  0
LINE
  5
49C5
  8
01
  6
BYBLOCK
 10
4.0432484766832033
 20
-143.4074666159963
 30
0.0
 11
6.0432484766832033
 21
-142.87156823599631
 31
0.0
  0
LINE
  5
49C6
  8
01
  6
BYBLOCK
 10
4.0432484766832033
 20
-143.4074666159963
 30
0.0
 11
6.0432484766832033
 21
-143.4074666159963
 31
0.0
  0
LINE
  5
49C7
  8
01
  6
BYBLOCK
 10
16.543248476683392
 20
-142.87156823599631
 30
0.0
 11
18.543248476683392
 21
-143.4074666159963
 31
0.0
  0
LINE
  5
49C8
  8
01
  6
BYBLOCK
 10
18.543248476683392
 20
-143.4074666159963
 30
0.0
 11
16.543248476683392
 21
-143.94336499599629
 31
0.0
  0
LINE
  5
49C9
  8
01
  6
BYBLOCK
 10
18.543248476683392
 20
-143.4074666159963
 30
0.0
 11
16.543248476683392
 21
-143.4074666159963
 31
0.0
  0
TEXT
  5
49CA
  8
01
 10
3.5099151433501681
 20
-134.86834246331861
 30
0.0
 40
3.5
  1
2.5
  0
LINE
  5
49CB
  8
01
  6
BYBLOCK
 10
14.0432484766835
 20
-135.03244408331861
 30
0.0
 11
16.043248476683502
 21
-135.56834246331849
 31
0.0
  0
LINE
  5
49CC
  8
01
  6
BYBLOCK
 10
16.043248476683502
 20
-135.56834246331849
 30
0.0
 11
14.0432484766835
 21
-136.10424084331851
 31
0.0
  0
LINE
  5
49CD
  8
01
  6
BYBLOCK
 10
16.043248476683502
 20
-135.56834246331849
 30
0.0
 11
14.0432484766835
 21
-135.56834246331849
 31
0.0
  0
LINE
  5
49CE
  8
01
  6
BYBLOCK
 10
20.543248476683392
 20
-136.10424084331851
 30
0.0
 11
18.543248476683392
 21
-135.56834246331849
 31
0.0
  0
LINE
  5
49CF
  8
01
  6
BYBLOCK
 10
18.543248476683392
 20
-135.56834246331849
 30
0.0
 11
20.543248476683392
 21
-135.03244408331861
 31
0.0
  0
LINE
  5
49D0
  8
01
  6
BYBLOCK
 10
18.543248476683392
 20
-135.56834246331849
 30
0.0
 11
20.543248476683392
 21
-135.56834246331849
 31
0.0
  0
TEXT
  5
49D1
  8
01
 10
-19.546341933339431
 20
-83.782014994871332
 30
0.0
 40
3.5
  1
切欠き必要寸法75
 50
90.0
  0
LINE
  5
49D2
  8
01
  6
BYBLOCK
 10
-18.31044355333945
 20
-101.4986816615383
 30
0.0
 11
-18.846341933339449
 21
-103.4986816615383
 31
0.0
  0
LINE
  5
49D3
  8
01
  6
BYBLOCK
 10
-18.846341933339449
 20
-103.4986816615383
 30
0.0
 11
-19.382240313339452
 21
-101.4986816615383
 31
0.0
  0
LINE
  5
49D4
  8
01
  6
BYBLOCK
 10
-18.846341933339449
 20
-103.4986816615383
 30
0.0
 11
-18.846341933339449
 21
-101.4986816615383
 31
0.0
  0
LINE
  5
49D5
  8
01
  6
BYBLOCK
 10
-19.38224031333943
 20
-30.49868166153772
 30
0.0
 11
-18.846341933339431
 21
-28.49868166153772
 31
0.0
  0
LINE
  5
49D6
  8
01
  6
BYBLOCK
 10
-18.846341933339431
 20
-28.49868166153772
 30
0.0
 11
-18.310443553339429
 21
-30.49868166153772
 31
0.0
  0
LINE
  5
49D7
  8
01
  6
BYBLOCK
 10
-18.846341933339431
 20
-28.49868166153772
 30
0.0
 11
-18.846341933339431
 21
-30.49868166153772
 31
0.0
  0
TEXT
  5
49D8
  8
01
 10
-12.36546522744886
 20
-69.415348328204672
 30
0.0
 40
3.5
  1
67
 50
90.0
  0
LINE
  5
49D9
  8
01
  6
BYBLOCK
 10
-11.12956684744888
 20
-97.498681661538285
 30
0.0
 11
-11.66546522744888
 21
-99.498681661538285
 31
0.0
  0
LINE
  5
49DA
  8
01
  6
BYBLOCK
 10
-11.66546522744888
 20
-99.498681661538285
 30
0.0
 11
-12.201363607448879
 21
-97.498681661538285
 31
0.0
  0
LINE
  5
49DB
  8
01
  6
BYBLOCK
 10
-11.66546522744888
 20
-99.498681661538285
 30
0.0
 11
-11.66546522744888
 21
-97.498681661538285
 31
0.0
  0
LINE
  5
49DC
  8
01
  6
BYBLOCK
 10
-12.20136360744886
 20
-34.498681661537717
 30
0.0
 11
-11.665465227448861
 21
-32.498681661537717
 31
0.0
  0
LINE
  5
49DD
  8
01
  6
BYBLOCK
 10
-11.665465227448861
 20
-32.498681661537717
 30
0.0
 11
-11.129566847448871
 21
-34.498681661537717
 31
0.0
  0
LINE
  5
49DE
  8
01
  6
BYBLOCK
 10
-11.665465227448861
 20
-32.498681661537717
 30
0.0
 11
-11.665465227448861
 21
-34.498681661537717
 31
0.0
  0
TEXT
  5
49DF
  8
01
 10
-12.36546522744886
 20
-24.298681661537721
 30
0.0
 40
3.5
  1
4 可動シロ
 50
90.0
  0
LINE
  5
49E0
  8
01
  6
BYBLOCK
 10
-11.12956684744886
 20
-26.498681661537709
 30
0.0
 11
-11.665465227448861
 21
-28.49868166153772
 31
0.0
  0
LINE
  5
49E1
  8
01
  6
BYBLOCK
 10
-11.665465227448861
 20
-28.49868166153772
 30
0.0
 11
-12.20136360744886
 21
-26.498681661537709
 31
0.0
  0
LINE
  5
49E2
  8
01
  6
BYBLOCK
 10
-11.665465227448861
 20
-28.49868166153772
 30
0.0
 11
-11.665465227448861
 21
-26.498681661537709
 31
0.0
  0
LINE
  5
49E3
  8
01
  6
BYBLOCK
 10
-12.20136360744886
 20
-34.498681661537717
 30
0.0
 11
-11.665465227448861
 21
-32.498681661537717
 31
0.0
  0
LINE
  5
49E4
  8
01
  6
BYBLOCK
 10
-11.665465227448861
 20
-32.498681661537717
 30
0.0
 11
-11.129566847448871
 21
-34.498681661537717
 31
0.0
  0
LINE
  5
49E5
  8
01
  6
BYBLOCK
 10
-11.665465227448861
 20
-32.498681661537717
 30
0.0
 11
-11.665465227448861
 21
-34.498681661537717
 31
0.0
  0
TEXT
  5
49E6
  8
01
 10
-12.365465227448871
 20
-130.89868166153829
 30
0.0
 40
3.5
  1
4 可動シロ
 50
90.0
  0
LINE
  5
49E7
  8
01
  6
BYBLOCK
 10
-12.201363607448879
 20
-105.4986816615383
 30
0.0
 11
-11.66546522744888
 21
-103.4986816615383
 31
0.0
  0
LINE
  5
49E8
  8
01
  6
BYBLOCK
 10
-11.66546522744888
 20
-103.4986816615383
 30
0.0
 11
-11.12956684744888
 21
-105.4986816615383
 31
0.0
  0
LINE
  5
49E9
  8
01
  6
BYBLOCK
 10
-11.66546522744888
 20
-103.4986816615383
 30
0.0
 11
-11.66546522744888
 21
-105.4986816615383
 31
0.0
  0
LINE
  5
49EA
  8
01
  6
BYBLOCK
 10
-11.12956684744888
 20
-97.498681661538285
 30
0.0
 11
-11.66546522744888
 21
-99.498681661538285
 31
0.0
  0
LINE
  5
49EB
  8
01
  6
BYBLOCK
 10
-11.66546522744888
 20
-99.498681661538285
 30
0.0
 11
-12.201363607448879
 21
-97.498681661538285
 31
0.0
  0
LINE
  5
49EC
  8
01
  6
BYBLOCK
 10
-11.66546522744888
 20
-99.498681661538285
 30
0.0
 11
-11.66546522744888
 21
-97.498681661538285
 31
0.0
  0
TEXT
  5
49ED
  8
01
 10
68.610010951011347
 20
-142.70746661599631
 30
0.0
 40
3.5
  1
16
  0
LINE
  5
49EE
  8
01
  6
BYBLOCK
 10
78.193344284344676
 20
-142.87156823599631
 30
0.0
 11
80.193344284344676
 21
-143.4074666159963
 31
0.0
  0
LINE
  5
49EF
  8
01
  6
BYBLOCK
 10
80.193344284344676
 20
-143.4074666159963
 30
0.0
 11
78.193344284344676
 21
-143.94336499599629
 31
0.0
  0
LINE
  5
49F0
  8
01
  6
BYBLOCK
 10
80.193344284344676
 20
-143.4074666159963
 30
0.0
 11
78.193344284344676
 21
-143.4074666159963
 31
0.0
  0
LINE
  5
49F1
  8
01
  6
BYBLOCK
 10
66.193344284344676
 20
-143.94336499599629
 30
0.0
 11
64.193344284344676
 21
-143.4074666159963
 31
0.0
  0
LINE
  5
49F2
  8
01
  6
BYBLOCK
 10
64.193344284344676
 20
-143.4074666159963
 30
0.0
 11
66.193344284344676
 21
-142.87156823599631
 31
0.0
  0
LINE
  5
49F3
  8
01
  6
BYBLOCK
 10
64.193344284344676
 20
-143.4074666159963
 30
0.0
 11
66.193344284344676
 21
-143.4074666159963
 31
0.0
  0
TEXT
  5
49F4
  8
01
 10
109.7052765178146
 20
-72.748681661538214
 30
0.0
 40
3.5
  1
123
 50
90.0
  0
LINE
  5
49F5
  8
01
  6
BYBLOCK
 10
110.94117489781461
 20
-126.9986816615383
 30
0.0
 11
110.4052765178146
 21
-128.99868166153831
 31
0.0
  0
LINE
  5
49F6
  8
01
  6
BYBLOCK
 10
110.4052765178146
 20
-128.99868166153831
 30
0.0
 11
109.86937813781461
 21
-126.9986816615383
 31
0.0
  0
LINE
  5
49F7
  8
01
  6
BYBLOCK
 10
110.4052765178146
 20
-128.99868166153831
 30
0.0
 11
110.4052765178146
 21
-126.9986816615383
 31
0.0
  0
LINE
  5
49F8
  8
01
  6
BYBLOCK
 10
109.86937813781461
 20
-7.9986816615382086
 30
0.0
 11
110.4052765178146
 21
-5.9986816615382086
 31
0.0
  0
LINE
  5
49F9
  8
01
  6
BYBLOCK
 10
110.4052765178146
 20
-5.9986816615382086
 30
0.0
 11
110.94117489781461
 21
-7.9986816615382086
 31
0.0
  0
LINE
  5
49FA
  8
01
  6
BYBLOCK
 10
110.4052765178146
 20
-5.9986816615382086
 30
0.0
 11
110.4052765178146
 21
-7.9986816615382086
 31
0.0
  0
TEXT
  5
49FB
  8
01
 10
68.288077079361116
 20
-163.86420392306491
 30
0.0
 40
3.5
  1
25
  0
LINE
  5
49FC
  8
01
  6
BYBLOCK
 10
82.121410412694374
 20
-164.0283055430649
 30
0.0
 11
84.121410412694388
 21
-164.56420392306489
 31
0.0
  0
LINE
  5
49FD
  8
01
  6
BYBLOCK
 10
84.121410412694388
 20
-164.56420392306489
 30
0.0
 11
82.121410412694374
 21
-165.10010230306489
 31
0.0
  0
LINE
  5
49FE
  8
01
  6
BYBLOCK
 10
84.121410412694388
 20
-164.56420392306489
 30
0.0
 11
82.121410412694374
 21
-164.56420392306489
 31
0.0
  0
LINE
  5
49FF
  8
01
  6
BYBLOCK
 10
61.121410412694523
 20
-165.10010230306489
 30
0.0
 11
59.121410412694509
 21
-164.56420392306489
 31
0.0
  0
LINE
  5
4A00
  8
01
  6
BYBLOCK
 10
59.121410412694509
 20
-164.56420392306489
 30
0.0
 11
61.121410412694523
 21
-164.0283055430649
 31
0.0
  0
LINE
  5
4A01
  8
01
  6
BYBLOCK
 10
59.121410412694509
 20
-164.56420392306489
 30
0.0
 11
61.121410412694523
 21
-164.56420392306489
 31
0.0
  0
TEXT
  5
4A02
  8
01
 10
50.012672671398292
 20
-194.11655952417311
 30
0.0
 40
3.5
  1
φ3.5
 50
90.0
  0
LINE
  5
4A03
  8
01
  6
BYBLOCK
 10
50.17677429139826
 20
-179.38322619083979
 30
0.0
 11
50.712672671398273
 21
-177.38322619083979
 31
0.0
  0
LINE
  5
4A04
  8
01
  6
BYBLOCK
 10
50.712672671398273
 20
-177.38322619083979
 30
0.0
 11
51.248571051398272
 21
-179.38322619083979
 31
0.0
  0
LINE
  5
4A05
  8
01
  6
BYBLOCK
 10
50.712672671398273
 20
-177.38322619083979
 30
0.0
 11
50.712672671398273
 21
-179.38322619083979
 31
0.0
  0
LINE
  5
4A06
  8
01
  6
BYBLOCK
 10
51.248571051398272
 20
-171.88322619083979
 30
0.0
 11
50.712672671398273
 21
-173.88322619083979
 31
0.0
  0
LINE
  5
4A07
  8
01
  6
BYBLOCK
 10
50.712672671398273
 20
-173.88322619083979
 30
0.0
 11
50.176774291398267
 21
-171.88322619083979
 31
0.0
  0
LINE
  5
4A08
  8
01
  6
BYBLOCK
 10
50.712672671398273
 20
-173.88322619083979
 30
0.0
 11
50.712672671398273
 21
-171.88322619083979
 31
0.0
  0
LINE
  5
4A09
  8
01
 10
68.513558539875476
 20
-8.9294637765472498
 30
0.0
 11
55.40753711444053
 21
11.680701065043859
 31
0.0
1001
ACAD
1000
DSTYLE
1002
{
1070
   341
1005
0
1002
}
  0
LINE
  5
4A0A
  8
01
 10
55.40753711444053
 20
11.680701065043859
 30
0.0
 11
20.04087044777388
 21
11.680701065043859
 31
0.0
1001
ACAD
1000
DSTYLE
1002
{
1070
   341
1005
0
1002
}
  0
LINE
  5
4A0B
  8
01
 10
9.7654752771841551
 20
-34.458684272488547
 30
0.0
 11
-2.7927283354482482
 21
1.8454582513386291
 31
0.0
1001
ACAD
1000
DSTYLE
1002
{
1070
   341
1005
0
1002
}
  0
LINE
  5
4A0C
  8
01
 10
-2.7927283354482482
 20
1.8454582513386291
 30
0.0
 11
-33.959395002114903
 21
1.8454582513386291
 31
0.0
1001
ACAD
1000
DSTYLE
1002
{
1070
   341
1005
0
1002
}
  0
LINE
  5
4A0D
  8
01
 10
15.630530494240711
 20
-100.37688384137471
 30
0.0
 11
34.584672174254862
 21
-152.17470382050769
 31
0.0
1001
ACAD
1000
DSTYLE
1002
{
1070
   341
1005
0
1002
}
  0
LINE
  5
4A0E
  8
01
 10
34.584672174254862
 20
-152.17470382050769
 30
0.0
 11
82.551338840921488
 21
-152.17470382050769
 31
0.0
1001
ACAD
1000
DSTYLE
1002
{
1070
   341
1005
0
1002
}
  0
TEXT
  5
4A0F
  8
01
 10
308.2777403014731
 20
-48.854433691428952
 30
0.0
 40
3.5
  1
27
  0
LINE
  5
4A10
  8
01
  6
BYBLOCK
 10
323.11107163480642
 20
-49.018535311428948
 30
0.0
 11
325.11107163480642
 21
-49.554433691428947
 31
0.0
  0
LINE
  5
4A11
  8
01
  6
BYBLOCK
 10
325.11107163480642
 20
-49.554433691428947
 30
0.0
 11
323.11107163480642
 21
-50.090332071428953
 31
0.0
  0
LINE
  5
4A12
  8
01
  6
BYBLOCK
 10
325.11107163480642
 20
-49.554433691428947
 30
0.0
 11
323.11107163480642
 21
-49.554433691428947
 31
0.0
  0
LINE
  5
4A13
  8
01
  6
BYBLOCK
 10
300.11107563480641
 20
-50.090332071428953
 30
0.0
 11
298.11107563480641
 21
-49.554433691428947
 31
0.0
  0
LINE
  5
4A14
  8
01
  6
BYBLOCK
 10
298.11107563480641
 20
-49.554433691428947
 30
0.0
 11
300.11107563480641
 21
-49.018535311428948
 31
0.0
  0
LINE
  5
4A15
  8
01
  6
BYBLOCK
 10
298.11107563480641
 20
-49.554433691428947
 30
0.0
 11
300.11107563480641
 21
-49.554433691428947
 31
0.0
  0
TEXT
  5
4A16
  8
01
 10
310.7777403014731
 20
-27.60071169142897
 30
0.0
 40
3.5
  1
22
  0
LINE
  5
4A17
  8
01
  6
BYBLOCK
 10
323.11107163480642
 20
-27.76481331142897
 30
0.0
 11
325.11107163480642
 21
-28.300711691428969
 31
0.0
  0
LINE
  5
4A18
  8
01
  6
BYBLOCK
 10
325.11107163480642
 20
-28.300711691428969
 30
0.0
 11
323.11107163480642
 21
-28.836610071428971
 31
0.0
  0
LINE
  5
4A19
  8
01
  6
BYBLOCK
 10
325.11107163480642
 20
-28.300711691428969
 30
0.0
 11
323.11107163480642
 21
-28.300711691428969
 31
0.0
  0
LINE
  5
4A1A
  8
01
  6
BYBLOCK
 10
305.11107563480641
 20
-28.836610071428971
 30
0.0
 11
303.11107563480641
 21
-28.300711691428969
 31
0.0
  0
LINE
  5
4A1B
  8
01
  6
BYBLOCK
 10
303.11107563480641
 20
-28.300711691428969
 30
0.0
 11
305.11107563480641
 21
-27.76481331142897
 31
0.0
  0
LINE
  5
4A1C
  8
01
  6
BYBLOCK
 10
303.11107563480641
 20
-28.300711691428969
 30
0.0
 11
305.11107563480641
 21
-28.300711691428969
 31
0.0
  0
LINE
  5
4A1D
  8
01
 10
321.71556213623268
 20
-112.0749725014642
 30
0.0
 11
321.71558075059193
 21
-104.0749725014642
 31
0.0
  0
LINE
  5
4A1E
  8
01
 10
321.41558075059078
 20
-104.0749725014642
 30
0.0
 11
321.71558075059193
 21
-104.0749725014642
 31
0.0
  0
LINE
  5
4A1F
  8
01
 10
321.4155621362317
 20
-112.0749725014642
 30
0.0
 11
321.71556213623268
 21
-112.0749725014642
 31
0.0
  0
LINE
  5
4A20
  8
01
 10
321.41558075059078
 20
-104.0749725014642
 30
0.0
 11
318.9155516654854
 21
-106.5749725014642
 31
0.0
  0
LINE
  5
4A21
  8
01
 10
321.4155621362317
 20
-112.0749725014642
 30
0.0
 11
318.9155795871327
 21
-109.5749725014642
 31
0.0
  0
LINE
  5
4A22
  8
01
 10
307.0155749336036
 20
-106.5749725014642
 30
0.0
 11
318.9155516654854
 21
-106.5749725014642
 31
0.0
  0
LINE
  5
4A23
  8
01
 10
307.01556795321898
 20
-109.5749725014642
 30
0.0
 11
318.9155795871327
 21
-109.5749725014642
 31
0.0
  0
LINE
  5
4A24
  8
01
 10
301.7155714433581
 20
-108.0749725014642
 30
0.0
 11
307.0155749336036
 21
-106.5749725014642
 31
0.0
  0
LINE
  5
4A25
  8
01
 10
301.7155714433581
 20
-108.0749725014642
 30
0.0
 11
307.01556795321898
 21
-109.5749725014642
 31
0.0
  0
LINE
  5
4A26
  8
01
 10
321.71556213623268
 20
-101.75810389448409
 30
0.0
 11
321.71558075059193
 21
-93.758103894484123
 31
0.0
  0
LINE
  5
4A27
  8
01
 10
321.41558075059078
 20
-93.758103894484123
 30
0.0
 11
321.71558075059193
 21
-93.758103894484123
 31
0.0
  0
LINE
  5
4A28
  8
01
 10
321.4155621362317
 20
-101.75810389448409
 30
0.0
 11
321.71556213623268
 21
-101.75810389448409
 31
0.0
  0
LINE
  5
4A29
  8
01
 10
321.41558075059078
 20
-93.758103894484123
 30
0.0
 11
318.9155516654854
 21
-96.258103894484123
 31
0.0
  0
LINE
  5
4A2A
  8
01
 10
321.4155621362317
 20
-101.75810389448409
 30
0.0
 11
318.9155795871327
 21
-99.258103894484137
 31
0.0
  0
LINE
  5
4A2B
  8
01
 10
307.0155749336036
 20
-96.258103894484123
 30
0.0
 11
318.9155516654854
 21
-96.258103894484123
 31
0.0
  0
LINE
  5
4A2C
  8
01
 10
307.01556795321898
 20
-99.258103894484137
 30
0.0
 11
318.9155795871327
 21
-99.258103894484137
 31
0.0
  0
LINE
  5
4A2D
  8
01
 10
301.7155714433581
 20
-97.758103894484123
 30
0.0
 11
307.0155749336036
 21
-96.258103894484123
 31
0.0
  0
LINE
  5
4A2E
  8
01
 10
301.7155714433581
 20
-97.758103894484123
 30
0.0
 11
307.01556795321898
 21
-99.258103894484137
 31
0.0
  0
TEXT
  5
4A2F
  8
01
 10
305.7777423014731
 20
-67.757042436904428
 30
0.0
 40
3.5
  1
32
  0
LINE
  5
4A30
  8
01
  6
BYBLOCK
 10
323.11107363480642
 20
-67.921144056904424
 30
0.0
 11
325.11107363480642
 21
-68.45704243690443
 31
0.0
  0
LINE
  5
4A31
  8
01
  6
BYBLOCK
 10
325.11107363480642
 20
-68.45704243690443
 30
0.0
 11
323.11107363480642
 21
-68.992940816904436
 31
0.0
  0
LINE
  5
4A32
  8
01
  6
BYBLOCK
 10
325.11107363480642
 20
-68.45704243690443
 30
0.0
 11
323.11107363480642
 21
-68.45704243690443
 31
0.0
  0
LINE
  5
4A33
  8
01
  6
BYBLOCK
 10
295.11107763480641
 20
-68.992940816904436
 30
0.0
 11
293.11107763480641
 21
-68.45704243690443
 31
0.0
  0
LINE
  5
4A34
  8
01
  6
BYBLOCK
 10
293.11107763480641
 20
-68.45704243690443
 30
0.0
 11
295.11107763480641
 21
-67.921144056904424
 31
0.0
  0
LINE
  5
4A35
  8
01
  6
BYBLOCK
 10
293.11107763480641
 20
-68.45704243690443
 30
0.0
 11
295.11107763480641
 21
-68.45704243690443
 31
0.0
  0
TEXT
  5
4A36
  8
01
 10
308.38223345646207
 20
-119.7277843907148
 30
0.0
 40
3.5
  1
20
  0
LINE
  5
4A37
  8
01
  6
BYBLOCK
 10
319.71556213623262
 20
-119.8918860107148
 30
0.0
 11
321.71556213623262
 21
-120.42778439071481
 31
0.0
  0
LINE
  5
4A38
  8
01
  6
BYBLOCK
 10
321.71556213623262
 20
-120.42778439071481
 30
0.0
 11
319.71556213623262
 21
-120.9636827707148
 31
0.0
  0
LINE
  5
4A39
  8
01
  6
BYBLOCK
 10
321.71556213623262
 20
-120.42778439071481
 30
0.0
 11
319.71556213623262
 21
-120.42778439071481
 31
0.0
  0
LINE
  5
4A3A
  8
01
  6
BYBLOCK
 10
303.7155714433581
 20
-120.9636827707148
 30
0.0
 11
301.7155714433581
 21
-120.42778439071481
 31
0.0
  0
LINE
  5
4A3B
  8
01
  6
BYBLOCK
 10
301.7155714433581
 20
-120.42778439071481
 30
0.0
 11
303.7155714433581
 21
-119.8918860107148
 31
0.0
  0
LINE
  5
4A3C
  8
01
  6
BYBLOCK
 10
301.7155714433581
 20
-120.42778439071481
 30
0.0
 11
303.7155714433581
 21
-120.42778439071481
 31
0.0
  0
TEXT
  5
4A3D
  8
01
 10
295.17953285745227
 20
-102.0749725014642
 30
0.0
 40
3.5
  1
φ4
 50
90.0
  0
LINE
  5
4A3E
  8
01
  6
BYBLOCK
 10
296.41543123745231
 20
-104.0749725014642
 30
0.0
 11
295.87953285745232
 21
-106.0749725014642
 31
0.0
  0
LINE
  5
4A3F
  8
01
  6
BYBLOCK
 10
295.87953285745232
 20
-106.0749725014642
 30
0.0
 11
295.34363447745233
 21
-104.0749725014642
 31
0.0
  0
LINE
  5
4A40
  8
01
  6
BYBLOCK
 10
295.87953285745232
 20
-106.0749725014642
 30
0.0
 11
295.87953285745232
 21
-104.0749725014642
 31
0.0
  0
LINE
  5
4A41
  8
01
  6
BYBLOCK
 10
295.34363447745233
 20
-112.0749725014642
 30
0.0
 11
295.87953285745232
 21
-110.0749725014642
 31
0.0
  0
LINE
  5
4A42
  8
01
  6
BYBLOCK
 10
295.87953285745232
 20
-110.0749725014642
 30
0.0
 11
296.41543123745231
 21
-112.0749725014642
 31
0.0
  0
LINE
  5
4A43
  8
01
  6
BYBLOCK
 10
295.87953285745232
 20
-110.0749725014642
 30
0.0
 11
295.87953285745232
 21
-112.0749725014642
 31
0.0
  0
LINE
  5
4A44
  8
01
 10
160.0480706628822
 20
-6.3561496713726591
 30
0.0
 11
153.81038307556011
 21
7.031923874765071
 31
0.0
1001
ACAD
1000
DSTYLE
1002
{
1070
   341
1005
0
1002
}
  0
LINE
  5
4A45
  8
01
 10
153.81038307556011
 20
7.031923874765071
 30
0.0
 11
118.44371640889349
 21
7.031923874765071
 31
0.0
1001
ACAD
1000
DSTYLE
1002
{
1070
   341
1005
0
1002
}
  0
LINE
  5
4A46
  8
01
 10
252.32591247700461
 20
-31.74775837891465
 30
0.0
 11
263.72073259285122
 21
7.0319238747650736
 31
0.0
1001
ACAD
1000
DSTYLE
1002
{
1070
   341
1005
0
1002
}
  0
LINE
  5
4A47
  8
01
 10
263.72073259285122
 20
7.0319238747650736
 30
0.0
 11
324.75406592618452
 21
7.0319238747650736
 31
0.0
1001
ACAD
1000
DSTYLE
1002
{
1070
   341
1005
0
1002
}
  0
LINE
  5
4A48
  8
01
 10
202.95684939544191
 20
-66.794381104510236
 30
0.0
 11
196.06052766869919
 21
7.031923874765071
 31
0.0
1001
ACAD
1000
DSTYLE
1002
{
1070
   341
1005
0
1002
}
  0
LINE
  5
4A49
  8
01
 10
196.06052766869919
 20
7.031923874765071
 30
0.0
 11
160.69386100203261
 21
7.031923874765071
 31
0.0
1001
ACAD
1000
DSTYLE
1002
{
1070
   341
1005
0
1002
}
  0
TEXT
  5
4A4A
  8
01
 10
134.0624637656739
 20
-72.74890910726316
 30
0.0
 40
3.5
  1
123
 50
90.0
  0
LINE
  5
4A4B
  8
01
  6
BYBLOCK
 10
135.29836214567379
 20
-126.9989091072631
 30
0.0
 11
134.7624637656738
 21
-128.9989091072631
 31
0.0
  0
LINE
  5
4A4C
  8
01
  6
BYBLOCK
 10
134.7624637656738
 20
-128.9989091072631
 30
0.0
 11
134.22656538567381
 21
-126.9989091072631
 31
0.0
  0
LINE
  5
4A4D
  8
01
  6
BYBLOCK
 10
134.7624637656738
 20
-128.9989091072631
 30
0.0
 11
134.7624637656738
 21
-126.9989091072631
 31
0.0
  0
LINE
  5
4A4E
  8
01
  6
BYBLOCK
 10
134.22656538567381
 20
-7.9989091072631808
 30
0.0
 11
134.7624637656738
 21
-5.9989091072631808
 31
0.0
  0
LINE
  5
4A4F
  8
01
  6
BYBLOCK
 10
134.7624637656738
 20
-5.9989091072631808
 30
0.0
 11
135.29836214567379
 21
-7.9989091072631808
 31
0.0
  0
LINE
  5
4A50
  8
01
  6
BYBLOCK
 10
134.7624637656738
 20
-5.9989091072631808
 30
0.0
 11
134.7624637656738
 21
-7.9989091072631808
 31
0.0
  0
TEXT
  5
4A51
  8
01
 10
142.1768745130251
 20
-89.048909107263128
 30
0.0
 40
3.5
  1
取付けネジピッチ106
 50
90.0
  0
LINE
  5
4A52
  8
01
  6
BYBLOCK
 10
143.41277289302499
 20
-118.4989091072631
 30
0.0
 11
142.87687451302509
 21
-120.4989091072631
 31
0.0
  0
LINE
  5
4A53
  8
01
  6
BYBLOCK
 10
142.87687451302509
 20
-120.4989091072631
 30
0.0
 11
142.34097613302509
 21
-118.4989091072631
 31
0.0
  0
LINE
  5
4A54
  8
01
  6
BYBLOCK
 10
142.87687451302509
 20
-120.4989091072631
 30
0.0
 11
142.87687451302509
 21
-118.4989091072631
 31
0.0
  0
LINE
  5
4A55
  8
01
  6
BYBLOCK
 10
142.34097613302509
 20
-16.49890910726317
 30
0.0
 11
142.87687451302509
 21
-14.498909107263181
 31
0.0
  0
LINE
  5
4A56
  8
01
  6
BYBLOCK
 10
142.87687451302509
 20
-14.498909107263181
 30
0.0
 11
143.41277289302511
 21
-16.49890910726317
 31
0.0
  0
LINE
  5
4A57
  8
01
  6
BYBLOCK
 10
142.87687451302509
 20
-14.498909107263181
 30
0.0
 11
142.87687451302509
 21
-16.49890910726317
 31
0.0
  0
TEXT
  5
4A58
  8
01
 10
142.1768745130251
 20
-3.7989091072631611
 30
0.0
 40
3.5
  1
8.5
 50
90.0
  0
LINE
  5
4A59
  8
01
  6
BYBLOCK
 10
142.34097613302509
 20
-7.9989091072631844
 30
0.0
 11
142.87687451302509
 21
-5.9989091072631844
 31
0.0
  0
LINE
  5
4A5A
  8
01
  6
BYBLOCK
 10
142.87687451302509
 20
-5.9989091072631844
 30
0.0
 11
143.41277289302511
 21
-7.9989091072631844
 31
0.0
  0
LINE
  5
4A5B
  8
01
  6
BYBLOCK
 10
142.87687451302509
 20
-5.9989091072631844
 30
0.0
 11
142.87687451302509
 21
-7.9989091072631844
 31
0.0
  0
LINE
  5
4A5C
  8
01
  6
BYBLOCK
 10
143.41277289302511
 20
-12.49890910726317
 30
0.0
 11
142.87687451302509
 21
-14.49890910726317
 31
0.0
  0
LINE
  5
4A5D
  8
01
  6
BYBLOCK
 10
142.87687451302509
 20
-14.49890910726317
 30
0.0
 11
142.34097613302509
 21
-12.49890910726317
 31
0.0
  0
LINE
  5
4A5E
  8
01
  6
BYBLOCK
 10
142.87687451302509
 20
-14.49890910726317
 30
0.0
 11
142.87687451302509
 21
-12.49890910726317
 31
0.0
  0
TEXT
  5
4A5F
  8
01
 10
168.43448722736559
 20
-5.3914792967045724
 30
0.0
 40
3.5
  1
R6
 50
50.044451309186201
  0
LINE
  5
4A60
  8
01
  6
BYBLOCK
 10
165.97009931290719
 20
-8.5885872596197768
 30
0.0
 11
167.66527461660161
 21
-7.3996517006296036
 31
0.0
  0
LINE
  5
4A61
  8
01
  6
BYBLOCK
 10
167.66527461660161
 20
-7.3996517006296036
 30
0.0
 11
166.79167751071321
 21
-9.2768877460618331
 31
0.0
  0
LINE
  5
4A62
  8
01
  6
BYBLOCK
 10
167.66527461660161
 20
-7.3996517006296036
 30
0.0
 11
166.38088841181019
 21
-8.9327375028408031
 31
0.0
  0
TEXT
  5
4A63
  8
01
 10
202.1170018640037
 20
-99.522566708395104
 30
0.0
 40
3.5
  1
7
  0
LINE
  5
4A64
  8
01
  6
BYBLOCK
 10
205.2836417181241
 20
-99.686668328395101
 30
0.0
 11
207.2836417181241
 21
-100.22256670839511
 31
0.0
  0
LINE
  5
4A65
  8
01
  6
BYBLOCK
 10
207.2836417181241
 20
-100.22256670839511
 30
0.0
 11
205.2836417181241
 21
-100.7584650883951
 31
0.0
  0
LINE
  5
4A66
  8
01
  6
BYBLOCK
 10
207.2836417181241
 20
-100.22256670839511
 30
0.0
 11
205.2836417181241
 21
-100.22256670839511
 31
0.0
  0
LINE
  5
4A67
  8
01
  6
BYBLOCK
 10
202.28369534321669
 20
-100.7584650883951
 30
0.0
 11
200.28369534321669
 21
-100.22256670839511
 31
0.0
  0
LINE
  5
4A68
  8
01
  6
BYBLOCK
 10
200.28369534321669
 20
-100.22256670839511
 30
0.0
 11
202.28369534321669
 21
-99.686668328395101
 31
0.0
  0
LINE
  5
4A69
  8
01
  6
BYBLOCK
 10
200.28369534321669
 20
-100.22256670839511
 30
0.0
 11
202.28369534321669
 21
-100.22256670839511
 31
0.0
  0
VIEWPORT
  5
57
 67
     1
  8
0
 10
3.3461315991133338
 20
28.202254209066449
 30
0.0
 40
435.45153617672008
 41
308.3152394536956
 68
     1
 69
     1
1001
ACAD
1000
MVIEW
1002
{
1070
    16
1010
0.0
1020
0.0
1030
0.0
1010
0.0
1020
0.0
1030
1.0
1040
0.0
1040
308.3152394536956
1040
3.3461315991133338
1040
28.202254209066449
1040
50.0
1040
0.0
1040
0.0
1070
     0
1070
   100
1070
     1
1070
     1
1070
     0
1070
     0
1070
     0
1070
     0
1040
0.0
1040
0.0
1040
0.0
1040
10.0
1040
10.0
1040
10.0
1040
10.0
1070
     0
1002
{
1002
}
1002
}
  0
ENDSEC
  0
EOF
