  0
SECTION
  2
HEADER
  9
$ACADVER
  1
AC1009
  9
$INSBASE
 10
0.0
 20
0.0
 30
0.0
  9
$EXTMIN
 10
126.1030776058968
 20
-200.8717081879818
 30
0.0
  9
$EXTMAX
 10
358.5500653195574
 20
14.76953828861534
 30
0.0
  9
$LIMMIN
 10
0.0
 20
0.0
  9
$LIMMAX
 10
420.0
 20
297.0
  9
$ORTHOMODE
 70
     0
  9
$REGENMODE
 70
     1
  9
$FILLMODE
 70
     1
  9
$QTEXTMODE
 70
     0
  9
$MIRRTEXT
 70
     1
  9
$DRAGMODE
 70
     2
  9
$LTSCALE
 40
0.5
  9
$OSMODE
 70
   127
  9
$ATTMODE
 70
     1
  9
$TEXTSIZE
 40
3.5
  9
$TRACEWID
 40
1.0
  9
$TEXTSTYLE
  7
STANDARD
  9
$CLAYER
  8
1TEXT
  9
$CELTYPE
  6
BYLAYER
  9
$CECOLOR
 62
   256
  9
$DIMSCALE
 40
1.0
  9
$DIMASZ
 40
2.0
  9
$DIMEXO
 40
0.0
  9
$DIMDLI
 40
7.0
  9
$DIMRND
 40
0.0
  9
$DIMDLE
 40
0.0
  9
$DIMEXE
 40
1.0
  9
$DIMTP
 40
0.0
  9
$DIMTM
 40
0.0
  9
$DIMTXT
 40
3.5
  9
$DIMCEN
 40
0.0
  9
$DIMTSZ
 40
0.0
  9
$DIMTOL
 70
     0
  9
$DIMLIM
 70
     0
  9
$DIMTIH
 70
     0
  9
$DIMTOH
 70
     0
  9
$DIMSE1
 70
     0
  9
$DIMSE2
 70
     0
  9
$DIMTAD
 70
     1
  9
$DIMZIN
 70
     8
  9
$DIMBLK
  1

  9
$DIMASO
 70
     1
  9
$DIMSHO
 70
     1
  9
$DIMPOST
  1
 
  9
$DIMAPOST
  1

  9
$DIMALT
 70
     0
  9
$DIMALTD
 70
     2
  9
$DIMALTF
 40
25.399999999999999
  9
$DIMLFAC
 40
1.0
  9
$DIMTOFL
 70
     1
  9
$DIMTVP
 40
0.0
  9
$DIMTIX
 70
     0
  9
$DIMSOXD
 70
     0
  9
$DIMSAH
 70
     1
  9
$DIMBLK1
  1
OPEN30
  9
$DIMBLK2
  1
OPEN30
  9
$DIMSTYLE
  2
NEWX10
  9
$DIMCLRD
 70
   256
  9
$DIMCLRE
 70
   256
  9
$DIMCLRT
 70
   201
  9
$DIMTFAC
 40
0.7
  9
$DIMGAP
 40
0.7
  9
$LUNITS
 70
     2
  9
$LUPREC
 70
     4
  9
$SKETCHINC
 40
1.0
  9
$FILLETRAD
 40
0.0
  9
$AUNITS
 70
     0
  9
$AUPREC
 70
     2
  9
$MENU
  1
acad
  9
$ELEVATION
 40
0.0
  9
$PELEVATION
 40
0.0
  9
$THICKNESS
 40
0.0
  9
$LIMCHECK
 70
     0
  9
$BLIPMODE
 70
     0
  9
$CHAMFERA
 40
1.1999999999999991
  9
$CHAMFERB
 40
1.1999999999999991
  9
$SKPOLY
 70
     0
  9
$TDCREATE
 40
2451318.621352917
  9
$TDUPDATE
 40
2454921.4143918171
  9
$TDINDWG
 40
0.5176423958
  9
$TDUSRTIMER
 40
0.5176423958
  9
$USRTIMER
 70
     1
  9
$ANGBASE
 50
0.0
  9
$ANGDIR
 70
     0
  9
$PDMODE
 70
     0
  9
$PDSIZE
 40
0.0
  9
$PLINEWID
 40
0.0
  9
$COORDS
 70
     2
  9
$SPLFRAME
 70
     0
  9
$SPLINETYPE
 70
     6
  9
$SPLINESEGS
 70
     8
  9
$ATTDIA
 70
     0
  9
$ATTREQ
 70
     1
  9
$HANDLING
 70
     1
  9
$HANDSEED
  5
55DD
  9
$SURFTAB1
 70
     6
  9
$SURFTAB2
 70
     6
  9
$SURFTYPE
 70
     6
  9
$SURFU
 70
     6
  9
$SURFV
 70
     6
  9
$UCSNAME
  2

  9
$UCSORG
 10
0.0
 20
0.0
 30
0.0
  9
$UCSXDIR
 10
1.0
 20
0.0
 30
0.0
  9
$UCSYDIR
 10
0.0
 20
1.0
 30
0.0
  9
$PUCSNAME
  2

  9
$PUCSORG
 10
0.0
 20
0.0
 30
0.0
  9
$PUCSXDIR
 10
1.0
 20
0.0
 30
0.0
  9
$PUCSYDIR
 10
0.0
 20
1.0
 30
0.0
  9
$USERI1
 70
     0
  9
$USERI2
 70
     0
  9
$USERI3
 70
     0
  9
$USERI4
 70
     0
  9
$USERI5
 70
     0
  9
$USERR1
 40
0.0
  9
$USERR2
 40
0.0
  9
$USERR3
 40
0.0
  9
$USERR4
 40
0.0
  9
$USERR5
 40
0.0
  9
$WORLDVIEW
 70
     1
  9
$SHADEDGE
 70
     3
  9
$SHADEDIF
 70
    70
  9
$TILEMODE
 70
     1
  9
$MAXACTVP
 70
    48
  9
$PLIMCHECK
 70
     0
  9
$PEXTMIN
 10
1.0000000000000000E+020
 20
1.0000000000000000E+020
 30
1.0000000000000000E+020
  9
$PEXTMAX
 10
-1.0000000000000000E+020
 20
-1.0000000000000000E+020
 30
-1.0000000000000000E+020
  9
$PLIMMIN
 10
0.0
 20
0.0
  9
$PLIMMAX
 10
420.0
 20
297.0
  9
$UNITMODE
 70
     0
  9
$VISRETAIN
 70
     1
  9
$PLINEGEN
 70
     0
  9
$PSLTSCALE
 70
     1
  0
ENDSEC
  0
SECTION
  2
TABLES
  0
TABLE
  2
VPORT
 70
     5
  0
VPORT
  2
*ACTIVE
 70
     0
 10
0.0
 20
0.0
 11
1.0
 21
1.0
 12
242.31582743152489
 22
-93.060532929040676
 13
0.0
 23
0.0
 14
10.0
 24
10.0
 15
10.0
 25
10.0
 16
0.0
 26
0.0
 36
1.0
 17
0.0
 27
0.0
 37
0.0
 40
228.86825600392839
 41
1.508086253369272
 42
50.0
 43
0.0
 44
0.0
 50
0.0
 51
0.0
 71
     0
 72
  1000
 73
     1
 74
     1
 75
     0
 76
     0
 77
     0
 78
     0
  0
ENDTAB
  0
TABLE
  2
LTYPE
 70
    14
  0
LTYPE
  2
CONTINUOUS
 70
     0
  3
Solid line
 72
    65
 73
     0
 40
0.0
  0
LTYPE
  2
CENTER2
 70
     0
  3
Center (.5x) ___ _ ___ _ ___ _ ___ _ ___ _ ___
 72
    65
 73
     4
 40
28.574999999999999
 49
19.050000000000001
 49
-3.1749999999999989
 49
3.1749999999999989
 49
-3.1749999999999989
  0
LTYPE
  2
XREF1|CENTER2
 70
    48
  3
Center (.5x) ___ _ ___ _ ___ _ ___ _ ___ _ ___
 72
    65
 73
     4
 40
28.574999999999999
 49
19.050000000000001
 49
-3.1749999999999989
 49
3.1749999999999989
 49
-3.1749999999999989
  0
LTYPE
  2
A3WAKUDAKE|CENTER2
 70
    48
  3
Center (.5x) ___ _ ___ _ ___ _ ___ _ ___ _ ___
 72
    65
 73
     4
 40
28.574999999999999
 49
19.050000000000001
 49
-3.1749999999999989
 49
3.1749999999999989
 49
-3.1749999999999989
  0
LTYPE
  2
PHANTOM2
 70
     0
  3
Phantom (.5x) ___ _ _ ___ _ _ ___ _ _ ___ _ _
 72
    65
 73
     6
 40
31.75
 49
15.875
 49
-3.1749999999999989
 49
3.1749999999999989
 49
-3.1749999999999989
 49
3.1749999999999989
 49
-3.1749999999999989
  0
ENDTAB
  0
TABLE
  2
LAYER
 70
    43
  0
LAYER
  2
0
 70
     0
 62
     7
  6
CONTINUOUS
  0
LAYER
  2
1CENTER
 70
     0
 62
     7
  6
CENTER2
  0
LAYER
  2
1TEXT
 70
     0
 62
     7
  6
CONTINUOUS
  0
LAYER
  2
XREF1|1CENTER
 70
    48
 62
     7
  6
XREF1|CENTER2
  0
LAYER
  2
01
 70
     0
 62
     1
  6
CONTINUOUS
  0
LAYER
  2
1DIM
 70
     0
 62
     7
  6
CONTINUOUS
  0
LAYER
  2
1HATCH
 70
     0
 62
     7
  6
CONTINUOUS
  0
LAYER
  2
A3WAKUDAKE|THICK
 70
    48
 62
     7
  6
CONTINUOUS
  0
LAYER
  2
A3WAKUDAKE|POINT
 70
    48
 62
     7
  6
CONTINUOUS
  0
LAYER
  2
A3WAKUDAKE|1CENTER
 70
    48
 62
     7
  6
A3WAKUDAKE|CENTER2
  0
LAYER
  2
A3WAKUDAKE|0-6
 70
    48
 62
     7
  6
CONTINUOUS
  0
LAYER
  2
1PHANTOM
 70
     0
 62
     7
  6
PHANTOM2
  0
LAYER
  2
A3WAKUDAKE|1DIM
 70
    48
 62
     7
  6
CONTINUOUS
  0
ENDTAB
  0
TABLE
  2
STYLE
 70
    20
  0
STYLE
  2
STANDARD
 70
     0
 40
0.0
 41
1.0
 50
0.0
 71
     0
 42
3.5
  3
txt.shx
  4
extfont.shx
  0
ENDTAB
  0
TABLE
  2
VIEW
 70
     0
  0
ENDTAB
  0
TABLE
  2
UCS
 70
     0
  0
ENDTAB
  0
TABLE
  2
APPID
 70
    10
  0
APPID
  2
ACAD
 70
     0
  0
APPID
  2
DRAWINGVARIABLESXDATA
 70
     0
  0
APPID
  2
CONTENTTABDATA
 70
     0
  0
APPID
  2
CONTENTCURRENTTAB
 70
     0
  0
APPID
  2
CONTENTBLOCKDESCRIPTION
 70
     0
  0
APPID
  2
CONTENTBLOCKICON
 70
     0
  0
APPID
  2
CONTENTLONGBLOCKNAME
 70
     0
  0
APPID
  2
ACAD_PSEXT
 70
     0
  0
APPID
  2
ACAD_MLEADERVER
 70
     0
  0
APPID
  2
ACAD_DSTYLE_DIMRADIAL_EXTENSION
 70
     0
  0
ENDTAB
  0
TABLE
  2
DIMSTYLE
 70
     5
  0
DIMSTYLE
  2
NEWX10
 70
     0
  3
 
  4

  5

  6
OPEN30
  7
OPEN30
 40
1.0
 41
2.0
 42
0.0
 43
7.0
 44
1.0
 45
0.0
 46
0.0
 47
0.0
 48
0.0
140
3.5
141
0.0
142
0.0
143
25.399999999999999
144
1.0
145
0.0
146
0.7
147
0.7
 71
     0
 72
     0
 73
     0
 74
     0
 75
     0
 76
     0
 77
     1
 78
     8
170
     0
171
     2
172
     1
173
     1
174
     0
175
     0
176
   256
177
   256
178
   201
  0
ENDTAB
  0
ENDSEC
  0
SECTION
  2
BLOCKS
  0
BLOCK
  8
0
  2
$MODEL_SPACE
 70
     0
 10
0.0
 20
0.0
 30
0.0
  3
$MODEL_SPACE
  1

  0
ENDBLK
  5
1A
  8
0
  0
BLOCK
 67
     1
  8
0
  2
$PAPER_SPACE
 70
     0
 10
0.0
 20
0.0
 30
0.0
  3
$PAPER_SPACE
  1

  0
ENDBLK
  5
17
 67
     1
  8
0
  0
BLOCK
  8
0
  2
_OPEN30
 70
     0
 10
0.0
 20
0.0
 30
0.0
  3
_OPEN30
  1

  0
LINE
  5
44
  8
0
  6
BYBLOCK
 62
     0
 10
-1.0
 20
0.26794919
 30
0.0
 11
0.0
 21
0.0
 31
0.0
  0
LINE
  5
45
  8
0
  6
BYBLOCK
 62
     0
 10
0.0
 20
0.0
 30
0.0
 11
-1.0
 21
-0.26794919
 31
0.0
  0
LINE
  5
46
  8
0
  6
BYBLOCK
 62
     0
 10
0.0
 20
0.0
 30
0.0
 11
-1.0
 21
0.0
 31
0.0
  0
ENDBLK
  5
47
  8
0
  0
BLOCK
  8
0
  2
XREF1
 70
    36
 10
0.0
 20
0.0
 30
0.0
  3
XREF1
  1
D:\ACLT\FORMAT\KAWAJUN(9)図面用.dwg
  0
ENDBLK
  5
5D
  8
0
  0
BLOCK
  8
0
  2
A3WAKUDAKE
 70
    36
 10
0.0
 20
0.0
 30
0.0
  3
A3WAKUDAKE
  1
D:\ACLT\FORMAT\A3WAKUdake.dwg
  0
ENDBLK
  5
3366
  8
0
  0
BLOCK
  8
0
  2
*U129
 70
     1
 10
0.0
 20
0.0
 30
0.0
  3
*U129
  1

  0
LINE
  5
51EE
  8
0
 10
-4.7499941827476269
 20
1.500051962965244
 30
0.0
 11
-1.6999825490125879
 21
1.5000142687798641
 31
0.0
  0
LINE
  5
51EF
  8
0
 10
-4.9999912742822508
 20
1.250054871430506
 30
0.0
 11
-4.7499941827476269
 21
1.500051962965244
 31
0.0
  0
LINE
  5
51F0
  8
0
 10
-0.1999790588486121
 20
3.0000003080426718
 30
0.0
 11
-1.6999825490125879
 21
1.5000142687798641
 31
0.0
  0
LINE
  5
51F1
  8
0
 10
-4.9999912742822508
 20
1.250054871430506
 30
0.0
 11
-5.0000087252440153
 21
-1.249945128534363
 31
0.0
  0
LINE
  5
51F2
  8
0
 10
-0.1999790588486121
 20
3.0000003080426718
 30
0.0
 11
0.0000209411432479
 21
2.9999984466066958
 31
0.0
  0
LINE
  5
51F3
  8
0
 10
-5.0000087252440153
 20
-1.249945128534363
 30
0.0
 11
-4.7500058167220232
 21
-1.4999480370562419
 31
0.0
  0
LINE
  5
51F4
  8
0
 10
0.0000209411432479
 20
2.9999984466066958
 30
0.0
 11
-0.0000209411649621
 21
-3.000001553263246
 31
0.0
  0
LINE
  5
51F5
  8
0
 10
-4.7500058167220232
 20
-1.4999480370562419
 30
0.0
 11
-1.7000244313859409
 21
-1.4999857309602469
 31
0.0
  0
LINE
  5
51F6
  8
0
 10
-0.2000209411568221
 20
-2.9999996918273828
 30
0.0
 11
-0.0000209411649621
 21
-3.000001553263246
 31
0.0
  0
LINE
  5
51F7
  8
0
 10
-0.2000209411568221
 20
-2.9999996918273828
 30
0.0
 11
-1.7000244313859409
 21
-1.4999857309602469
 31
0.0
  0
ENDBLK
  5
51F9
  8
0
  0
BLOCK
  8
0
  2
*U130
 70
     1
 10
0.0
 20
0.0
 30
0.0
  3
*U130
  1

  0
TEXT
  5
51FB
  8
1DIM
 62
   201
 10
54.566677819402038
 20
-2.2986816615381849
 30
0.0
 40
3.5
  1
11.5 
 50
90.0
  0
ENDBLK
  5
51FD
  8
0
  0
BLOCK
  8
0
  2
*U131
 70
     1
 10
0.0
 20
0.0
 30
0.0
  3
*U131
  1

  0
TEXT
  5
51FF
  8
1DIM
 62
   201
 10
54.566677819402067
 20
-87.798681661538225
 30
0.0
 40
3.5
  1
取付けねじピッチ100 
 50
90.0
  0
ENDBLK
  5
5201
  8
0
  0
BLOCK
  8
0
  2
*U132
 70
     1
 10
0.0
 20
0.0
 30
0.0
  3
*U132
  1

  0
TEXT
  5
5203
  8
1DIM
 62
   201
 10
84.151188841333266
 20
-1.5475717610017869
 30
0.0
 40
3.5
  1
R6 
 50
43.605068500901332
  0
ENDBLK
  5
5205
  8
0
  0
BLOCK
  8
0
  2
*U133
 70
     1
 10
0.0
 20
0.0
 30
0.0
  3
*U133
  1

  0
TEXT
  5
5207
  8
1DIM
 62
   201
 10
71.026677617678004
 20
-53.339885674626039
 30
0.0
 40
3.5
  1
9 
  0
ENDBLK
  5
5209
  8
0
  0
BLOCK
  8
0
  2
*U134
 70
     1
 10
0.0
 20
0.0
 30
0.0
  3
*U134
  1

  0
TEXT
  5
520B
  8
1DIM
 62
   201
 10
109.7052765178146
 20
-71.582014994871557
 30
0.0
 40
3.5
  1
123 
 50
90.0
  0
ENDBLK
  5
520D
  8
0
  0
BLOCK
  8
0
  2
*U135
 70
     1
 10
0.0
 20
0.0
 30
0.0
  3
*U135
  1

  0
TEXT
  5
520F
  8
1DIM
 62
   201
 10
96.649987853391949
 20
-37.265348328204922
 30
0.0
 40
3.5
  1
上下調整範囲
 50
90.0
  0
TEXT
  5
5210
  8
1DIM
 62
   201
 10
102.48332118672531
 20
-38.082014994871592
 30
0.0
 40
3.5
  1
34.5~42.5
 50
90.0
  0
ENDBLK
  5
5212
  8
0
  0
BLOCK
  8
0
  2
*U136
 70
     1
 10
0.0
 20
0.0
 30
0.0
  3
*U136
  1

  0
TEXT
  5
5214
  8
1DIM
 62
   201
 10
102.48332118672531
 20
-64.915348328204971
 30
0.0
 40
3.5
  1
31.5 
 50
90.0
  0
ENDBLK
  5
5216
  8
0
  0
BLOCK
  8
0
  2
*U137
 70
     1
 10
0.0
 20
0.0
 30
0.0
  3
*U137
  1

  0
TEXT
  5
5218
  8
1DIM
 62
   201
 10
-4.2776629288719619
 20
-164.86699996762809
 30
0.0
 40
3.5
  1
13 
 50
90.0
  0
ENDBLK
  5
521A
  8
0
  0
BLOCK
  8
0
  2
*U138
 70
     1
 10
0.0
 20
0.0
 30
0.0
  3
*U138
  1

  0
TEXT
  5
521C
  8
1DIM
 62
   201
 10
32.754601825396492
 20
-164.86699996762809
 30
0.0
 40
3.5
  1
16 
 50
90.0
  0
ENDBLK
  5
521E
  8
0
  0
BLOCK
  8
0
  2
*U139
 70
     1
 10
0.0
 20
0.0
 30
0.0
  3
*U139
  1

  0
TEXT
  5
5220
  8
1DIM
 62
   201
 10
-12.36546522744886
 20
-23.198681661537719
 30
0.0
 40
3.5
  1
4 可動シロ
 50
90.0
  0
ENDBLK
  5
5222
  8
0
  0
BLOCK
  8
0
  2
*U140
 70
     1
 10
0.0
 20
0.0
 30
0.0
  3
*U140
  1

  0
TEXT
  5
5224
  8
1DIM
 62
   201
 10
-12.365465227448871
 20
-129.7986816615383
 30
0.0
 40
3.5
  1
4 可動シロ
 50
90.0
  0
ENDBLK
  5
5226
  8
0
  0
BLOCK
  8
0
  2
*U141
 70
     1
 10
0.0
 20
0.0
 30
0.0
  3
*U141
  1

  0
TEXT
  5
5228
  8
1DIM
 62
   201
 10
-19.546341933339431
 20
-83.615348328204647
 30
0.0
 40
3.5
  1
切欠き必要寸法75 
 50
90.0
  0
ENDBLK
  5
522A
  8
0
  0
BLOCK
  8
0
  2
*U142
 70
     1
 10
0.0
 20
0.0
 30
0.0
  3
*U142
  1

  0
TEXT
  5
522C
  8
1DIM
 62
   201
 10
-12.36546522744886
 20
-68.915348328204672
 30
0.0
 40
3.5
  1
67 
 50
90.0
  0
ENDBLK
  5
522E
  8
0
  0
BLOCK
  8
0
  2
*U143
 70
     1
 10
0.0
 20
0.0
 30
0.0
  3
*U143
  1

  0
TEXT
  5
5230
  8
1DIM
 62
   201
 10
69.860010951011347
 20
-142.70746661599631
 30
0.0
 40
3.5
  1
16 
  0
ENDBLK
  5
5232
  8
0
  0
BLOCK
  8
0
  2
*U144
 70
     1
 10
0.0
 20
0.0
 30
0.0
  3
*U144
  1

  0
TEXT
  5
5234
  8
1DIM
 62
   201
 10
6.6265818100166287
 20
-142.70746661599631
 30
0.0
 40
3.5
  1
14.5 
  0
ENDBLK
  5
5236
  8
0
  0
BLOCK
  8
0
  2
*U145
 70
     1
 10
0.0
 20
0.0
 30
0.0
  3
*U145
  1

  0
TEXT
  5
5238
  8
1DIM
 62
   201
 10
23.24324847668327
 20
-51.063271367091581
 30
0.0
 40
3.5
  1
前後調整範囲
  0
TEXT
  5
5239
  8
1DIM
 62
   201
 10
24.526581810016602
 20
-56.896604700424902
 30
0.0
 40
3.5
  1
3.6 ～6.5
  0
ENDBLK
  5
523B
  8
0
  0
BLOCK
  8
0
  2
*U146
 70
     1
 10
0.0
 20
0.0
 30
0.0
  3
*U146
  1

  0
TEXT
  5
523D
  8
1DIM
 62
   201
 10
4.1765818100168337
 20
-134.86834246331861
 30
0.0
 40
3.5
  1
2.5 
  0
ENDBLK
  5
523F
  8
0
  0
BLOCK
  8
0
  2
*U147
 70
     1
 10
0.0
 20
0.0
 30
0.0
  3
*U147
  1

  0
TEXT
  5
5241
  8
1DIM
 62
   201
 10
218.70033519733721
 20
2.6531853064017921
 30
0.0
 40
3.5
  1
B.S.38 
  0
ENDBLK
  5
5243
  8
0
  0
BLOCK
  8
0
  2
*U148
 70
     1
 10
0.0
 20
0.0
 30
0.0
  3
*U148
  1

  0
TEXT
  5
5245
  8
1DIM
 62
   201
 10
278.52964952895201
 20
-18.982244740596521
 30
0.0
 40
3.5
  1
21 
 50
90.0
  0
ENDBLK
  5
5247
  8
0
  0
BLOCK
  8
0
  2
*U149
 70
     1
 10
0.0
 20
0.0
 30
0.0
  3
*U149
  1

  0
TEXT
  5
5249
  8
1DIM
 62
   201
 10
278.52964952895212
 20
-120.6822412405964
 30
0.0
 40
3.5
  1
21 
 50
90.0
  0
ENDBLK
  5
524B
  8
0
  0
BLOCK
  8
0
  2
*U150
 70
     1
 10
0.0
 20
0.0
 30
0.0
  3
*U150
  1

  0
TEXT
  5
524D
  8
1DIM
 62
   201
 10
288.03170213620149
 20
-110.4989089072631
 30
0.0
 40
3.5
  1
47.5 
 50
90.0
  0
ENDBLK
  5
524F
  8
0
  0
BLOCK
  8
0
  2
*U151
 70
     1
 10
0.0
 20
0.0
 30
0.0
  3
*U151
  1

  0
TEXT
  5
5251
  8
1DIM
 62
   201
 10
239.91700209900381
 20
-118.0749427414196
 30
0.0
 40
3.5
  1
φ36
  0
ENDBLK
  5
5253
  8
0
  0
BLOCK
  8
0
  2
*U152
 70
     1
 10
0.0
 20
0.0
 30
0.0
  3
*U152
  1

  0
TEXT
  5
5255
  8
1DIM
 62
   201
 10
218.40033519733689
 20
-143.4158342788262
 30
0.0
 40
3.5
  1
58 （ケース奥行）
  0
ENDBLK
  5
5257
  8
0
  0
BLOCK
  8
0
  2
*U153
 70
     1
 10
0.0
 20
0.0
 30
0.0
  3
*U153
  1

  0
TEXT
  5
5259
  8
1DIM
 62
   201
 10
277.80498998562632
 20
-163.70033430096129
 30
0.0
 40
3.5
  1
7 
 50
90.0
  0
ENDBLK
  5
525B
  8
0
  0
BLOCK
  8
0
  2
*U154
 70
     1
 10
0.0
 20
0.0
 30
0.0
  3
*U154
  1

  0
TEXT
  5
525D
  8
1DIM
 62
   201
 10
189.48033651349351
 20
-163.7003333009614
 30
0.0
 40
3.5
  1
3 
 50
90.0
  0
ENDBLK
  5
525F
  8
0
  0
BLOCK
  8
0
  2
*U155
 70
     1
 10
0.0
 20
0.0
 30
0.0
  3
*U155
  1

  0
TEXT
  5
5261
  8
1DIM
 62
   201
 10
182.7094566610993
 20
-164.86699996762809
 30
0.0
 40
3.5
  1
16 
 50
90.0
  0
ENDBLK
  5
5263
  8
0
  0
BLOCK
  8
0
  2
*U156
 70
     1
 10
0.0
 20
0.0
 30
0.0
  3
*U156
  1

  0
TEXT
  5
5265
  8
1DIM
 62
   201
 10
159.4787826688941
 20
-142.70746661599631
 30
0.0
 40
3.5
  1
16 
  0
ENDBLK
  5
5267
  8
0
  0
BLOCK
  8
0
  2
*U157
 70
     1
 10
0.0
 20
0.0
 30
0.0
  3
*U157
  1

  0
TEXT
  5
5269
  8
1DIM
 62
   201
 10
203.11697505145739
 20
-90.677510285564765
 30
0.0
 40
3.5
  1
6 
  0
ENDBLK
  5
526B
  8
0
  0
BLOCK
  8
0
  2
*U158
 70
     1
 10
0.0
 20
0.0
 30
0.0
  3
*U158
  1

  0
TEXT
  5
526D
  8
1DIM
 62
   201
 10
278.52964952895201
 20
-83.598910207263188
 30
0.0
 40
3.5
  1
81（ケース高さ）
 50
90.0
  0
ENDBLK
  5
526F
  8
0
  0
BLOCK
  8
0
  2
*U159
 70
     1
 10
0.0
 20
0.0
 30
0.0
  3
*U159
  1

  0
TEXT
  5
5271
  8
1DIM
 62
   201
 10
195.41700162900361
 20
-137.39410573926199
 30
0.0
 40
3.5
  1
2.7 
  0
ENDBLK
  5
5273
  8
0
  0
BLOCK
  8
0
  2
*U160
 70
     1
 10
0.0
 20
0.0
 30
0.0
  3
*U160
  1

  0
LINE
  5
5275
  8
0
 10
-0.0000093071795959
 20
-4.0
 30
0.0
 11
0.0000093071795959
 21
4.0
 31
0.0
  0
LINE
  5
5276
  8
0
 10
-0.2999906928214955
 20
4.0
 30
0.0
 11
0.0000093071795959
 21
4.0
 31
0.0
  0
LINE
  5
5277
  8
0
 10
-0.3000093071805736
 20
-4.0
 30
0.0
 11
-0.0000093071795959
 21
-4.0
 31
0.0
  0
LINE
  5
5278
  8
0
 10
-0.2999906928214955
 20
4.0
 30
0.0
 11
-2.8000197779268201
 21
1.5
 31
0.0
  0
LINE
  5
5279
  8
0
 10
-0.3000093071805736
 20
-4.0
 30
0.0
 11
-2.799991856279632
 21
-1.5
 31
0.0
  0
LINE
  5
527A
  8
0
 10
-14.69999650980861
 20
1.5
 30
0.0
 11
-2.8000197779268201
 21
1.5
 31
0.0
  0
LINE
  5
527B
  8
0
 10
-14.700003490193289
 20
-1.5
 30
0.0
 11
-2.799991856279632
 21
-1.5
 31
0.0
  0
LINE
  5
527C
  8
0
 10
-20.000000000054168
 20
0.0
 30
0.0
 11
-14.69999650980861
 21
1.5
 31
0.0
  0
LINE
  5
527D
  8
0
 10
-20.000000000054168
 20
0.0
 30
0.0
 11
-14.700003490193289
 21
-1.5
 31
0.0
  0
ENDBLK
  5
527F
  8
0
  0
BLOCK
  8
0
  2
*U161
 70
     1
 10
0.0
 20
0.0
 30
0.0
  3
*U161
  1

  0
TEXT
  5
5281
  8
1DIM
 62
   201
 10
309.09056678979539
 20
-119.7277843907148
 30
0.0
 40
3.5
  1
20 
  0
ENDBLK
  5
5283
  8
0
  0
BLOCK
  8
0
  2
*U162
 70
     1
 10
0.0
 20
0.0
 30
0.0
  3
*U162
  1

  0
TEXT
  5
5285
  8
1DIM
 62
   201
 10
288.03170213620137
 20
-48.99890890726315
 30
0.0
 40
3.5
  1
75.5 
 50
90.0
  0
ENDBLK
  5
5287
  8
0
  0
BLOCK
  8
0
  2
*U163
 70
     1
 10
0.0
 20
0.0
 30
0.0
  3
*U163
  1

  0
TEXT
  5
5289
  8
1DIM
 62
   201
 10
308.69440696813967
 20
-48.854433691428952
 30
0.0
 40
3.5
  1
27 
  0
ENDBLK
  5
528B
  8
0
  0
BLOCK
  8
0
  2
*U164
 70
     1
 10
0.0
 20
0.0
 30
0.0
  3
*U164
  1

  0
TEXT
  5
528D
  8
1DIM
 62
   201
 10
311.19440696813967
 20
-27.60071169142897
 30
0.0
 40
3.5
  1
22 
  0
ENDBLK
  5
528F
  8
0
  0
BLOCK
  8
0
  2
*U165
 70
     1
 10
0.0
 20
0.0
 30
0.0
  3
*U165
  1

  0
TEXT
  5
5291
  8
1DIM
 62
   201
 10
306.19440896813973
 20
-67.757042436904428
 30
0.0
 40
3.5
  1
32 
  0
ENDBLK
  5
5293
  8
0
  0
BLOCK
  8
0
  2
*U166
 70
     1
 10
0.0
 20
0.0
 30
0.0
  3
*U166
  1

  0
TEXT
  5
5295
  8
1DIM
 62
   201
 10
295.17953285745227
 20
-101.7416391681308
 30
0.0
 40
3.5
  1
φ4
 50
90.0
  0
ENDBLK
  5
5297
  8
0
  0
BLOCK
  8
0
  2
*U167
 70
     1
 10
0.0
 20
0.0
 30
0.0
  3
*U167
  1

  0
TEXT
  5
5299
  8
1DIM
 62
   201
 10
68.704743746027773
 20
-163.86420392306491
 30
0.0
 40
3.5
  1
25 
  0
ENDBLK
  5
529B
  8
0
  0
BLOCK
  8
0
  2
*U168
 70
     1
 10
0.0
 20
0.0
 30
0.0
  3
*U168
  1

  0
TEXT
  5
529D
  8
1DIM
 62
   201
 10
50.012672671398292
 20
-193.69989285750651
 30
0.0
 40
3.5
  1
φ3.5
 50
90.0
  0
ENDBLK
  5
529F
  8
0
  0
BLOCK
  8
0
  2
*U169
 70
     1
 10
0.0
 20
0.0
 30
0.0
  3
*U169
  1

  0
TEXT
  5
52A1
  8
1DIM
 62
   201
 10
134.0624637656739
 20
-71.582242440596488
 30
0.0
 40
3.5
  1
123 
 50
90.0
  0
ENDBLK
  5
52A3
  8
0
  0
BLOCK
  8
0
  2
*U170
 70
     1
 10
0.0
 20
0.0
 30
0.0
  3
*U170
  1

  0
TEXT
  5
52A5
  8
1DIM
 62
   201
 10
142.1768745130251
 20
-3.1322424405964928
 30
0.0
 40
3.5
  1
8.5 
 50
90.0
  0
ENDBLK
  5
52A7
  8
0
  0
BLOCK
  8
0
  2
*U171
 70
     1
 10
0.0
 20
0.0
 30
0.0
  3
*U171
  1

  0
TEXT
  5
52A9
  8
1DIM
 62
   201
 10
168.80909987042969
 20
-4.9443292710596394
 30
0.0
 40
3.5
  1
R6 
 50
50.044451309186201
  0
ENDBLK
  5
52AB
  8
0
  0
BLOCK
  8
0
  2
*U172
 70
     1
 10
0.0
 20
0.0
 30
0.0
  3
*U172
  1

  0
TEXT
  5
52AD
  8
1DIM
 62
   201
 10
142.1768745130251
 20
-88.090575773929814
 30
0.0
 40
3.5
  1
取付けネジピッチ106 
 50
90.0
  0
ENDBLK
  5
52AF
  8
0
  0
BLOCK
  8
0
  2
*U173
 70
     1
 10
0.0
 20
0.0
 30
0.0
  3
*U173
  1

  0
TEXT
  5
52B1
  8
1DIM
 62
   201
 10
482.1597972537578
 20
142.6836502947869
 30
0.0
 40
3.5
  1
25 
  0
ENDBLK
  5
52B3
  8
0
  0
BLOCK
  8
0
  2
*U174
 70
     1
 10
0.0
 20
0.0
 30
0.0
  3
*U174
  1

  0
TEXT
  5
52B5
  8
1DIM
 62
   201
 10
463.46772617912819
 20
108.0034015515775
 30
0.0
 40
3.5
  1
φ3.5
 50
90.0
  0
ENDBLK
  5
52B7
  8
0
  0
BLOCK
  8
0
  2
*U175
 70
     1
 10
0.0
 20
0.0
 30
0.0
  3
*U175
  1

  0
TEXT
  5
52B9
  8
1DIM
 62
   201
 10
374.25819830969192
 20
145.56021266060091
 30
0.0
 40
3.5
  1
11.5 
 50
90.0
  0
ENDBLK
  5
52BB
  8
0
  0
BLOCK
  8
0
  2
*U176
 70
     1
 10
0.0
 20
0.0
 30
0.0
  3
*U176
  1

  0
TEXT
  5
52BD
  8
1DIM
 62
   201
 10
374.25819830969192
 20
60.060212660600918
 30
0.0
 40
3.5
  1
取付けねじピッチ100 
 50
90.0
  0
ENDBLK
  5
52BF
  8
0
  0
BLOCK
  8
0
  2
*U177
 70
     1
 10
0.0
 20
0.0
 30
0.0
  3
*U177
  1

  0
TEXT
  5
52C1
  8
1DIM
 62
   201
 10
422.42176649712968
 20
110.5935459939342
 30
0.0
 40
3.5
  1
上下調整範囲
 50
90.0
  0
TEXT
  5
52C2
  8
1DIM
 62
   201
 10
428.25509983046311
 20
109.77687932726759
 30
0.0
 40
3.5
  1
34.5~42.5
 50
90.0
  0
ENDBLK
  5
52C4
  8
0
  0
BLOCK
  8
0
  2
*U178
 70
     1
 10
0.0
 20
0.0
 30
0.0
  3
*U178
  1

  0
TEXT
  5
52C6
  8
1DIM
 62
   201
 10
428.25509983046311
 20
82.943545993934194
 30
0.0
 40
3.5
  1
31.5 
 50
90.0
  0
ENDBLK
  5
52C8
  8
0
  0
BLOCK
  8
0
  2
*U179
 70
     1
 10
0.0
 20
0.0
 30
0.0
  3
*U179
  1

  0
TEXT
  5
52CA
  8
1DIM
 62
   201
 10
295.5469566282253
 20
-17.008105645488989
 30
0.0
 40
3.5
  1
13 
 50
90.0
  0
ENDBLK
  5
52CC
  8
0
  0
BLOCK
  8
0
  2
*U180
 70
     1
 10
0.0
 20
0.0
 30
0.0
  3
*U180
  1

  0
TEXT
  5
52CE
  8
1DIM
 62
   201
 10
323.0678680337806
 20
96.795622955047577
 30
0.0
 40
3.5
  1
前後調整範囲
  0
TEXT
  5
52CF
  8
1DIM
 62
   201
 10
324.3512013671139
 20
90.962289621714206
 30
0.0
 40
3.5
  1
3.6 ～6.5
  0
ENDBLK
  5
52D1
  8
0
  0
BLOCK
  8
0
  2
*U181
 70
     1
 10
0.0
 20
0.0
 30
0.0
  3
*U181
  1

  0
TEXT
  5
52D3
  8
1DIM
 62
   201
 10
396.79845626141588
 20
94.519008647513076
 30
0.0
 40
3.5
  1
9 
  0
ENDBLK
  5
52D5
  8
0
  0
BLOCK
  8
0
  2
*U182
 70
     1
 10
0.0
 20
0.0
 30
0.0
  3
*U182
  1

  0
TEXT
  5
52D7
  8
1DIM
 62
   201
 10
332.57922138249381
 20
-17.008105645488989
 30
0.0
 40
3.5
  1
16 
 50
90.0
  0
ENDBLK
  5
52D9
  8
0
  0
BLOCK
  8
0
  2
*U183
 70
     1
 10
0.0
 20
0.0
 30
0.0
  3
*U183
  1

  0
TEXT
  5
52DB
  8
1DIM
 62
   201
 10
306.45120136711392
 20
5.1514277061427949
 30
0.0
 40
3.5
  1
14.5 
  0
ENDBLK
  5
52DD
  8
0
  0
BLOCK
  8
0
  2
*U184
 70
     1
 10
0.0
 20
0.0
 30
0.0
  3
*U184
  1

  0
TEXT
  5
52DF
  8
1DIM
 62
   201
 10
323.2345347004474
 20
12.990551858820551
 30
0.0
 40
3.5
  1
2.5 
  0
ENDBLK
  5
52E1
  8
0
  0
BLOCK
  8
0
  2
*U185
 70
     1
 10
0.0
 20
0.0
 30
0.0
  3
*U185
  1

  0
TEXT
  5
52E3
  8
1DIM
 62
   201
 10
280.2782776237579
 20
64.243545993934518
 30
0.0
 40
3.5
  1
切欠き必要寸法75 
 50
90.0
  0
ENDBLK
  5
52E5
  8
0
  0
BLOCK
  8
0
  2
*U186
 70
     1
 10
0.0
 20
0.0
 30
0.0
  3
*U186
  1

  0
TEXT
  5
52E7
  8
1DIM
 62
   201
 10
287.45915432964853
 20
78.943545993934507
 30
0.0
 40
3.5
  1
67 
 50
90.0
  0
ENDBLK
  5
52E9
  8
0
  0
BLOCK
  8
0
  2
*U187
 70
     1
 10
0.0
 20
0.0
 30
0.0
  3
*U187
  1

  0
TEXT
  5
52EB
  8
1DIM
 62
   201
 10
287.45915432964853
 20
123.72687932726809
 30
0.0
 40
3.5
  1
4 可動シロ
 50
90.0
  0
ENDBLK
  5
52ED
  8
0
  0
BLOCK
  8
0
  2
*U188
 70
     1
 10
0.0
 20
0.0
 30
0.0
  3
*U188
  1

  0
TEXT
  5
52EF
  8
1DIM
 62
   201
 10
287.45915432964853
 20
18.993545993934219
 30
0.0
 40
3.5
  1
4 可動シロ
 50
90.0
  0
ENDBLK
  5
52F1
  8
0
  0
BLOCK
  8
0
  2
*U189
 70
     1
 10
0.0
 20
0.0
 30
0.0
  3
*U189
  1

  0
TEXT
  5
52F3
  8
1DIM
 62
   201
 10
395.63178959474919
 20
5.151427706142794
 30
0.0
 40
3.5
  1
16 
  0
ENDBLK
  5
52F5
  8
0
  0
BLOCK
  8
0
  2
*U190
 70
     1
 10
0.0
 20
0.0
 30
0.0
  3
*U190
  1

  0
TEXT
  5
52F7
  8
1DIM
 62
   201
 10
435.47705516155253
 20
76.276879327267594
 30
0.0
 40
3.5
  1
123 
 50
90.0
  0
ENDBLK
  5
52F9
  8
0
  0
BLOCK
  8
0
  2
*U191
 70
     1
 10
0.0
 20
0.0
 30
0.0
  3
*U191
  1

  0
TEXT
  5
52FB
  8
1DIM
 62
   201
 10
286.3673535635765
 20
-20.08533334610723
 30
0.0
 40
3.5
  1
25 
  0
ENDBLK
  5
52FD
  8
0
  0
BLOCK
  8
0
  2
*U192
 70
     1
 10
0.0
 20
0.0
 30
0.0
  3
*U192
  1

  0
TEXT
  5
52FF
  8
1DIM
 62
   201
 10
267.675282488947
 20
-54.765582089316602
 30
0.0
 40
3.5
  1
φ3.5
 50
90.0
  0
ENDBLK
  5
5301
  8
0
  0
BLOCK
  8
0
  2
*U193
 70
     1
 10
0.0
 20
0.0
 30
0.0
  3
*U193
  1

  0
TEXT
  5
5303
  8
1DIM
 62
   201
 10
178.4657546195107
 20
-17.208770980293181
 30
0.0
 40
3.5
  1
11.5 
 50
90.0
  0
ENDBLK
  5
5305
  8
0
  0
BLOCK
  8
0
  2
*U194
 70
     1
 10
0.0
 20
0.0
 30
0.0
  3
*U194
  1

  0
TEXT
  5
5307
  8
1DIM
 62
   201
 10
178.4657546195107
 20
-102.7087709802932
 30
0.0
 40
3.5
  1
取付けねじピッチ100 
 50
90.0
  0
ENDBLK
  5
5309
  8
0
  0
BLOCK
  8
0
  2
*U195
 70
     1
 10
0.0
 20
0.0
 30
0.0
  3
*U195
  1

  0
TEXT
  5
530B
  8
1DIM
 62
   201
 10
226.62932280694861
 20
-52.175437646959907
 30
0.0
 40
3.5
  1
上下調整範囲
 50
90.0
  0
TEXT
  5
530C
  8
1DIM
 62
   201
 10
232.46265614028189
 20
-52.992104313626569
 30
0.0
 40
3.5
  1
34.5~42.5
 50
90.0
  0
ENDBLK
  5
530E
  8
0
  0
BLOCK
  8
0
  2
*U196
 70
     1
 10
0.0
 20
0.0
 30
0.0
  3
*U196
  1

  0
TEXT
  5
5310
  8
1DIM
 62
   201
 10
232.46265614028201
 20
-79.825437646959955
 30
0.0
 40
3.5
  1
31.5 
 50
90.0
  0
ENDBLK
  5
5312
  8
0
  0
BLOCK
  8
0
  2
*U197
 70
     1
 10
0.0
 20
0.0
 30
0.0
  3
*U197
  1

  0
TEXT
  5
5314
  8
1DIM
 62
   201
 10
99.75451293804413
 20
-179.7770892863831
 30
0.0
 40
3.5
  1
13 
 50
90.0
  0
ENDBLK
  5
5316
  8
0
  0
BLOCK
  8
0
  2
*U198
 70
     1
 10
0.0
 20
0.0
 30
0.0
  3
*U198
  1

  0
TEXT
  5
5318
  8
1DIM
 62
   201
 10
127.2754243435993
 20
-65.973360685846572
 30
0.0
 40
3.5
  1
前後調整範囲
  0
TEXT
  5
5319
  8
1DIM
 62
   201
 10
128.55875767693269
 20
-71.806694019179915
 30
0.0
 40
3.5
  1
3.6 ～6.5
  0
ENDBLK
  5
531B
  8
0
  0
BLOCK
  8
0
  2
*U199
 70
     1
 10
0.0
 20
0.0
 30
0.0
  3
*U199
  1

  0
TEXT
  5
531D
  8
1DIM
 62
   201
 10
201.00601257123461
 20
-68.249974993381059
 30
0.0
 40
3.5
  1
9 
  0
ENDBLK
  5
531F
  8
0
  0
BLOCK
  8
0
  2
*U200
 70
     1
 10
0.0
 20
0.0
 30
0.0
  3
*U200
  1

  0
TEXT
  5
5321
  8
1DIM
 62
   201
 10
136.7867776923126
 20
-179.7770892863831
 30
0.0
 40
3.5
  1
16 
 50
90.0
  0
ENDBLK
  5
5323
  8
0
  0
BLOCK
  8
0
  2
*U201
 70
     1
 10
0.0
 20
0.0
 30
0.0
  3
*U201
  1

  0
TEXT
  5
5325
  8
1DIM
 62
   201
 10
110.65875767693269
 20
-157.61755593475129
 30
0.0
 40
3.5
  1
14.5 
  0
ENDBLK
  5
5327
  8
0
  0
BLOCK
  8
0
  2
*U202
 70
     1
 10
0.0
 20
0.0
 30
0.0
  3
*U202
  1

  0
TEXT
  5
5329
  8
1DIM
 62
   201
 10
127.4420910102661
 20
-149.7784317820736
 30
0.0
 40
3.5
  1
2.5 
  0
ENDBLK
  5
532B
  8
0
  0
BLOCK
  8
0
  2
*U203
 70
     1
 10
0.0
 20
0.0
 30
0.0
  3
*U203
  1

  0
TEXT
  5
532D
  8
1DIM
 62
   201
 10
84.485833933576671
 20
-98.525437646959645
 30
0.0
 40
3.5
  1
切欠き必要寸法75 
 50
90.0
  0
ENDBLK
  5
532F
  8
0
  0
BLOCK
  8
0
  2
*U204
 70
     1
 10
0.0
 20
0.0
 30
0.0
  3
*U204
  1

  0
TEXT
  5
5331
  8
1DIM
 62
   201
 10
91.66671063946724
 20
-83.825437646959656
 30
0.0
 40
3.5
  1
67 
 50
90.0
  0
ENDBLK
  5
5333
  8
0
  0
BLOCK
  8
0
  2
*U205
 70
     1
 10
0.0
 20
0.0
 30
0.0
  3
*U205
  1

  0
TEXT
  5
5335
  8
1DIM
 62
   201
 10
91.666710639467226
 20
-38.108770980292718
 30
0.0
 40
3.5
  1
4 可動シロ
 50
90.0
  0
ENDBLK
  5
5337
  8
0
  0
BLOCK
  8
0
  2
*U206
 70
     1
 10
0.0
 20
0.0
 30
0.0
  3
*U206
  1

  0
TEXT
  5
5339
  8
1DIM
 62
   201
 10
91.666710639467226
 20
-144.70877098029331
 30
0.0
 40
3.5
  1
4 可動シロ
 50
90.0
  0
ENDBLK
  5
533B
  8
0
  0
BLOCK
  8
0
  2
*U207
 70
     1
 10
0.0
 20
0.0
 30
0.0
  3
*U207
  1

  0
TEXT
  5
533D
  8
1DIM
 62
   201
 10
199.83934590456789
 20
-157.61755593475129
 30
0.0
 40
3.5
  1
16 
  0
ENDBLK
  5
533F
  8
0
  0
BLOCK
  8
0
  2
*U208
 70
     1
 10
0.0
 20
0.0
 30
0.0
  3
*U208
  1

  0
TEXT
  5
5341
  8
1DIM
 62
   201
 10
239.68461147137131
 20
-86.492104313626555
 30
0.0
 40
3.5
  1
123 
 50
90.0
  0
ENDBLK
  5
5343
  8
0
  0
BLOCK
  8
0
  2
*U209
 70
     1
 10
0.0
 20
0.0
 30
0.0
  3
*U209
  1

  0
TEXT
  5
5345
  8
1DIM
 62
   201
 10
482.1597972537578
 20
142.6836502947869
 30
0.0
 40
3.5
  1
25 
  0
ENDBLK
  5
5347
  8
0
  0
BLOCK
  8
0
  2
*U210
 70
     1
 10
0.0
 20
0.0
 30
0.0
  3
*U210
  1

  0
TEXT
  5
5349
  8
1DIM
 62
   201
 10
463.46772617912819
 20
108.0034015515775
 30
0.0
 40
3.5
  1
φ3.5
 50
90.0
  0
ENDBLK
  5
534B
  8
0
  0
BLOCK
  8
0
  2
*U211
 70
     1
 10
0.0
 20
0.0
 30
0.0
  3
*U211
  1

  0
TEXT
  5
534D
  8
1DIM
 62
   201
 10
374.25819830969192
 20
145.56021266060091
 30
0.0
 40
3.5
  1
11.5 
 50
90.0
  0
ENDBLK
  5
534F
  8
0
  0
BLOCK
  8
0
  2
*U212
 70
     1
 10
0.0
 20
0.0
 30
0.0
  3
*U212
  1

  0
TEXT
  5
5351
  8
1DIM
 62
   201
 10
374.25819830969192
 20
60.060212660600918
 30
0.0
 40
3.5
  1
取付けねじピッチ100 
 50
90.0
  0
ENDBLK
  5
5353
  8
0
  0
BLOCK
  8
0
  2
*U213
 70
     1
 10
0.0
 20
0.0
 30
0.0
  3
*U213
  1

  0
TEXT
  5
5355
  8
1DIM
 62
   201
 10
422.42176649712968
 20
110.5935459939342
 30
0.0
 40
3.5
  1
上下調整範囲
 50
90.0
  0
TEXT
  5
5356
  8
1DIM
 62
   201
 10
428.25509983046311
 20
109.77687932726759
 30
0.0
 40
3.5
  1
34.5~42.5
 50
90.0
  0
ENDBLK
  5
5358
  8
0
  0
BLOCK
  8
0
  2
*U214
 70
     1
 10
0.0
 20
0.0
 30
0.0
  3
*U214
  1

  0
TEXT
  5
535A
  8
1DIM
 62
   201
 10
428.25509983046311
 20
82.943545993934194
 30
0.0
 40
3.5
  1
31.5 
 50
90.0
  0
ENDBLK
  5
535C
  8
0
  0
BLOCK
  8
0
  2
*U215
 70
     1
 10
0.0
 20
0.0
 30
0.0
  3
*U215
  1

  0
TEXT
  5
535E
  8
1DIM
 62
   201
 10
295.5469566282253
 20
-17.008105645488989
 30
0.0
 40
3.5
  1
13 
 50
90.0
  0
ENDBLK
  5
5360
  8
0
  0
BLOCK
  8
0
  2
*U216
 70
     1
 10
0.0
 20
0.0
 30
0.0
  3
*U216
  1

  0
TEXT
  5
5362
  8
1DIM
 62
   201
 10
323.0678680337806
 20
96.795622955047577
 30
0.0
 40
3.5
  1
前後調整範囲
  0
TEXT
  5
5363
  8
1DIM
 62
   201
 10
324.3512013671139
 20
90.962289621714206
 30
0.0
 40
3.5
  1
3.6 ～6.5
  0
ENDBLK
  5
5365
  8
0
  0
BLOCK
  8
0
  2
*U217
 70
     1
 10
0.0
 20
0.0
 30
0.0
  3
*U217
  1

  0
TEXT
  5
5367
  8
1DIM
 62
   201
 10
409.92296748507113
 20
146.3113225611373
 30
0.0
 40
3.5
  1
R6 
 50
43.605068500901069
  0
ENDBLK
  5
5369
  8
0
  0
BLOCK
  8
0
  2
*U218
 70
     1
 10
0.0
 20
0.0
 30
0.0
  3
*U218
  1

  0
TEXT
  5
536B
  8
1DIM
 62
   201
 10
396.79845626141588
 20
94.519008647513076
 30
0.0
 40
3.5
  1
9 
  0
ENDBLK
  5
536D
  8
0
  0
BLOCK
  8
0
  2
*U219
 70
     1
 10
0.0
 20
0.0
 30
0.0
  3
*U219
  1

  0
TEXT
  5
536F
  8
1DIM
 62
   201
 10
332.57922138249381
 20
-17.008105645488989
 30
0.0
 40
3.5
  1
16 
 50
90.0
  0
ENDBLK
  5
5371
  8
0
  0
BLOCK
  8
0
  2
*U220
 70
     1
 10
0.0
 20
0.0
 30
0.0
  3
*U220
  1

  0
TEXT
  5
5373
  8
1DIM
 62
   201
 10
306.45120136711392
 20
5.1514277061427949
 30
0.0
 40
3.5
  1
14.5 
  0
ENDBLK
  5
5375
  8
0
  0
BLOCK
  8
0
  2
*U221
 70
     1
 10
0.0
 20
0.0
 30
0.0
  3
*U221
  1

  0
TEXT
  5
5377
  8
1DIM
 62
   201
 10
323.2345347004474
 20
12.990551858820551
 30
0.0
 40
3.5
  1
2.5 
  0
ENDBLK
  5
5379
  8
0
  0
BLOCK
  8
0
  2
*U222
 70
     1
 10
0.0
 20
0.0
 30
0.0
  3
*U222
  1

  0
TEXT
  5
537B
  8
1DIM
 62
   201
 10
280.2782776237579
 20
64.243545993934518
 30
0.0
 40
3.5
  1
切欠き必要寸法75 
 50
90.0
  0
ENDBLK
  5
537D
  8
0
  0
BLOCK
  8
0
  2
*U223
 70
     1
 10
0.0
 20
0.0
 30
0.0
  3
*U223
  1

  0
TEXT
  5
537F
  8
1DIM
 62
   201
 10
287.45915432964853
 20
78.943545993934507
 30
0.0
 40
3.5
  1
67 
 50
90.0
  0
ENDBLK
  5
5381
  8
0
  0
BLOCK
  8
0
  2
*U224
 70
     1
 10
0.0
 20
0.0
 30
0.0
  3
*U224
  1

  0
TEXT
  5
5383
  8
1DIM
 62
   201
 10
287.45915432964853
 20
123.72687932726809
 30
0.0
 40
3.5
  1
4 可動シロ
 50
90.0
  0
ENDBLK
  5
5385
  8
0
  0
BLOCK
  8
0
  2
*U225
 70
     1
 10
0.0
 20
0.0
 30
0.0
  3
*U225
  1

  0
TEXT
  5
5387
  8
1DIM
 62
   201
 10
287.45915432964853
 20
18.993545993934219
 30
0.0
 40
3.5
  1
4 可動シロ
 50
90.0
  0
ENDBLK
  5
5389
  8
0
  0
BLOCK
  8
0
  2
*U226
 70
     1
 10
0.0
 20
0.0
 30
0.0
  3
*U226
  1

  0
TEXT
  5
538B
  8
1DIM
 62
   201
 10
395.63178959474919
 20
5.151427706142794
 30
0.0
 40
3.5
  1
16 
  0
ENDBLK
  5
538D
  8
0
  0
BLOCK
  8
0
  2
*U227
 70
     1
 10
0.0
 20
0.0
 30
0.0
  3
*U227
  1

  0
TEXT
  5
538F
  8
1DIM
 62
   201
 10
435.47705516155253
 20
76.276879327267594
 30
0.0
 40
3.5
  1
123 
 50
90.0
  0
ENDBLK
  5
5391
  8
0
  0
BLOCK
  8
0
  2
*U228
 70
     1
 10
0.0
 20
0.0
 30
0.0
  3
*U228
  1

  0
INSERT
  5
5393
  8
1DIM
  2
_OPEN30
 10
133.36190738410701
 20
76.535877378086496
 30
0.0
 41
2.0
 42
2.0
 43
2.0
 50
134.43620654116941
  0
POLYLINE
  5
5394
  8
1DIM
 66
     1
 10
0.0
 20
0.0
 30
0.0
  0
VERTEX
  5
5395
  8
1DIM
 10
134.7621367696234
 20
75.107816571280196
 30
0.0
  0
VERTEX
  5
5396
  8
1DIM
 10
143.7723967350301
 20
65.918465705752297
 30
0.0
  0
VERTEX
  5
5397
  8
1DIM
 10
166.53906340169669
 20
65.918465705752297
 30
0.0
  0
SEQEND
  5
5398
  8
1DIM
  0
ENDBLK
  5
539A
  8
0
  0
BLOCK
  8
0
  2
*U229
 70
     1
 10
0.0
 20
0.0
 30
0.0
  3
*U229
  1

  0
TEXT
  5
539C
  8
1DIM
 62
   201
 10
146.47239673503009
 20
72.451799039085628
 30
0.0
 40
3.5
  1
隙間調整板
  0
TEXT
  5
539D
  8
1DIM
 62
   201
 10
146.47239673503009
 20
66.6184657057523
 30
0.0
 40
3.5
  1
取付けねじ
  0
ENDBLK
  5
539F
  8
0
  0
BLOCK
  8
0
  2
*X230
 70
     1
 10
0.0
 20
0.0
 30
0.0
  3
*X230
  1

  0
LINE
  5
53A1
  8
0
 62
     0
 10
50.314251065151332
 20
93.548015008044359
 30
0.0
 11
49.327282283198372
 21
94.534983789997341
 31
0.0
  0
LINE
  5
53A2
  8
0
 62
     0
 10
50.314251065151332
 20
92.200976589884064
 30
0.0
 11
49.314251065151439
 21
93.200976589883936
 31
0.0
  0
LINE
  5
53A3
  8
0
 62
     0
 10
50.314251065151353
 20
90.853938171723584
 30
0.0
 11
49.314251065151439
 21
91.853938171723541
 31
0.0
  0
LINE
  5
53A4
  8
0
 62
     0
 10
50.314251065151353
 20
89.506899753563246
 30
0.0
 11
49.314251065151439
 21
90.506899753563147
 31
0.0
  0
LINE
  5
53A5
  8
0
 62
     0
 10
50.314251065151332
 20
88.159861335402894
 30
0.0
 11
49.314251065151439
 21
89.159861335402766
 31
0.0
  0
LINE
  5
53A6
  8
0
 62
     0
 10
50.314251065151332
 20
86.812822917242485
 30
0.0
 11
49.314251065151439
 21
87.812822917242386
 31
0.0
  0
LINE
  5
53A7
  8
0
 62
     0
 10
50.314251065151332
 20
85.465784499082105
 30
0.0
 11
49.314251065151439
 21
86.465784499081991
 31
0.0
  0
LINE
  5
53A8
  8
0
 62
     0
 10
50.314251065151353
 20
84.118746080921738
 30
0.0
 11
49.31425106515141
 21
85.118746080921696
 31
0.0
  0
LINE
  5
53A9
  8
0
 62
     0
 10
50.314251065151353
 20
82.771707662761415
 30
0.0
 11
49.31425106515141
 21
83.771707662761344
 31
0.0
  0
LINE
  5
53AA
  8
0
 62
     0
 10
49.759093792453172
 20
81.979826517299188
 30
0.0
 11
49.314251065151439
 21
82.424669244600921
 31
0.0
  0
LINE
  5
53AB
  8
0
 62
     0
 10
50.314251065151332
 20
74.689477153799146
 30
0.0
 11
49.314251065151439
 21
75.689477153799032
 31
0.0
  0
LINE
  5
53AC
  8
0
 62
     0
 10
50.314251065151289
 20
73.342438735638808
 30
0.0
 11
49.31425106515141
 21
74.342438735638723
 31
0.0
  0
LINE
  5
53AD
  8
0
 62
     0
 10
50.314251065151353
 20
71.995400317478385
 30
0.0
 11
49.31425106515146
 21
72.995400317478271
 31
0.0
  0
LINE
  5
53AE
  8
0
 62
     0
 10
50.314251065151332
 20
70.64836189931799
 30
0.0
 11
49.314251065151439
 21
71.648361899317905
 31
0.0
  0
LINE
  5
53AF
  8
0
 62
     0
 10
50.314251065151332
 20
69.301323481157681
 30
0.0
 11
49.314251065151439
 21
70.301323481157553
 31
0.0
  0
LINE
  5
53B0
  8
0
 62
     0
 10
50.314251065151332
 20
67.954285062997343
 30
0.0
 11
49.314251065151439
 21
68.954285062997215
 31
0.0
  0
ENDBLK
  5
53B2
  8
0
  0
BLOCK
  8
0
  2
*X231
 70
     1
 10
0.0
 20
0.0
 30
0.0
  3
*X231
  1

  0
LINE
  5
53B4
  8
0
 62
     0
 10
48.776412198315683
 20
72.034983789997341
 30
0.0
 11
49.314251065151439
 21
72.572822656833125
 31
0.0
  0
LINE
  5
53B5
  8
0
 62
     0
 10
47.878386586208698
 20
72.034983789997369
 30
0.0
 11
49.31425106515141
 21
73.470848268940046
 31
0.0
  0
LINE
  5
53B6
  8
0
 62
     0
 10
47.714251065151409
 20
72.768873881046972
 30
0.0
 11
49.314251065151439
 21
74.368873881046994
 31
0.0
  0
LINE
  5
53B7
  8
0
 62
     0
 10
47.71425106515138
 20
73.666899493153892
 30
0.0
 11
49.314251065151382
 21
75.266899493153886
 31
0.0
  0
LINE
  5
53B8
  8
0
 62
     0
 10
47.71425106515138
 20
74.564925105260755
 30
0.0
 11
49.314251065151439
 21
76.164925105260807
 31
0.0
  0
LINE
  5
53B9
  8
0
 62
     0
 10
47.619355194570488
 20
75.368054846786805
 30
0.0
 11
49.050267601466231
 21
76.798967253682548
 31
0.0
  0
LINE
  5
53BA
  8
0
 62
     0
 10
46.951651022882402
 20
75.59837628720561
 30
0.0
 11
48.288258525674109
 21
76.93498378999729
 31
0.0
  0
LINE
  5
53BB
  8
0
 62
     0
 10
46.122727314971627
 20
75.667478191401713
 30
0.0
 11
47.390232913567218
 21
76.934983789997304
 31
0.0
  0
LINE
  5
53BC
  8
0
 62
     0
 10
45.293803607060767
 20
75.736580095597844
 30
0.0
 11
46.49220730146029
 21
76.934983789997347
 31
0.0
  0
LINE
  5
53BD
  8
0
 62
     0
 10
44.464879899150048
 20
75.805681999794018
 30
0.0
 11
45.59418168935337
 21
76.934983789997375
 31
0.0
  0
LINE
  5
53BE
  8
0
 62
     0
 10
48.896156077246609
 20
81.134983789997548
 30
0.0
 11
49.31425106515141
 21
81.553078777902329
 31
0.0
  0
LINE
  5
53BF
  8
0
 62
     0
 10
43.635956191239188
 20
75.874783903990107
 30
0.0
 11
44.696156077246428
 21
76.934983789997347
 31
0.0
  0
LINE
  5
53C0
  8
0
 62
     0
 10
47.998130465139717
 20
81.134983789997506
 30
0.0
 11
49.314251065151382
 21
82.451104390009164
 31
0.0
  0
LINE
  5
53C1
  8
0
 62
     0
 10
42.807032483328349
 20
75.943885808186138
 30
0.0
 11
43.798130465139529
 21
76.934983789997304
 31
0.0
  0
LINE
  5
53C2
  8
0
 62
     0
 10
47.100104853032832
 20
81.134983789997534
 30
0.0
 11
49.314251065151439
 21
83.349130002116141
 31
0.0
  0
LINE
  5
53C3
  8
0
 62
     0
 10
41.978108775417567
 20
76.012987712382284
 30
0.0
 11
42.900104853032623
 21
76.934983789997347
 31
0.0
  0
LINE
  5
53C4
  8
0
 62
     0
 10
46.202079240925848
 20
81.134983789997477
 30
0.0
 11
49.31425106515141
 21
84.247155614223004
 31
0.0
  0
LINE
  5
53C5
  8
0
 62
     0
 10
41.714251065151437
 20
76.647155614223038
 30
0.0
 11
42.002079240925688
 21
76.93498378999729
 31
0.0
  0
LINE
  5
53C6
  8
0
 62
     0
 10
47.714251065151359
 20
83.545181226329902
 30
0.0
 11
49.31425106515141
 21
85.145181226329925
 31
0.0
  0
LINE
  5
53C7
  8
0
 62
     0
 10
45.304053628818963
 20
81.134983789997477
 30
0.0
 11
46.61237819267992
 21
82.443308353858427
 31
0.0
  0
LINE
  5
53C8
  8
0
 62
     0
 10
47.71425106515138
 20
84.443206838436851
 30
0.0
 11
49.314251065151382
 21
86.043206838436845
 31
0.0
  0
LINE
  5
53C9
  8
0
 62
     0
 10
44.406028016712042
 20
81.134983789997506
 30
0.0
 11
45.632681747345941
 21
82.361637520631433
 31
0.0
  0
LINE
  5
53CA
  8
0
 62
     0
 10
47.714251065151437
 20
85.341232450543828
 30
0.0
 11
49.314251065151439
 21
86.941232450543836
 31
0.0
  0
LINE
  5
53CB
  8
0
 62
     0
 10
43.508002404605151
 20
81.134983789997534
 30
0.0
 11
44.652985302012013
 21
82.279966687404396
 31
0.0
  0
LINE
  5
53CC
  8
0
 62
     0
 10
47.71425106515138
 20
86.23925806265072
 30
0.0
 11
49.314251065151439
 21
87.839258062650742
 31
0.0
  0
LINE
  5
53CD
  8
0
 62
     0
 10
42.609976792498252
 20
81.134983789997548
 30
0.0
 11
43.673288856678049
 21
82.198295854177388
 31
0.0
  0
LINE
  5
53CE
  8
0
 62
     0
 10
47.71425106515138
 20
87.137283674757569
 30
0.0
 11
49.31425106515141
 21
88.737283674757606
 31
0.0
  0
LINE
  5
53CF
  8
0
 62
     0
 10
41.714251065151437
 20
81.137283674757626
 30
0.0
 11
42.693592411344071
 21
82.116625020950266
 31
0.0
  0
LINE
  5
53D0
  8
0
 62
     0
 10
47.714251065151409
 20
88.035309286864475
 30
0.0
 11
49.31425106515141
 21
89.635309286864469
 31
0.0
  0
LINE
  5
53D1
  8
0
 62
     0
 10
47.71425106515138
 20
88.933334898971395
 30
0.0
 11
49.314251065151439
 21
90.533334898971447
 31
0.0
  0
LINE
  5
53D2
  8
0
 62
     0
 10
47.714251065151409
 20
89.831360511078344
 30
0.0
 11
49.314251065151439
 21
91.431360511078367
 31
0.0
  0
LINE
  5
53D3
  8
0
 62
     0
 10
47.71425106515138
 20
90.729386123185265
 30
0.0
 11
49.31425106515141
 21
92.329386123185287
 31
0.0
  0
LINE
  5
53D4
  8
0
 62
     0
 10
47.714251065151409
 20
91.627411735292213
 30
0.0
 11
49.31425106515141
 21
93.227411735292236
 31
0.0
  0
LINE
  5
53D5
  8
0
 62
     0
 10
47.714251065151437
 20
92.525437347399105
 30
0.0
 11
49.314251065151439
 21
94.125437347399114
 31
0.0
  0
LINE
  5
53D6
  8
0
 62
     0
 10
47.714251065151409
 20
93.423462959506026
 30
0.0
 11
48.82577189564276
 21
94.534983789997369
 31
0.0
  0
LINE
  5
53D7
  8
0
 62
     0
 10
47.714251065151409
 20
94.321488571612889
 30
0.0
 11
47.927746283535811
 21
94.534983789997298
 31
0.0
  0
ENDBLK
  5
53D9
  8
0
  0
BLOCK
  8
0
  2
*X232
 70
     1
 10
0.0
 20
0.0
 30
0.0
  3
*X232
  1

  0
LINE
  5
53DB
  8
0
 62
     0
 10
51.251193694744977
 20
67.32556038957145
 30
0.0
 11
51.314251065151353
 21
67.388617759977819
 31
0.0
  0
LINE
  5
53DC
  8
0
 62
     0
 10
50.314251065151353
 20
67.735656178138186
 30
0.0
 11
51.314251065151382
 21
68.735656178138214
 31
0.0
  0
LINE
  5
53DD
  8
0
 62
     0
 10
50.314251065151332
 20
69.082694596298523
 30
0.0
 11
51.314251065151318
 21
70.082694596298523
 31
0.0
  0
LINE
  5
53DE
  8
0
 62
     0
 10
50.314251065151289
 20
70.429733014458918
 30
0.0
 11
51.314251065151304
 21
71.429733014458904
 31
0.0
  0
LINE
  5
53DF
  8
0
 62
     0
 10
50.314251065151332
 20
86.594194032383399
 30
0.0
 11
51.314251065151353
 21
87.594194032383427
 31
0.0
  0
LINE
  5
53E0
  8
0
 62
     0
 10
50.314251065151289
 20
87.941232450543737
 30
0.0
 11
51.314251065151353
 21
88.941232450543794
 31
0.0
  0
LINE
  5
53E1
  8
0
 62
     0
 10
50.314251065151289
 20
89.288270868704075
 30
0.0
 11
51.314251065151353
 21
90.288270868704117
 31
0.0
  0
ENDBLK
  5
53E3
  8
0
  0
BLOCK
  8
0
  2
*U233
 70
     1
 10
0.0
 20
0.0
 30
0.0
  3
*U233
  1

  0
SOLID
  5
53E5
  8
1DIM
 10
126.0805738984925
 20
162.042567097046
 30
0.0
 11
126.8724894767347
 21
160.1760246174735
 31
0.0
 12
125.5180150174551
 22
161.68483542412571
 32
0.0
 13
125.5180150174551
 23
161.68483542412571
 33
0.0
  0
POLYLINE
  5
53E6
  8
1DIM
 66
     1
 10
0.0
 20
0.0
 30
0.0
  0
VERTEX
  5
53E7
  8
1DIM
 10
125.7992944579738
 20
161.86370126058591
 30
0.0
  0
VERTEX
  5
53E8
  8
1DIM
 10
112.6932730325388
 20
182.473866102177
 30
0.0
  0
VERTEX
  5
53E9
  8
1DIM
 10
77.326606365872195
 20
182.473866102177
 30
0.0
  0
SEQEND
  5
53EA
  8
1DIM
  0
ENDBLK
  5
53EC
  8
0
  0
BLOCK
  8
0
  2
*U234
 70
     1
 10
0.0
 20
0.0
 30
0.0
  3
*U234
  1

  0
TEXT
  5
53EE
  8
1DIM
 62
   201
 10
77.793273032538849
 20
183.17386610217699
 30
0.0
 40
3.5
  1
材質：ステンレス
  0
ENDBLK
  5
53F0
  8
0
  0
BLOCK
  8
0
  2
*U235
 70
     1
 10
0.0
 20
0.0
 30
0.0
  3
*U235
  1

  0
SOLID
  5
53F2
  8
1DIM
 10
43.573223260208017
 20
135.04448095933861
 30
0.0
 11
43.912025385275221
 21
133.0454001127591
 31
0.0
 12
42.943186343753432
 22
134.82654076490709
 32
0.0
 13
42.943186343753432
 23
134.82654076490709
 33
0.0
  0
POLYLINE
  5
53F3
  8
1DIM
 66
     1
 10
0.0
 20
0.0
 30
0.0
  0
VERTEX
  5
53F4
  8
1DIM
 10
43.258204801980732
 20
134.9355108621229
 30
0.0
  0
VERTEX
  5
53F5
  8
1DIM
 10
30.70000118934832
 20
171.23965338595011
 30
0.0
  0
VERTEX
  5
53F6
  8
1DIM
 10
-0.4666654773183439
 20
171.23965338595011
 30
0.0
  0
SEQEND
  5
53F7
  8
1DIM
  0
ENDBLK
  5
53F9
  8
0
  0
BLOCK
  8
0
  2
*U236
 70
     1
 10
0.0
 20
0.0
 30
0.0
  3
*U236
  1

  0
TEXT
  5
53FB
  8
1DIM
 62
   201
 10
0.0000011893483035
 20
171.93965338595009
 30
0.0
 40
3.5
  1
材質：スチール
  0
ENDBLK
  5
53FD
  8
0
  0
BLOCK
  8
0
  2
*U237
 70
     1
 10
0.0
 20
0.0
 30
0.0
  3
*U237
  1

  0
SOLID
  5
53FF
  8
1DIM
 10
45.876465151436228
 20
92.154871955208066
 30
0.0
 11
44.367503714496763
 21
90.800565308639179
 31
0.0
 12
45.355665080282023
 22
92.571059088995526
 32
0.0
 13
45.355665080282023
 23
92.571059088995526
 33
0.0
  0
POLYLINE
  5
5400
  8
1DIM
 66
     1
 10
0.0
 20
0.0
 30
0.0
  0
VERTEX
  5
5401
  8
1DIM
 10
45.616065115859122
 20
92.362965522101803
 30
0.0
  0
VERTEX
  5
5402
  8
1DIM
 10
53.641312691701707
 20
102.4054420169745
 30
0.0
  0
VERTEX
  5
5403
  8
1DIM
 10
101.6079793583684
 20
102.4054420169745
 30
0.0
  0
SEQEND
  5
5404
  8
1DIM
  0
ENDBLK
  5
5406
  8
0
  0
BLOCK
  8
0
  2
*U238
 70
     1
 10
0.0
 20
0.0
 30
0.0
  3
*U238
  1

  0
TEXT
  5
5408
  8
1DIM
 62
   201
 10
56.341312691701717
 20
103.10544201697449
 30
0.0
 40
3.5
  1
材質：亜鉛ダイキャスト
  0
ENDBLK
  5
540A
  8
0
  0
BLOCK
  8
0
  2
*U239
 70
     1
 10
0.0
 20
0.0
 30
0.0
  3
*U239
  1

  0
TEXT
  5
540C
  8
1DIM
 62
   201
 10
341.6759233683436
 20
-35.513285581039142
 30
0.0
 40
3.5
  1
25 
  0
ENDBLK
  5
540E
  8
0
  0
BLOCK
  8
0
  2
*U240
 70
     1
 10
0.0
 20
0.0
 30
0.0
  3
*U240
  1

  0
TEXT
  5
5410
  8
1DIM
 62
   201
 10
322.98385229371422
 20
-70.193534324248503
 30
0.0
 40
3.5
  1
φ3.5
 50
90.0
  0
ENDBLK
  5
5412
  8
0
  0
BLOCK
  8
0
  2
*U241
 70
     1
 10
0.0
 20
0.0
 30
0.0
  3
*U241
  1

  0
TEXT
  5
5414
  8
1DIM
 62
   201
 10
233.77432442427781
 20
-32.636723215225103
 30
0.0
 40
3.5
  1
11.5 
 50
90.0
  0
ENDBLK
  5
5416
  8
0
  0
BLOCK
  8
0
  2
*U242
 70
     1
 10
0.0
 20
0.0
 30
0.0
  3
*U242
  1

  0
TEXT
  5
5418
  8
1DIM
 62
   201
 10
233.77432442427781
 20
-118.1367232152251
 30
0.0
 40
3.5
  1
取付けねじピッチ100 
 50
90.0
  0
ENDBLK
  5
541A
  8
0
  0
BLOCK
  8
0
  2
*U243
 70
     1
 10
0.0
 20
0.0
 30
0.0
  3
*U243
  1

  0
TEXT
  5
541C
  8
1DIM
 62
   201
 10
281.93789261171571
 20
-67.603389881891815
 30
0.0
 40
3.5
  1
上下調整範囲
 50
90.0
  0
TEXT
  5
541D
  8
1DIM
 62
   201
 10
287.77122594504903
 20
-68.420056548558478
 30
0.0
 40
3.5
  1
34.5~42.5
 50
90.0
  0
ENDBLK
  5
541F
  8
0
  0
BLOCK
  8
0
  2
*U244
 70
     1
 10
0.0
 20
0.0
 30
0.0
  3
*U244
  1

  0
TEXT
  5
5421
  8
1DIM
 62
   201
 10
287.77122594504903
 20
-95.253389881891877
 30
0.0
 40
3.5
  1
31.5 
 50
90.0
  0
ENDBLK
  5
5423
  8
0
  0
BLOCK
  8
0
  2
*U245
 70
     1
 10
0.0
 20
0.0
 30
0.0
  3
*U245
  1

  0
TEXT
  5
5425
  8
1DIM
 62
   201
 10
155.06308274281119
 20
-195.205041521315
 30
0.0
 40
3.5
  1
13 
 50
90.0
  0
ENDBLK
  5
5427
  8
0
  0
BLOCK
  8
0
  2
*U246
 70
     1
 10
0.0
 20
0.0
 30
0.0
  3
*U246
  1

  0
TEXT
  5
5429
  8
1DIM
 62
   201
 10
182.5839941483664
 20
-81.401312920778494
 30
0.0
 40
3.5
  1
前後調整範囲
  0
TEXT
  5
542A
  8
1DIM
 62
   201
 10
183.86732748169979
 20
-87.234646254111837
 30
0.0
 40
3.5
  1
3.6 ～6.5
  0
ENDBLK
  5
542C
  8
0
  0
BLOCK
  8
0
  2
*U247
 70
     1
 10
0.0
 20
0.0
 30
0.0
  3
*U247
  1

  0
TEXT
  5
542E
  8
1DIM
 62
   201
 10
269.43909359965699
 20
-31.885613314688751
 30
0.0
 40
3.5
  1
R6 
 50
43.605068500900877
  0
ENDBLK
  5
5430
  8
0
  0
BLOCK
  8
0
  2
*U248
 70
     1
 10
0.0
 20
0.0
 30
0.0
  3
*U248
  1

  0
TEXT
  5
5432
  8
1DIM
 62
   201
 10
256.31458237600168
 20
-83.677927228312981
 30
0.0
 40
3.5
  1
9 
  0
ENDBLK
  5
5434
  8
0
  0
BLOCK
  8
0
  2
*U249
 70
     1
 10
0.0
 20
0.0
 30
0.0
  3
*U249
  1

  0
TEXT
  5
5436
  8
1DIM
 62
   201
 10
192.0953474970797
 20
-195.205041521315
 30
0.0
 40
3.5
  1
16 
 50
90.0
  0
ENDBLK
  5
5438
  8
0
  0
BLOCK
  8
0
  2
*U250
 70
     1
 10
0.0
 20
0.0
 30
0.0
  3
*U250
  1

  0
TEXT
  5
543A
  8
1DIM
 62
   201
 10
165.96732748169981
 20
-173.04550816968319
 30
0.0
 40
3.5
  1
14.5 
  0
ENDBLK
  5
543C
  8
0
  0
BLOCK
  8
0
  2
*U251
 70
     1
 10
0.0
 20
0.0
 30
0.0
  3
*U251
  1

  0
TEXT
  5
543E
  8
1DIM
 62
   201
 10
182.7506608150332
 20
-165.20638401700549
 30
0.0
 40
3.5
  1
2.5 
  0
ENDBLK
  5
5440
  8
0
  0
BLOCK
  8
0
  2
*U252
 70
     1
 10
0.0
 20
0.0
 30
0.0
  3
*U252
  1

  0
TEXT
  5
5442
  8
1DIM
 62
   201
 10
139.79440373834379
 20
-113.9533898818916
 30
0.0
 40
3.5
  1
切欠き必要寸法75 
 50
90.0
  0
ENDBLK
  5
5444
  8
0
  0
BLOCK
  8
0
  2
*U253
 70
     1
 10
0.0
 20
0.0
 30
0.0
  3
*U253
  1

  0
TEXT
  5
5446
  8
1DIM
 62
   201
 10
146.9752804442343
 20
-99.253389881891593
 30
0.0
 40
3.5
  1
67 
 50
90.0
  0
ENDBLK
  5
5448
  8
0
  0
BLOCK
  8
0
  2
*U254
 70
     1
 10
0.0
 20
0.0
 30
0.0
  3
*U254
  1

  0
TEXT
  5
544A
  8
1DIM
 62
   201
 10
146.9752804442343
 20
-53.536723215224633
 30
0.0
 40
3.5
  1
4 可動シロ
 50
90.0
  0
ENDBLK
  5
544C
  8
0
  0
BLOCK
  8
0
  2
*U255
 70
     1
 10
0.0
 20
0.0
 30
0.0
  3
*U255
  1

  0
TEXT
  5
544E
  8
1DIM
 62
   201
 10
146.9752804442343
 20
-160.1367232152252
 30
0.0
 40
3.5
  1
4 可動シロ
 50
90.0
  0
ENDBLK
  5
5450
  8
0
  0
BLOCK
  8
0
  2
*U256
 70
     1
 10
0.0
 20
0.0
 30
0.0
  3
*U256
  1

  0
TEXT
  5
5452
  8
1DIM
 62
   201
 10
255.14791570933511
 20
-173.04550816968319
 30
0.0
 40
3.5
  1
16 
  0
ENDBLK
  5
5454
  8
0
  0
BLOCK
  8
0
  2
*U257
 70
     1
 10
0.0
 20
0.0
 30
0.0
  3
*U257
  1

  0
TEXT
  5
5456
  8
1DIM
 62
   201
 10
294.99318127613839
 20
-101.92005654855841
 30
0.0
 40
3.5
  1
123 
 50
90.0
  0
ENDBLK
  5
5458
  8
0
  0
ENDSEC
  0
SECTION
  2
ENTITIES
  0
LINE
  5
4D98
  8
01
 10
357.09257374744612
 20
-68.128032824951774
 30
0.0
 11
357.09259003501029
 21
-61.128032824951781
 31
0.0
  0
LINE
  5
4D99
  8
01
 10
356.83009003500928
 20
-61.128032824951781
 30
0.0
 11
357.09259003501029
 21
-61.128032824951781
 31
0.0
  0
LINE
  5
4D9A
  8
01
 10
356.83007374744523
 20
-68.128032824951774
 30
0.0
 11
357.09257374744612
 21
-68.128032824951774
 31
0.0
  0
LINE
  5
4D9B
  8
01
 10
356.83009003500928
 20
-61.128032824951781
 30
0.0
 11
354.64256458554217
 21
-63.315532824951781
 31
0.0
  0
LINE
  5
4D9C
  8
01
 10
356.83007374744523
 20
-68.128032824951774
 30
0.0
 11
354.64258901698349
 21
-65.940532824951774
 31
0.0
  0
LINE
  5
4D9D
  8
01
 10
336.73009308897531
 20
-63.315532824951781
 30
0.0
 11
354.64256458554217
 21
-63.315532824951781
 31
0.0
  0
LINE
  5
4D9E
  8
01
 10
336.7300869811387
 20
-65.940532824951774
 30
0.0
 11
354.64258901698349
 21
-65.940532824951774
 31
0.0
  0
LINE
  5
4D9F
  8
01
 10
332.0925900350104
 20
-64.628032824951788
 30
0.0
 11
336.73009308897531
 21
-63.315532824951781
 31
0.0
  0
LINE
  5
4DA0
  8
01
 10
332.0925900350104
 20
-64.628032824951788
 30
0.0
 11
336.7300869811387
 21
-65.940532824951774
 31
0.0
  0
LINE
  5
4DA1
  8
01
 10
356.83007374744523
 20
-68.128032824951774
 30
0.0
 11
356.83009003500928
 21
-61.128032824951781
 31
0.0
  0
LINE
  5
4DA2
  8
01
 10
346.5300859631659
 20
-66.378032824951788
 30
0.0
 11
345.8300941069499
 21
-62.878032824951788
 31
0.0
  0
LINE
  5
4DA3
  8
01
 10
345.8300941069499
 20
-62.878032824951788
 30
0.0
 11
345.74259308897689
 21
-63.315532824951781
 31
0.0
  0
LINE
  5
4DA4
  8
01
 10
343.730085963166
 20
-66.378032824951788
 30
0.0
 11
343.03009410694619
 21
-62.878032824951788
 31
0.0
  0
LINE
  5
4DA5
  8
01
 10
345.13008596316581
 20
-66.378032824951788
 30
0.0
 11
344.43009410694611
 21
-62.878032824951788
 31
0.0
  0
LINE
  5
4DA6
  8
01
 10
340.93008596316588
 20
-66.378032824951788
 30
0.0
 11
340.23009410694613
 21
-62.878032824951788
 31
0.0
  0
LINE
  5
4DA7
  8
01
 10
342.3300859631658
 20
-66.378032824951788
 30
0.0
 11
341.6300941069461
 21
-62.878032824951788
 31
0.0
  0
LINE
  5
4DA8
  8
01
 10
338.13008596316581
 20
-66.378032824951788
 30
0.0
 11
337.430094106946
 21
-62.878032824951788
 31
0.0
  0
LINE
  5
4DA9
  8
01
 10
336.03009364599382
 20
-63.076138995630259
 30
0.0
 11
335.9169817855676
 21
-63.545658513992521
 31
0.0
  0
LINE
  5
4DAA
  8
01
 10
336.73008596316589
 20
-66.378032824951788
 30
0.0
 11
336.03009364599382
 21
-63.076138995630259
 31
0.0
  0
LINE
  5
4DAB
  8
01
 10
339.5300859631659
 20
-66.378032824951788
 30
0.0
 11
338.83009410694621
 21
-62.878032824951788
 31
0.0
  0
LINE
  5
4DAC
  8
01
 10
343.03009410694619
 20
-62.878032824951788
 30
0.0
 11
342.94259308897358
 21
-63.315532824951781
 31
0.0
  0
LINE
  5
4DAD
  8
01
 10
344.43009410694611
 20
-62.878032824951788
 30
0.0
 11
344.34259308897367
 21
-63.315532824951781
 31
0.0
  0
LINE
  5
4DAE
  8
01
 10
340.23009410694613
 20
-62.878032824951788
 30
0.0
 11
340.14259308897351
 21
-63.315532824951781
 31
0.0
  0
LINE
  5
4DAF
  8
01
 10
341.6300941069461
 20
-62.878032824951788
 30
0.0
 11
341.5425930889736
 21
-63.315532824951781
 31
0.0
  0
LINE
  5
4DB0
  8
01
 10
337.430094106946
 20
-62.878032824951788
 30
0.0
 11
337.34259308897367
 21
-63.315532824951781
 31
0.0
  0
LINE
  5
4DB1
  8
01
 10
338.83009410694621
 20
-62.878032824951788
 30
0.0
 11
338.74259308897382
 21
-63.315532824951781
 31
0.0
  0
LINE
  5
4DB2
  8
1CENTER
 10
330.98759014313748
 20
-64.628032824951788
 30
0.0
 11
358.5500653195574
 21
-64.628032824951788
 31
0.0
  0
LINE
  5
4DB3
  8
01
 10
335.42876020838111
 20
-65.572232552394155
 30
0.0
 11
335.33008688507482
 21
-65.981818700650393
 31
0.0
  0
LINE
  5
4DB4
  8
01
 10
333.23009180218389
 20
-63.868563678342163
 30
0.0
 11
332.95729317796332
 21
-64.383305681504282
 31
0.0
  0
LINE
  5
4DB5
  8
01
 10
334.06259412886391
 20
-65.185581520555957
 30
0.0
 11
333.93008780697852
 21
-65.585606881108163
 31
0.0
  0
LINE
  5
4DB6
  8
01
 10
334.63009272408891
 20
-63.472351336986208
 30
0.0
 11
334.4701740992893
 21
-63.955132117814053
 31
0.0
  0
LINE
  5
4DB7
  8
01
 10
333.93008780697852
 20
-65.585606881108163
 30
0.0
 11
333.23009180218389
 21
-63.868563678342163
 31
0.0
  0
LINE
  5
4DB8
  8
01
 10
335.33008688507482
 20
-65.981818700650393
 30
0.0
 11
334.63009272408891
 21
-63.472351336986208
 31
0.0
  0
LINE
  5
4DB9
  8
01
 10
343.81758698113839
 20
-65.940532824951774
 30
0.0
 11
343.730085963166
 21
-66.378032824951788
 31
0.0
  0
LINE
  5
4DBA
  8
01
 10
345.21758698113888
 20
-65.940532824951774
 30
0.0
 11
345.13008596316581
 21
-66.378032824951788
 31
0.0
  0
LINE
  5
4DBB
  8
01
 10
339.6175869811384
 20
-65.940532824951774
 30
0.0
 11
339.5300859631659
 21
-66.378032824951788
 31
0.0
  0
LINE
  5
4DBC
  8
01
 10
341.01758698113838
 20
-65.940532824951774
 30
0.0
 11
340.93008596316588
 21
-66.378032824951788
 31
0.0
  0
LINE
  5
4DBD
  8
01
 10
342.41758698113819
 20
-65.940532824951774
 30
0.0
 11
342.3300859631658
 21
-66.378032824951788
 31
0.0
  0
LINE
  5
4DBE
  8
01
 10
338.21758698113831
 20
-65.940532824951774
 30
0.0
 11
338.13008596316581
 21
-66.378032824951788
 31
0.0
  0
LINE
  5
4DBF
  8
01
 10
336.8175869811385
 20
-65.940532824951774
 30
0.0
 11
336.73008596316589
 21
-66.378032824951788
 31
0.0
  0
LINE
  5
4DC0
  8
01
 10
346.6175869811388
 20
-65.940532824951774
 30
0.0
 11
346.5300859631659
 21
-66.378032824951788
 31
0.0
  0
LINE
  5
4DC1
  8
01
 10
347.93008596316793
 20
-66.378032824951788
 30
0.0
 11
347.23009410695192
 21
-62.878032824951788
 31
0.0
  0
LINE
  5
4DC2
  8
01
 10
347.23009410695192
 20
-62.878032824951788
 30
0.0
 11
347.14259308897903
 21
-63.315532824951781
 31
0.0
  0
LINE
  5
4DC3
  8
01
 10
348.01758698114088
 20
-65.940532824951774
 30
0.0
 11
347.93008596316793
 21
-66.378032824951788
 31
0.0
  0
LINE
  5
4DC4
  8
01
 10
349.33008596317001
 20
-66.378032824951788
 30
0.0
 11
348.630094106954
 21
-62.878032824951788
 31
0.0
  0
LINE
  5
4DC5
  8
01
 10
348.630094106954
 20
-62.878032824951788
 30
0.0
 11
348.54259308898099
 21
-63.315532824951781
 31
0.0
  0
LINE
  5
4DC6
  8
01
 10
349.4175869811429
 20
-65.940532824951774
 30
0.0
 11
349.33008596317001
 21
-66.378032824951788
 31
0.0
  0
LINE
  5
4DC7
  8
01
 10
350.73008596317197
 20
-66.378032824951788
 30
0.0
 11
350.03009410695603
 21
-62.878032824951788
 31
0.0
  0
LINE
  5
4DC8
  8
01
 10
350.03009410695603
 20
-62.878032824951788
 30
0.0
 11
349.94259308898302
 21
-63.315532824951781
 31
0.0
  0
LINE
  5
4DC9
  8
01
 10
350.81758698114493
 20
-65.940532824951774
 30
0.0
 11
350.73008596317197
 21
-66.378032824951788
 31
0.0
  0
LINE
  5
4DCA
  8
01
 10
352.130085963174
 20
-66.378032824951788
 30
0.0
 11
351.43009410695799
 21
-62.878032824951788
 31
0.0
  0
LINE
  5
4DCB
  8
01
 10
351.43009410695799
 20
-62.878032824951788
 30
0.0
 11
351.34259308898498
 21
-63.315532824951781
 31
0.0
  0
LINE
  5
4DCC
  8
01
 10
352.21758698114701
 20
-65.940532824951774
 30
0.0
 11
352.130085963174
 21
-66.378032824951788
 31
0.0
  0
LINE
  5
4DCD
  8
01
 10
353.53008596317602
 20
-66.378032824951788
 30
0.0
 11
352.83009410696002
 21
-62.878032824951788
 31
0.0
  0
LINE
  5
4DCE
  8
01
 10
352.83009410696002
 20
-62.878032824951788
 30
0.0
 11
352.74259308898701
 21
-63.315532824951781
 31
0.0
  0
LINE
  5
4DCF
  8
01
 10
353.61758698114897
 20
-65.940532824951774
 30
0.0
 11
353.53008596317602
 21
-66.378032824951788
 31
0.0
  0
LINE
  5
4DD0
  8
01
 10
357.09257374744612
 20
-55.626867657581897
 30
0.0
 11
357.09259003501029
 21
-48.626867657581897
 31
0.0
  0
LINE
  5
4DD1
  8
01
 10
356.83009003500928
 20
-48.626867657581897
 30
0.0
 11
357.09259003501029
 21
-48.626867657581897
 31
0.0
  0
LINE
  5
4DD2
  8
01
 10
356.83007374744523
 20
-55.626867657581897
 30
0.0
 11
357.09257374744612
 21
-55.626867657581897
 31
0.0
  0
LINE
  5
4DD3
  8
01
 10
356.83009003500928
 20
-48.626867657581897
 30
0.0
 11
354.64256458554217
 21
-50.814367657581897
 31
0.0
  0
LINE
  5
4DD4
  8
01
 10
356.83007374744523
 20
-55.626867657581897
 30
0.0
 11
354.64258901698349
 21
-53.439367657581897
 31
0.0
  0
LINE
  5
4DD5
  8
01
 10
336.73009308897531
 20
-50.814367657581897
 30
0.0
 11
354.64256458554217
 21
-50.814367657581897
 31
0.0
  0
LINE
  5
4DD6
  8
01
 10
336.7300869811387
 20
-53.439367657581897
 30
0.0
 11
354.64258901698349
 21
-53.439367657581897
 31
0.0
  0
LINE
  5
4DD7
  8
01
 10
332.0925900350104
 20
-52.12686765758189
 30
0.0
 11
336.73009308897531
 21
-50.814367657581897
 31
0.0
  0
LINE
  5
4DD8
  8
01
 10
332.0925900350104
 20
-52.12686765758189
 30
0.0
 11
336.7300869811387
 21
-53.439367657581897
 31
0.0
  0
LINE
  5
4DD9
  8
01
 10
356.83007374744523
 20
-55.626867657581897
 30
0.0
 11
356.83009003500928
 21
-48.626867657581897
 31
0.0
  0
LINE
  5
4DDA
  8
01
 10
346.5300859631659
 20
-53.87686765758189
 30
0.0
 11
345.8300941069499
 21
-50.376867657581897
 31
0.0
  0
LINE
  5
4DDB
  8
01
 10
345.8300941069499
 20
-50.376867657581897
 30
0.0
 11
345.74259308897689
 21
-50.814367657581897
 31
0.0
  0
LINE
  5
4DDC
  8
01
 10
343.730085963166
 20
-53.87686765758189
 30
0.0
 11
343.03009410694619
 21
-50.376867657581897
 31
0.0
  0
LINE
  5
4DDD
  8
01
 10
345.13008596316581
 20
-53.87686765758189
 30
0.0
 11
344.43009410694611
 21
-50.376867657581897
 31
0.0
  0
LINE
  5
4DDE
  8
01
 10
340.93008596316588
 20
-53.87686765758189
 30
0.0
 11
340.23009410694613
 21
-50.376867657581897
 31
0.0
  0
LINE
  5
4DDF
  8
01
 10
342.3300859631658
 20
-53.87686765758189
 30
0.0
 11
341.6300941069461
 21
-50.376867657581897
 31
0.0
  0
LINE
  5
4DE0
  8
01
 10
338.13008596316581
 20
-53.87686765758189
 30
0.0
 11
337.430094106946
 21
-50.376867657581897
 31
0.0
  0
LINE
  5
4DE1
  8
01
 10
336.03009364599382
 20
-50.574973828260369
 30
0.0
 11
335.9169817855676
 21
-51.04449334662263
 31
0.0
  0
LINE
  5
4DE2
  8
01
 10
336.73008596316589
 20
-53.87686765758189
 30
0.0
 11
336.03009364599382
 21
-50.574973828260369
 31
0.0
  0
LINE
  5
4DE3
  8
01
 10
339.5300859631659
 20
-53.87686765758189
 30
0.0
 11
338.83009410694621
 21
-50.376867657581897
 31
0.0
  0
LINE
  5
4DE4
  8
01
 10
343.03009410694619
 20
-50.376867657581897
 30
0.0
 11
342.94259308897358
 21
-50.814367657581897
 31
0.0
  0
LINE
  5
4DE5
  8
01
 10
344.43009410694611
 20
-50.376867657581897
 30
0.0
 11
344.34259308897367
 21
-50.814367657581897
 31
0.0
  0
LINE
  5
4DE6
  8
01
 10
340.23009410694613
 20
-50.376867657581897
 30
0.0
 11
340.14259308897351
 21
-50.814367657581897
 31
0.0
  0
LINE
  5
4DE7
  8
01
 10
341.6300941069461
 20
-50.376867657581897
 30
0.0
 11
341.5425930889736
 21
-50.814367657581897
 31
0.0
  0
LINE
  5
4DE8
  8
01
 10
337.430094106946
 20
-50.376867657581897
 30
0.0
 11
337.34259308897367
 21
-50.814367657581897
 31
0.0
  0
LINE
  5
4DE9
  8
01
 10
338.83009410694621
 20
-50.376867657581897
 30
0.0
 11
338.74259308897382
 21
-50.814367657581897
 31
0.0
  0
LINE
  5
4DEA
  8
1CENTER
 10
330.98759014313748
 20
-52.12686765758189
 30
0.0
 11
358.5500653195574
 21
-52.12686765758189
 31
0.0
  0
LINE
  5
4DEB
  8
01
 10
335.42876020838111
 20
-53.071067385024257
 30
0.0
 11
335.33008688507482
 21
-53.480653533280503
 31
0.0
  0
LINE
  5
4DEC
  8
01
 10
333.23009180218389
 20
-51.367398510972258
 30
0.0
 11
332.95729317796332
 21
-51.882140514134392
 31
0.0
  0
LINE
  5
4DED
  8
01
 10
334.06259412886391
 20
-52.684416353186059
 30
0.0
 11
333.93008780697852
 21
-53.084441713738272
 31
0.0
  0
LINE
  5
4DEE
  8
01
 10
334.63009272408891
 20
-50.971186169616317
 30
0.0
 11
334.4701740992893
 21
-51.453966950444169
 31
0.0
  0
LINE
  5
4DEF
  8
01
 10
333.93008780697852
 20
-53.084441713738272
 30
0.0
 11
333.23009180218389
 21
-51.367398510972258
 31
0.0
  0
LINE
  5
4DF0
  8
01
 10
335.33008688507482
 20
-53.480653533280503
 30
0.0
 11
334.63009272408891
 21
-50.971186169616317
 31
0.0
  0
LINE
  5
4DF1
  8
01
 10
343.81758698113839
 20
-53.439367657581897
 30
0.0
 11
343.730085963166
 21
-53.87686765758189
 31
0.0
  0
LINE
  5
4DF2
  8
01
 10
345.21758698113888
 20
-53.439367657581897
 30
0.0
 11
345.13008596316581
 21
-53.87686765758189
 31
0.0
  0
LINE
  5
4DF3
  8
01
 10
339.6175869811384
 20
-53.439367657581897
 30
0.0
 11
339.5300859631659
 21
-53.87686765758189
 31
0.0
  0
LINE
  5
4DF4
  8
01
 10
341.01758698113838
 20
-53.439367657581897
 30
0.0
 11
340.93008596316588
 21
-53.87686765758189
 31
0.0
  0
LINE
  5
4DF5
  8
01
 10
342.41758698113819
 20
-53.439367657581897
 30
0.0
 11
342.3300859631658
 21
-53.87686765758189
 31
0.0
  0
LINE
  5
4DF6
  8
01
 10
338.21758698113831
 20
-53.439367657581897
 30
0.0
 11
338.13008596316581
 21
-53.87686765758189
 31
0.0
  0
LINE
  5
4DF7
  8
01
 10
336.8175869811385
 20
-53.439367657581897
 30
0.0
 11
336.73008596316589
 21
-53.87686765758189
 31
0.0
  0
LINE
  5
4DF8
  8
01
 10
346.6175869811388
 20
-53.439367657581897
 30
0.0
 11
346.5300859631659
 21
-53.87686765758189
 31
0.0
  0
LINE
  5
4DF9
  8
01
 10
347.93008596316793
 20
-53.87686765758189
 30
0.0
 11
347.23009410695192
 21
-50.376867657581897
 31
0.0
  0
LINE
  5
4DFA
  8
01
 10
347.23009410695192
 20
-50.376867657581897
 30
0.0
 11
347.14259308897903
 21
-50.814367657581897
 31
0.0
  0
LINE
  5
4DFB
  8
01
 10
348.01758698114088
 20
-53.439367657581897
 30
0.0
 11
347.93008596316793
 21
-53.87686765758189
 31
0.0
  0
LINE
  5
4DFC
  8
01
 10
349.33008596317001
 20
-53.87686765758189
 30
0.0
 11
348.630094106954
 21
-50.376867657581897
 31
0.0
  0
LINE
  5
4DFD
  8
01
 10
348.630094106954
 20
-50.376867657581897
 30
0.0
 11
348.54259308898099
 21
-50.814367657581897
 31
0.0
  0
LINE
  5
4DFE
  8
01
 10
349.4175869811429
 20
-53.439367657581897
 30
0.0
 11
349.33008596317001
 21
-53.87686765758189
 31
0.0
  0
LINE
  5
4DFF
  8
01
 10
350.73008596317197
 20
-53.87686765758189
 30
0.0
 11
350.03009410695603
 21
-50.376867657581897
 31
0.0
  0
LINE
  5
4E00
  8
01
 10
350.03009410695603
 20
-50.376867657581897
 30
0.0
 11
349.94259308898302
 21
-50.814367657581897
 31
0.0
  0
LINE
  5
4E01
  8
01
 10
350.81758698114493
 20
-53.439367657581897
 30
0.0
 11
350.73008596317197
 21
-53.87686765758189
 31
0.0
  0
LINE
  5
4E02
  8
01
 10
352.130085963174
 20
-53.87686765758189
 30
0.0
 11
351.43009410695799
 21
-50.376867657581897
 31
0.0
  0
LINE
  5
4E03
  8
01
 10
351.43009410695799
 20
-50.376867657581897
 30
0.0
 11
351.34259308898498
 21
-50.814367657581897
 31
0.0
  0
LINE
  5
4E04
  8
01
 10
352.21758698114701
 20
-53.439367657581897
 30
0.0
 11
352.130085963174
 21
-53.87686765758189
 31
0.0
  0
LINE
  5
4E05
  8
01
 10
353.53008596317602
 20
-53.87686765758189
 30
0.0
 11
352.83009410696002
 21
-50.376867657581897
 31
0.0
  0
LINE
  5
4E06
  8
01
 10
352.83009410696002
 20
-50.376867657581897
 30
0.0
 11
352.74259308898701
 21
-50.814367657581897
 31
0.0
  0
LINE
  5
4E07
  8
01
 10
353.61758698114897
 20
-53.439367657581897
 30
0.0
 11
353.53008596317602
 21
-53.87686765758189
 31
0.0
  0
LINE
  5
4E0C
  8
01
  6
BYBLOCK
 10
261.98124904266842
 20
-110.33672321522521
 30
0.0
 11
261.98124904266842
 21
-70.836723215225248
 31
0.0
  0
LINE
  5
4E0D
  8
01
  6
BYBLOCK
 10
252.9812490426684
 20
-110.33672321522521
 30
0.0
 11
252.9812490426684
 21
-70.836723215225248
 31
0.0
  0
LINE
  5
4E0E
  8
01
  6
BYBLOCK
 10
252.9812490426684
 20
-110.33672321522521
 30
0.0
 11
261.98124904266842
 21
-110.33672321522521
 31
0.0
  0
LINE
  5
4E0F
  8
01
  6
BYBLOCK
 10
253.4812490426684
 20
-106.33672321522521
 30
0.0
 11
250.9812490426684
 21
-106.33672321522521
 31
0.0
  0
LINE
  5
4E10
  8
01
  6
BYBLOCK
 10
261.48124904266842
 20
-106.33672321522521
 30
0.0
 11
263.98124904266842
 21
-106.33672321522521
 31
0.0
  0
LINE
  5
4E11
  8
01
  6
BYBLOCK
 10
252.9812490426684
 20
-110.33672321522521
 30
0.0
 11
251.9812490426684
 21
-110.33672321522521
 31
0.0
  0
LINE
  5
4E12
  8
01
  6
BYBLOCK
 10
251.9812490426684
 20
-109.33672321522521
 30
0.0
 11
252.9812490426684
 21
-109.33672321522521
 31
0.0
  0
LINE
  5
4E13
  8
01
  6
BYBLOCK
 10
251.9812490426684
 20
-108.33672321522521
 30
0.0
 11
252.9812490426684
 21
-108.33672321522521
 31
0.0
  0
LINE
  5
4E14
  8
01
  6
BYBLOCK
 10
251.9812490426684
 20
-107.33672321522521
 30
0.0
 11
252.9812490426684
 21
-107.33672321522521
 31
0.0
  0
LINE
  5
4E15
  8
01
  6
BYBLOCK
 10
261.98124904266842
 20
-110.33672321522521
 30
0.0
 11
262.98124904266842
 21
-110.33672321522521
 31
0.0
  0
LINE
  5
4E16
  8
01
  6
BYBLOCK
 10
261.98124904266842
 20
-109.33672321522521
 30
0.0
 11
262.98124904266842
 21
-109.33672321522521
 31
0.0
  0
LINE
  5
4E17
  8
01
  6
BYBLOCK
 10
261.98124904266842
 20
-108.33672321522521
 30
0.0
 11
262.98124904266842
 21
-108.33672321522521
 31
0.0
  0
LINE
  5
4E18
  8
01
  6
BYBLOCK
 10
261.98124904266842
 20
-107.33672321522521
 30
0.0
 11
262.98124904266842
 21
-107.33672321522521
 31
0.0
  0
LINE
  5
4E19
  8
01
  6
BYBLOCK
 10
261.98124904266842
 20
-105.33672321522521
 30
0.0
 11
262.98124904266842
 21
-105.33672321522521
 31
0.0
  0
LINE
  5
4E1A
  8
01
  6
BYBLOCK
 10
261.98124904266842
 20
-104.33672321522521
 30
0.0
 11
262.98124904266842
 21
-104.33672321522521
 31
0.0
  0
LINE
  5
4E1B
  8
01
  6
BYBLOCK
 10
261.98124904266842
 20
-103.33672321522521
 30
0.0
 11
262.98124904266842
 21
-103.33672321522521
 31
0.0
  0
LINE
  5
4E1C
  8
01
  6
BYBLOCK
 10
261.98124904266842
 20
-102.33672321522521
 30
0.0
 11
262.98124904266842
 21
-102.33672321522521
 31
0.0
  0
LINE
  5
4E1D
  8
01
  6
BYBLOCK
 10
251.9812490426684
 20
-105.33672321522521
 30
0.0
 11
252.9812490426684
 21
-105.33672321522521
 31
0.0
  0
LINE
  5
4E1E
  8
01
  6
BYBLOCK
 10
251.9812490426684
 20
-104.33672321522521
 30
0.0
 11
252.9812490426684
 21
-104.33672321522521
 31
0.0
  0
LINE
  5
4E1F
  8
01
  6
BYBLOCK
 10
251.9812490426684
 20
-103.33672321522521
 30
0.0
 11
252.9812490426684
 21
-103.33672321522521
 31
0.0
  0
LINE
  5
4E20
  8
01
  6
BYBLOCK
 10
251.9812490426684
 20
-102.33672321522521
 30
0.0
 11
252.9812490426684
 21
-102.33672321522521
 31
0.0
  0
TEXT
  5
4E21
  8
01
  6
BYBLOCK
 10
251.27570759246441
 20
-65.870084614269132
 30
0.0
 40
4.0
  1
KAWAJUN
 41
0.45
  0
LINE
  5
4E22
  8
01
  6
BYBLOCK
 10
252.9812490426684
 20
-106.33672321522521
 30
0.0
 11
261.98124904266842
 21
-106.33672321522521
 31
0.0
  0
LINE
  5
4E23
  8
01
  6
BYBLOCK
 10
255.4812490426684
 20
-159.33672321522519
 30
0.0
 11
259.48124904266842
 21
-159.33672321522519
 31
0.0
  0
ARC
  5
4E24
  8
01
  6
BYBLOCK
 10
255.4812490426684
 20
-153.33672321522519
 30
0.0
 40
6.0
 50
180.0
 51
270.0
  0
LINE
  5
4E25
  8
1CENTER
 10
249.4812490426682
 20
-147.83672321522519
 30
0.0
 11
265.4812490426682
 21
-147.83672321522519
 31
0.0
  0
LINE
  5
4E26
  8
01
  6
BYBLOCK
 10
255.4812490426684
 20
-36.336723215225142
 30
0.0
 11
259.48124904266842
 21
-36.336723215225142
 31
0.0
  0
LINE
  5
4E27
  8
1CENTER
 10
249.4812490426684
 20
-47.836723215225128
 30
0.0
 11
265.48124904266842
 21
-47.836723215225128
 31
0.0
  0
LINE
  5
4E28
  8
01
  6
BYBLOCK
 10
252.9812490426684
 20
-74.836723215225248
 30
0.0
 11
261.98124904266842
 21
-74.836723215225248
 31
0.0
  0
LINE
  5
4E29
  8
01
  6
BYBLOCK
 10
252.9812490426684
 20
-70.836723215225248
 30
0.0
 11
261.98124904266842
 21
-70.836723215225248
 31
0.0
  0
LINE
  5
4E2A
  8
1CENTER
 10
257.48124904266842
 20
-27.57180808062029
 30
0.0
 11
257.48124904266842
 21
-166.35060138311471
 31
0.0
  0
LINE
  5
4E2B
  8
01
  6
BYBLOCK
 10
249.4812490426684
 20
-42.336723215225128
 30
0.0
 11
249.4812490426684
 21
-153.33672321522519
 31
0.0
  0
ARC
  5
4E2C
  8
01
  6
BYBLOCK
 10
255.4812490426684
 20
-42.336723215225128
 30
0.0
 40
6.0
 50
90.0
 51
180.0
  0
LINE
  5
4E2D
  8
01
  6
BYBLOCK
 10
265.48124904266842
 20
-42.336723215225128
 30
0.0
 11
265.48124904266842
 21
-153.33672321522519
 31
0.0
  0
ARC
  5
4E2E
  8
01
  6
BYBLOCK
 10
259.48124904266842
 20
-153.33672321522519
 30
0.0
 40
6.0
 50
270.0
 51
0.0
  0
ARC
  5
4E2F
  8
01
  6
BYBLOCK
 10
259.48124904266842
 20
-42.336723215225128
 30
0.0
 40
6.0
 50
0.0
 51
90.0
  0
LINE
  5
4E30
  8
1CENTER
 10
265.48124904266842
 20
-121.83672321522501
 30
0.0
 11
249.4812490426684
 21
-121.83672321522501
 31
0.0
  0
LINE
  5
4E31
  8
01
  6
BYBLOCK
 10
253.9812490426684
 20
-125.83672321522501
 30
0.0
 11
253.9812490426684
 21
-117.83672321522501
 31
0.0
  0
ARC
  5
4E32
  8
01
  6
BYBLOCK
 10
257.48124904266842
 20
-117.83672321522501
 30
0.0
 40
3.5
 50
0.0
 51
180.0
  0
ARC
  5
4E33
  8
01
  6
BYBLOCK
 10
257.48124904266842
 20
-125.83672321522501
 30
0.0
 40
3.5
 50
180.0
 51
0.0
  0
LINE
  5
4E34
  8
1CENTER
 10
252.0797490426684
 20
-125.83672321522501
 30
0.0
 11
262.7574490426685
 21
-125.83672321522501
 31
0.0
  0
LINE
  5
4E35
  8
1CENTER
 10
252.0797490426684
 20
-117.83672321522501
 30
0.0
 11
262.7574490426685
 21
-117.83672321522501
 31
0.0
  0
LINE
  5
4E36
  8
01
  6
BYBLOCK
 10
260.98124904266842
 20
-125.83672321522501
 30
0.0
 11
260.98124904266842
 21
-117.83672321522501
 31
0.0
  0
CIRCLE
  5
4E37
  8
01
  6
BYBLOCK
 10
257.48124904266842
 20
-121.83672321522501
 30
0.0
 40
3.5
  0
LINE
  5
4E38
  8
01
  6
BYBLOCK
 10
255.28924904266839
 20
-123.462723215225
 30
0.0
 11
255.8549490426683
 21
-124.028723215225
 31
0.0
  0
ARC
  5
4E39
  8
01
  6
BYBLOCK
 10
254.7942490426683
 20
-121.83672321522501
 30
0.0
 40
1.5
 50
315.0
 51
45.0
  0
LINE
  5
4E3A
  8
01
  6
BYBLOCK
 10
255.28924904266839
 20
-123.462723215225
 30
0.0
 11
255.8549490426683
 21
-122.8977232152249
 31
0.0
  0
LINE
  5
4E3B
  8
01
  6
BYBLOCK
 10
259.1076490426683
 20
-124.028723215225
 30
0.0
 11
259.67324904266837
 21
-123.462723215225
 31
0.0
  0
LINE
  5
4E3C
  8
01
  6
BYBLOCK
 10
255.8549490426683
 20
-124.028723215225
 30
0.0
 11
256.42054904266843
 21
-123.462723215225
 31
0.0
  0
ARC
  5
4E3D
  8
01
  6
BYBLOCK
 10
257.48124904266842
 20
-124.5237232152249
 30
0.0
 40
1.5
 50
45.0
 51
135.0
  0
LINE
  5
4E3E
  8
01
  6
BYBLOCK
 10
258.54194904266842
 20
-123.462723215225
 30
0.0
 11
259.1076490426683
 21
-124.028723215225
 31
0.0
  0
ARC
  5
4E3F
  8
01
  6
BYBLOCK
 10
260.16824904266838
 20
-121.83672321522501
 30
0.0
 40
1.5
 50
135.0
 51
225.0
  0
LINE
  5
4E40
  8
01
  6
BYBLOCK
 10
259.1076490426683
 20
-122.8977232152249
 30
0.0
 11
259.67324904266837
 21
-123.462723215225
 31
0.0
  0
LINE
  5
4E41
  8
01
  6
BYBLOCK
 10
259.1076490426683
 20
-119.644723215225
 30
0.0
 11
259.67324904266837
 21
-120.210723215225
 31
0.0
  0
LINE
  5
4E42
  8
01
  6
BYBLOCK
 10
259.1076490426683
 20
-120.7757232152248
 30
0.0
 11
259.67324904266837
 21
-120.210723215225
 31
0.0
  0
LINE
  5
4E43
  8
01
  6
BYBLOCK
 10
255.8549490426683
 20
-119.644723215225
 30
0.0
 11
256.42054904266843
 21
-120.210723215225
 31
0.0
  0
ARC
  5
4E44
  8
01
  6
BYBLOCK
 10
257.48124904266842
 20
-119.14972321522499
 30
0.0
 40
1.5
 50
225.0
 51
315.0
  0
LINE
  5
4E45
  8
01
  6
BYBLOCK
 10
258.54194904266842
 20
-120.210723215225
 30
0.0
 11
259.1076490426683
 21
-119.644723215225
 31
0.0
  0
LINE
  5
4E46
  8
01
  6
BYBLOCK
 10
255.28924904266839
 20
-120.210723215225
 30
0.0
 11
255.8549490426683
 21
-119.644723215225
 31
0.0
  0
LINE
  5
4E47
  8
01
  6
BYBLOCK
 10
255.28924904266839
 20
-120.210723215225
 30
0.0
 11
255.8549490426683
 21
-120.7757232152248
 31
0.0
  0
ARC
  5
4E48
  8
01
  6
BYBLOCK
 10
257.48124904266842
 20
-125.1227232152248
 30
0.0
 40
6.4142900000000003
 50
231.41999999999859
 51
308.58000000000141
  0
LINE
  5
4E49
  8
01
  6
BYBLOCK
 10
254.06864904266831
 20
-130.83672321522499
 30
0.0
 11
253.4812490426684
 21
-130.136723215225
 31
0.0
  0
LINE
  5
4E4A
  8
01
  6
BYBLOCK
 10
253.4812490426684
 20
-130.136723215225
 30
0.0
 11
254.33994904266839
 21
-130.44972321522479
 31
0.0
  0
LINE
  5
4E4B
  8
01
  6
BYBLOCK
 10
260.89384904266831
 20
-130.83672321522499
 30
0.0
 11
261.48124904266842
 21
-130.136723215225
 31
0.0
  0
LINE
  5
4E4C
  8
01
  6
BYBLOCK
 10
261.48124904266842
 20
-130.136723215225
 30
0.0
 11
260.62254904266842
 21
-130.44972321522479
 31
0.0
  0
TEXT
  5
4E4D
  8
01
  6
BYBLOCK
 10
251.8430823760018
 20
-134.75172321522501
 30
0.0
 40
2.5
  1
前後調整
 72
     1
 11
257.50974904266849
 21
-133.5017232152249
 31
0.0
 73
     2
  0
CIRCLE
  5
4E4E
  8
01
  6
BYBLOCK
 10
257.48124904266842
 20
-147.83672321522519
 30
0.0
 40
2.0
  0
CIRCLE
  5
4E4F
  8
01
  6
BYBLOCK
 10
257.48124904266842
 20
-147.83672321522519
 30
0.0
 40
3.5
  0
CIRCLE
  5
4E50
  8
01
  6
BYBLOCK
 10
257.48124904266842
 20
-47.836723215225128
 30
0.0
 40
2.0
  0
CIRCLE
  5
4E51
  8
01
  6
BYBLOCK
 10
257.48124904266842
 20
-47.836723215225128
 30
0.0
 40
3.5
  0
LINE
  5
4E52
  8
01
  6
BYBLOCK
 10
175.3839941483667
 20
-62.836723215224652
 30
0.0
 11
164.88399414836661
 21
-62.836723215224652
 31
0.0
  0
LINE
  5
4E53
  8
1PHANTOM
 10
174.35527852424369
 20
-58.836723215224652
 30
0.0
 11
164.88399414836661
 21
-58.836723215224652
 31
0.0
  0
LINE
  5
4E54
  8
01
  6
BYBLOCK
 10
175.88399414836661
 20
-63.336723215224652
 30
0.0
 11
164.88399414836641
 21
-63.336723215224652
 31
0.0
  0
LINE
  5
4E57
  8
01
  6
BYBLOCK
 10
175.88399414836661
 20
-41.336723215225099
 30
0.0
 11
175.88399414836661
 21
-119.33672321522501
 31
0.0
  0
LINE
  5
4E58
  8
01
  6
BYBLOCK
 10
175.88399414836661
 20
-124.33672321522531
 30
0.0
 11
175.88399414836661
 21
-154.33672321522531
 31
0.0
  0
LINE
  5
4E5A
  8
01
  6
BYBLOCK
 10
176.88399414836661
 20
-36.336723215224943
 30
0.0
 11
176.88399414836641
 21
-159.33672321522519
 31
0.0
  0
LINE
  5
4E5B
  8
01
  6
BYBLOCK
 10
177.8839941483665
 20
-36.336723215224993
 30
0.0
 11
177.8839941483665
 21
-159.33672321522519
 31
0.0
  0
LINE
  5
4E5C
  8
01
  6
BYBLOCK
 10
177.8839941483665
 20
-36.336723215224993
 30
0.0
 11
177.88399414836641
 21
-159.33672321522519
 31
0.0
  0
LINE
  5
4E5D
  8
01
  6
BYBLOCK
 10
175.38399414836621
 20
-41.336723215225099
 30
0.0
 11
175.3839941483667
 21
-62.836723215224652
 31
0.0
  0
LINE
  5
4E5E
  8
01
  6
BYBLOCK
 10
175.38399414836661
 20
-129.83672321522519
 30
0.0
 11
175.3839941483667
 21
-154.33672321522519
 31
0.0
  0
LINE
  5
4E5F
  8
01
  6
BYBLOCK
 10
164.88399414836641
 20
-62.836723215224652
 30
0.0
 11
164.88399414836641
 21
-129.83672321522519
 31
0.0
  0
LINE
  5
4E60
  8
01
  6
BYBLOCK
 10
177.88399414836641
 20
-36.336723215225113
 30
0.0
 11
176.88399414836661
 21
-36.336723215224943
 31
0.0
  0
LINE
  5
4E61
  8
01
  6
BYBLOCK
 10
176.88399414836661
 20
-41.336723215225099
 30
0.0
 11
175.38399414836641
 21
-41.336723215225099
 31
0.0
  0
LINE
  5
4E62
  8
01
  6
BYBLOCK
 10
176.88399414836661
 20
-74.83672321522522
 30
0.0
 11
175.88399414836661
 21
-74.83672321522522
 31
0.0
  0
LINE
  5
4E63
  8
01
  6
BYBLOCK
 10
177.8839941483665
 20
-70.83672321522522
 30
0.0
 11
176.88399414836661
 21
-70.83672321522522
 31
0.0
  0
LINE
  5
4E64
  8
1CENTER
 10
185.88057728008681
 20
-147.83672321522519
 30
0.0
 11
165.4648552365453
 21
-147.83672321522519
 31
0.0
  0
LINE
  5
4E65
  8
01
  6
BYBLOCK
 10
177.88399414836621
 20
-159.33672321522519
 30
0.0
 11
176.88399414836641
 21
-159.33672321522519
 31
0.0
  0
LINE
  5
4E66
  8
01
  6
BYBLOCK
 10
176.88399414836641
 20
-154.33672321522519
 30
0.0
 11
175.38399414836661
 21
-154.33672321522519
 31
0.0
  0
LINE
  5
4E67
  8
01
  6
BYBLOCK
 10
177.88399414836641
 20
-129.33672321522519
 30
0.0
 11
176.88399414836641
 21
-129.33672321522519
 31
0.0
  0
LINE
  5
4E68
  8
01
  6
BYBLOCK
 10
177.8839941483665
 20
-114.33672321522521
 30
0.0
 11
176.88399414836661
 21
-114.33672321522521
 31
0.0
  0
LINE
  5
4E69
  8
01
  6
BYBLOCK
 10
176.88399414836661
 20
-125.33672321522521
 30
0.0
 11
175.48399414836661
 21
-123.9367232152252
 31
0.0
  0
LINE
  5
4E6A
  8
01
  6
BYBLOCK
 10
175.48399414836661
 20
-119.7367232152251
 30
0.0
 11
176.88399414836661
 21
-118.33672321522521
 31
0.0
  0
LINE
  5
4E6B
  8
01
  6
BYBLOCK
 10
175.48399414836661
 20
-119.7367232152251
 30
0.0
 11
175.48399414836661
 21
-123.9367232152252
 31
0.0
  0
LINE
  5
4E6C
  8
01
  6
BYBLOCK
 10
175.18399414836659
 20
-123.33672321522521
 30
0.0
 11
175.0839941483664
 21
-123.33672321522521
 31
0.0
  0
LINE
  5
4E6D
  8
01
  6
BYBLOCK
 10
175.18399414836659
 20
-120.33672321522521
 30
0.0
 11
175.0839941483664
 21
-120.33672321522521
 31
0.0
  0
LINE
  5
4E6E
  8
01
  6
BYBLOCK
 10
164.88399414836641
 20
-125.83672321522521
 30
0.0
 11
164.0839941483664
 21
-125.83672321522521
 31
0.0
  0
LINE
  5
4E6F
  8
01
  6
BYBLOCK
 10
164.0839941483664
 20
-125.83672321522521
 30
0.0
 11
164.0839941483664
 21
-117.83672321522521
 31
0.0
  0
LINE
  5
4E70
  8
01
  6
BYBLOCK
 10
164.88399414836641
 20
-117.83672321522521
 30
0.0
 11
164.0839941483664
 21
-117.83672321522521
 31
0.0
  0
ARC
  5
4E71
  8
01
  6
BYBLOCK
 10
167.5839941483664
 20
-121.83672321522521
 30
0.0
 40
4.2000000000000002
 50
146.44269023808249
 51
213.55730976191751
  0
LINE
  5
4E72
  8
1CENTER
 10
180.9229941483664
 20
-121.83672321522521
 30
0.0
 11
157.42199414836651
 21
-121.83672321522521
 31
0.0
  0
LINE
  5
4E73
  8
01
  6
BYBLOCK
 10
177.8839941483665
 20
-110.33672321522521
 30
0.0
 11
176.88399414836661
 21
-110.33672321522521
 31
0.0
  0
LINE
  5
4E74
  8
01
  6
BYBLOCK
 10
176.88399414836641
 20
-106.33672321522521
 30
0.0
 11
169.2839941483665
 21
-106.33672321522521
 31
0.0
  0
LINE
  5
4E75
  8
01
  6
BYBLOCK
 10
174.2839941483665
 20
-128.83672321522519
 30
0.0
 11
174.2839941483665
 21
-125.7967232152251
 31
0.0
  0
ARC
  5
4E76
  8
01
  6
BYBLOCK
 10
173.7839941483665
 20
-125.7967232152251
 30
0.0
 40
0.5
 50
0.0
 51
85.236400000004707
  0
LINE
  5
4E77
  8
01
  6
BYBLOCK
 10
173.82599414836659
 20
-125.29872321522519
 30
0.0
 11
168.2839941483665
 21
-124.83672321522521
 31
0.0
  0
LINE
  5
4E78
  8
01
  6
BYBLOCK
 10
174.2839941483665
 20
-117.8767232152251
 30
0.0
 11
174.2839941483665
 21
-106.33672321522521
 31
0.0
  0
ARC
  5
4E79
  8
01
  6
BYBLOCK
 10
173.7839941483665
 20
-117.8767232152251
 30
0.0
 40
0.5
 50
274.76400000000473
 51
0.0
  0
LINE
  5
4E7A
  8
01
  6
BYBLOCK
 10
173.82599414836659
 20
-118.3747232152252
 30
0.0
 11
168.2839941483665
 21
-118.83672321522521
 31
0.0
  0
LINE
  5
4E7B
  8
01
  6
BYBLOCK
 10
175.88399414836661
 20
-128.83672321522519
 30
0.0
 11
169.2839941483665
 21
-128.83672321522519
 31
0.0
  0
LINE
  5
4E7C
  8
01
  6
BYBLOCK
 10
175.88399414836661
 20
-129.33672321522519
 30
0.0
 11
164.88399414836641
 21
-129.33672321522519
 31
0.0
  0
LINE
  5
4E7D
  8
01
  6
BYBLOCK
 10
175.38399414836661
 20
-129.83672321522519
 30
0.0
 11
164.88399414836641
 21
-129.83672321522519
 31
0.0
  0
LINE
  5
4E7E
  8
1PHANTOM
 10
174.16728946547801
 20
-133.83672321522519
 30
0.0
 11
164.88399414836641
 21
-133.83672321522519
 31
0.0
  0
ARC
  5
4E7F
  8
01
  6
BYBLOCK
 10
169.2839941483665
 20
-127.83672321522521
 30
0.0
 40
1.0
 50
180.0
 51
270.0
  0
ARC
  5
4E80
  8
01
  6
BYBLOCK
 10
169.2839941483665
 20
-107.33672321522521
 30
0.0
 40
1.0
 50
90.0
 51
179.99999999997391
  0
LINE
  5
4E81
  8
01
  6
BYBLOCK
 10
175.48399414836661
 20
-119.7367232152251
 30
0.0
 11
166.228109902141
 21
-119.7367232152251
 31
0.0
  0
LINE
  5
4E82
  8
01
  6
BYBLOCK
 10
175.48399414836661
 20
-120.33672321522521
 30
0.0
 11
166.21556436286301
 21
-120.33672321522521
 31
0.0
  0
LINE
  5
4E83
  8
01
  6
BYBLOCK
 10
175.48399414836661
 20
-123.33672321522521
 30
0.0
 11
166.2614520778298
 21
-123.33672321522521
 31
0.0
  0
LINE
  5
4E84
  8
01
  6
BYBLOCK
 10
175.48399414836661
 20
-123.9367232152252
 30
0.0
 11
166.2982749717776
 21
-123.9367232152252
 31
0.0
  0
LINE
  5
4E85
  8
01
  6
BYBLOCK
 10
168.2839941483665
 20
-127.83672321522521
 30
0.0
 11
168.2839941483665
 21
-123.33672321522521
 31
0.0
  0
LINE
  5
4E86
  8
01
  6
BYBLOCK
 10
168.2839941483665
 20
-120.33672321522521
 30
0.0
 11
168.2839941483665
 21
-107.33672321522521
 31
0.0
  0
LINE
  5
4E87
  8
1CENTER
 10
185.88057728008681
 20
-47.836723215225099
 30
0.0
 11
165.4648552365453
 21
-47.836723215225099
 31
0.0
  0
LINE
  5
4E88
  8
01
  6
BYBLOCK
 10
164.88399414836641
 20
-186.37170818798171
 30
0.0
 11
164.88399414836641
 21
-199.37170818798171
 31
0.0
  0
LINE
  5
4E89
  8
01
  6
BYBLOCK
 10
164.88399414836641
 20
-188.8717081879818
 30
0.0
 11
164.0839941483664
 21
-188.8717081879818
 31
0.0
  0
LINE
  5
4E8A
  8
01
  6
BYBLOCK
 10
164.0839941483664
 20
-188.8717081879818
 30
0.0
 11
164.0839941483664
 21
-196.87170818798171
 31
0.0
  0
ARC
  5
4E8B
  8
01
  6
BYBLOCK
 10
167.48399414836649
 20
-192.87170818798171
 30
0.0
 40
4.2000000000000002
 50
144.04899999999719
 51
215.95100000000281
  0
LINE
  5
4E8C
  8
01
  6
BYBLOCK
 10
164.88399414836641
 20
-196.87170818798171
 30
0.0
 11
164.0839941483664
 21
-196.87170818798171
 31
0.0
  0
LINE
  5
4E8D
  8
01
  6
BYBLOCK
 10
164.88399414836641
 20
-198.87170818798171
 30
0.0
 11
175.38399414836641
 21
-198.87170818798171
 31
0.0
  0
LINE
  5
4E8E
  8
01
  6
BYBLOCK
 10
164.88399414836641
 20
-186.87170818798171
 30
0.0
 11
175.38399414836641
 21
-186.87170818798171
 31
0.0
  0
LINE
  5
4E8F
  8
01
  6
BYBLOCK
 10
175.38399414836641
 20
-199.37170818798171
 30
0.0
 11
175.38399414836641
 21
-186.37170818798171
 31
0.0
  0
LINE
  5
4E90
  8
01
  6
BYBLOCK
 10
164.88399414836641
 20
-199.37170818798171
 30
0.0
 11
176.88399414836641
 21
-199.37170818798171
 31
0.0
  0
LINE
  5
4E91
  8
01
  6
BYBLOCK
 10
164.88399414836641
 20
-186.37170818798171
 30
0.0
 11
176.88399414836641
 21
-186.37170818798171
 31
0.0
  0
LINE
  5
4E92
  8
01
  6
BYBLOCK
 10
175.38399414836641
 20
-199.37170818798171
 30
0.0
 11
175.38399414836641
 21
-186.37170818798171
 31
0.0
  0
LINE
  5
4E93
  8
01
  6
BYBLOCK
 10
176.88399414836641
 20
-200.8717081879818
 30
0.0
 11
177.88399414836641
 21
-200.8717081879818
 31
0.0
  0
LINE
  5
4E94
  8
01
  6
BYBLOCK
 10
176.88399414836641
 20
-184.8717081879818
 30
0.0
 11
177.88399414836641
 21
-184.8717081879818
 31
0.0
  0
LINE
  5
4E95
  8
1CENTER
 10
159.50303382921291
 20
-192.87170818798171
 30
0.0
 11
180.02536045301991
 21
-192.87170818798171
 31
0.0
  0
LINE
  5
4E96
  8
01
  6
BYBLOCK
 10
175.88399414836641
 20
-188.87170818798191
 30
0.0
 11
176.88399414836641
 21
-188.8717081879818
 31
0.0
  0
LINE
  5
4E97
  8
01
  6
BYBLOCK
 10
175.88399414836641
 20
-196.87170818798171
 30
0.0
 11
176.88399414836641
 21
-196.87170818798171
 31
0.0
  0
LINE
  5
4E98
  8
01
  6
BYBLOCK
 10
177.88399414836641
 20
-200.8717081879818
 30
0.0
 11
177.88399414836641
 21
-184.8717081879818
 31
0.0
  0
LINE
  5
4E99
  8
01
  6
BYBLOCK
 10
164.88399414836641
 20
-199.37170818798171
 30
0.0
 11
164.88399414836641
 21
-186.37170818798171
 31
0.0
  0
LINE
  5
4E9A
  8
01
  6
BYBLOCK
 10
176.88399414836641
 20
-200.8717081879818
 30
0.0
 11
176.88399414836641
 21
-184.8717081879818
 31
0.0
  0
LINE
  5
4E9B
  8
01
  6
BYBLOCK
 10
175.88399414836641
 20
-199.37170818798171
 30
0.0
 11
175.88399414836641
 21
-195.97170818798179
 31
0.0
  0
LINE
  5
4E9C
  8
01
  6
BYBLOCK
 10
175.88399414836641
 20
-189.7717081879818
 30
0.0
 11
175.88399414836641
 21
-186.37170818798171
 31
0.0
  0
LINE
  5
4E9D
  8
01
  6
BYBLOCK
 10
175.88399414836641
 20
-189.62170818798171
 30
0.0
 11
175.38399414836641
 21
-189.62170818798171
 31
0.0
  0
LINE
  5
4E9E
  8
01
  6
BYBLOCK
 10
175.88399414836641
 20
-196.1217081879818
 30
0.0
 11
175.38399414836641
 21
-196.1217081879818
 31
0.0
  0
LINE
  5
4E9F
  8
01
  6
BYBLOCK
 10
176.88399414836641
 20
-196.7857081879817
 30
0.0
 11
176.06999414836639
 21
-195.97170818798179
 31
0.0
  0
LINE
  5
4EA0
  8
01
  6
BYBLOCK
 10
176.88399414836641
 20
-188.95770818798181
 30
0.0
 11
176.06999414836639
 21
-189.7717081879818
 31
0.0
  0
LINE
  5
4EA1
  8
01
  6
BYBLOCK
 10
176.06999414836639
 20
-189.7717081879818
 30
0.0
 11
175.38399414836621
 21
-189.7717081879818
 31
0.0
  0
LINE
  5
4EA2
  8
01
  6
BYBLOCK
 10
176.06999414836639
 20
-195.97170818798179
 30
0.0
 11
175.38399414836641
 21
-195.97170818798179
 31
0.0
  0
LINE
  5
4EA3
  8
01
  6
BYBLOCK
 10
176.06999414836639
 20
-195.97170818798179
 30
0.0
 11
176.06999414836639
 21
-189.7717081879818
 31
0.0
  0
LINE
  5
4EAF
  8
1PHANTOM
 10
164.88399414836641
 20
-133.83672321522519
 30
0.0
 11
164.88399414836641
 21
-132.01709426869289
 31
0.0
  0
LINE
  5
4EB0
  8
1PHANTOM
 10
164.88399414836661
 20
-58.836723215224652
 30
0.0
 11
164.88399414836661
 21
-61.177755877695184
 31
0.0
  0
POLYLINE
  8
1PHANTOM
  5
5459
  66
     1
 10
0.000000
 20
0.000000
 30
0.000000
  70
     8
  0
VERTEX
  8
1PHANTOM
  5
545A
 10
177.884
 20
-98.4013
 30
0.000000
  70
    32
  0
VERTEX
  8
1PHANTOM
  5
545B
 10
177.731
 20
-98.4206
 30
0.000000
  70
    32
  0
VERTEX
  8
1PHANTOM
  5
545C
 10
177.578
 20
-98.4403
 30
0.000000
  70
    32
  0
VERTEX
  8
1PHANTOM
  5
545D
 10
177.426
 20
-98.4606
 30
0.000000
  70
    32
  0
VERTEX
  8
1PHANTOM
  5
545E
 10
177.274
 20
-98.4814
 30
0.000000
  70
    32
  0
VERTEX
  8
1PHANTOM
  5
545F
 10
177.123
 20
-98.5027
 30
0.000000
  70
    32
  0
VERTEX
  8
1PHANTOM
  5
5460
 10
176.971
 20
-98.5248
 30
0.000000
  70
    32
  0
VERTEX
  8
1PHANTOM
  5
5461
 10
176.820
 20
-98.5474
 30
0.000000
  70
    32
  0
VERTEX
  8
1PHANTOM
  5
5462
 10
176.670
 20
-98.5708
 30
0.000000
  70
    32
  0
VERTEX
  8
1PHANTOM
  5
5463
 10
176.520
 20
-98.5950
 30
0.000000
  70
    32
  0
VERTEX
  8
1PHANTOM
  5
5464
 10
176.370
 20
-98.6199
 30
0.000000
  70
    32
  0
VERTEX
  8
1PHANTOM
  5
5465
 10
176.221
 20
-98.6457
 30
0.000000
  70
    32
  0
VERTEX
  8
1PHANTOM
  5
5466
 10
176.072
 20
-98.6723
 30
0.000000
  70
    32
  0
VERTEX
  8
1PHANTOM
  5
5467
 10
175.924
 20
-98.6998
 30
0.000000
  70
    32
  0
VERTEX
  8
1PHANTOM
  5
5468
 10
175.777
 20
-98.7283
 30
0.000000
  70
    32
  0
VERTEX
  8
1PHANTOM
  5
5469
 10
175.630
 20
-98.7578
 30
0.000000
  70
    32
  0
VERTEX
  8
1PHANTOM
  5
546A
 10
175.484
 20
-98.7883
 30
0.000000
  70
    32
  0
VERTEX
  8
1PHANTOM
  5
546B
 10
175.338
 20
-98.8198
 30
0.000000
  70
    32
  0
VERTEX
  8
1PHANTOM
  5
546C
 10
175.193
 20
-98.8525
 30
0.000000
  70
    32
  0
VERTEX
  8
1PHANTOM
  5
546D
 10
175.048
 20
-98.8863
 30
0.000000
  70
    32
  0
VERTEX
  8
1PHANTOM
  5
546E
 10
174.905
 20
-98.9213
 30
0.000000
  70
    32
  0
VERTEX
  8
1PHANTOM
  5
546F
 10
174.761
 20
-98.9575
 30
0.000000
  70
    32
  0
VERTEX
  8
1PHANTOM
  5
5470
 10
174.619
 20
-98.9950
 30
0.000000
  70
    32
  0
VERTEX
  8
1PHANTOM
  5
5471
 10
174.478
 20
-99.0338
 30
0.000000
  70
    32
  0
VERTEX
  8
1PHANTOM
  5
5472
 10
174.337
 20
-99.0740
 30
0.000000
  70
    32
  0
VERTEX
  8
1PHANTOM
  5
5473
 10
174.197
 20
-99.1155
 30
0.000000
  70
    32
  0
VERTEX
  8
1PHANTOM
  5
5474
 10
174.058
 20
-99.1585
 30
0.000000
  70
    32
  0
VERTEX
  8
1PHANTOM
  5
5475
 10
173.920
 20
-99.2029
 30
0.000000
  70
    32
  0
VERTEX
  8
1PHANTOM
  5
5476
 10
173.782
 20
-99.2488
 30
0.000000
  70
    32
  0
VERTEX
  8
1PHANTOM
  5
5477
 10
173.646
 20
-99.2963
 30
0.000000
  70
    32
  0
VERTEX
  8
1PHANTOM
  5
5478
 10
173.510
 20
-99.3454
 30
0.000000
  70
    32
  0
VERTEX
  8
1PHANTOM
  5
5479
 10
173.376
 20
-99.3961
 30
0.000000
  70
    32
  0
VERTEX
  8
1PHANTOM
  5
547A
 10
173.242
 20
-99.4484
 30
0.000000
  70
    32
  0
VERTEX
  8
1PHANTOM
  5
547B
 10
173.109
 20
-99.5025
 30
0.000000
  70
    32
  0
VERTEX
  8
1PHANTOM
  5
547C
 10
172.978
 20
-99.5583
 30
0.000000
  70
    32
  0
VERTEX
  8
1PHANTOM
  5
547D
 10
172.847
 20
-99.6159
 30
0.000000
  70
    32
  0
VERTEX
  8
1PHANTOM
  5
547E
 10
172.717
 20
-99.6753
 30
0.000000
  70
    32
  0
VERTEX
  8
1PHANTOM
  5
547F
 10
172.589
 20
-99.7366
 30
0.000000
  70
    32
  0
VERTEX
  8
1PHANTOM
  5
5480
 10
172.462
 20
-99.7998
 30
0.000000
  70
    32
  0
VERTEX
  8
1PHANTOM
  5
5481
 10
172.335
 20
-99.8649
 30
0.000000
  70
    32
  0
VERTEX
  8
1PHANTOM
  5
5482
 10
172.210
 20
-99.9320
 30
0.000000
  70
    32
  0
VERTEX
  8
1PHANTOM
  5
5483
 10
172.086
 20
-100.001
 30
0.000000
  70
    32
  0
VERTEX
  8
1PHANTOM
  5
5484
 10
171.964
 20
-100.072
 30
0.000000
  70
    32
  0
VERTEX
  8
1PHANTOM
  5
5485
 10
171.842
 20
-100.146
 30
0.000000
  70
    32
  0
VERTEX
  8
1PHANTOM
  5
5486
 10
171.722
 20
-100.221
 30
0.000000
  70
    32
  0
VERTEX
  8
1PHANTOM
  5
5487
 10
171.603
 20
-100.299
 30
0.000000
  70
    32
  0
VERTEX
  8
1PHANTOM
  5
5488
 10
171.485
 20
-100.379
 30
0.000000
  70
    32
  0
VERTEX
  8
1PHANTOM
  5
5489
 10
171.369
 20
-100.461
 30
0.000000
  70
    32
  0
VERTEX
  8
1PHANTOM
  5
548A
 10
171.254
 20
-100.545
 30
0.000000
  70
    32
  0
VERTEX
  8
1PHANTOM
  5
548B
 10
171.140
 20
-100.632
 30
0.000000
  70
    32
  0
VERTEX
  8
1PHANTOM
  5
548C
 10
171.028
 20
-100.720
 30
0.000000
  70
    32
  0
VERTEX
  8
1PHANTOM
  5
548D
 10
170.917
 20
-100.811
 30
0.000000
  70
    32
  0
VERTEX
  8
1PHANTOM
  5
548E
 10
170.807
 20
-100.904
 30
0.000000
  70
    32
  0
VERTEX
  8
1PHANTOM
  5
548F
 10
170.699
 20
-100.999
 30
0.000000
  70
    32
  0
VERTEX
  8
1PHANTOM
  5
5490
 10
170.592
 20
-101.095
 30
0.000000
  70
    32
  0
VERTEX
  8
1PHANTOM
  5
5491
 10
170.486
 20
-101.194
 30
0.000000
  70
    32
  0
VERTEX
  8
1PHANTOM
  5
5492
 10
170.382
 20
-101.295
 30
0.000000
  70
    32
  0
VERTEX
  8
1PHANTOM
  5
5493
 10
170.278
 20
-101.397
 30
0.000000
  70
    32
  0
VERTEX
  8
1PHANTOM
  5
5494
 10
170.177
 20
-101.502
 30
0.000000
  70
    32
  0
VERTEX
  8
1PHANTOM
  5
5495
 10
170.076
 20
-101.608
 30
0.000000
  70
    32
  0
VERTEX
  8
1PHANTOM
  5
5496
 10
169.977
 20
-101.716
 30
0.000000
  70
    32
  0
VERTEX
  8
1PHANTOM
  5
5497
 10
169.880
 20
-101.826
 30
0.000000
  70
    32
  0
VERTEX
  8
1PHANTOM
  5
5498
 10
169.783
 20
-101.937
 30
0.000000
  70
    32
  0
VERTEX
  8
1PHANTOM
  5
5499
 10
169.689
 20
-102.050
 30
0.000000
  70
    32
  0
VERTEX
  8
1PHANTOM
  5
549A
 10
169.595
 20
-102.165
 30
0.000000
  70
    32
  0
VERTEX
  8
1PHANTOM
  5
549B
 10
169.503
 20
-102.281
 30
0.000000
  70
    32
  0
VERTEX
  8
1PHANTOM
  5
549C
 10
169.412
 20
-102.399
 30
0.000000
  70
    32
  0
VERTEX
  8
1PHANTOM
  5
549D
 10
169.322
 20
-102.518
 30
0.000000
  70
    32
  0
VERTEX
  8
1PHANTOM
  5
549E
 10
169.234
 20
-102.639
 30
0.000000
  70
    32
  0
VERTEX
  8
1PHANTOM
  5
549F
 10
169.148
 20
-102.761
 30
0.000000
  70
    32
  0
VERTEX
  8
1PHANTOM
  5
54A0
 10
169.062
 20
-102.885
 30
0.000000
  70
    32
  0
VERTEX
  8
1PHANTOM
  5
54A1
 10
168.978
 20
-103.010
 30
0.000000
  70
    32
  0
VERTEX
  8
1PHANTOM
  5
54A2
 10
168.896
 20
-103.136
 30
0.000000
  70
    32
  0
VERTEX
  8
1PHANTOM
  5
54A3
 10
168.815
 20
-103.264
 30
0.000000
  70
    32
  0
VERTEX
  8
1PHANTOM
  5
54A4
 10
168.735
 20
-103.393
 30
0.000000
  70
    32
  0
VERTEX
  8
1PHANTOM
  5
54A5
 10
168.656
 20
-103.523
 30
0.000000
  70
    32
  0
VERTEX
  8
1PHANTOM
  5
54A6
 10
168.579
 20
-103.654
 30
0.000000
  70
    32
  0
VERTEX
  8
1PHANTOM
  5
54A7
 10
168.504
 20
-103.786
 30
0.000000
  70
    32
  0
VERTEX
  8
1PHANTOM
  5
54A8
 10
168.430
 20
-103.919
 30
0.000000
  70
    32
  0
VERTEX
  8
1PHANTOM
  5
54A9
 10
168.357
 20
-104.054
 30
0.000000
  70
    32
  0
VERTEX
  8
1PHANTOM
  5
54AA
 10
168.285
 20
-104.189
 30
0.000000
  70
    32
  0
VERTEX
  8
1PHANTOM
  5
54AB
 10
168.216
 20
-104.326
 30
0.000000
  70
    32
  0
VERTEX
  8
1PHANTOM
  5
54AC
 10
168.147
 20
-104.463
 30
0.000000
  70
    32
  0
VERTEX
  8
1PHANTOM
  5
54AD
 10
168.080
 20
-104.602
 30
0.000000
  70
    32
  0
VERTEX
  8
1PHANTOM
  5
54AE
 10
168.014
 20
-104.741
 30
0.000000
  70
    32
  0
VERTEX
  8
1PHANTOM
  5
54AF
 10
167.950
 20
-104.881
 30
0.000000
  70
    32
  0
VERTEX
  8
1PHANTOM
  5
54B0
 10
167.887
 20
-105.022
 30
0.000000
  70
    32
  0
VERTEX
  8
1PHANTOM
  5
54B1
 10
167.826
 20
-105.163
 30
0.000000
  70
    32
  0
VERTEX
  8
1PHANTOM
  5
54B2
 10
167.766
 20
-105.306
 30
0.000000
  70
    32
  0
VERTEX
  8
1PHANTOM
  5
54B3
 10
167.707
 20
-105.449
 30
0.000000
  70
    32
  0
VERTEX
  8
1PHANTOM
  5
54B4
 10
167.650
 20
-105.592
 30
0.000000
  70
    32
  0
VERTEX
  8
1PHANTOM
  5
54B5
 10
167.594
 20
-105.737
 30
0.000000
  70
    32
  0
VERTEX
  8
1PHANTOM
  5
54B6
 10
167.540
 20
-105.882
 30
0.000000
  70
    32
  0
VERTEX
  8
1PHANTOM
  5
54B7
 10
167.487
 20
-106.027
 30
0.000000
  70
    32
  0
VERTEX
  8
1PHANTOM
  5
54B8
 10
167.436
 20
-106.173
 30
0.000000
  70
    32
  0
VERTEX
  8
1PHANTOM
  5
54B9
 10
167.386
 20
-106.319
 30
0.000000
  70
    32
  0
VERTEX
  8
1PHANTOM
  5
54BA
 10
167.338
 20
-106.466
 30
0.000000
  70
    32
  0
VERTEX
  8
1PHANTOM
  5
54BB
 10
167.291
 20
-106.613
 30
0.000000
  70
    32
  0
VERTEX
  8
1PHANTOM
  5
54BC
 10
167.245
 20
-106.761
 30
0.000000
  70
    32
  0
VERTEX
  8
1PHANTOM
  5
54BD
 10
167.201
 20
-106.908
 30
0.000000
  70
    32
  0
VERTEX
  8
1PHANTOM
  5
54BE
 10
167.159
 20
-107.057
 30
0.000000
  70
    32
  0
VERTEX
  8
1PHANTOM
  5
54BF
 10
167.118
 20
-107.205
 30
0.000000
  70
    32
  0
VERTEX
  8
1PHANTOM
  5
54C0
 10
167.078
 20
-107.353
 30
0.000000
  70
    32
  0
VERTEX
  8
1PHANTOM
  5
54C1
 10
167.040
 20
-107.502
 30
0.000000
  70
    32
  0
VERTEX
  8
1PHANTOM
  5
54C2
 10
167.003
 20
-107.651
 30
0.000000
  70
    32
  0
VERTEX
  8
1PHANTOM
  5
54C3
 10
166.968
 20
-107.800
 30
0.000000
  70
    32
  0
VERTEX
  8
1PHANTOM
  5
54C4
 10
166.934
 20
-107.949
 30
0.000000
  70
    32
  0
VERTEX
  8
1PHANTOM
  5
54C5
 10
166.902
 20
-108.098
 30
0.000000
  70
    32
  0
VERTEX
  8
1PHANTOM
  5
54C6
 10
166.871
 20
-108.247
 30
0.000000
  70
    32
  0
VERTEX
  8
1PHANTOM
  5
54C7
 10
166.842
 20
-108.396
 30
0.000000
  70
    32
  0
VERTEX
  8
1PHANTOM
  5
54C8
 10
166.815
 20
-108.544
 30
0.000000
  70
    32
  0
VERTEX
  8
1PHANTOM
  5
54C9
 10
166.788
 20
-108.693
 30
0.000000
  70
    32
  0
VERTEX
  8
1PHANTOM
  5
54CA
 10
166.763
 20
-108.842
 30
0.000000
  70
    32
  0
VERTEX
  8
1PHANTOM
  5
54CB
 10
166.740
 20
-108.990
 30
0.000000
  70
    32
  0
VERTEX
  8
1PHANTOM
  5
54CC
 10
166.718
 20
-109.139
 30
0.000000
  70
    32
  0
VERTEX
  8
1PHANTOM
  5
54CD
 10
166.697
 20
-109.287
 30
0.000000
  70
    32
  0
VERTEX
  8
1PHANTOM
  5
54CE
 10
166.678
 20
-109.435
 30
0.000000
  70
    32
  0
VERTEX
  8
1PHANTOM
  5
54CF
 10
166.659
 20
-109.583
 30
0.000000
  70
    32
  0
VERTEX
  8
1PHANTOM
  5
54D0
 10
166.642
 20
-109.731
 30
0.000000
  70
    32
  0
VERTEX
  8
1PHANTOM
  5
54D1
 10
166.626
 20
-109.879
 30
0.000000
  70
    32
  0
VERTEX
  8
1PHANTOM
  5
54D2
 10
166.611
 20
-110.026
 30
0.000000
  70
    32
  0
VERTEX
  8
1PHANTOM
  5
54D3
 10
166.597
 20
-110.174
 30
0.000000
  70
    32
  0
VERTEX
  8
1PHANTOM
  5
54D4
 10
166.584
 20
-110.321
 30
0.000000
  70
    32
  0
VERTEX
  8
1PHANTOM
  5
54D5
 10
166.572
 20
-110.469
 30
0.000000
  70
    32
  0
VERTEX
  8
1PHANTOM
  5
54D6
 10
166.561
 20
-110.616
 30
0.000000
  70
    32
  0
VERTEX
  8
1PHANTOM
  5
54D7
 10
166.551
 20
-110.763
 30
0.000000
  70
    32
  0
VERTEX
  8
1PHANTOM
  5
54D8
 10
166.541
 20
-110.910
 30
0.000000
  70
    32
  0
VERTEX
  8
1PHANTOM
  5
54D9
 10
166.532
 20
-111.057
 30
0.000000
  70
    32
  0
VERTEX
  8
1PHANTOM
  5
54DA
 10
166.524
 20
-111.204
 30
0.000000
  70
    32
  0
VERTEX
  8
1PHANTOM
  5
54DB
 10
166.517
 20
-111.351
 30
0.000000
  70
    32
  0
VERTEX
  8
1PHANTOM
  5
54DC
 10
166.510
 20
-111.497
 30
0.000000
  70
    32
  0
VERTEX
  8
1PHANTOM
  5
54DD
 10
166.504
 20
-111.644
 30
0.000000
  70
    32
  0
VERTEX
  8
1PHANTOM
  5
54DE
 10
166.498
 20
-111.790
 30
0.000000
  70
    32
  0
VERTEX
  8
1PHANTOM
  5
54DF
 10
166.493
 20
-111.936
 30
0.000000
  70
    32
  0
VERTEX
  8
1PHANTOM
  5
54E0
 10
166.488
 20
-112.083
 30
0.000000
  70
    32
  0
VERTEX
  8
1PHANTOM
  5
54E1
 10
166.484
 20
-112.229
 30
0.000000
  70
    32
  0
VERTEX
  8
1PHANTOM
  5
54E2
 10
166.480
 20
-112.375
 30
0.000000
  70
    32
  0
VERTEX
  8
1PHANTOM
  5
54E3
 10
166.476
 20
-112.520
 30
0.000000
  70
    32
  0
VERTEX
  8
1PHANTOM
  5
54E4
 10
166.473
 20
-112.666
 30
0.000000
  70
    32
  0
VERTEX
  8
1PHANTOM
  5
54E5
 10
166.469
 20
-112.812
 30
0.000000
  70
    32
  0
VERTEX
  8
1PHANTOM
  5
54E6
 10
166.466
 20
-112.957
 30
0.000000
  70
    32
  0
VERTEX
  8
1PHANTOM
  5
54E7
 10
166.463
 20
-113.103
 30
0.000000
  70
    32
  0
VERTEX
  8
1PHANTOM
  5
54E8
 10
166.460
 20
-113.248
 30
0.000000
  70
    32
  0
VERTEX
  8
1PHANTOM
  5
54E9
 10
166.458
 20
-113.393
 30
0.000000
  70
    32
  0
VERTEX
  8
1PHANTOM
  5
54EA
 10
166.455
 20
-113.539
 30
0.000000
  70
    32
  0
VERTEX
  8
1PHANTOM
  5
54EB
 10
166.452
 20
-113.684
 30
0.000000
  70
    32
  0
VERTEX
  8
1PHANTOM
  5
54EC
 10
166.449
 20
-113.829
 30
0.000000
  70
    32
  0
VERTEX
  8
1PHANTOM
  5
54ED
 10
166.446
 20
-113.973
 30
0.000000
  70
    32
  0
VERTEX
  8
1PHANTOM
  5
54EE
 10
166.442
 20
-114.118
 30
0.000000
  70
    32
  0
VERTEX
  8
1PHANTOM
  5
54EF
 10
166.439
 20
-114.263
 30
0.000000
  70
    32
  0
VERTEX
  8
1PHANTOM
  5
54F0
 10
166.435
 20
-114.407
 30
0.000000
  70
    32
  0
VERTEX
  8
1PHANTOM
  5
54F1
 10
166.431
 20
-114.552
 30
0.000000
  70
    32
  0
VERTEX
  8
1PHANTOM
  5
54F2
 10
166.426
 20
-114.696
 30
0.000000
  70
    32
  0
VERTEX
  8
1PHANTOM
  5
54F3
 10
166.422
 20
-114.840
 30
0.000000
  70
    32
  0
VERTEX
  8
1PHANTOM
  5
54F4
 10
166.417
 20
-114.985
 30
0.000000
  70
    32
  0
VERTEX
  8
1PHANTOM
  5
54F5
 10
166.412
 20
-115.129
 30
0.000000
  70
    32
  0
VERTEX
  8
1PHANTOM
  5
54F6
 10
166.406
 20
-115.273
 30
0.000000
  70
    32
  0
VERTEX
  8
1PHANTOM
  5
54F7
 10
166.401
 20
-115.417
 30
0.000000
  70
    32
  0
VERTEX
  8
1PHANTOM
  5
54F8
 10
166.395
 20
-115.561
 30
0.000000
  70
    32
  0
VERTEX
  8
1PHANTOM
  5
54F9
 10
166.389
 20
-115.705
 30
0.000000
  70
    32
  0
VERTEX
  8
1PHANTOM
  5
54FA
 10
166.383
 20
-115.849
 30
0.000000
  70
    32
  0
VERTEX
  8
1PHANTOM
  5
54FB
 10
166.377
 20
-115.993
 30
0.000000
  70
    32
  0
VERTEX
  8
1PHANTOM
  5
54FC
 10
166.371
 20
-116.136
 30
0.000000
  70
    32
  0
VERTEX
  8
1PHANTOM
  5
54FD
 10
166.365
 20
-116.280
 30
0.000000
  70
    32
  0
VERTEX
  8
1PHANTOM
  5
54FE
 10
166.359
 20
-116.424
 30
0.000000
  70
    32
  0
VERTEX
  8
1PHANTOM
  5
54FF
 10
166.352
 20
-116.568
 30
0.000000
  70
    32
  0
VERTEX
  8
1PHANTOM
  5
5500
 10
166.346
 20
-116.712
 30
0.000000
  70
    32
  0
VERTEX
  8
1PHANTOM
  5
5501
 10
166.339
 20
-116.856
 30
0.000000
  70
    32
  0
VERTEX
  8
1PHANTOM
  5
5502
 10
166.333
 20
-116.999
 30
0.000000
  70
    32
  0
VERTEX
  8
1PHANTOM
  5
5503
 10
166.327
 20
-117.143
 30
0.000000
  70
    32
  0
VERTEX
  8
1PHANTOM
  5
5504
 10
166.320
 20
-117.287
 30
0.000000
  70
    32
  0
VERTEX
  8
1PHANTOM
  5
5505
 10
166.314
 20
-117.431
 30
0.000000
  70
    32
  0
VERTEX
  8
1PHANTOM
  5
5506
 10
166.307
 20
-117.575
 30
0.000000
  70
    32
  0
VERTEX
  8
1PHANTOM
  5
5507
 10
166.301
 20
-117.719
 30
0.000000
  70
    32
  0
VERTEX
  8
1PHANTOM
  5
5508
 10
166.295
 20
-117.863
 30
0.000000
  70
    32
  0
VERTEX
  8
1PHANTOM
  5
5509
 10
166.289
 20
-118.007
 30
0.000000
  70
    32
  0
VERTEX
  8
1PHANTOM
  5
550A
 10
166.283
 20
-118.151
 30
0.000000
  70
    32
  0
VERTEX
  8
1PHANTOM
  5
550B
 10
166.277
 20
-118.296
 30
0.000000
  70
    32
  0
VERTEX
  8
1PHANTOM
  5
550C
 10
166.271
 20
-118.440
 30
0.000000
  70
    32
  0
VERTEX
  8
1PHANTOM
  5
550D
 10
166.265
 20
-118.585
 30
0.000000
  70
    32
  0
VERTEX
  8
1PHANTOM
  5
550E
 10
166.260
 20
-118.729
 30
0.000000
  70
    32
  0
VERTEX
  8
1PHANTOM
  5
550F
 10
166.255
 20
-118.874
 30
0.000000
  70
    32
  0
VERTEX
  8
1PHANTOM
  5
5510
 10
166.250
 20
-119.018
 30
0.000000
  70
    32
  0
VERTEX
  8
1PHANTOM
  5
5511
 10
166.245
 20
-119.163
 30
0.000000
  70
    32
  0
VERTEX
  8
1PHANTOM
  5
5512
 10
166.240
 20
-119.308
 30
0.000000
  70
    32
  0
VERTEX
  8
1PHANTOM
  5
5513
 10
166.236
 20
-119.453
 30
0.000000
  70
    32
  0
VERTEX
  8
1PHANTOM
  5
5514
 10
166.232
 20
-119.599
 30
0.000000
  70
    32
  0
VERTEX
  8
1PHANTOM
  5
5515
 10
166.228
 20
-119.744
 30
0.000000
  70
    32
  0
VERTEX
  8
1PHANTOM
  5
5516
 10
166.224
 20
-119.889
 30
0.000000
  70
    32
  0
VERTEX
  8
1PHANTOM
  5
5517
 10
166.221
 20
-120.035
 30
0.000000
  70
    32
  0
VERTEX
  8
1PHANTOM
  5
5518
 10
166.218
 20
-120.181
 30
0.000000
  70
    32
  0
VERTEX
  8
1PHANTOM
  5
5519
 10
166.216
 20
-120.327
 30
0.000000
  70
    32
  0
VERTEX
  8
1PHANTOM
  5
551A
 10
166.214
 20
-120.473
 30
0.000000
  70
    32
  0
VERTEX
  8
1PHANTOM
  5
551B
 10
166.212
 20
-120.619
 30
0.000000
  70
    32
  0
VERTEX
  8
1PHANTOM
  5
551C
 10
166.210
 20
-120.766
 30
0.000000
  70
    32
  0
VERTEX
  8
1PHANTOM
  5
551D
 10
166.209
 20
-120.913
 30
0.000000
  70
    32
  0
VERTEX
  8
1PHANTOM
  5
551E
 10
166.209
 20
-121.059
 30
0.000000
  70
    32
  0
VERTEX
  8
1PHANTOM
  5
551F
 10
166.208
 20
-121.207
 30
0.000000
  70
    32
  0
VERTEX
  8
1PHANTOM
  5
5520
 10
166.209
 20
-121.354
 30
0.000000
  70
    32
  0
VERTEX
  8
1PHANTOM
  5
5521
 10
166.209
 20
-121.501
 30
0.000000
  70
    32
  0
VERTEX
  8
1PHANTOM
  5
5522
 10
166.210
 20
-121.649
 30
0.000000
  70
    32
  0
VERTEX
  8
1PHANTOM
  5
5523
 10
166.212
 20
-121.797
 30
0.000000
  70
    32
  0
VERTEX
  8
1PHANTOM
  5
5524
 10
166.214
 20
-121.945
 30
0.000000
  70
    32
  0
VERTEX
  8
1PHANTOM
  5
5525
 10
166.217
 20
-122.094
 30
0.000000
  70
    32
  0
VERTEX
  8
1PHANTOM
  5
5526
 10
166.220
 20
-122.242
 30
0.000000
  70
    32
  0
VERTEX
  8
1PHANTOM
  5
5527
 10
166.224
 20
-122.391
 30
0.000000
  70
    32
  0
VERTEX
  8
1PHANTOM
  5
5528
 10
166.228
 20
-122.541
 30
0.000000
  70
    32
  0
VERTEX
  8
1PHANTOM
  5
5529
 10
166.233
 20
-122.690
 30
0.000000
  70
    32
  0
VERTEX
  8
1PHANTOM
  5
552A
 10
166.239
 20
-122.840
 30
0.000000
  70
    32
  0
VERTEX
  8
1PHANTOM
  5
552B
 10
166.245
 20
-122.990
 30
0.000000
  70
    32
  0
VERTEX
  8
1PHANTOM
  5
552C
 10
166.252
 20
-123.140
 30
0.000000
  70
    32
  0
VERTEX
  8
1PHANTOM
  5
552D
 10
166.259
 20
-123.291
 30
0.000000
  70
    32
  0
VERTEX
  8
1PHANTOM
  5
552E
 10
166.267
 20
-123.442
 30
0.000000
  70
    32
  0
VERTEX
  8
1PHANTOM
  5
552F
 10
166.276
 20
-123.593
 30
0.000000
  70
    32
  0
VERTEX
  8
1PHANTOM
  5
5530
 10
166.285
 20
-123.744
 30
0.000000
  70
    32
  0
VERTEX
  8
1PHANTOM
  5
5531
 10
166.295
 20
-123.896
 30
0.000000
  70
    32
  0
VERTEX
  8
1PHANTOM
  5
5532
 10
166.306
 20
-124.048
 30
0.000000
  70
    32
  0
VERTEX
  8
1PHANTOM
  5
5533
 10
166.318
 20
-124.201
 30
0.000000
  70
    32
  0
VERTEX
  8
1PHANTOM
  5
5534
 10
166.330
 20
-124.354
 30
0.000000
  70
    32
  0
VERTEX
  8
1PHANTOM
  5
5535
 10
166.343
 20
-124.507
 30
0.000000
  70
    32
  0
VERTEX
  8
1PHANTOM
  5
5536
 10
166.357
 20
-124.660
 30
0.000000
  70
    32
  0
VERTEX
  8
1PHANTOM
  5
5537
 10
166.372
 20
-124.814
 30
0.000000
  70
    32
  0
VERTEX
  8
1PHANTOM
  5
5538
 10
166.387
 20
-124.969
 30
0.000000
  70
    32
  0
VERTEX
  8
1PHANTOM
  5
5539
 10
166.404
 20
-125.123
 30
0.000000
  70
    32
  0
VERTEX
  8
1PHANTOM
  5
553A
 10
166.421
 20
-125.278
 30
0.000000
  70
    32
  0
VERTEX
  8
1PHANTOM
  5
553B
 10
166.439
 20
-125.434
 30
0.000000
  70
    32
  0
VERTEX
  8
1PHANTOM
  5
553C
 10
166.458
 20
-125.589
 30
0.000000
  70
    32
  0
VERTEX
  8
1PHANTOM
  5
553D
 10
166.478
 20
-125.745
 30
0.000000
  70
    32
  0
VERTEX
  8
1PHANTOM
  5
553E
 10
166.499
 20
-125.902
 30
0.000000
  70
    32
  0
VERTEX
  8
1PHANTOM
  5
553F
 10
166.521
 20
-126.058
 30
0.000000
  70
    32
  0
VERTEX
  8
1PHANTOM
  5
5540
 10
166.544
 20
-126.214
 30
0.000000
  70
    32
  0
VERTEX
  8
1PHANTOM
  5
5541
 10
166.568
 20
-126.370
 30
0.000000
  70
    32
  0
VERTEX
  8
1PHANTOM
  5
5542
 10
166.593
 20
-126.526
 30
0.000000
  70
    32
  0
VERTEX
  8
1PHANTOM
  5
5543
 10
166.620
 20
-126.682
 30
0.000000
  70
    32
  0
VERTEX
  8
1PHANTOM
  5
5544
 10
166.648
 20
-126.837
 30
0.000000
  70
    32
  0
VERTEX
  8
1PHANTOM
  5
5545
 10
166.678
 20
-126.992
 30
0.000000
  70
    32
  0
VERTEX
  8
1PHANTOM
  5
5546
 10
166.709
 20
-127.147
 30
0.000000
  70
    32
  0
VERTEX
  8
1PHANTOM
  5
5547
 10
166.742
 20
-127.300
 30
0.000000
  70
    32
  0
VERTEX
  8
1PHANTOM
  5
5548
 10
166.776
 20
-127.453
 30
0.000000
  70
    32
  0
VERTEX
  8
1PHANTOM
  5
5549
 10
166.812
 20
-127.605
 30
0.000000
  70
    32
  0
VERTEX
  8
1PHANTOM
  5
554A
 10
166.850
 20
-127.756
 30
0.000000
  70
    32
  0
VERTEX
  8
1PHANTOM
  5
554B
 10
166.890
 20
-127.906
 30
0.000000
  70
    32
  0
VERTEX
  8
1PHANTOM
  5
554C
 10
166.931
 20
-128.054
 30
0.000000
  70
    32
  0
VERTEX
  8
1PHANTOM
  5
554D
 10
166.975
 20
-128.202
 30
0.000000
  70
    32
  0
VERTEX
  8
1PHANTOM
  5
554E
 10
167.020
 20
-128.348
 30
0.000000
  70
    32
  0
VERTEX
  8
1PHANTOM
  5
554F
 10
167.068
 20
-128.492
 30
0.000000
  70
    32
  0
VERTEX
  8
1PHANTOM
  5
5550
 10
167.117
 20
-128.635
 30
0.000000
  70
    32
  0
VERTEX
  8
1PHANTOM
  5
5551
 10
167.169
 20
-128.777
 30
0.000000
  70
    32
  0
VERTEX
  8
1PHANTOM
  5
5552
 10
167.223
 20
-128.916
 30
0.000000
  70
    32
  0
VERTEX
  8
1PHANTOM
  5
5553
 10
167.280
 20
-129.054
 30
0.000000
  70
    32
  0
VERTEX
  8
1PHANTOM
  5
5554
 10
167.339
 20
-129.190
 30
0.000000
  70
    32
  0
VERTEX
  8
1PHANTOM
  5
5555
 10
167.400
 20
-129.324
 30
0.000000
  70
    32
  0
VERTEX
  8
1PHANTOM
  5
5556
 10
167.464
 20
-129.456
 30
0.000000
  70
    32
  0
VERTEX
  8
1PHANTOM
  5
5557
 10
167.530
 20
-129.585
 30
0.000000
  70
    32
  0
VERTEX
  8
1PHANTOM
  5
5558
 10
167.599
 20
-129.712
 30
0.000000
  70
    32
  0
VERTEX
  8
1PHANTOM
  5
5559
 10
167.671
 20
-129.837
 30
0.000000
  70
    32
  0
SEQEND
  8
1PHANTOM
  5
555A
  0
POLYLINE
  8
1PHANTOM
  5
555B
  66
     1
 10
0.000000
 20
0.000000
 30
0.000000
  70
     8
  0
VERTEX
  8
1PHANTOM
  5
555C
 10
175.384
 20
-133.146
 30
0.000000
  70
    32
  0
VERTEX
  8
1PHANTOM
  5
555D
 10
175.404
 20
-133.150
 30
0.000000
  70
    32
  0
VERTEX
  8
1PHANTOM
  5
555E
 10
175.424
 20
-133.153
 30
0.000000
  70
    32
  0
VERTEX
  8
1PHANTOM
  5
555F
 10
175.443
 20
-133.157
 30
0.000000
  70
    32
  0
VERTEX
  8
1PHANTOM
  5
5560
 10
175.463
 20
-133.160
 30
0.000000
  70
    32
  0
VERTEX
  8
1PHANTOM
  5
5561
 10
175.483
 20
-133.164
 30
0.000000
  70
    32
  0
VERTEX
  8
1PHANTOM
  5
5562
 10
175.503
 20
-133.167
 30
0.000000
  70
    32
  0
VERTEX
  8
1PHANTOM
  5
5563
 10
175.523
 20
-133.171
 30
0.000000
  70
    32
  0
VERTEX
  8
1PHANTOM
  5
5564
 10
175.542
 20
-133.174
 30
0.000000
  70
    32
  0
VERTEX
  8
1PHANTOM
  5
5565
 10
175.562
 20
-133.177
 30
0.000000
  70
    32
  0
VERTEX
  8
1PHANTOM
  5
5566
 10
175.582
 20
-133.181
 30
0.000000
  70
    32
  0
VERTEX
  8
1PHANTOM
  5
5567
 10
175.602
 20
-133.184
 30
0.000000
  70
    32
  0
VERTEX
  8
1PHANTOM
  5
5568
 10
175.622
 20
-133.188
 30
0.000000
  70
    32
  0
VERTEX
  8
1PHANTOM
  5
5569
 10
175.641
 20
-133.191
 30
0.000000
  70
    32
  0
VERTEX
  8
1PHANTOM
  5
556A
 10
175.661
 20
-133.195
 30
0.000000
  70
    32
  0
VERTEX
  8
1PHANTOM
  5
556B
 10
175.681
 20
-133.198
 30
0.000000
  70
    32
  0
VERTEX
  8
1PHANTOM
  5
556C
 10
175.701
 20
-133.202
 30
0.000000
  70
    32
  0
VERTEX
  8
1PHANTOM
  5
556D
 10
175.721
 20
-133.205
 30
0.000000
  70
    32
  0
VERTEX
  8
1PHANTOM
  5
556E
 10
175.740
 20
-133.208
 30
0.000000
  70
    32
  0
VERTEX
  8
1PHANTOM
  5
556F
 10
175.760
 20
-133.212
 30
0.000000
  70
    32
  0
VERTEX
  8
1PHANTOM
  5
5570
 10
175.780
 20
-133.215
 30
0.000000
  70
    32
  0
VERTEX
  8
1PHANTOM
  5
5571
 10
175.800
 20
-133.219
 30
0.000000
  70
    32
  0
VERTEX
  8
1PHANTOM
  5
5572
 10
175.819
 20
-133.222
 30
0.000000
  70
    32
  0
VERTEX
  8
1PHANTOM
  5
5573
 10
175.839
 20
-133.225
 30
0.000000
  70
    32
  0
VERTEX
  8
1PHANTOM
  5
5574
 10
175.859
 20
-133.229
 30
0.000000
  70
    32
  0
VERTEX
  8
1PHANTOM
  5
5575
 10
175.879
 20
-133.232
 30
0.000000
  70
    32
  0
VERTEX
  8
1PHANTOM
  5
5576
 10
175.898
 20
-133.235
 30
0.000000
  70
    32
  0
VERTEX
  8
1PHANTOM
  5
5577
 10
175.918
 20
-133.239
 30
0.000000
  70
    32
  0
VERTEX
  8
1PHANTOM
  5
5578
 10
175.938
 20
-133.242
 30
0.000000
  70
    32
  0
VERTEX
  8
1PHANTOM
  5
5579
 10
175.958
 20
-133.245
 30
0.000000
  70
    32
  0
VERTEX
  8
1PHANTOM
  5
557A
 10
175.977
 20
-133.249
 30
0.000000
  70
    32
  0
VERTEX
  8
1PHANTOM
  5
557B
 10
175.997
 20
-133.252
 30
0.000000
  70
    32
  0
VERTEX
  8
1PHANTOM
  5
557C
 10
176.017
 20
-133.256
 30
0.000000
  70
    32
  0
VERTEX
  8
1PHANTOM
  5
557D
 10
176.037
 20
-133.259
 30
0.000000
  70
    32
  0
VERTEX
  8
1PHANTOM
  5
557E
 10
176.056
 20
-133.262
 30
0.000000
  70
    32
  0
VERTEX
  8
1PHANTOM
  5
557F
 10
176.076
 20
-133.265
 30
0.000000
  70
    32
  0
VERTEX
  8
1PHANTOM
  5
5580
 10
176.096
 20
-133.269
 30
0.000000
  70
    32
  0
VERTEX
  8
1PHANTOM
  5
5581
 10
176.116
 20
-133.272
 30
0.000000
  70
    32
  0
VERTEX
  8
1PHANTOM
  5
5582
 10
176.135
 20
-133.275
 30
0.000000
  70
    32
  0
VERTEX
  8
1PHANTOM
  5
5583
 10
176.155
 20
-133.279
 30
0.000000
  70
    32
  0
VERTEX
  8
1PHANTOM
  5
5584
 10
176.175
 20
-133.282
 30
0.000000
  70
    32
  0
VERTEX
  8
1PHANTOM
  5
5585
 10
176.195
 20
-133.285
 30
0.000000
  70
    32
  0
VERTEX
  8
1PHANTOM
  5
5586
 10
176.214
 20
-133.289
 30
0.000000
  70
    32
  0
VERTEX
  8
1PHANTOM
  5
5587
 10
176.234
 20
-133.292
 30
0.000000
  70
    32
  0
VERTEX
  8
1PHANTOM
  5
5588
 10
176.254
 20
-133.295
 30
0.000000
  70
    32
  0
VERTEX
  8
1PHANTOM
  5
5589
 10
176.273
 20
-133.298
 30
0.000000
  70
    32
  0
VERTEX
  8
1PHANTOM
  5
558A
 10
176.293
 20
-133.302
 30
0.000000
  70
    32
  0
VERTEX
  8
1PHANTOM
  5
558B
 10
176.313
 20
-133.305
 30
0.000000
  70
    32
  0
VERTEX
  8
1PHANTOM
  5
558C
 10
176.333
 20
-133.308
 30
0.000000
  70
    32
  0
VERTEX
  8
1PHANTOM
  5
558D
 10
176.352
 20
-133.312
 30
0.000000
  70
    32
  0
VERTEX
  8
1PHANTOM
  5
558E
 10
176.372
 20
-133.315
 30
0.000000
  70
    32
  0
VERTEX
  8
1PHANTOM
  5
558F
 10
176.392
 20
-133.318
 30
0.000000
  70
    32
  0
VERTEX
  8
1PHANTOM
  5
5590
 10
176.411
 20
-133.321
 30
0.000000
  70
    32
  0
VERTEX
  8
1PHANTOM
  5
5591
 10
176.431
 20
-133.325
 30
0.000000
  70
    32
  0
VERTEX
  8
1PHANTOM
  5
5592
 10
176.451
 20
-133.328
 30
0.000000
  70
    32
  0
VERTEX
  8
1PHANTOM
  5
5593
 10
176.470
 20
-133.331
 30
0.000000
  70
    32
  0
VERTEX
  8
1PHANTOM
  5
5594
 10
176.490
 20
-133.334
 30
0.000000
  70
    32
  0
VERTEX
  8
1PHANTOM
  5
5595
 10
176.510
 20
-133.337
 30
0.000000
  70
    32
  0
VERTEX
  8
1PHANTOM
  5
5596
 10
176.529
 20
-133.341
 30
0.000000
  70
    32
  0
VERTEX
  8
1PHANTOM
  5
5597
 10
176.549
 20
-133.344
 30
0.000000
  70
    32
  0
VERTEX
  8
1PHANTOM
  5
5598
 10
176.569
 20
-133.347
 30
0.000000
  70
    32
  0
VERTEX
  8
1PHANTOM
  5
5599
 10
176.588
 20
-133.350
 30
0.000000
  70
    32
  0
VERTEX
  8
1PHANTOM
  5
559A
 10
176.608
 20
-133.354
 30
0.000000
  70
    32
  0
VERTEX
  8
1PHANTOM
  5
559B
 10
176.628
 20
-133.357
 30
0.000000
  70
    32
  0
VERTEX
  8
1PHANTOM
  5
559C
 10
176.648
 20
-133.360
 30
0.000000
  70
    32
  0
VERTEX
  8
1PHANTOM
  5
559D
 10
176.667
 20
-133.363
 30
0.000000
  70
    32
  0
VERTEX
  8
1PHANTOM
  5
559E
 10
176.687
 20
-133.366
 30
0.000000
  70
    32
  0
VERTEX
  8
1PHANTOM
  5
559F
 10
176.707
 20
-133.370
 30
0.000000
  70
    32
  0
VERTEX
  8
1PHANTOM
  5
55A0
 10
176.726
 20
-133.373
 30
0.000000
  70
    32
  0
VERTEX
  8
1PHANTOM
  5
55A1
 10
176.746
 20
-133.376
 30
0.000000
  70
    32
  0
VERTEX
  8
1PHANTOM
  5
55A2
 10
176.766
 20
-133.379
 30
0.000000
  70
    32
  0
VERTEX
  8
1PHANTOM
  5
55A3
 10
176.785
 20
-133.382
 30
0.000000
  70
    32
  0
VERTEX
  8
1PHANTOM
  5
55A4
 10
176.805
 20
-133.386
 30
0.000000
  70
    32
  0
VERTEX
  8
1PHANTOM
  5
55A5
 10
176.824
 20
-133.389
 30
0.000000
  70
    32
  0
VERTEX
  8
1PHANTOM
  5
55A6
 10
176.844
 20
-133.392
 30
0.000000
  70
    32
  0
VERTEX
  8
1PHANTOM
  5
55A7
 10
176.864
 20
-133.395
 30
0.000000
  70
    32
  0
VERTEX
  8
1PHANTOM
  5
55A8
 10
176.883
 20
-133.398
 30
0.000000
  70
    32
  0
VERTEX
  8
1PHANTOM
  5
55A9
 10
176.903
 20
-133.401
 30
0.000000
  70
    32
  0
VERTEX
  8
1PHANTOM
  5
55AA
 10
176.923
 20
-133.404
 30
0.000000
  70
    32
  0
VERTEX
  8
1PHANTOM
  5
55AB
 10
176.942
 20
-133.408
 30
0.000000
  70
    32
  0
VERTEX
  8
1PHANTOM
  5
55AC
 10
176.962
 20
-133.411
 30
0.000000
  70
    32
  0
VERTEX
  8
1PHANTOM
  5
55AD
 10
176.982
 20
-133.414
 30
0.000000
  70
    32
  0
VERTEX
  8
1PHANTOM
  5
55AE
 10
177.001
 20
-133.417
 30
0.000000
  70
    32
  0
VERTEX
  8
1PHANTOM
  5
55AF
 10
177.021
 20
-133.420
 30
0.000000
  70
    32
  0
VERTEX
  8
1PHANTOM
  5
55B0
 10
177.041
 20
-133.423
 30
0.000000
  70
    32
  0
VERTEX
  8
1PHANTOM
  5
55B1
 10
177.060
 20
-133.426
 30
0.000000
  70
    32
  0
VERTEX
  8
1PHANTOM
  5
55B2
 10
177.080
 20
-133.430
 30
0.000000
  70
    32
  0
VERTEX
  8
1PHANTOM
  5
55B3
 10
177.100
 20
-133.433
 30
0.000000
  70
    32
  0
VERTEX
  8
1PHANTOM
  5
55B4
 10
177.119
 20
-133.436
 30
0.000000
  70
    32
  0
VERTEX
  8
1PHANTOM
  5
55B5
 10
177.139
 20
-133.439
 30
0.000000
  70
    32
  0
VERTEX
  8
1PHANTOM
  5
55B6
 10
177.158
 20
-133.442
 30
0.000000
  70
    32
  0
VERTEX
  8
1PHANTOM
  5
55B7
 10
177.178
 20
-133.445
 30
0.000000
  70
    32
  0
VERTEX
  8
1PHANTOM
  5
55B8
 10
177.198
 20
-133.448
 30
0.000000
  70
    32
  0
VERTEX
  8
1PHANTOM
  5
55B9
 10
177.217
 20
-133.451
 30
0.000000
  70
    32
  0
VERTEX
  8
1PHANTOM
  5
55BA
 10
177.237
 20
-133.455
 30
0.000000
  70
    32
  0
VERTEX
  8
1PHANTOM
  5
55BB
 10
177.257
 20
-133.458
 30
0.000000
  70
    32
  0
VERTEX
  8
1PHANTOM
  5
55BC
 10
177.276
 20
-133.461
 30
0.000000
  70
    32
  0
VERTEX
  8
1PHANTOM
  5
55BD
 10
177.296
 20
-133.464
 30
0.000000
  70
    32
  0
VERTEX
  8
1PHANTOM
  5
55BE
 10
177.315
 20
-133.467
 30
0.000000
  70
    32
  0
VERTEX
  8
1PHANTOM
  5
55BF
 10
177.335
 20
-133.470
 30
0.000000
  70
    32
  0
VERTEX
  8
1PHANTOM
  5
55C0
 10
177.355
 20
-133.473
 30
0.000000
  70
    32
  0
VERTEX
  8
1PHANTOM
  5
55C1
 10
177.374
 20
-133.476
 30
0.000000
  70
    32
  0
VERTEX
  8
1PHANTOM
  5
55C2
 10
177.394
 20
-133.479
 30
0.000000
  70
    32
  0
VERTEX
  8
1PHANTOM
  5
55C3
 10
177.414
 20
-133.482
 30
0.000000
  70
    32
  0
VERTEX
  8
1PHANTOM
  5
55C4
 10
177.433
 20
-133.486
 30
0.000000
  70
    32
  0
VERTEX
  8
1PHANTOM
  5
55C5
 10
177.453
 20
-133.489
 30
0.000000
  70
    32
  0
VERTEX
  8
1PHANTOM
  5
55C6
 10
177.472
 20
-133.492
 30
0.000000
  70
    32
  0
VERTEX
  8
1PHANTOM
  5
55C7
 10
177.492
 20
-133.495
 30
0.000000
  70
    32
  0
VERTEX
  8
1PHANTOM
  5
55C8
 10
177.512
 20
-133.498
 30
0.000000
  70
    32
  0
VERTEX
  8
1PHANTOM
  5
55C9
 10
177.531
 20
-133.501
 30
0.000000
  70
    32
  0
VERTEX
  8
1PHANTOM
  5
55CA
 10
177.551
 20
-133.504
 30
0.000000
  70
    32
  0
VERTEX
  8
1PHANTOM
  5
55CB
 10
177.570
 20
-133.507
 30
0.000000
  70
    32
  0
VERTEX
  8
1PHANTOM
  5
55CC
 10
177.590
 20
-133.510
 30
0.000000
  70
    32
  0
VERTEX
  8
1PHANTOM
  5
55CD
 10
177.610
 20
-133.513
 30
0.000000
  70
    32
  0
VERTEX
  8
1PHANTOM
  5
55CE
 10
177.629
 20
-133.516
 30
0.000000
  70
    32
  0
VERTEX
  8
1PHANTOM
  5
55CF
 10
177.649
 20
-133.519
 30
0.000000
  70
    32
  0
VERTEX
  8
1PHANTOM
  5
55D0
 10
177.668
 20
-133.522
 30
0.000000
  70
    32
  0
VERTEX
  8
1PHANTOM
  5
55D1
 10
177.688
 20
-133.525
 30
0.000000
  70
    32
  0
VERTEX
  8
1PHANTOM
  5
55D2
 10
177.708
 20
-133.529
 30
0.000000
  70
    32
  0
VERTEX
  8
1PHANTOM
  5
55D3
 10
177.727
 20
-133.532
 30
0.000000
  70
    32
  0
VERTEX
  8
1PHANTOM
  5
55D4
 10
177.747
 20
-133.535
 30
0.000000
  70
    32
  0
VERTEX
  8
1PHANTOM
  5
55D5
 10
177.766
 20
-133.538
 30
0.000000
  70
    32
  0
VERTEX
  8
1PHANTOM
  5
55D6
 10
177.786
 20
-133.541
 30
0.000000
  70
    32
  0
VERTEX
  8
1PHANTOM
  5
55D7
 10
177.806
 20
-133.544
 30
0.000000
  70
    32
  0
VERTEX
  8
1PHANTOM
  5
55D8
 10
177.825
 20
-133.547
 30
0.000000
  70
    32
  0
VERTEX
  8
1PHANTOM
  5
55D9
 10
177.845
 20
-133.550
 30
0.000000
  70
    32
  0
VERTEX
  8
1PHANTOM
  5
55DA
 10
177.864
 20
-133.553
 30
0.000000
  70
    32
  0
VERTEX
  8
1PHANTOM
  5
55DB
 10
177.884
 20
-133.556
 30
0.000000
  70
    32
  0
SEQEND
  8
1PHANTOM
  5
55DC
  0
TEXT
  5
4EB9
  8
1TEXT
 10
336.43355790643909
 20
-75.603536143656129
 30
0.0
 40
4.0
  1
付属ねじ
  0
TEXT
  5
4EBA
  8
1TEXT
 10
142.6648182077366
 20
6.7695382886153359
 30
0.0
 40
8.0
  1
KM-01-E7R
  0
TEXT
  5
5093
  8
1DIM
 10
182.9110557749168
 20
-97.766264988248025
 30
0.0
 40
3.5
  1
材質：亜鉛ダイキャスト
  0
SOLID
  5
5094
  8
1DIM
 10
172.44620823465129
 20
-108.7168350500145
 30
0.0
 11
170.93724679771191
 21
-110.0711416965834
 31
0.0
 12
171.92540816349711
 22
-108.30064791622701
 32
0.0
 13
171.92540816349711
 23
-108.30064791622701
 33
0.0
1001
ACAD
1000
DSTYLE
1002
{
1070
   341
1005
0
1002
}
  0
TEXT
  5
5096
  8
1DIM
 10
126.5697442725634
 20
-28.932053619272491
 30
0.0
 40
3.5
  1
材質：スチール
  0
SOLID
  5
5097
  8
1DIM
 10
170.1429663434231
 20
-65.827226045883918
 30
0.0
 11
170.48176846849029
 21
-67.826306892463435
 31
0.0
 12
169.51292942696861
 22
-66.045166240315424
 32
0.0
 13
169.51292942696861
 23
-66.045166240315424
 33
0.0
1001
ACAD
1000
DSTYLE
1002
{
1070
   341
1005
0
1002
}
  0
TEXT
  5
5099
  8
1DIM
 10
204.36301611575399
 20
-17.69784090304557
 30
0.0
 40
3.5
  1
材質：ステンレス
  0
SOLID
  5
509A
  8
1DIM
 10
252.6503169817077
 20
-38.829139908176543
 30
0.0
 11
253.4422325599499
 21
-40.695682387749002
 31
0.0
 12
252.08775810067019
 22
-39.186871581096838
 32
0.0
 13
252.08775810067019
 23
-39.186871581096838
 33
0.0
1001
ACAD
1000
DSTYLE
1002
{
1070
   341
1005
0
1002
}
  0
LINE
  5
509C
  8
1DIM
 10
259.48124904266842
 20
-36.336723215225142
 30
0.0
 11
296.69318127613838
 21
-36.336723215225142
 31
0.0
  0
LINE
  5
509D
  8
1DIM
 10
259.48124904266842
 20
-159.33672321522519
 30
0.0
 11
296.69318127613838
 21
-159.33672321522519
 31
0.0
  0
LINE
  5
509E
  8
1DIM
 10
295.69318127613838
 20
-38.336723215225142
 30
0.0
 11
295.69318127613838
 21
-157.33672321522519
 31
0.0
  0
LINE
  5
50A2
  8
1DIM
 10
249.4812490426684
 20
-153.33672321522519
 30
0.0
 11
249.4812490426684
 21
-174.74550816968321
 31
0.0
  0
LINE
  5
50A3
  8
1DIM
 10
265.48124904266842
 20
-153.33672321522519
 30
0.0
 11
265.48124904266842
 21
-174.74550816968321
 31
0.0
  0
LINE
  5
50A4
  8
1DIM
 10
251.4812490426684
 20
-173.74550816968321
 30
0.0
 11
263.48124904266842
 21
-173.74550816968321
 31
0.0
  0
LINE
  5
50A8
  8
1DIM
 10
164.88399414836641
 20
-129.83672321522519
 30
0.0
 11
146.67528044423429
 21
-129.83672321522519
 31
0.0
  0
LINE
  5
50A9
  8
1DIM
 10
164.88399414836641
 20
-133.83672321522519
 30
0.0
 11
146.67528044423429
 21
-133.83672321522519
 31
0.0
  0
LINE
  5
50AA
  8
1DIM
 10
147.67528044423429
 20
-127.83672321522521
 30
0.0
 11
147.67528044423429
 21
-125.83672321522521
 31
0.0
  0
LINE
  5
50AB
  8
1DIM
 10
147.67528044423429
 20
-135.83672321522519
 30
0.0
 11
147.67528044423429
 21
-161.43672321522519
 31
0.0
  0
LINE
  5
50AC
  8
1DIM
 10
147.67528044423429
 20
-129.83672321522519
 30
0.0
 11
147.67528044423429
 21
-133.83672321522519
 31
0.0
  0
LINE
  5
50B0
  8
1DIM
 10
164.88399414836661
 20
-62.836723215224652
 30
0.0
 11
146.67528044423429
 21
-62.836723215224652
 31
0.0
  0
LINE
  5
50B1
  8
1DIM
 10
164.88399414836661
 20
-58.836723215224652
 30
0.0
 11
146.67528044423429
 21
-58.836723215224652
 31
0.0
  0
LINE
  5
50B2
  8
1DIM
 10
147.67528044423429
 20
-64.836723215224652
 30
0.0
 11
147.67528044423429
 21
-66.836723215224652
 31
0.0
  0
LINE
  5
50B3
  8
1DIM
 10
147.67528044423429
 20
-56.836723215224652
 30
0.0
 11
147.67528044423429
 21
-31.236723215224639
 31
0.0
  0
LINE
  5
50B4
  8
1DIM
 10
147.67528044423429
 20
-62.836723215224652
 30
0.0
 11
147.67528044423429
 21
-58.836723215224652
 31
0.0
  0
LINE
  5
50B8
  8
1DIM
 10
164.88399414836641
 20
-62.836723215224652
 30
0.0
 11
146.67528044423429
 21
-62.836723215224652
 31
0.0
  0
LINE
  5
50B9
  8
1DIM
 10
164.88399414836641
 20
-129.83672321522519
 30
0.0
 11
146.67528044423429
 21
-129.83672321522519
 31
0.0
  0
LINE
  5
50BA
  8
1DIM
 10
147.67528044423429
 20
-64.836723215224652
 30
0.0
 11
147.67528044423429
 21
-127.83672321522521
 31
0.0
  0
LINE
  5
50BE
  8
1DIM
 10
164.88399414836661
 20
-58.836723215224652
 30
0.0
 11
139.49440373834381
 21
-58.836723215224637
 31
0.0
  0
LINE
  5
50BF
  8
1DIM
 10
164.88399414836661
 20
-133.83672321522519
 30
0.0
 11
139.49440373834369
 21
-133.83672321522519
 31
0.0
  0
LINE
  5
50C0
  8
1DIM
 10
140.49440373834381
 20
-60.836723215224637
 30
0.0
 11
140.49440373834369
 21
-131.83672321522519
 31
0.0
  0
LINE
  5
50C4
  8
1DIM
 10
175.3839941483667
 20
-154.33672321522519
 30
0.0
 11
175.3839941483667
 21
-166.90638401700551
 31
0.0
  0
LINE
  5
50C5
  8
1DIM
 10
177.8839941483665
 20
-159.33672321522519
 30
0.0
 11
177.8839941483665
 21
-166.90638401700551
 31
0.0
  0
LINE
  5
50C6
  8
1DIM
 10
173.3839941483667
 20
-165.90638401700551
 30
0.0
 11
171.3839941483667
 21
-165.90638401700551
 31
0.0
  0
LINE
  5
50C7
  8
1DIM
 10
179.88399414836661
 20
-165.90638401700551
 30
0.0
 11
190.6173274816999
 21
-165.90638401700551
 31
0.0
  0
LINE
  5
50C8
  8
1DIM
 10
175.3839941483667
 20
-165.90638401700551
 30
0.0
 11
177.8839941483665
 21
-165.90638401700551
 31
0.0
  0
LINE
  5
50CC
  8
1DIM
 10
177.8839941483665
 20
-159.33672321522519
 30
0.0
 11
177.8839941483665
 21
-174.74550816968321
 31
0.0
  0
LINE
  5
50CD
  8
1DIM
 10
163.3839941483663
 20
-121.83672321522521
 30
0.0
 11
163.3839941483663
 21
-174.74550816968321
 31
0.0
  0
LINE
  5
50CE
  8
1DIM
 10
175.88399414836661
 20
-173.74550816968321
 30
0.0
 11
165.3839941483663
 21
-173.74550816968321
 31
0.0
  0
LINE
  5
50D2
  8
1DIM
 10
177.88399414836641
 20
-200.8717081879818
 30
0.0
 11
193.7953474970796
 21
-200.8717081879818
 31
0.0
  0
LINE
  5
50D3
  8
1DIM
 10
177.88399414836641
 20
-184.8717081879818
 30
0.0
 11
193.7953474970796
 21
-184.8717081879818
 31
0.0
  0
LINE
  5
50D4
  8
1DIM
 10
192.7953474970796
 20
-198.8717081879818
 30
0.0
 11
192.79534749707969
 21
-186.8717081879818
 31
0.0
  0
LINE
  5
50D8
  8
1DIM
 10
254.9812490426684
 20
-84.377927228312984
 30
0.0
 11
259.98124904266842
 21
-84.377927228312984
 31
0.0
  0
LINE
  5
50DC
  8
1DIM
 10
259.48124904266842
 20
-42.336723215225113
 30
0.0
 11
262.37769245650873
 21
-39.577988804227559
 31
0.0
  0
LINE
  5
50DD
  8
1DIM
 10
263.82591416342882
 20
-38.198621598728813
 30
0.0
 11
274.59238712639888
 21
-27.944031674377371
 31
0.0
  0
LINE
  5
50E0
  8
1DIM
 10
174.2839941483665
 20
-106.33672321522521
 30
0.0
 11
174.2839941483665
 21
-86.93464625411184
 31
0.0
  0
LINE
  5
50E1
  8
1DIM
 10
172.2839941483665
 20
-87.93464625411184
 30
0.0
 11
170.2839941483665
 21
-87.93464625411184
 31
0.0
  0
LINE
  5
50E2
  8
1DIM
 10
179.88399414836641
 20
-87.93464625411184
 30
0.0
 11
207.31732748169981
 21
-87.93464625411184
 31
0.0
  0
LINE
  5
50E3
  8
1DIM
 10
174.2839941483665
 20
-87.93464625411184
 30
0.0
 11
177.88399414836641
 21
-87.93464625411184
 31
0.0
  0
LINE
  5
50E7
  8
1DIM
 10
164.88399414836641
 20
-199.37170818798171
 30
0.0
 11
154.76308274281121
 21
-199.37170818798171
 31
0.0
  0
LINE
  5
50E8
  8
1DIM
 10
164.88399414836641
 20
-186.37170818798171
 30
0.0
 11
154.76308274281121
 21
-186.37170818798171
 31
0.0
  0
LINE
  5
50E9
  8
1DIM
 10
155.76308274281121
 20
-197.3717081879818
 30
0.0
 11
155.76308274281121
 21
-188.37170818798171
 31
0.0
  0
LINE
  5
50ED
  8
1DIM
 10
261.98124904266842
 20
-74.836723215225248
 30
0.0
 11
289.47122594504901
 21
-74.836723215225263
 31
0.0
  0
LINE
  5
50EE
  8
1DIM
 10
263.98124904266842
 20
-106.33672321522521
 30
0.0
 11
289.47122594504901
 21
-106.33672321522521
 31
0.0
  0
LINE
  5
50EF
  8
1DIM
 10
288.47122594504901
 20
-76.836723215225263
 30
0.0
 11
288.47122594504901
 21
-104.33672321522521
 31
0.0
  0
LINE
  5
50F3
  8
1DIM
 10
259.48124904266842
 20
-36.336723215225142
 30
0.0
 11
289.47122594504901
 21
-36.336723215225142
 31
0.0
  0
LINE
  5
50F4
  8
1DIM
 10
261.98124904266842
 20
-74.836723215225248
 30
0.0
 11
289.47122594504901
 21
-74.836723215225263
 31
0.0
  0
LINE
  5
50F5
  8
1DIM
 10
288.47122594504901
 20
-38.336723215225142
 30
0.0
 11
288.47122594504901
 21
-72.836723215225263
 31
0.0
  0
LINE
  5
50F9
  8
1DIM
 10
249.4812490426684
 20
-47.836723215225128
 30
0.0
 11
233.4743244242778
 21
-47.83672321522512
 31
0.0
  0
LINE
  5
50FA
  8
1DIM
 10
249.4812490426684
 20
-147.83672321522519
 30
0.0
 11
233.4743244242778
 21
-147.83672321522519
 31
0.0
  0
LINE
  5
50FB
  8
1DIM
 10
234.4743244242778
 20
-49.83672321522512
 30
0.0
 11
234.4743244242778
 21
-145.83672321522519
 31
0.0
  0
LINE
  5
50FF
  8
1DIM
 10
249.4812490426684
 20
-47.836723215225128
 30
0.0
 11
233.4743244242778
 21
-47.83672321522512
 31
0.0
  0
LINE
  5
5100
  8
1DIM
 10
255.4812490426684
 20
-36.336723215225142
 30
0.0
 11
233.4743244242778
 21
-36.336723215225128
 31
0.0
  0
LINE
  5
5101
  8
1DIM
 10
234.4743244242778
 20
-45.83672321522512
 30
0.0
 11
234.4743244242778
 21
-38.336723215225128
 31
0.0
  0
LINE
  5
5102
  8
1DIM
 10
234.4743244242778
 20
-36.336723215225128
 30
0.0
 11
234.4743244242778
 21
-22.770056548558461
 31
0.0
  0
LINE
  5
5106
  8
1HATCH
 10
176.88399414836641
 20
-111.5834361365184
 30
0.0
 11
177.88399414836641
 21
-110.5834361365184
 31
0.0
1001
ACAD
1010
0.0
1020
0.0
1030
0.0
  0
LINE
  5
5107
  8
1HATCH
 10
176.8839941483665
 20
-112.9304745546787
 30
0.0
 11
177.8839941483665
 21
-111.9304745546787
 31
0.0
1001
ACAD
1010
0.0
1020
0.0
1030
0.0
  0
LINE
  5
5108
  8
1HATCH
 10
176.88399414836641
 20
-114.2775129728392
 30
0.0
 11
177.8839941483665
 21
-113.27751297283911
 31
0.0
1001
ACAD
1010
0.0
1020
0.0
1030
0.0
  0
LINE
  5
5109
  8
1HATCH
 10
176.88399414836641
 20
-130.44197399076361
 30
0.0
 11
177.88399414836641
 21
-129.44197399076361
 31
0.0
1001
ACAD
1010
0.0
1020
0.0
1030
0.0
  0
LINE
  5
510A
  8
1HATCH
 10
176.88399414836641
 20
-131.78901240892401
 30
0.0
 11
177.88399414836641
 21
-130.78901240892401
 31
0.0
1001
ACAD
1010
0.0
1020
0.0
1030
0.0
  0
LINE
  5
510B
  8
1HATCH
 10
176.8839941483665
 20
-133.13605082708429
 30
0.0
 11
177.8839941483665
 21
-132.13605082708429
 31
0.0
1001
ACAD
1010
0.0
1020
0.0
1030
0.0
  0
LINE
  5
510C
  8
1HATCH
 10
177.8209367779601
 20
-133.54614661565111
 30
0.0
 11
177.8839941483665
 21
-133.48308924524471
 31
0.0
1001
ACAD
1010
0.0
1020
0.0
1030
0.0
  0
LINE
  5
510D
  8
1HATCH
 10
174.2839941483665
 20
-106.5502184336096
 30
0.0
 11
174.4974893667509
 21
-106.33672321522521
 31
0.0
1001
ACAD
1010
0.0
1020
0.0
1030
0.0
  0
LINE
  5
510E
  8
1HATCH
 10
174.2839941483665
 20
-107.44824404571651
 30
0.0
 11
175.3955149788579
 21
-106.33672321522521
 31
0.0
1001
ACAD
1010
0.0
1020
0.0
1030
0.0
  0
LINE
  5
510F
  8
1HATCH
 10
174.2839941483665
 20
-108.3462696578234
 30
0.0
 11
175.8839941483665
 21
-106.7462696578234
 31
0.0
1001
ACAD
1010
0.0
1020
0.0
1030
0.0
  0
LINE
  5
5110
  8
1HATCH
 10
174.2839941483665
 20
-109.2442952699304
 30
0.0
 11
175.8839941483665
 21
-107.6442952699303
 31
0.0
1001
ACAD
1010
0.0
1020
0.0
1030
0.0
  0
LINE
  5
5111
  8
1HATCH
 10
174.2839941483665
 20
-110.1423208820373
 30
0.0
 11
175.88399414836661
 21
-108.5423208820373
 31
0.0
1001
ACAD
1010
0.0
1020
0.0
1030
0.0
  0
LINE
  5
5112
  8
1HATCH
 10
174.28399414836659
 20
-111.0403464941442
 30
0.0
 11
175.88399414836661
 21
-109.44034649414419
 31
0.0
1001
ACAD
1010
0.0
1020
0.0
1030
0.0
  0
LINE
  5
5113
  8
1HATCH
 10
174.2839941483665
 20
-111.93837210625109
 30
0.0
 11
175.88399414836661
 21
-110.3383721062511
 31
0.0
1001
ACAD
1010
0.0
1020
0.0
1030
0.0
  0
LINE
  5
5114
  8
1HATCH
 10
174.2839941483665
 20
-112.836397718358
 30
0.0
 11
175.8839941483665
 21
-111.23639771835801
 31
0.0
1001
ACAD
1010
0.0
1020
0.0
1030
0.0
  0
LINE
  5
5115
  8
1HATCH
 10
168.2839941483665
 20
-119.73442333046491
 30
0.0
 11
169.26333549455919
 21
-118.75508198427219
 31
0.0
1001
ACAD
1010
0.0
1020
0.0
1030
0.0
  0
LINE
  5
5116
  8
1HATCH
 10
174.2839941483665
 20
-113.73442333046491
 30
0.0
 11
175.8839941483665
 21
-112.1344233304649
 31
0.0
1001
ACAD
1010
0.0
1020
0.0
1030
0.0
  0
LINE
  5
5117
  8
1HATCH
 10
169.17971987571329
 20
-119.7367232152251
 30
0.0
 11
170.2430319398932
 21
-118.6734111510452
 31
0.0
1001
ACAD
1010
0.0
1020
0.0
1030
0.0
  0
LINE
  5
5118
  8
1HATCH
 10
174.2839941483665
 20
-114.6324489425718
 30
0.0
 11
175.8839941483665
 21
-113.0324489425718
 31
0.0
1001
ACAD
1010
0.0
1020
0.0
1030
0.0
  0
LINE
  5
5119
  8
1HATCH
 10
170.07774548782021
 20
-119.7367232152251
 30
0.0
 11
171.2227283852271
 21
-118.59174031781821
 31
0.0
1001
ACAD
1010
0.0
1020
0.0
1030
0.0
  0
LINE
  5
511A
  8
1HATCH
 10
174.28399414836659
 20
-115.5304745546787
 30
0.0
 11
175.88399414836661
 21
-113.9304745546787
 31
0.0
1001
ACAD
1010
0.0
1020
0.0
1030
0.0
  0
LINE
  5
511B
  8
1HATCH
 10
170.97577109992719
 20
-119.736723215225
 30
0.0
 11
172.20242483056111
 21
-118.5100694845911
 31
0.0
1001
ACAD
1010
0.0
1020
0.0
1030
0.0
  0
LINE
  5
511C
  8
1HATCH
 10
174.28399414836659
 20
-116.4285001667856
 30
0.0
 11
175.8839941483665
 21
-114.8285001667857
 31
0.0
1001
ACAD
1010
0.0
1020
0.0
1030
0.0
  0
LINE
  5
511D
  8
1HATCH
 10
171.87379671203411
 20
-119.7367232152251
 30
0.0
 11
173.1821212758951
 21
-118.42839865136411
 31
0.0
1001
ACAD
1010
0.0
1020
0.0
1030
0.0
  0
LINE
  5
511E
  8
1HATCH
 10
174.28399414836659
 20
-117.3265257788926
 30
0.0
 11
175.88399414836661
 21
-115.72652577889259
 31
0.0
1001
ACAD
1010
0.0
1020
0.0
1030
0.0
  0
LINE
  5
511F
  8
1HATCH
 10
168.2839941483665
 20
-124.22455139099949
 30
0.0
 11
168.5718223241409
 21
-123.9367232152252
 31
0.0
1001
ACAD
1010
0.0
1020
0.0
1030
0.0
  0
LINE
  5
5120
  8
1HATCH
 10
172.771822324141
 20
-119.736723215225
 30
0.0
 11
175.8839941483665
 21
-116.6245513909995
 31
0.0
1001
ACAD
1010
0.0
1020
0.0
1030
0.0
  0
LINE
  5
5121
  8
1HATCH
 10
168.5478518586327
 20
-124.85871929284021
 30
0.0
 11
169.46984793624779
 21
-123.9367232152252
 31
0.0
1001
ACAD
1010
0.0
1020
0.0
1030
0.0
  0
LINE
  5
5122
  8
1HATCH
 10
173.66984793624789
 20
-119.736723215225
 30
0.0
 11
175.88399414836661
 21
-117.52257700310641
 31
0.0
1001
ACAD
1010
0.0
1020
0.0
1030
0.0
  0
LINE
  5
5123
  8
1HATCH
 10
169.37677556654339
 20
-124.92782119703639
 30
0.0
 11
170.36787354835459
 21
-123.9367232152252
 31
0.0
1001
ACAD
1010
0.0
1020
0.0
1030
0.0
  0
LINE
  5
5124
  8
1HATCH
 10
174.56787354835481
 20
-119.7367232152251
 30
0.0
 11
175.8839941483665
 21
-118.4206026152134
 31
0.0
1001
ACAD
1010
0.0
1020
0.0
1030
0.0
  0
LINE
  5
5125
  8
1HATCH
 10
170.2056992744543
 20
-124.9969231012325
 30
0.0
 11
171.2658991604616
 21
-123.9367232152252
 31
0.0
1001
ACAD
1010
0.0
1020
0.0
1030
0.0
  0
LINE
  5
5126
  8
1HATCH
 10
175.4658991604617
 20
-119.7367232152251
 30
0.0
 11
175.8839941483665
 21
-119.3186282273202
 31
0.0
1001
ACAD
1010
0.0
1020
0.0
1030
0.0
  0
LINE
  5
5127
  8
1HATCH
 10
171.03462298236519
 20
-125.0660250054286
 30
0.0
 11
172.16392477256849
 21
-123.9367232152252
 31
0.0
1001
ACAD
1010
0.0
1020
0.0
1030
0.0
  0
LINE
  5
5128
  8
1HATCH
 10
171.86354669027591
 20
-125.1351269096247
 30
0.0
 11
173.06195038467541
 21
-123.9367232152252
 31
0.0
1001
ACAD
1010
0.0
1020
0.0
1030
0.0
  0
LINE
  5
5129
  8
1HATCH
 10
172.6924703981868
 20
-125.20422881382081
 30
0.0
 11
173.95997599678239
 21
-123.9367232152252
 31
0.0
1001
ACAD
1010
0.0
1020
0.0
1030
0.0
  0
LINE
  5
512A
  8
1HATCH
 10
173.52139410609749
 20
-125.27333071801689
 30
0.0
 11
174.8580016088892
 21
-123.9367232152252
 31
0.0
1001
ACAD
1010
0.0
1020
0.0
1030
0.0
  0
LINE
  5
512B
  8
1HATCH
 10
174.1890982777856
 20
-125.5036521584357
 30
0.0
 11
175.62001068468129
 21
-124.07273975154
 31
0.0
1001
ACAD
1010
0.0
1020
0.0
1030
0.0
  0
LINE
  5
512C
  8
1HATCH
 10
174.2839941483665
 20
-126.30678189996171
 30
0.0
 11
175.8839941483665
 21
-124.7067818999617
 31
0.0
1001
ACAD
1010
0.0
1020
0.0
1030
0.0
  0
LINE
  5
512D
  8
1HATCH
 10
174.2839941483665
 20
-127.2048075120686
 30
0.0
 11
175.8839941483665
 21
-125.6048075120687
 31
0.0
1001
ACAD
1010
0.0
1020
0.0
1030
0.0
  0
LINE
  5
512E
  8
1HATCH
 10
174.2839941483665
 20
-128.10283312417559
 30
0.0
 11
175.88399414836661
 21
-126.5028331241756
 31
0.0
1001
ACAD
1010
0.0
1020
0.0
1030
0.0
  0
LINE
  5
512F
  8
1HATCH
 10
174.44812966942391
 20
-128.83672321522519
 30
0.0
 11
175.88399414836661
 21
-127.4008587362825
 31
0.0
1001
ACAD
1010
0.0
1020
0.0
1030
0.0
  0
LINE
  5
5130
  8
1HATCH
 10
175.3461552815308
 20
-128.83672321522519
 30
0.0
 11
175.88399414836661
 21
-128.29888434838941
 31
0.0
1001
ACAD
1010
0.0
1020
0.0
1030
0.0
  0
LINE
  5
5131
  8
1HATCH
 10
176.88399414836641
 20
-132.91742194222519
 30
0.0
 11
175.88399414836661
 21
-131.9174219422253
 31
0.0
1001
ACAD
1010
0.0
1020
0.0
1030
0.0
  0
LINE
  5
5132
  8
1HATCH
 10
176.88399414836641
 20
-131.57038352406479
 30
0.0
 11
175.8839941483665
 21
-130.57038352406491
 31
0.0
1001
ACAD
1010
0.0
1020
0.0
1030
0.0
  0
LINE
  5
5133
  8
1HATCH
 10
176.88399414836641
 20
-130.22334510590451
 30
0.0
 11
175.8839941483665
 21
-129.2233451059046
 31
0.0
1001
ACAD
1010
0.0
1020
0.0
1030
0.0
  0
LINE
  5
5134
  8
1HATCH
 10
176.88399414836641
 20
-128.87630668774409
 30
0.0
 11
175.8839941483665
 21
-127.8763066877442
 31
0.0
1001
ACAD
1010
0.0
1020
0.0
1030
0.0
  0
LINE
  5
5135
  8
1HATCH
 10
176.88399414836641
 20
-127.5292682695837
 30
0.0
 11
175.8839941483665
 21
-126.5292682695838
 31
0.0
1001
ACAD
1010
0.0
1020
0.0
1030
0.0
  0
LINE
  5
5136
  8
1HATCH
 10
176.88399414836641
 20
-126.1822298514234
 30
0.0
 11
175.88399414836661
 21
-125.1822298514235
 31
0.0
1001
ACAD
1010
0.0
1020
0.0
1030
0.0
  0
LINE
  5
5137
  8
1HATCH
 10
176.3288368756684
 20
-118.8918804879234
 30
0.0
 11
175.8839941483665
 21
-118.4470377606216
 31
0.0
1001
ACAD
1010
0.0
1020
0.0
1030
0.0
  0
LINE
  5
5138
  8
1HATCH
 10
176.8839941483665
 20
-118.0999993424612
 30
0.0
 11
175.8839941483665
 21
-117.0999993424612
 31
0.0
1001
ACAD
1010
0.0
1020
0.0
1030
0.0
  0
LINE
  5
5139
  8
1HATCH
 10
176.88399414836641
 20
-116.75296092430069
 30
0.0
 11
175.8839941483665
 21
-115.75296092430079
 31
0.0
1001
ACAD
1010
0.0
1020
0.0
1030
0.0
  0
LINE
  5
513A
  8
1HATCH
 10
176.88399414836641
 20
-115.4059225061404
 30
0.0
 11
175.8839941483665
 21
-114.4059225061405
 31
0.0
1001
ACAD
1010
0.0
1020
0.0
1030
0.0
  0
LINE
  5
513B
  8
1HATCH
 10
176.88399414836641
 20
-114.05888408798
 30
0.0
 11
175.8839941483665
 21
-113.0588840879801
 31
0.0
1001
ACAD
1010
0.0
1020
0.0
1030
0.0
  0
LINE
  5
513C
  8
1HATCH
 10
176.88399414836641
 20
-112.7118456698196
 30
0.0
 11
175.8839941483665
 21
-111.7118456698197
 31
0.0
1001
ACAD
1010
0.0
1020
0.0
1030
0.0
  0
LINE
  5
513D
  8
1HATCH
 10
176.88399414836641
 20
-111.3648072516592
 30
0.0
 11
175.88399414836661
 21
-110.3648072516594
 31
0.0
1001
ACAD
1010
0.0
1020
0.0
1030
0.0
  0
LINE
  5
513E
  8
1HATCH
 10
176.88399414836641
 20
-110.01776883349891
 30
0.0
 11
175.8839941483665
 21
-109.01776883349901
 31
0.0
1001
ACAD
1010
0.0
1020
0.0
1030
0.0
  0
LINE
  5
513F
  8
1HATCH
 10
176.88399414836641
 20
-108.6707304153385
 30
0.0
 11
175.8839941483665
 21
-107.6707304153386
 31
0.0
1001
ACAD
1010
0.0
1020
0.0
1030
0.0
  0
LINE
  5
5140
  8
1HATCH
 10
176.88399414836641
 20
-107.3236919971782
 30
0.0
 11
175.89702536641349
 21
-106.33672321522521
 31
0.0
1001
ACAD
1010
0.0
1020
0.0
1030
0.0
  0
TEXT
  5
5141
  8
1DIM
 10
273.04213981824518
 20
-128.41990796613689
 30
0.0
 40
3.5
  1
隙間調整板
  0
TEXT
  5
5142
  8
1DIM
 10
273.04213981824518
 20
-134.2532412994702
 30
0.0
 40
3.5
  1
取付けねじ
  0
LINE
  5
5145
  8
1DIM
 10
338.83009410694621
 20
-50.376867657581897
 30
0.0
 11
322.6838522937141
 21
-50.37686765758189
 31
0.0
  0
LINE
  5
5146
  8
1DIM
 10
338.13008596316581
 20
-53.87686765758189
 30
0.0
 11
322.6838522937141
 21
-53.87686765758189
 31
0.0
  0
LINE
  5
5147
  8
1DIM
 10
323.68385229371421
 20
-48.37686765758189
 30
0.0
 11
323.68385229371421
 21
-46.376867657581883
 31
0.0
  0
LINE
  5
5148
  8
1DIM
 10
323.68385229371421
 20
-55.87686765758189
 30
0.0
 11
323.68385229371421
 21
-70.610200990915232
 31
0.0
  0
LINE
  5
5149
  8
1DIM
 10
323.68385229371421
 20
-50.37686765758189
 30
0.0
 11
323.68385229371421
 21
-53.87686765758189
 31
0.0
  0
LINE
  5
514D
  8
1DIM
 10
332.0925900350104
 20
-52.12686765758189
 30
0.0
 11
332.0925900350104
 21
-35.213285581039152
 31
0.0
  0
LINE
  5
514E
  8
1DIM
 10
357.09259003501029
 20
-48.626867657581897
 30
0.0
 11
357.09259003501029
 21
-35.213285581039152
 31
0.0
  0
LINE
  5
514F
  8
1DIM
 10
334.0925900350104
 20
-36.213285581039152
 30
0.0
 11
355.09259003501029
 21
-36.213285581039152
 31
0.0
  0
TEXT
  5
5153
  8
1DIM
 10
341.6759233683436
 20
-35.513285581039142
 30
0.0
 40
3.5
  1
25 
  0
LINE
  5
5154
  8
0
  6
BYBLOCK
 10
355.09259003501029
 20
-35.677387201039153
 30
0.0
 11
357.09259003501029
 21
-36.213285581039152
 31
0.0
  0
LINE
  5
5155
  8
0
  6
BYBLOCK
 10
357.09259003501029
 20
-36.213285581039152
 30
0.0
 11
355.09259003501029
 21
-36.749183961039137
 31
0.0
  0
LINE
  5
5156
  8
0
  6
BYBLOCK
 10
357.09259003501029
 20
-36.213285581039152
 30
0.0
 11
355.09259003501029
 21
-36.213285581039152
 31
0.0
  0
LINE
  5
5157
  8
0
  6
BYBLOCK
 10
334.0925900350104
 20
-36.749183961039137
 30
0.0
 11
332.0925900350104
 21
-36.213285581039152
 31
0.0
  0
LINE
  5
5158
  8
0
  6
BYBLOCK
 10
332.0925900350104
 20
-36.213285581039152
 30
0.0
 11
334.0925900350104
 21
-35.677387201039153
 31
0.0
  0
LINE
  5
5159
  8
0
  6
BYBLOCK
 10
332.0925900350104
 20
-36.213285581039152
 30
0.0
 11
334.0925900350104
 21
-36.213285581039152
 31
0.0
  0
TEXT
  5
515A
  8
1DIM
 10
322.98385229371422
 20
-70.193534324248503
 30
0.0
 40
3.5
  1
φ3.5
 50
90.0
  0
LINE
  5
515B
  8
0
  6
BYBLOCK
 10
323.14795391371422
 20
-55.87686765758189
 30
0.0
 11
323.68385229371421
 21
-53.87686765758189
 31
0.0
  0
LINE
  5
515C
  8
0
  6
BYBLOCK
 10
323.68385229371421
 20
-53.87686765758189
 30
0.0
 11
324.2197506737142
 21
-55.87686765758189
 31
0.0
  0
LINE
  5
515D
  8
0
  6
BYBLOCK
 10
323.68385229371421
 20
-53.87686765758189
 30
0.0
 11
323.68385229371421
 21
-55.87686765758189
 31
0.0
  0
LINE
  5
515E
  8
0
  6
BYBLOCK
 10
324.2197506737142
 20
-48.37686765758189
 30
0.0
 11
323.68385229371421
 21
-50.37686765758189
 31
0.0
  0
LINE
  5
515F
  8
0
  6
BYBLOCK
 10
323.68385229371421
 20
-50.37686765758189
 30
0.0
 11
323.14795391371422
 21
-48.37686765758189
 31
0.0
  0
LINE
  5
5160
  8
0
  6
BYBLOCK
 10
323.68385229371421
 20
-50.37686765758189
 30
0.0
 11
323.68385229371421
 21
-48.37686765758189
 31
0.0
  0
LINE
  5
5161
  8
1DIM
 10
261.3318798528386
 20
-125.76389043394229
 30
0.0
 11
270.34213981824519
 21
-134.95324129947031
 31
0.0
  0
LINE
  5
5162
  8
1DIM
 10
270.34213981824519
 20
-134.95324129947031
 30
0.0
 11
293.1088064849119
 21
-134.95324129947031
 31
0.0
  0
LINE
  5
5163
  8
0
  6
BYBLOCK
 10
260.94923211638411
 20
-126.1390807636057
 30
0.0
 11
259.93165046732219
 21
-124.33582962713599
 31
0.0
  0
LINE
  5
5164
  8
0
  6
BYBLOCK
 10
259.93165046732219
 20
-124.33582962713599
 30
0.0
 11
261.71452758929308
 21
-125.388700104279
 31
0.0
  0
LINE
  5
5165
  8
0
  6
BYBLOCK
 10
259.93165046732219
 20
-124.33582962713599
 30
0.0
 11
261.3318798528386
 21
-125.76389043394229
 31
0.0
  0
TEXT
  5
5166
  8
1DIM
 10
233.77432442427781
 20
-32.636723215225103
 30
0.0
 40
3.5
  1
11.5 
 50
90.0
  0
LINE
  5
5167
  8
0
  6
BYBLOCK
 10
233.9384260442778
 20
-38.336723215225128
 30
0.0
 11
234.4743244242778
 21
-36.336723215225128
 31
0.0
  0
LINE
  5
5168
  8
0
  6
BYBLOCK
 10
234.4743244242778
 20
-36.336723215225128
 30
0.0
 11
235.01022280427779
 21
-38.336723215225128
 31
0.0
  0
LINE
  5
5169
  8
0
  6
BYBLOCK
 10
234.4743244242778
 20
-36.336723215225128
 30
0.0
 11
234.4743244242778
 21
-38.336723215225128
 31
0.0
  0
LINE
  5
516A
  8
0
  6
BYBLOCK
 10
235.01022280427779
 20
-45.83672321522512
 30
0.0
 11
234.4743244242778
 21
-47.83672321522512
 31
0.0
  0
LINE
  5
516B
  8
0
  6
BYBLOCK
 10
234.4743244242778
 20
-47.83672321522512
 30
0.0
 11
233.9384260442778
 21
-45.83672321522512
 31
0.0
  0
LINE
  5
516C
  8
0
  6
BYBLOCK
 10
234.4743244242778
 20
-47.83672321522512
 30
0.0
 11
234.4743244242778
 21
-45.83672321522512
 31
0.0
  0
TEXT
  5
516D
  8
1DIM
 10
233.77432442427781
 20
-118.1367232152251
 30
0.0
 40
3.5
  1
取付けねじピッチ100 
 50
90.0
  0
LINE
  5
516E
  8
0
  6
BYBLOCK
 10
235.01022280427779
 20
-145.83672321522519
 30
0.0
 11
234.4743244242778
 21
-147.83672321522519
 31
0.0
  0
LINE
  5
516F
  8
0
  6
BYBLOCK
 10
234.4743244242778
 20
-147.83672321522519
 30
0.0
 11
233.9384260442778
 21
-145.83672321522519
 31
0.0
  0
LINE
  5
5170
  8
0
  6
BYBLOCK
 10
234.4743244242778
 20
-147.83672321522519
 30
0.0
 11
234.4743244242778
 21
-145.83672321522519
 31
0.0
  0
LINE
  5
5171
  8
0
  6
BYBLOCK
 10
233.9384260442778
 20
-49.83672321522512
 30
0.0
 11
234.4743244242778
 21
-47.83672321522512
 31
0.0
  0
LINE
  5
5172
  8
0
  6
BYBLOCK
 10
234.4743244242778
 20
-47.83672321522512
 30
0.0
 11
235.01022280427779
 21
-49.83672321522512
 31
0.0
  0
LINE
  5
5173
  8
0
  6
BYBLOCK
 10
234.4743244242778
 20
-47.83672321522512
 30
0.0
 11
234.4743244242778
 21
-49.83672321522512
 31
0.0
  0
TEXT
  5
5174
  8
1DIM
 10
281.93789261171571
 20
-67.603389881891815
 30
0.0
 40
3.5
  1
上下調整範囲
 50
90.0
  0
TEXT
  5
5175
  8
1DIM
 10
287.77122594504903
 20
-68.420056548558478
 30
0.0
 40
3.5
  1
34.5~42.5
 50
90.0
  0
LINE
  5
5176
  8
0
  6
BYBLOCK
 10
289.00712432504901
 20
-72.836723215225263
 30
0.0
 11
288.47122594504901
 21
-74.836723215225263
 31
0.0
  0
LINE
  5
5177
  8
0
  6
BYBLOCK
 10
288.47122594504901
 20
-74.836723215225263
 30
0.0
 11
287.93532756504902
 21
-72.836723215225263
 31
0.0
  0
LINE
  5
5178
  8
0
  6
BYBLOCK
 10
288.47122594504901
 20
-74.836723215225263
 30
0.0
 11
288.47122594504901
 21
-72.836723215225263
 31
0.0
  0
LINE
  5
5179
  8
0
  6
BYBLOCK
 10
287.93532756504902
 20
-38.336723215225142
 30
0.0
 11
288.47122594504901
 21
-36.336723215225142
 31
0.0
  0
LINE
  5
517A
  8
0
  6
BYBLOCK
 10
288.47122594504901
 20
-36.336723215225142
 30
0.0
 11
289.00712432504901
 21
-38.336723215225142
 31
0.0
  0
LINE
  5
517B
  8
0
  6
BYBLOCK
 10
288.47122594504901
 20
-36.336723215225142
 30
0.0
 11
288.47122594504901
 21
-38.336723215225142
 31
0.0
  0
TEXT
  5
517C
  8
1DIM
 10
287.77122594504903
 20
-95.253389881891877
 30
0.0
 40
3.5
  1
31.5 
 50
90.0
  0
LINE
  5
517D
  8
0
  6
BYBLOCK
 10
289.00712432504901
 20
-104.33672321522521
 30
0.0
 11
288.47122594504901
 21
-106.33672321522521
 31
0.0
  0
LINE
  5
517E
  8
0
  6
BYBLOCK
 10
288.47122594504901
 20
-106.33672321522521
 30
0.0
 11
287.93532756504902
 21
-104.33672321522521
 31
0.0
  0
LINE
  5
517F
  8
0
  6
BYBLOCK
 10
288.47122594504901
 20
-106.33672321522521
 30
0.0
 11
288.47122594504901
 21
-104.33672321522521
 31
0.0
  0
LINE
  5
5180
  8
0
  6
BYBLOCK
 10
287.93532756504902
 20
-76.836723215225263
 30
0.0
 11
288.47122594504901
 21
-74.836723215225263
 31
0.0
  0
LINE
  5
5181
  8
0
  6
BYBLOCK
 10
288.47122594504901
 20
-74.836723215225263
 30
0.0
 11
289.00712432504901
 21
-76.836723215225263
 31
0.0
  0
LINE
  5
5182
  8
0
  6
BYBLOCK
 10
288.47122594504901
 20
-74.836723215225263
 30
0.0
 11
288.47122594504901
 21
-76.836723215225263
 31
0.0
  0
TEXT
  5
5183
  8
1DIM
 10
155.06308274281119
 20
-195.205041521315
 30
0.0
 40
3.5
  1
13 
 50
90.0
  0
LINE
  5
5184
  8
0
  6
BYBLOCK
 10
155.22718436281119
 20
-188.37170818798171
 30
0.0
 11
155.76308274281121
 21
-186.37170818798171
 31
0.0
  0
LINE
  5
5185
  8
0
  6
BYBLOCK
 10
155.76308274281121
 20
-186.37170818798171
 30
0.0
 11
156.2989811228112
 21
-188.37170818798171
 31
0.0
  0
LINE
  5
5186
  8
0
  6
BYBLOCK
 10
155.76308274281121
 20
-186.37170818798171
 30
0.0
 11
155.76308274281121
 21
-188.37170818798171
 31
0.0
  0
LINE
  5
5187
  8
0
  6
BYBLOCK
 10
156.2989811228112
 20
-197.3717081879818
 30
0.0
 11
155.76308274281121
 21
-199.37170818798171
 31
0.0
  0
LINE
  5
5188
  8
0
  6
BYBLOCK
 10
155.76308274281121
 20
-199.37170818798171
 30
0.0
 11
155.22718436281119
 21
-197.3717081879818
 31
0.0
  0
LINE
  5
5189
  8
0
  6
BYBLOCK
 10
155.76308274281121
 20
-199.37170818798171
 30
0.0
 11
155.76308274281121
 21
-197.3717081879818
 31
0.0
  0
TEXT
  5
518A
  8
1DIM
 10
182.5839941483664
 20
-81.401312920778494
 30
0.0
 40
3.5
  1
前後調整範囲
  0
TEXT
  5
518B
  8
1DIM
 10
183.86732748169979
 20
-87.234646254111837
 30
0.0
 40
3.5
  1
3.6 ～6.5
  0
LINE
  5
518C
  8
0
  6
BYBLOCK
 10
179.88399414836641
 20
-88.470544634111846
 30
0.0
 11
177.88399414836641
 21
-87.93464625411184
 31
0.0
  0
LINE
  5
518D
  8
0
  6
BYBLOCK
 10
177.88399414836641
 20
-87.93464625411184
 30
0.0
 11
179.88399414836641
 21
-87.398747874111834
 31
0.0
  0
LINE
  5
518E
  8
0
  6
BYBLOCK
 10
177.88399414836641
 20
-87.93464625411184
 30
0.0
 11
179.88399414836641
 21
-87.93464625411184
 31
0.0
  0
LINE
  5
518F
  8
0
  6
BYBLOCK
 10
172.2839941483665
 20
-87.398747874111834
 30
0.0
 11
174.2839941483665
 21
-87.93464625411184
 31
0.0
  0
LINE
  5
5190
  8
0
  6
BYBLOCK
 10
174.2839941483665
 20
-87.93464625411184
 30
0.0
 11
172.2839941483665
 21
-88.470544634111846
 31
0.0
  0
LINE
  5
5191
  8
0
  6
BYBLOCK
 10
174.2839941483665
 20
-87.93464625411184
 30
0.0
 11
172.2839941483665
 21
-87.93464625411184
 31
0.0
  0
TEXT
  5
5192
  8
1DIM
 10
269.43909359965699
 20
-31.885613314688751
 30
0.0
 40
3.5
  1
R6 
 50
43.605068500900877
  0
LINE
  5
5193
  8
0
  6
BYBLOCK
 10
262.00809213108278
 20
-39.1899389709179
 30
0.0
 11
263.82591416342882
 21
-38.198621598728813
 31
0.0
  0
LINE
  5
5194
  8
0
  6
BYBLOCK
 10
263.82591416342882
 20
-38.198621598728813
 30
0.0
 11
262.74729278193468
 21
-39.96603863753721
 31
0.0
  0
LINE
  5
5195
  8
0
  6
BYBLOCK
 10
263.82591416342882
 20
-38.198621598728813
 30
0.0
 11
262.37769245650873
 21
-39.577988804227552
 31
0.0
  0
TEXT
  5
5196
  8
1DIM
 10
256.31458237600168
 20
-83.677927228312981
 30
0.0
 40
3.5
  1
9 
  0
LINE
  5
5197
  8
0
  6
BYBLOCK
 10
259.98124904266842
 20
-83.842028848312978
 30
0.0
 11
261.98124904266842
 21
-84.377927228312984
 31
0.0
  0
LINE
  5
5198
  8
0
  6
BYBLOCK
 10
261.98124904266842
 20
-84.377927228312984
 30
0.0
 11
259.98124904266842
 21
-84.91382560831299
 31
0.0
  0
LINE
  5
5199
  8
0
  6
BYBLOCK
 10
261.98124904266842
 20
-84.377927228312984
 30
0.0
 11
259.98124904266842
 21
-84.377927228312984
 31
0.0
  0
LINE
  5
519A
  8
0
  6
BYBLOCK
 10
254.9812490426684
 20
-84.91382560831299
 30
0.0
 11
252.9812490426684
 21
-84.377927228312984
 31
0.0
  0
LINE
  5
519B
  8
0
  6
BYBLOCK
 10
252.9812490426684
 20
-84.377927228312984
 30
0.0
 11
254.9812490426684
 21
-83.842028848312978
 31
0.0
  0
LINE
  5
519C
  8
0
  6
BYBLOCK
 10
252.9812490426684
 20
-84.377927228312984
 30
0.0
 11
254.9812490426684
 21
-84.377927228312984
 31
0.0
  0
TEXT
  5
519D
  8
1DIM
 10
192.0953474970797
 20
-195.205041521315
 30
0.0
 40
3.5
  1
16 
 50
90.0
  0
LINE
  5
519E
  8
0
  6
BYBLOCK
 10
192.25944911707961
 20
-186.8717081879818
 30
0.0
 11
192.79534749707969
 21
-184.8717081879818
 31
0.0
  0
LINE
  5
519F
  8
0
  6
BYBLOCK
 10
192.79534749707969
 20
-184.8717081879818
 30
0.0
 11
193.3312458770796
 21
-186.8717081879818
 31
0.0
  0
LINE
  5
51A0
  8
0
  6
BYBLOCK
 10
192.79534749707969
 20
-184.8717081879818
 30
0.0
 11
192.79534749707969
 21
-186.8717081879818
 31
0.0
  0
LINE
  5
51A1
  8
0
  6
BYBLOCK
 10
193.3312458770796
 20
-198.8717081879818
 30
0.0
 11
192.7953474970796
 21
-200.8717081879818
 31
0.0
  0
LINE
  5
51A2
  8
0
  6
BYBLOCK
 10
192.7953474970796
 20
-200.8717081879818
 30
0.0
 11
192.25944911707961
 21
-198.8717081879818
 31
0.0
  0
LINE
  5
51A3
  8
0
  6
BYBLOCK
 10
192.7953474970796
 20
-200.8717081879818
 30
0.0
 11
192.7953474970796
 21
-198.8717081879818
 31
0.0
  0
TEXT
  5
51A4
  8
1DIM
 10
165.96732748169981
 20
-173.04550816968319
 30
0.0
 40
3.5
  1
14.5 
  0
LINE
  5
51A5
  8
0
  6
BYBLOCK
 10
165.3839941483663
 20
-174.2814065496832
 30
0.0
 11
163.3839941483663
 21
-173.74550816968321
 31
0.0
  0
LINE
  5
51A6
  8
0
  6
BYBLOCK
 10
163.3839941483663
 20
-173.74550816968321
 30
0.0
 11
165.3839941483663
 21
-173.20960978968321
 31
0.0
  0
LINE
  5
51A7
  8
0
  6
BYBLOCK
 10
163.3839941483663
 20
-173.74550816968321
 30
0.0
 11
165.3839941483663
 21
-173.74550816968321
 31
0.0
  0
LINE
  5
51A8
  8
0
  6
BYBLOCK
 10
175.88399414836661
 20
-173.20960978968321
 30
0.0
 11
177.8839941483665
 21
-173.74550816968321
 31
0.0
  0
LINE
  5
51A9
  8
0
  6
BYBLOCK
 10
177.8839941483665
 20
-173.74550816968321
 30
0.0
 11
175.88399414836661
 21
-174.2814065496832
 31
0.0
  0
LINE
  5
51AA
  8
0
  6
BYBLOCK
 10
177.8839941483665
 20
-173.74550816968321
 30
0.0
 11
175.88399414836661
 21
-173.74550816968321
 31
0.0
  0
TEXT
  5
51AB
  8
1DIM
 10
182.7506608150332
 20
-165.20638401700549
 30
0.0
 40
3.5
  1
2.5 
  0
LINE
  5
51AC
  8
0
  6
BYBLOCK
 10
179.88399414836661
 20
-166.4422823970055
 30
0.0
 11
177.8839941483665
 21
-165.90638401700551
 31
0.0
  0
LINE
  5
51AD
  8
0
  6
BYBLOCK
 10
177.8839941483665
 20
-165.90638401700551
 30
0.0
 11
179.88399414836661
 21
-165.37048563700549
 31
0.0
  0
LINE
  5
51AE
  8
0
  6
BYBLOCK
 10
177.8839941483665
 20
-165.90638401700551
 30
0.0
 11
179.88399414836661
 21
-165.90638401700551
 31
0.0
  0
LINE
  5
51AF
  8
0
  6
BYBLOCK
 10
173.3839941483667
 20
-165.37048563700549
 30
0.0
 11
175.3839941483667
 21
-165.90638401700551
 31
0.0
  0
LINE
  5
51B0
  8
0
  6
BYBLOCK
 10
175.3839941483667
 20
-165.90638401700551
 30
0.0
 11
173.3839941483667
 21
-166.4422823970055
 31
0.0
  0
LINE
  5
51B1
  8
0
  6
BYBLOCK
 10
175.3839941483667
 20
-165.90638401700551
 30
0.0
 11
173.3839941483667
 21
-165.90638401700551
 31
0.0
  0
TEXT
  5
51B2
  8
1DIM
 10
139.79440373834379
 20
-113.9533898818916
 30
0.0
 40
3.5
  1
切欠き必要寸法75 
 50
90.0
  0
LINE
  5
51B3
  8
0
  6
BYBLOCK
 10
141.03030211834371
 20
-131.83672321522519
 30
0.0
 11
140.49440373834369
 21
-133.83672321522519
 31
0.0
  0
LINE
  5
51B4
  8
0
  6
BYBLOCK
 10
140.49440373834369
 20
-133.83672321522519
 30
0.0
 11
139.9585053583437
 21
-131.83672321522519
 31
0.0
  0
LINE
  5
51B5
  8
0
  6
BYBLOCK
 10
140.49440373834369
 20
-133.83672321522519
 30
0.0
 11
140.49440373834369
 21
-131.83672321522519
 31
0.0
  0
LINE
  5
51B6
  8
0
  6
BYBLOCK
 10
139.95850535834381
 20
-60.836723215224637
 30
0.0
 11
140.49440373834381
 21
-58.836723215224637
 31
0.0
  0
LINE
  5
51B7
  8
0
  6
BYBLOCK
 10
140.49440373834381
 20
-58.836723215224637
 30
0.0
 11
141.03030211834371
 21
-60.836723215224637
 31
0.0
  0
LINE
  5
51B8
  8
0
  6
BYBLOCK
 10
140.49440373834381
 20
-58.836723215224637
 30
0.0
 11
140.49440373834381
 21
-60.836723215224637
 31
0.0
  0
TEXT
  5
51B9
  8
1DIM
 10
146.9752804442343
 20
-99.253389881891593
 30
0.0
 40
3.5
  1
67 
 50
90.0
  0
LINE
  5
51BA
  8
0
  6
BYBLOCK
 10
148.21117882423431
 20
-127.83672321522521
 30
0.0
 11
147.67528044423429
 21
-129.83672321522519
 31
0.0
  0
LINE
  5
51BB
  8
0
  6
BYBLOCK
 10
147.67528044423429
 20
-129.83672321522519
 30
0.0
 11
147.1393820642343
 21
-127.83672321522521
 31
0.0
  0
LINE
  5
51BC
  8
0
  6
BYBLOCK
 10
147.67528044423429
 20
-129.83672321522519
 30
0.0
 11
147.67528044423429
 21
-127.83672321522521
 31
0.0
  0
LINE
  5
51BD
  8
0
  6
BYBLOCK
 10
147.1393820642343
 20
-64.836723215224652
 30
0.0
 11
147.67528044423429
 21
-62.836723215224652
 31
0.0
  0
LINE
  5
51BE
  8
0
  6
BYBLOCK
 10
147.67528044423429
 20
-62.836723215224652
 30
0.0
 11
148.21117882423431
 21
-64.836723215224652
 31
0.0
  0
LINE
  5
51BF
  8
0
  6
BYBLOCK
 10
147.67528044423429
 20
-62.836723215224652
 30
0.0
 11
147.67528044423429
 21
-64.836723215224652
 31
0.0
  0
TEXT
  5
51C0
  8
1DIM
 10
146.9752804442343
 20
-53.536723215224633
 30
0.0
 40
3.5
  1
4 可動シロ
 50
90.0
  0
LINE
  5
51C1
  8
0
  6
BYBLOCK
 10
148.21117882423431
 20
-56.836723215224652
 30
0.0
 11
147.67528044423429
 21
-58.836723215224652
 31
0.0
  0
LINE
  5
51C2
  8
0
  6
BYBLOCK
 10
147.67528044423429
 20
-58.836723215224652
 30
0.0
 11
147.1393820642343
 21
-56.836723215224652
 31
0.0
  0
LINE
  5
51C3
  8
0
  6
BYBLOCK
 10
147.67528044423429
 20
-58.836723215224652
 30
0.0
 11
147.67528044423429
 21
-56.836723215224652
 31
0.0
  0
LINE
  5
51C4
  8
0
  6
BYBLOCK
 10
147.1393820642343
 20
-64.836723215224652
 30
0.0
 11
147.67528044423429
 21
-62.836723215224652
 31
0.0
  0
LINE
  5
51C5
  8
0
  6
BYBLOCK
 10
147.67528044423429
 20
-62.836723215224652
 30
0.0
 11
148.21117882423431
 21
-64.836723215224652
 31
0.0
  0
LINE
  5
51C6
  8
0
  6
BYBLOCK
 10
147.67528044423429
 20
-62.836723215224652
 30
0.0
 11
147.67528044423429
 21
-64.836723215224652
 31
0.0
  0
TEXT
  5
51C7
  8
1DIM
 10
146.9752804442343
 20
-160.1367232152252
 30
0.0
 40
3.5
  1
4 可動シロ
 50
90.0
  0
LINE
  5
51C8
  8
0
  6
BYBLOCK
 10
147.1393820642343
 20
-135.83672321522519
 30
0.0
 11
147.67528044423429
 21
-133.83672321522519
 31
0.0
  0
LINE
  5
51C9
  8
0
  6
BYBLOCK
 10
147.67528044423429
 20
-133.83672321522519
 30
0.0
 11
148.21117882423431
 21
-135.83672321522519
 31
0.0
  0
LINE
  5
51CA
  8
0
  6
BYBLOCK
 10
147.67528044423429
 20
-133.83672321522519
 30
0.0
 11
147.67528044423429
 21
-135.83672321522519
 31
0.0
  0
LINE
  5
51CB
  8
0
  6
BYBLOCK
 10
148.21117882423431
 20
-127.83672321522521
 30
0.0
 11
147.67528044423429
 21
-129.83672321522519
 31
0.0
  0
LINE
  5
51CC
  8
0
  6
BYBLOCK
 10
147.67528044423429
 20
-129.83672321522519
 30
0.0
 11
147.1393820642343
 21
-127.83672321522521
 31
0.0
  0
LINE
  5
51CD
  8
0
  6
BYBLOCK
 10
147.67528044423429
 20
-129.83672321522519
 30
0.0
 11
147.67528044423429
 21
-127.83672321522521
 31
0.0
  0
TEXT
  5
51CE
  8
1DIM
 10
255.14791570933511
 20
-173.04550816968319
 30
0.0
 40
3.5
  1
16 
  0
LINE
  5
51CF
  8
0
  6
BYBLOCK
 10
263.48124904266842
 20
-173.20960978968321
 30
0.0
 11
265.48124904266842
 21
-173.74550816968321
 31
0.0
  0
LINE
  5
51D0
  8
0
  6
BYBLOCK
 10
265.48124904266842
 20
-173.74550816968321
 30
0.0
 11
263.48124904266842
 21
-174.2814065496832
 31
0.0
  0
LINE
  5
51D1
  8
0
  6
BYBLOCK
 10
265.48124904266842
 20
-173.74550816968321
 30
0.0
 11
263.48124904266842
 21
-173.74550816968321
 31
0.0
  0
LINE
  5
51D2
  8
0
  6
BYBLOCK
 10
251.4812490426684
 20
-174.2814065496832
 30
0.0
 11
249.4812490426684
 21
-173.74550816968321
 31
0.0
  0
LINE
  5
51D3
  8
0
  6
BYBLOCK
 10
249.4812490426684
 20
-173.74550816968321
 30
0.0
 11
251.4812490426684
 21
-173.20960978968321
 31
0.0
  0
LINE
  5
51D4
  8
0
  6
BYBLOCK
 10
249.4812490426684
 20
-173.74550816968321
 30
0.0
 11
251.4812490426684
 21
-173.74550816968321
 31
0.0
  0
TEXT
  5
51D5
  8
1DIM
 10
294.99318127613839
 20
-101.92005654855841
 30
0.0
 40
3.5
  1
123 
 50
90.0
  0
LINE
  5
51D6
  8
0
  6
BYBLOCK
 10
296.22907965613842
 20
-157.33672321522519
 30
0.0
 11
295.69318127613838
 21
-159.33672321522519
 31
0.0
  0
LINE
  5
51D7
  8
0
  6
BYBLOCK
 10
295.69318127613838
 20
-159.33672321522519
 30
0.0
 11
295.15728289613838
 21
-157.33672321522519
 31
0.0
  0
LINE
  5
51D8
  8
0
  6
BYBLOCK
 10
295.69318127613838
 20
-159.33672321522519
 30
0.0
 11
295.69318127613838
 21
-157.33672321522519
 31
0.0
  0
LINE
  5
51D9
  8
0
  6
BYBLOCK
 10
295.1572828961385
 20
-38.336723215225142
 30
0.0
 11
295.69318127613838
 21
-36.336723215225142
 31
0.0
  0
LINE
  5
51DA
  8
0
  6
BYBLOCK
 10
295.69318127613838
 20
-36.336723215225142
 30
0.0
 11
296.22907965613842
 21
-38.336723215225142
 31
0.0
  0
LINE
  5
51DB
  8
0
  6
BYBLOCK
 10
295.69318127613838
 20
-36.336723215225142
 30
0.0
 11
295.69318127613838
 21
-38.336723215225142
 31
0.0
  0
LINE
  5
51DC
  8
1DIM
 10
252.36903754118899
 20
-39.008005744636691
 30
0.0
 11
239.263016115754
 21
-18.397840903045569
 31
0.0
1001
ACAD
1000
DSTYLE
1002
{
1070
   341
1005
0
1002
}
  0
LINE
  5
51DD
  8
1DIM
 10
239.263016115754
 20
-18.397840903045569
 30
0.0
 11
203.8963494490873
 21
-18.397840903045569
 31
0.0
1001
ACAD
1000
DSTYLE
1002
{
1070
   341
1005
0
1002
}
  0
LINE
  5
51DE
  8
1DIM
 10
169.82794788519581
 20
-65.936196143099679
 30
0.0
 11
157.2697442725634
 21
-29.63205361927249
 31
0.0
1001
ACAD
1000
DSTYLE
1002
{
1070
   341
1005
0
1002
}
  0
LINE
  5
51DF
  8
1DIM
 10
157.2697442725634
 20
-29.63205361927249
 30
0.0
 11
126.1030776058968
 21
-29.63205361927249
 31
0.0
1001
ACAD
1000
DSTYLE
1002
{
1070
   341
1005
0
1002
}
  0
LINE
  5
51E0
  8
1DIM
 10
172.1858081990743
 20
-108.5087414831207
 30
0.0
 11
180.21105577491679
 21
-98.466264988248042
 31
0.0
1001
ACAD
1000
DSTYLE
1002
{
1070
   341
1005
0
1002
}
  0
LINE
  5
51E1
  8
1DIM
 10
180.21105577491679
 20
-98.466264988248042
 30
0.0
 11
228.1777224415836
 21
-98.466264988248042
 31
0.0
1001
ACAD
1000
DSTYLE
1002
{
1070
   341
1005
0
1002
}
  0
VIEWPORT
  5
57
 67
     1
  8
0
 10
-7.7295765619316512
 20
11.073494138708821
 30
0.0
 40
413.26236075899033
 41
274.03098452472818
 68
     1
 69
     1
1001
ACAD
1000
MVIEW
1002
{
1070
    16
1010
0.0
1020
0.0
1030
0.0
1010
0.0
1020
0.0
1030
1.0
1040
0.0
1040
274.03098452472818
1040
-7.7295765619316512
1040
11.073494138708821
1040
50.0
1040
0.0
1040
0.0
1070
     0
1070
   100
1070
     1
1070
     1
1070
     0
1070
     0
1070
     0
1070
     0
1040
0.0
1040
0.0
1040
0.0
1040
10.0
1040
10.0
1040
10.0
1040
10.0
1070
     0
1002
{
1002
}
1002
}
  0
ENDSEC
  0
EOF
