  0
SECTION
  2
HEADER
  9
$ACADVER
  1
AC1009
  9
$INSBASE
 10
0.0
 20
0.0
 30
0.0
  9
$EXTMIN
 10
70.794507801129697
 20
-185.44375595304979
 30
0.0
  9
$EXTMAX
 10
303.2414955147903
 20
30.197490523547259
 30
0.0
  9
$LIMMIN
 10
0.0
 20
0.0
  9
$LIMMAX
 10
420.0
 20
297.0
  9
$ORTHOMODE
 70
     0
  9
$REGENMODE
 70
     1
  9
$FILLMODE
 70
     1
  9
$QTEXTMODE
 70
     0
  9
$MIRRTEXT
 70
     1
  9
$DRAGMODE
 70
     2
  9
$LTSCALE
 40
0.5
  9
$OSMODE
 70
   127
  9
$ATTMODE
 70
     1
  9
$TEXTSIZE
 40
3.5
  9
$TRACEWID
 40
1.0
  9
$TEXTSTYLE
  7
STANDARD
  9
$CLAYER
  8
1TEXT
  9
$CELTYPE
  6
BYLAYER
  9
$CECOLOR
 62
   256
  9
$DIMSCALE
 40
1.0
  9
$DIMASZ
 40
2.0
  9
$DIMEXO
 40
0.0
  9
$DIMDLI
 40
7.0
  9
$DIMRND
 40
0.0
  9
$DIMDLE
 40
0.0
  9
$DIMEXE
 40
1.0
  9
$DIMTP
 40
0.0
  9
$DIMTM
 40
0.0
  9
$DIMTXT
 40
3.5
  9
$DIMCEN
 40
0.0
  9
$DIMTSZ
 40
0.0
  9
$DIMTOL
 70
     0
  9
$DIMLIM
 70
     0
  9
$DIMTIH
 70
     0
  9
$DIMTOH
 70
     0
  9
$DIMSE1
 70
     0
  9
$DIMSE2
 70
     0
  9
$DIMTAD
 70
     1
  9
$DIMZIN
 70
     8
  9
$DIMBLK
  1

  9
$DIMASO
 70
     1
  9
$DIMSHO
 70
     1
  9
$DIMPOST
  1
 
  9
$DIMAPOST
  1

  9
$DIMALT
 70
     0
  9
$DIMALTD
 70
     2
  9
$DIMALTF
 40
25.399999999999999
  9
$DIMLFAC
 40
1.0
  9
$DIMTOFL
 70
     1
  9
$DIMTVP
 40
0.0
  9
$DIMTIX
 70
     0
  9
$DIMSOXD
 70
     0
  9
$DIMSAH
 70
     1
  9
$DIMBLK1
  1
OPEN30
  9
$DIMBLK2
  1
OPEN30
  9
$DIMSTYLE
  2
NEWX10
  9
$DIMCLRD
 70
   256
  9
$DIMCLRE
 70
   256
  9
$DIMCLRT
 70
   201
  9
$DIMTFAC
 40
0.7
  9
$DIMGAP
 40
0.7
  9
$LUNITS
 70
     2
  9
$LUPREC
 70
     4
  9
$SKETCHINC
 40
1.0
  9
$FILLETRAD
 40
0.0
  9
$AUNITS
 70
     0
  9
$AUPREC
 70
     2
  9
$MENU
  1
acad
  9
$ELEVATION
 40
0.0
  9
$PELEVATION
 40
0.0
  9
$THICKNESS
 40
0.0
  9
$LIMCHECK
 70
     0
  9
$BLIPMODE
 70
     0
  9
$CHAMFERA
 40
1.1999999999999991
  9
$CHAMFERB
 40
1.1999999999999991
  9
$SKPOLY
 70
     0
  9
$TDCREATE
 40
2451318.621352917
  9
$TDUPDATE
 40
2454921.4134875932
  9
$TDINDWG
 40
0.5174170486
  9
$TDUSRTIMER
 40
0.5174170486
  9
$USRTIMER
 70
     1
  9
$ANGBASE
 50
0.0
  9
$ANGDIR
 70
     0
  9
$PDMODE
 70
     0
  9
$PDSIZE
 40
0.0
  9
$PLINEWID
 40
0.0
  9
$COORDS
 70
     2
  9
$SPLFRAME
 70
     0
  9
$SPLINETYPE
 70
     6
  9
$SPLINESEGS
 70
     8
  9
$ATTDIA
 70
     0
  9
$ATTREQ
 70
     1
  9
$HANDLING
 70
     1
  9
$HANDSEED
  5
5057
  9
$SURFTAB1
 70
     6
  9
$SURFTAB2
 70
     6
  9
$SURFTYPE
 70
     6
  9
$SURFU
 70
     6
  9
$SURFV
 70
     6
  9
$UCSNAME
  2

  9
$UCSORG
 10
0.0
 20
0.0
 30
0.0
  9
$UCSXDIR
 10
1.0
 20
0.0
 30
0.0
  9
$UCSYDIR
 10
0.0
 20
1.0
 30
0.0
  9
$PUCSNAME
  2

  9
$PUCSORG
 10
0.0
 20
0.0
 30
0.0
  9
$PUCSXDIR
 10
1.0
 20
0.0
 30
0.0
  9
$PUCSYDIR
 10
0.0
 20
1.0
 30
0.0
  9
$USERI1
 70
     0
  9
$USERI2
 70
     0
  9
$USERI3
 70
     0
  9
$USERI4
 70
     0
  9
$USERI5
 70
     0
  9
$USERR1
 40
0.0
  9
$USERR2
 40
0.0
  9
$USERR3
 40
0.0
  9
$USERR4
 40
0.0
  9
$USERR5
 40
0.0
  9
$WORLDVIEW
 70
     1
  9
$SHADEDGE
 70
     3
  9
$SHADEDIF
 70
    70
  9
$TILEMODE
 70
     1
  9
$MAXACTVP
 70
    48
  9
$PLIMCHECK
 70
     0
  9
$PEXTMIN
 10
1.0000000000000000E+020
 20
1.0000000000000000E+020
 30
1.0000000000000000E+020
  9
$PEXTMAX
 10
-1.0000000000000000E+020
 20
-1.0000000000000000E+020
 30
-1.0000000000000000E+020
  9
$PLIMMIN
 10
0.0
 20
0.0
  9
$PLIMMAX
 10
420.0
 20
297.0
  9
$UNITMODE
 70
     0
  9
$VISRETAIN
 70
     1
  9
$PLINEGEN
 70
     0
  9
$PSLTSCALE
 70
     1
  0
ENDSEC
  0
SECTION
  2
TABLES
  0
TABLE
  2
VPORT
 70
     5
  0
VPORT
  2
*ACTIVE
 70
     0
 10
0.0
 20
0.0
 11
1.0
 21
1.0
 12
187.00882053120159
 22
-77.625874606895366
 13
0.0
 23
0.0
 14
10.0
 24
10.0
 15
10.0
 25
10.0
 16
0.0
 26
0.0
 36
1.0
 17
0.0
 27
0.0
 37
0.0
 40
228.8860934365517
 41
1.508086253369272
 42
50.0
 43
0.0
 44
0.0
 50
0.0
 51
0.0
 71
     0
 72
  1000
 73
     1
 74
     1
 75
     0
 76
     0
 77
     0
 78
     0
  0
ENDTAB
  0
TABLE
  2
LTYPE
 70
    14
  0
LTYPE
  2
CONTINUOUS
 70
     0
  3
Solid line
 72
    65
 73
     0
 40
0.0
  0
LTYPE
  2
CENTER2
 70
     0
  3
Center (.5x) ___ _ ___ _ ___ _ ___ _ ___ _ ___
 72
    65
 73
     4
 40
28.574999999999999
 49
19.050000000000001
 49
-3.1749999999999989
 49
3.1749999999999989
 49
-3.1749999999999989
  0
LTYPE
  2
XREF1|CENTER2
 70
    48
  3
Center (.5x) ___ _ ___ _ ___ _ ___ _ ___ _ ___
 72
    65
 73
     4
 40
28.574999999999999
 49
19.050000000000001
 49
-3.1749999999999989
 49
3.1749999999999989
 49
-3.1749999999999989
  0
LTYPE
  2
A3WAKUDAKE|CENTER2
 70
    48
  3
Center (.5x) ___ _ ___ _ ___ _ ___ _ ___ _ ___
 72
    65
 73
     4
 40
28.574999999999999
 49
19.050000000000001
 49
-3.1749999999999989
 49
3.1749999999999989
 49
-3.1749999999999989
  0
LTYPE
  2
PHANTOM2
 70
     0
  3
Phantom (.5x) ___ _ _ ___ _ _ ___ _ _ ___ _ _
 72
    65
 73
     6
 40
31.75
 49
15.875
 49
-3.1749999999999989
 49
3.1749999999999989
 49
-3.1749999999999989
 49
3.1749999999999989
 49
-3.1749999999999989
  0
ENDTAB
  0
TABLE
  2
LAYER
 70
    43
  0
LAYER
  2
0
 70
     0
 62
     7
  6
CONTINUOUS
  0
LAYER
  2
1CENTER
 70
     0
 62
     7
  6
CENTER2
  0
LAYER
  2
1TEXT
 70
     0
 62
     7
  6
CONTINUOUS
  0
LAYER
  2
XREF1|1CENTER
 70
    48
 62
     7
  6
XREF1|CENTER2
  0
LAYER
  2
01
 70
     0
 62
     1
  6
CONTINUOUS
  0
LAYER
  2
1DIM
 70
     0
 62
     7
  6
CONTINUOUS
  0
LAYER
  2
1HATCH
 70
     0
 62
     7
  6
CONTINUOUS
  0
LAYER
  2
A3WAKUDAKE|THICK
 70
    48
 62
     7
  6
CONTINUOUS
  0
LAYER
  2
A3WAKUDAKE|POINT
 70
    48
 62
     7
  6
CONTINUOUS
  0
LAYER
  2
A3WAKUDAKE|1CENTER
 70
    48
 62
     7
  6
A3WAKUDAKE|CENTER2
  0
LAYER
  2
A3WAKUDAKE|0-6
 70
    48
 62
     7
  6
CONTINUOUS
  0
LAYER
  2
1PHANTOM
 70
     0
 62
     7
  6
PHANTOM2
  0
LAYER
  2
A3WAKUDAKE|1DIM
 70
    48
 62
     7
  6
CONTINUOUS
  0
ENDTAB
  0
TABLE
  2
STYLE
 70
    20
  0
STYLE
  2
STANDARD
 70
     0
 40
0.0
 41
1.0
 50
0.0
 71
     0
 42
3.5
  3
txt.shx
  4
extfont.shx
  0
ENDTAB
  0
TABLE
  2
VIEW
 70
     0
  0
ENDTAB
  0
TABLE
  2
UCS
 70
     0
  0
ENDTAB
  0
TABLE
  2
APPID
 70
    10
  0
APPID
  2
ACAD
 70
     0
  0
APPID
  2
DRAWINGVARIABLESXDATA
 70
     0
  0
APPID
  2
CONTENTTABDATA
 70
     0
  0
APPID
  2
CONTENTCURRENTTAB
 70
     0
  0
APPID
  2
CONTENTBLOCKDESCRIPTION
 70
     0
  0
APPID
  2
CONTENTBLOCKICON
 70
     0
  0
APPID
  2
CONTENTLONGBLOCKNAME
 70
     0
  0
APPID
  2
ACAD_PSEXT
 70
     0
  0
APPID
  2
ACAD_MLEADERVER
 70
     0
  0
APPID
  2
ACAD_DSTYLE_DIMRADIAL_EXTENSION
 70
     0
  0
ENDTAB
  0
TABLE
  2
DIMSTYLE
 70
     5
  0
DIMSTYLE
  2
NEWX10
 70
     0
  3
 
  4

  5

  6
OPEN30
  7
OPEN30
 40
1.0
 41
2.0
 42
0.0
 43
7.0
 44
1.0
 45
0.0
 46
0.0
 47
0.0
 48
0.0
140
3.5
141
0.0
142
0.0
143
25.399999999999999
144
1.0
145
0.0
146
0.7
147
0.7
 71
     0
 72
     0
 73
     0
 74
     0
 75
     0
 76
     0
 77
     1
 78
     8
170
     0
171
     2
172
     1
173
     1
174
     0
175
     0
176
   256
177
   256
178
   201
  0
ENDTAB
  0
ENDSEC
  0
SECTION
  2
BLOCKS
  0
BLOCK
  8
0
  2
$MODEL_SPACE
 70
     0
 10
0.0
 20
0.0
 30
0.0
  3
$MODEL_SPACE
  1

  0
ENDBLK
  5
1A
  8
0
  0
BLOCK
 67
     1
  8
0
  2
$PAPER_SPACE
 70
     0
 10
0.0
 20
0.0
 30
0.0
  3
$PAPER_SPACE
  1

  0
ENDBLK
  5
17
 67
     1
  8
0
  0
BLOCK
  8
0
  2
_OPEN30
 70
     0
 10
0.0
 20
0.0
 30
0.0
  3
_OPEN30
  1

  0
LINE
  5
44
  8
0
  6
BYBLOCK
 62
     0
 10
-1.0
 20
0.26794919
 30
0.0
 11
0.0
 21
0.0
 31
0.0
  0
LINE
  5
45
  8
0
  6
BYBLOCK
 62
     0
 10
0.0
 20
0.0
 30
0.0
 11
-1.0
 21
-0.26794919
 31
0.0
  0
LINE
  5
46
  8
0
  6
BYBLOCK
 62
     0
 10
0.0
 20
0.0
 30
0.0
 11
-1.0
 21
0.0
 31
0.0
  0
ENDBLK
  5
47
  8
0
  0
BLOCK
  8
0
  2
XREF1
 70
    36
 10
0.0
 20
0.0
 30
0.0
  3
XREF1
  1
D:\ACLT\FORMAT\KAWAJUN(9)図面用.dwg
  0
ENDBLK
  5
5D
  8
0
  0
BLOCK
  8
0
  2
A3WAKUDAKE
 70
    36
 10
0.0
 20
0.0
 30
0.0
  3
A3WAKUDAKE
  1
D:\ACLT\FORMAT\A3WAKUdake.dwg
  0
ENDBLK
  5
3366
  8
0
  0
BLOCK
  8
0
  2
*U92
 70
     1
 10
0.0
 20
0.0
 30
0.0
  3
*U92
  1

  0
LINE
  5
4D00
  8
0
 10
-4.7499941827476269
 20
1.500051962965244
 30
0.0
 11
-1.6999825490125879
 21
1.5000142687798641
 31
0.0
  0
LINE
  5
4D01
  8
0
 10
-4.9999912742822508
 20
1.250054871430506
 30
0.0
 11
-4.7499941827476269
 21
1.500051962965244
 31
0.0
  0
LINE
  5
4D02
  8
0
 10
-0.1999790588486121
 20
3.0000003080426718
 30
0.0
 11
-1.6999825490125879
 21
1.5000142687798641
 31
0.0
  0
LINE
  5
4D03
  8
0
 10
-4.9999912742822508
 20
1.250054871430506
 30
0.0
 11
-5.0000087252440153
 21
-1.249945128534363
 31
0.0
  0
LINE
  5
4D04
  8
0
 10
-0.1999790588486121
 20
3.0000003080426718
 30
0.0
 11
0.0000209411432479
 21
2.9999984466066958
 31
0.0
  0
LINE
  5
4D05
  8
0
 10
-5.0000087252440153
 20
-1.249945128534363
 30
0.0
 11
-4.7500058167220232
 21
-1.4999480370562419
 31
0.0
  0
LINE
  5
4D06
  8
0
 10
0.0000209411432479
 20
2.9999984466066958
 30
0.0
 11
-0.0000209411649621
 21
-3.000001553263246
 31
0.0
  0
LINE
  5
4D07
  8
0
 10
-4.7500058167220232
 20
-1.4999480370562419
 30
0.0
 11
-1.7000244313859409
 21
-1.4999857309602469
 31
0.0
  0
LINE
  5
4D08
  8
0
 10
-0.2000209411568221
 20
-2.9999996918273828
 30
0.0
 11
-0.0000209411649621
 21
-3.000001553263246
 31
0.0
  0
LINE
  5
4D09
  8
0
 10
-0.2000209411568221
 20
-2.9999996918273828
 30
0.0
 11
-1.7000244313859409
 21
-1.4999857309602469
 31
0.0
  0
ENDBLK
  5
4D0B
  8
0
  0
BLOCK
  8
0
  2
*U93
 70
     1
 10
0.0
 20
0.0
 30
0.0
  3
*U93
  1

  0
TEXT
  5
4D0D
  8
1DIM
 62
   201
 10
54.566677819402038
 20
-2.2986816615381849
 30
0.0
 40
3.5
  1
11.5 
 50
90.0
  0
ENDBLK
  5
4D0F
  8
0
  0
BLOCK
  8
0
  2
*U94
 70
     1
 10
0.0
 20
0.0
 30
0.0
  3
*U94
  1

  0
TEXT
  5
4D11
  8
1DIM
 62
   201
 10
54.566677819402067
 20
-87.798681661538225
 30
0.0
 40
3.5
  1
取付けねじピッチ100 
 50
90.0
  0
ENDBLK
  5
4D13
  8
0
  0
BLOCK
  8
0
  2
*U95
 70
     1
 10
0.0
 20
0.0
 30
0.0
  3
*U95
  1

  0
TEXT
  5
4D15
  8
1DIM
 62
   201
 10
84.151188841333266
 20
-1.5475717610017869
 30
0.0
 40
3.5
  1
R6 
 50
43.605068500901332
  0
ENDBLK
  5
4D17
  8
0
  0
BLOCK
  8
0
  2
*U96
 70
     1
 10
0.0
 20
0.0
 30
0.0
  3
*U96
  1

  0
TEXT
  5
4D19
  8
1DIM
 62
   201
 10
71.026677617678004
 20
-53.339885674626039
 30
0.0
 40
3.5
  1
9 
  0
ENDBLK
  5
4D1B
  8
0
  0
BLOCK
  8
0
  2
*U97
 70
     1
 10
0.0
 20
0.0
 30
0.0
  3
*U97
  1

  0
TEXT
  5
4D1D
  8
1DIM
 62
   201
 10
109.7052765178146
 20
-71.582014994871557
 30
0.0
 40
3.5
  1
123 
 50
90.0
  0
ENDBLK
  5
4D1F
  8
0
  0
BLOCK
  8
0
  2
*U98
 70
     1
 10
0.0
 20
0.0
 30
0.0
  3
*U98
  1

  0
TEXT
  5
4D21
  8
1DIM
 62
   201
 10
96.649987853391949
 20
-37.265348328204922
 30
0.0
 40
3.5
  1
上下調整範囲
 50
90.0
  0
TEXT
  5
4D22
  8
1DIM
 62
   201
 10
102.48332118672531
 20
-38.082014994871592
 30
0.0
 40
3.5
  1
34.5~42.5
 50
90.0
  0
ENDBLK
  5
4D24
  8
0
  0
BLOCK
  8
0
  2
*U99
 70
     1
 10
0.0
 20
0.0
 30
0.0
  3
*U99
  1

  0
TEXT
  5
4D26
  8
1DIM
 62
   201
 10
102.48332118672531
 20
-64.915348328204971
 30
0.0
 40
3.5
  1
31.5 
 50
90.0
  0
ENDBLK
  5
4D28
  8
0
  0
BLOCK
  8
0
  2
*U100
 70
     1
 10
0.0
 20
0.0
 30
0.0
  3
*U100
  1

  0
TEXT
  5
4D2A
  8
1DIM
 62
   201
 10
-4.2776629288719619
 20
-164.86699996762809
 30
0.0
 40
3.5
  1
13 
 50
90.0
  0
ENDBLK
  5
4D2C
  8
0
  0
BLOCK
  8
0
  2
*U101
 70
     1
 10
0.0
 20
0.0
 30
0.0
  3
*U101
  1

  0
TEXT
  5
4D2E
  8
1DIM
 62
   201
 10
32.754601825396492
 20
-164.86699996762809
 30
0.0
 40
3.5
  1
16 
 50
90.0
  0
ENDBLK
  5
4D30
  8
0
  0
BLOCK
  8
0
  2
*U102
 70
     1
 10
0.0
 20
0.0
 30
0.0
  3
*U102
  1

  0
TEXT
  5
4D32
  8
1DIM
 62
   201
 10
-12.36546522744886
 20
-23.198681661537719
 30
0.0
 40
3.5
  1
4 可動シロ
 50
90.0
  0
ENDBLK
  5
4D34
  8
0
  0
BLOCK
  8
0
  2
*U103
 70
     1
 10
0.0
 20
0.0
 30
0.0
  3
*U103
  1

  0
TEXT
  5
4D36
  8
1DIM
 62
   201
 10
-12.365465227448871
 20
-129.7986816615383
 30
0.0
 40
3.5
  1
4 可動シロ
 50
90.0
  0
ENDBLK
  5
4D38
  8
0
  0
BLOCK
  8
0
  2
*U104
 70
     1
 10
0.0
 20
0.0
 30
0.0
  3
*U104
  1

  0
TEXT
  5
4D3A
  8
1DIM
 62
   201
 10
-19.546341933339431
 20
-83.615348328204647
 30
0.0
 40
3.5
  1
切欠き必要寸法75 
 50
90.0
  0
ENDBLK
  5
4D3C
  8
0
  0
BLOCK
  8
0
  2
*U105
 70
     1
 10
0.0
 20
0.0
 30
0.0
  3
*U105
  1

  0
TEXT
  5
4D3E
  8
1DIM
 62
   201
 10
-12.36546522744886
 20
-68.915348328204672
 30
0.0
 40
3.5
  1
67 
 50
90.0
  0
ENDBLK
  5
4D40
  8
0
  0
BLOCK
  8
0
  2
*U106
 70
     1
 10
0.0
 20
0.0
 30
0.0
  3
*U106
  1

  0
TEXT
  5
4D42
  8
1DIM
 62
   201
 10
69.860010951011347
 20
-142.70746661599631
 30
0.0
 40
3.5
  1
16 
  0
ENDBLK
  5
4D44
  8
0
  0
BLOCK
  8
0
  2
*U107
 70
     1
 10
0.0
 20
0.0
 30
0.0
  3
*U107
  1

  0
TEXT
  5
4D46
  8
1DIM
 62
   201
 10
6.6265818100166287
 20
-142.70746661599631
 30
0.0
 40
3.5
  1
14.5 
  0
ENDBLK
  5
4D48
  8
0
  0
BLOCK
  8
0
  2
*U108
 70
     1
 10
0.0
 20
0.0
 30
0.0
  3
*U108
  1

  0
TEXT
  5
4D4A
  8
1DIM
 62
   201
 10
23.24324847668327
 20
-51.063271367091581
 30
0.0
 40
3.5
  1
前後調整範囲
  0
TEXT
  5
4D4B
  8
1DIM
 62
   201
 10
24.526581810016602
 20
-56.896604700424902
 30
0.0
 40
3.5
  1
3.6 ～6.5
  0
ENDBLK
  5
4D4D
  8
0
  0
BLOCK
  8
0
  2
*U109
 70
     1
 10
0.0
 20
0.0
 30
0.0
  3
*U109
  1

  0
TEXT
  5
4D4F
  8
1DIM
 62
   201
 10
4.1765818100168337
 20
-134.86834246331861
 30
0.0
 40
3.5
  1
2.5 
  0
ENDBLK
  5
4D51
  8
0
  0
BLOCK
  8
0
  2
*U110
 70
     1
 10
0.0
 20
0.0
 30
0.0
  3
*U110
  1

  0
TEXT
  5
4D53
  8
1DIM
 62
   201
 10
218.70033519733721
 20
2.6531853064017921
 30
0.0
 40
3.5
  1
B.S.38 
  0
ENDBLK
  5
4D55
  8
0
  0
BLOCK
  8
0
  2
*U111
 70
     1
 10
0.0
 20
0.0
 30
0.0
  3
*U111
  1

  0
TEXT
  5
4D57
  8
1DIM
 62
   201
 10
278.52964952895201
 20
-18.982244740596521
 30
0.0
 40
3.5
  1
21 
 50
90.0
  0
ENDBLK
  5
4D59
  8
0
  0
BLOCK
  8
0
  2
*U112
 70
     1
 10
0.0
 20
0.0
 30
0.0
  3
*U112
  1

  0
TEXT
  5
4D5B
  8
1DIM
 62
   201
 10
278.52964952895212
 20
-120.6822412405964
 30
0.0
 40
3.5
  1
21 
 50
90.0
  0
ENDBLK
  5
4D5D
  8
0
  0
BLOCK
  8
0
  2
*U113
 70
     1
 10
0.0
 20
0.0
 30
0.0
  3
*U113
  1

  0
TEXT
  5
4D5F
  8
1DIM
 62
   201
 10
288.03170213620149
 20
-110.4989089072631
 30
0.0
 40
3.5
  1
47.5 
 50
90.0
  0
ENDBLK
  5
4D61
  8
0
  0
BLOCK
  8
0
  2
*U114
 70
     1
 10
0.0
 20
0.0
 30
0.0
  3
*U114
  1

  0
TEXT
  5
4D63
  8
1DIM
 62
   201
 10
239.91700209900381
 20
-118.0749427414196
 30
0.0
 40
3.5
  1
φ36
  0
ENDBLK
  5
4D65
  8
0
  0
BLOCK
  8
0
  2
*U115
 70
     1
 10
0.0
 20
0.0
 30
0.0
  3
*U115
  1

  0
TEXT
  5
4D67
  8
1DIM
 62
   201
 10
218.40033519733689
 20
-143.4158342788262
 30
0.0
 40
3.5
  1
58 （ケース奥行）
  0
ENDBLK
  5
4D69
  8
0
  0
BLOCK
  8
0
  2
*U116
 70
     1
 10
0.0
 20
0.0
 30
0.0
  3
*U116
  1

  0
TEXT
  5
4D6B
  8
1DIM
 62
   201
 10
277.80498998562632
 20
-163.70033430096129
 30
0.0
 40
3.5
  1
7 
 50
90.0
  0
ENDBLK
  5
4D6D
  8
0
  0
BLOCK
  8
0
  2
*U117
 70
     1
 10
0.0
 20
0.0
 30
0.0
  3
*U117
  1

  0
TEXT
  5
4D6F
  8
1DIM
 62
   201
 10
189.48033651349351
 20
-163.7003333009614
 30
0.0
 40
3.5
  1
3 
 50
90.0
  0
ENDBLK
  5
4D71
  8
0
  0
BLOCK
  8
0
  2
*U118
 70
     1
 10
0.0
 20
0.0
 30
0.0
  3
*U118
  1

  0
TEXT
  5
4D73
  8
1DIM
 62
   201
 10
182.7094566610993
 20
-164.86699996762809
 30
0.0
 40
3.5
  1
16 
 50
90.0
  0
ENDBLK
  5
4D75
  8
0
  0
BLOCK
  8
0
  2
*U119
 70
     1
 10
0.0
 20
0.0
 30
0.0
  3
*U119
  1

  0
TEXT
  5
4D77
  8
1DIM
 62
   201
 10
159.4787826688941
 20
-142.70746661599631
 30
0.0
 40
3.5
  1
16 
  0
ENDBLK
  5
4D79
  8
0
  0
BLOCK
  8
0
  2
*U120
 70
     1
 10
0.0
 20
0.0
 30
0.0
  3
*U120
  1

  0
TEXT
  5
4D7B
  8
1DIM
 62
   201
 10
149.64170463761911
 20
-1.7103118911872019
 30
0.0
 40
3.5
  1
R6 
 50
317.44242830681043
  0
ENDBLK
  5
4D7D
  8
0
  0
BLOCK
  8
0
  2
*U121
 70
     1
 10
0.0
 20
0.0
 30
0.0
  3
*U121
  1

  0
TEXT
  5
4D7F
  8
1DIM
 62
   201
 10
203.11697505145739
 20
-90.677510285564765
 30
0.0
 40
3.5
  1
6 
  0
ENDBLK
  5
4D81
  8
0
  0
BLOCK
  8
0
  2
*U122
 70
     1
 10
0.0
 20
0.0
 30
0.0
  3
*U122
  1

  0
TEXT
  5
4D83
  8
1DIM
 62
   201
 10
278.52964952895201
 20
-83.598910207263188
 30
0.0
 40
3.5
  1
81（ケース高さ）
 50
90.0
  0
ENDBLK
  5
4D85
  8
0
  0
BLOCK
  8
0
  2
*U123
 70
     1
 10
0.0
 20
0.0
 30
0.0
  3
*U123
  1

  0
TEXT
  5
4D87
  8
1DIM
 62
   201
 10
195.41700162900361
 20
-137.39410573926199
 30
0.0
 40
3.5
  1
2.7 
  0
ENDBLK
  5
4D89
  8
0
  0
BLOCK
  8
0
  2
*U124
 70
     1
 10
0.0
 20
0.0
 30
0.0
  3
*U124
  1

  0
LINE
  5
4D8B
  8
0
 10
-0.0000093071795959
 20
-4.0
 30
0.0
 11
0.0000093071795959
 21
4.0
 31
0.0
  0
LINE
  5
4D8C
  8
0
 10
-0.2999906928214955
 20
4.0
 30
0.0
 11
0.0000093071795959
 21
4.0
 31
0.0
  0
LINE
  5
4D8D
  8
0
 10
-0.3000093071805736
 20
-4.0
 30
0.0
 11
-0.0000093071795959
 21
-4.0
 31
0.0
  0
LINE
  5
4D8E
  8
0
 10
-0.2999906928214955
 20
4.0
 30
0.0
 11
-2.8000197779268201
 21
1.5
 31
0.0
  0
LINE
  5
4D8F
  8
0
 10
-0.3000093071805736
 20
-4.0
 30
0.0
 11
-2.799991856279632
 21
-1.5
 31
0.0
  0
LINE
  5
4D90
  8
0
 10
-14.69999650980861
 20
1.5
 30
0.0
 11
-2.8000197779268201
 21
1.5
 31
0.0
  0
LINE
  5
4D91
  8
0
 10
-14.700003490193289
 20
-1.5
 30
0.0
 11
-2.799991856279632
 21
-1.5
 31
0.0
  0
LINE
  5
4D92
  8
0
 10
-20.000000000054168
 20
0.0
 30
0.0
 11
-14.69999650980861
 21
1.5
 31
0.0
  0
LINE
  5
4D93
  8
0
 10
-20.000000000054168
 20
0.0
 30
0.0
 11
-14.700003490193289
 21
-1.5
 31
0.0
  0
ENDBLK
  5
4D95
  8
0
  0
BLOCK
  8
0
  2
*U125
 70
     1
 10
0.0
 20
0.0
 30
0.0
  3
*U125
  1

  0
TEXT
  5
4D97
  8
1DIM
 62
   201
 10
309.09056678979539
 20
-119.7277843907148
 30
0.0
 40
3.5
  1
20 
  0
ENDBLK
  5
4D99
  8
0
  0
BLOCK
  8
0
  2
*U126
 70
     1
 10
0.0
 20
0.0
 30
0.0
  3
*U126
  1

  0
TEXT
  5
4D9B
  8
1DIM
 62
   201
 10
288.03170213620137
 20
-48.99890890726315
 30
0.0
 40
3.5
  1
75.5 
 50
90.0
  0
ENDBLK
  5
4D9D
  8
0
  0
BLOCK
  8
0
  2
*U127
 70
     1
 10
0.0
 20
0.0
 30
0.0
  3
*U127
  1

  0
TEXT
  5
4D9F
  8
1DIM
 62
   201
 10
308.69440696813967
 20
-48.854433691428952
 30
0.0
 40
3.5
  1
27 
  0
ENDBLK
  5
4DA1
  8
0
  0
BLOCK
  8
0
  2
*U128
 70
     1
 10
0.0
 20
0.0
 30
0.0
  3
*U128
  1

  0
TEXT
  5
4DA3
  8
1DIM
 62
   201
 10
311.19440696813967
 20
-27.60071169142897
 30
0.0
 40
3.5
  1
22 
  0
ENDBLK
  5
4DA5
  8
0
  0
BLOCK
  8
0
  2
*U129
 70
     1
 10
0.0
 20
0.0
 30
0.0
  3
*U129
  1

  0
TEXT
  5
4DA7
  8
1DIM
 62
   201
 10
306.19440896813973
 20
-67.757042436904428
 30
0.0
 40
3.5
  1
32 
  0
ENDBLK
  5
4DA9
  8
0
  0
BLOCK
  8
0
  2
*U130
 70
     1
 10
0.0
 20
0.0
 30
0.0
  3
*U130
  1

  0
TEXT
  5
4DAB
  8
1DIM
 62
   201
 10
295.17953285745227
 20
-101.7416391681308
 30
0.0
 40
3.5
  1
φ4
 50
90.0
  0
ENDBLK
  5
4DAD
  8
0
  0
BLOCK
  8
0
  2
*U131
 70
     1
 10
0.0
 20
0.0
 30
0.0
  3
*U131
  1

  0
TEXT
  5
4DAF
  8
1DIM
 62
   201
 10
68.704743746027773
 20
-163.86420392306491
 30
0.0
 40
3.5
  1
25 
  0
ENDBLK
  5
4DB1
  8
0
  0
BLOCK
  8
0
  2
*U132
 70
     1
 10
0.0
 20
0.0
 30
0.0
  3
*U132
  1

  0
TEXT
  5
4DB3
  8
1DIM
 62
   201
 10
50.012672671398292
 20
-193.69989285750651
 30
0.0
 40
3.5
  1
φ3.5
 50
90.0
  0
ENDBLK
  5
4DB5
  8
0
  0
BLOCK
  8
0
  2
*U133
 70
     1
 10
0.0
 20
0.0
 30
0.0
  3
*U133
  1

  0
TEXT
  5
4DB7
  8
1DIM
 62
   201
 10
134.0624637656739
 20
-71.582242440596488
 30
0.0
 40
3.5
  1
123 
 50
90.0
  0
ENDBLK
  5
4DB9
  8
0
  0
BLOCK
  8
0
  2
*U134
 70
     1
 10
0.0
 20
0.0
 30
0.0
  3
*U134
  1

  0
TEXT
  5
4DBB
  8
1DIM
 62
   201
 10
142.1768745130251
 20
-3.1322424405964928
 30
0.0
 40
3.5
  1
8.5 
 50
90.0
  0
ENDBLK
  5
4DBD
  8
0
  0
BLOCK
  8
0
  2
*U135
 70
     1
 10
0.0
 20
0.0
 30
0.0
  3
*U135
  1

  0
TEXT
  5
4DBF
  8
1DIM
 62
   201
 10
168.80909987042969
 20
-4.9443292710596394
 30
0.0
 40
3.5
  1
R6 
 50
50.044451309186201
  0
ENDBLK
  5
4DC1
  8
0
  0
BLOCK
  8
0
  2
*U136
 70
     1
 10
0.0
 20
0.0
 30
0.0
  3
*U136
  1

  0
TEXT
  5
4DC3
  8
1DIM
 62
   201
 10
142.1768745130251
 20
-88.090575773929814
 30
0.0
 40
3.5
  1
取付けネジピッチ106 
 50
90.0
  0
ENDBLK
  5
4DC5
  8
0
  0
BLOCK
  8
0
  2
*U137
 70
     1
 10
0.0
 20
0.0
 30
0.0
  3
*U137
  1

  0
TEXT
  5
4DC7
  8
1DIM
 62
   201
 10
482.1597972537578
 20
142.6836502947869
 30
0.0
 40
3.5
  1
25 
  0
ENDBLK
  5
4DC9
  8
0
  0
BLOCK
  8
0
  2
*U138
 70
     1
 10
0.0
 20
0.0
 30
0.0
  3
*U138
  1

  0
TEXT
  5
4DCB
  8
1DIM
 62
   201
 10
463.46772617912819
 20
108.0034015515775
 30
0.0
 40
3.5
  1
φ3.5
 50
90.0
  0
ENDBLK
  5
4DCD
  8
0
  0
BLOCK
  8
0
  2
*U139
 70
     1
 10
0.0
 20
0.0
 30
0.0
  3
*U139
  1

  0
TEXT
  5
4DCF
  8
1DIM
 62
   201
 10
374.25819830969192
 20
145.56021266060091
 30
0.0
 40
3.5
  1
11.5 
 50
90.0
  0
ENDBLK
  5
4DD1
  8
0
  0
BLOCK
  8
0
  2
*U140
 70
     1
 10
0.0
 20
0.0
 30
0.0
  3
*U140
  1

  0
TEXT
  5
4DD3
  8
1DIM
 62
   201
 10
374.25819830969192
 20
60.060212660600918
 30
0.0
 40
3.5
  1
取付けねじピッチ100 
 50
90.0
  0
ENDBLK
  5
4DD5
  8
0
  0
BLOCK
  8
0
  2
*U141
 70
     1
 10
0.0
 20
0.0
 30
0.0
  3
*U141
  1

  0
TEXT
  5
4DD7
  8
1DIM
 62
   201
 10
422.42176649712968
 20
110.5935459939342
 30
0.0
 40
3.5
  1
上下調整範囲
 50
90.0
  0
TEXT
  5
4DD8
  8
1DIM
 62
   201
 10
428.25509983046311
 20
109.77687932726759
 30
0.0
 40
3.5
  1
34.5~42.5
 50
90.0
  0
ENDBLK
  5
4DDA
  8
0
  0
BLOCK
  8
0
  2
*U142
 70
     1
 10
0.0
 20
0.0
 30
0.0
  3
*U142
  1

  0
TEXT
  5
4DDC
  8
1DIM
 62
   201
 10
428.25509983046311
 20
82.943545993934194
 30
0.0
 40
3.5
  1
31.5 
 50
90.0
  0
ENDBLK
  5
4DDE
  8
0
  0
BLOCK
  8
0
  2
*U143
 70
     1
 10
0.0
 20
0.0
 30
0.0
  3
*U143
  1

  0
TEXT
  5
4DE0
  8
1DIM
 62
   201
 10
295.5469566282253
 20
-17.008105645488989
 30
0.0
 40
3.5
  1
13 
 50
90.0
  0
ENDBLK
  5
4DE2
  8
0
  0
BLOCK
  8
0
  2
*U144
 70
     1
 10
0.0
 20
0.0
 30
0.0
  3
*U144
  1

  0
TEXT
  5
4DE4
  8
1DIM
 62
   201
 10
323.0678680337806
 20
96.795622955047577
 30
0.0
 40
3.5
  1
前後調整範囲
  0
TEXT
  5
4DE5
  8
1DIM
 62
   201
 10
324.3512013671139
 20
90.962289621714206
 30
0.0
 40
3.5
  1
3.6 ～6.5
  0
ENDBLK
  5
4DE7
  8
0
  0
BLOCK
  8
0
  2
*U145
 70
     1
 10
0.0
 20
0.0
 30
0.0
  3
*U145
  1

  0
TEXT
  5
4DE9
  8
1DIM
 62
   201
 10
396.79845626141588
 20
94.519008647513076
 30
0.0
 40
3.5
  1
9 
  0
ENDBLK
  5
4DEB
  8
0
  0
BLOCK
  8
0
  2
*U146
 70
     1
 10
0.0
 20
0.0
 30
0.0
  3
*U146
  1

  0
TEXT
  5
4DED
  8
1DIM
 62
   201
 10
332.57922138249381
 20
-17.008105645488989
 30
0.0
 40
3.5
  1
16 
 50
90.0
  0
ENDBLK
  5
4DEF
  8
0
  0
BLOCK
  8
0
  2
*U147
 70
     1
 10
0.0
 20
0.0
 30
0.0
  3
*U147
  1

  0
TEXT
  5
4DF1
  8
1DIM
 62
   201
 10
306.45120136711392
 20
5.1514277061427949
 30
0.0
 40
3.5
  1
14.5 
  0
ENDBLK
  5
4DF3
  8
0
  0
BLOCK
  8
0
  2
*U148
 70
     1
 10
0.0
 20
0.0
 30
0.0
  3
*U148
  1

  0
TEXT
  5
4DF5
  8
1DIM
 62
   201
 10
323.2345347004474
 20
12.990551858820551
 30
0.0
 40
3.5
  1
2.5 
  0
ENDBLK
  5
4DF7
  8
0
  0
BLOCK
  8
0
  2
*U149
 70
     1
 10
0.0
 20
0.0
 30
0.0
  3
*U149
  1

  0
TEXT
  5
4DF9
  8
1DIM
 62
   201
 10
280.2782776237579
 20
64.243545993934518
 30
0.0
 40
3.5
  1
切欠き必要寸法75 
 50
90.0
  0
ENDBLK
  5
4DFB
  8
0
  0
BLOCK
  8
0
  2
*U150
 70
     1
 10
0.0
 20
0.0
 30
0.0
  3
*U150
  1

  0
TEXT
  5
4DFD
  8
1DIM
 62
   201
 10
287.45915432964853
 20
78.943545993934507
 30
0.0
 40
3.5
  1
67 
 50
90.0
  0
ENDBLK
  5
4DFF
  8
0
  0
BLOCK
  8
0
  2
*U151
 70
     1
 10
0.0
 20
0.0
 30
0.0
  3
*U151
  1

  0
TEXT
  5
4E01
  8
1DIM
 62
   201
 10
287.45915432964853
 20
123.72687932726809
 30
0.0
 40
3.5
  1
4 可動シロ
 50
90.0
  0
ENDBLK
  5
4E03
  8
0
  0
BLOCK
  8
0
  2
*U152
 70
     1
 10
0.0
 20
0.0
 30
0.0
  3
*U152
  1

  0
TEXT
  5
4E05
  8
1DIM
 62
   201
 10
287.45915432964853
 20
18.993545993934219
 30
0.0
 40
3.5
  1
4 可動シロ
 50
90.0
  0
ENDBLK
  5
4E07
  8
0
  0
BLOCK
  8
0
  2
*U153
 70
     1
 10
0.0
 20
0.0
 30
0.0
  3
*U153
  1

  0
TEXT
  5
4E09
  8
1DIM
 62
   201
 10
395.63178959474919
 20
5.151427706142794
 30
0.0
 40
3.5
  1
16 
  0
ENDBLK
  5
4E0B
  8
0
  0
BLOCK
  8
0
  2
*U154
 70
     1
 10
0.0
 20
0.0
 30
0.0
  3
*U154
  1

  0
TEXT
  5
4E0D
  8
1DIM
 62
   201
 10
435.47705516155253
 20
76.276879327267594
 30
0.0
 40
3.5
  1
123 
 50
90.0
  0
ENDBLK
  5
4E0F
  8
0
  0
BLOCK
  8
0
  2
*U155
 70
     1
 10
0.0
 20
0.0
 30
0.0
  3
*U155
  1

  0
INSERT
  5
4E11
  8
1DIM
  2
_OPEN30
 10
133.36190711938721
 20
76.535878108291598
 30
0.0
 41
2.0
 42
2.0
 43
2.0
 50
134.43620654116941
  0
POLYLINE
  5
4E12
  8
1DIM
 66
     1
 10
0.0
 20
0.0
 30
0.0
  0
VERTEX
  5
4E13
  8
1DIM
 10
134.76213650490359
 20
75.107817301485284
 30
0.0
  0
VERTEX
  5
4E14
  8
1DIM
 10
143.7723964703103
 20
65.918466435957399
 30
0.0
  0
VERTEX
  5
4E15
  8
1DIM
 10
166.53906313697689
 20
65.918466435957399
 30
0.0
  0
SEQEND
  5
4E16
  8
1DIM
  0
ENDBLK
  5
4E18
  8
0
  0
BLOCK
  8
0
  2
*U156
 70
     1
 10
0.0
 20
0.0
 30
0.0
  3
*U156
  1

  0
TEXT
  5
4E1A
  8
1DIM
 62
   201
 10
146.47239647031029
 20
72.45179976929073
 30
0.0
 40
3.5
  1
隙間調整板
  0
TEXT
  5
4E1B
  8
1DIM
 62
   201
 10
146.47239647031029
 20
66.618466435957401
 30
0.0
 40
3.5
  1
取付けねじ
  0
ENDBLK
  5
4E1D
  8
0
  0
BLOCK
  8
0
  2
*X157
 70
     1
 10
0.0
 20
0.0
 30
0.0
  3
*X157
  1

  0
LINE
  5
4E1F
  8
0
 62
     0
 10
50.31425080043153
 20
93.548015738249461
 30
0.0
 11
49.32728201847857
 21
94.534984520202443
 31
0.0
  0
LINE
  5
4E20
  8
0
 62
     0
 10
50.31425080043153
 20
92.200977320089137
 30
0.0
 11
49.314250800431637
 21
93.200977320089024
 31
0.0
  0
LINE
  5
4E21
  8
0
 62
     0
 10
50.314250800431552
 20
90.8539389019287
 30
0.0
 11
49.314250800431637
 21
91.853938901928643
 31
0.0
  0
LINE
  5
4E22
  8
0
 62
     0
 10
50.314250800431552
 20
89.506900483768334
 30
0.0
 11
49.314250800431637
 21
90.506900483768248
 31
0.0
  0
LINE
  5
4E23
  8
0
 62
     0
 10
50.31425080043153
 20
88.159862065607996
 30
0.0
 11
49.314250800431637
 21
89.159862065607882
 31
0.0
  0
LINE
  5
4E24
  8
0
 62
     0
 10
50.31425080043153
 20
86.812823647447601
 30
0.0
 11
49.314250800431637
 21
87.812823647447487
 31
0.0
  0
LINE
  5
4E25
  8
0
 62
     0
 10
50.31425080043153
 20
85.465785229287206
 30
0.0
 11
49.314250800431637
 21
86.465785229287093
 31
0.0
  0
LINE
  5
4E26
  8
0
 62
     0
 10
50.314250800431552
 20
84.118746811126826
 30
0.0
 11
49.314250800431608
 21
85.118746811126769
 31
0.0
  0
LINE
  5
4E27
  8
0
 62
     0
 10
50.314250800431552
 20
82.771708392966488
 30
0.0
 11
49.314250800431608
 21
83.771708392966445
 31
0.0
  0
LINE
  5
4E28
  8
0
 62
     0
 10
49.75909352773337
 20
81.979827247504289
 30
0.0
 11
49.314250800431637
 21
82.424669974806037
 31
0.0
  0
LINE
  5
4E29
  8
0
 62
     0
 10
50.31425080043153
 20
74.689477884004233
 30
0.0
 11
49.314250800431637
 21
75.689477884004134
 31
0.0
  0
LINE
  5
4E2A
  8
0
 62
     0
 10
50.314250800431488
 20
73.34243946584391
 30
0.0
 11
49.314250800431608
 21
74.342439465843825
 31
0.0
  0
LINE
  5
4E2B
  8
0
 62
     0
 10
50.314250800431552
 20
71.995401047683487
 30
0.0
 11
49.314250800431658
 21
72.995401047683373
 31
0.0
  0
LINE
  5
4E2C
  8
0
 62
     0
 10
50.31425080043153
 20
70.648362629523092
 30
0.0
 11
49.314250800431637
 21
71.648362629523007
 31
0.0
  0
LINE
  5
4E2D
  8
0
 62
     0
 10
50.31425080043158
 20
69.301324211362726
 30
0.0
 11
49.314250800431637
 21
70.301324211362669
 31
0.0
  0
LINE
  5
4E2E
  8
0
 62
     0
 10
50.314250800431552
 20
67.954285793202416
 30
0.0
 11
49.314250800431637
 21
68.954285793202331
 31
0.0
  0
ENDBLK
  5
4E30
  8
0
  0
BLOCK
  8
0
  2
*X158
 70
     1
 10
0.0
 20
0.0
 30
0.0
  3
*X158
  1

  0
LINE
  5
4E32
  8
0
 62
     0
 10
48.776411933595881
 20
72.034984520202443
 30
0.0
 11
49.314250800431637
 21
72.572823387038227
 31
0.0
  0
LINE
  5
4E33
  8
0
 62
     0
 10
47.878386321488897
 20
72.034984520202471
 30
0.0
 11
49.314250800431637
 21
73.470848999145176
 31
0.0
  0
LINE
  5
4E34
  8
0
 62
     0
 10
47.714250800431607
 20
72.768874611252073
 30
0.0
 11
49.314250800431637
 21
74.368874611252096
 31
0.0
  0
LINE
  5
4E35
  8
0
 62
     0
 10
47.714250800431607
 20
73.66690022335905
 30
0.0
 11
49.314250800431608
 21
75.266900223359045
 31
0.0
  0
LINE
  5
4E36
  8
0
 62
     0
 10
47.714250800431643
 20
74.564925835465914
 30
0.0
 11
49.314250800431658
 21
76.164925835465937
 31
0.0
  0
LINE
  5
4E37
  8
0
 62
     0
 10
47.619354929850687
 20
75.368055576991907
 30
0.0
 11
49.05026733674643
 21
76.79896798388765
 31
0.0
  0
LINE
  5
4E38
  8
0
 62
     0
 10
46.9516507581626
 20
75.598377017410712
 30
0.0
 11
48.288258260954308
 21
76.934984520202391
 31
0.0
  0
LINE
  5
4E39
  8
0
 62
     0
 10
46.122727050251832
 20
75.667478921606829
 30
0.0
 11
47.390232648847423
 21
76.93498452020242
 31
0.0
  0
LINE
  5
4E3A
  8
0
 62
     0
 10
45.293803342340972
 20
75.736580825802946
 30
0.0
 11
46.492207036740488
 21
76.934984520202448
 31
0.0
  0
LINE
  5
4E3B
  8
0
 62
     0
 10
44.464879634430183
 20
75.805682729999063
 30
0.0
 11
45.59418142463354
 21
76.93498452020242
 31
0.0
  0
LINE
  5
4E3C
  8
0
 62
     0
 10
48.896155812526779
 20
81.134984520202607
 30
0.0
 11
49.314250800431608
 21
81.553079508107416
 31
0.0
  0
LINE
  5
4E3D
  8
0
 62
     0
 10
43.635955926519323
 20
75.87478463419518
 30
0.0
 11
44.696155812526627
 21
76.934984520202448
 31
0.0
  0
LINE
  5
4E3E
  8
0
 62
     0
 10
47.998130200419887
 20
81.134984520202565
 30
0.0
 11
49.314250800431608
 21
82.451105120214294
 31
0.0
  0
LINE
  5
4E3F
  8
0
 62
     0
 10
42.807032218608533
 20
75.943886538391212
 30
0.0
 11
43.798130200419727
 21
76.93498452020242
 31
0.0
  0
LINE
  5
4E40
  8
0
 62
     0
 10
47.100104588313002
 20
81.134984520202607
 30
0.0
 11
49.314250800431658
 21
83.349130732321285
 31
0.0
  0
LINE
  5
4E41
  8
0
 62
     0
 10
41.978108510697773
 20
76.012988442587385
 30
0.0
 11
42.900104588312807
 21
76.934984520202448
 31
0.0
  0
LINE
  5
4E42
  8
0
 62
     0
 10
46.202078976206053
 20
81.134984520202565
 30
0.0
 11
49.314250800431637
 21
84.247156344428134
 31
0.0
  0
LINE
  5
4E43
  8
0
 62
     0
 10
41.714250800431643
 20
76.64715634442814
 30
0.0
 11
42.002078976205887
 21
76.934984520202391
 31
0.0
  0
LINE
  5
4E44
  8
0
 62
     0
 10
47.714250800431643
 20
83.54518195653506
 30
0.0
 11
49.314250800431637
 21
85.145181956535055
 31
0.0
  0
LINE
  5
4E45
  8
0
 62
     0
 10
45.304053364099133
 20
81.134984520202551
 30
0.0
 11
46.612377927960118
 21
82.443309084063543
 31
0.0
  0
LINE
  5
4E46
  8
0
 62
     0
 10
47.714250800431607
 20
84.443207568641995
 30
0.0
 11
49.314250800431637
 21
86.043207568642003
 31
0.0
  0
LINE
  5
4E47
  8
0
 62
     0
 10
44.406027751992212
 20
81.134984520202565
 30
0.0
 11
45.632681482626097
 21
82.361638250836478
 31
0.0
  0
LINE
  5
4E48
  8
0
 62
     0
 10
47.714250800431643
 20
85.341233180748929
 30
0.0
 11
49.314250800431637
 21
86.941233180748924
 31
0.0
  0
LINE
  5
4E49
  8
0
 62
     0
 10
43.508002139885292
 20
81.134984520202607
 30
0.0
 11
44.652985037292183
 21
82.279967417609456
 31
0.0
  0
LINE
  5
4E4A
  8
0
 62
     0
 10
47.714250800431643
 20
86.239258792855836
 30
0.0
 11
49.314250800431637
 21
87.839258792855844
 31
0.0
  0
LINE
  5
4E4B
  8
0
 62
     0
 10
42.6099765277784
 20
81.134984520202607
 30
0.0
 11
43.673288591958219
 21
82.198296584382433
 31
0.0
  0
LINE
  5
4E4C
  8
0
 62
     0
 10
47.714250800431607
 20
87.137284404962713
 30
0.0
 11
49.314250800431608
 21
88.737284404962693
 31
0.0
  0
LINE
  5
4E4D
  8
0
 62
     0
 10
41.714250800431643
 20
81.137284404962742
 30
0.0
 11
42.693592146624212
 21
82.116625751155297
 31
0.0
  0
LINE
  5
4E4E
  8
0
 62
     0
 10
47.714250800431607
 20
88.035310017069577
 30
0.0
 11
49.314250800431608
 21
89.635310017069571
 31
0.0
  0
LINE
  5
4E4F
  8
0
 62
     0
 10
47.714250800431579
 20
88.933335629176497
 30
0.0
 11
49.314250800431637
 21
90.533335629176548
 31
0.0
  0
LINE
  5
4E50
  8
0
 62
     0
 10
47.714250800431607
 20
89.831361241283446
 30
0.0
 11
49.314250800431637
 21
91.431361241283454
 31
0.0
  0
LINE
  5
4E51
  8
0
 62
     0
 10
47.714250800431579
 20
90.729386853390366
 30
0.0
 11
49.314250800431608
 21
92.329386853390389
 31
0.0
  0
LINE
  5
4E52
  8
0
 62
     0
 10
47.714250800431607
 20
91.627412465497315
 30
0.0
 11
49.314250800431608
 21
93.227412465497338
 31
0.0
  0
LINE
  5
4E53
  8
0
 62
     0
 10
47.714250800431643
 20
92.525438077604207
 30
0.0
 11
49.314250800431637
 21
94.125438077604187
 31
0.0
  0
LINE
  5
4E54
  8
0
 62
     0
 10
47.714250800431607
 20
93.423463689711113
 30
0.0
 11
48.825771630922958
 21
94.534984520202457
 31
0.0
  0
LINE
  5
4E55
  8
0
 62
     0
 10
47.714250800431607
 20
94.321489301817991
 30
0.0
 11
47.927746018816009
 21
94.534984520202414
 31
0.0
  0
ENDBLK
  5
4E57
  8
0
  0
BLOCK
  8
0
  2
*X159
 70
     1
 10
0.0
 20
0.0
 30
0.0
  3
*X159
  1

  0
LINE
  5
4E59
  8
0
 62
     0
 10
51.251193430025182
 20
67.325561119776552
 30
0.0
 11
51.314250800431552
 21
67.388618490182921
 31
0.0
  0
LINE
  5
4E5A
  8
0
 62
     0
 10
50.314250800431552
 20
67.735656908343273
 30
0.0
 11
51.31425080043158
 21
68.735656908343316
 31
0.0
  0
LINE
  5
4E5B
  8
0
 62
     0
 10
50.31425080043153
 20
69.082695326503625
 30
0.0
 11
51.314250800431523
 21
70.082695326503625
 31
0.0
  0
LINE
  5
4E5C
  8
0
 62
     0
 10
50.314250800431488
 20
70.42973374466402
 30
0.0
 11
51.314250800431502
 21
71.42973374466402
 31
0.0
  0
LINE
  5
4E5D
  8
0
 62
     0
 10
50.31425080043153
 20
86.594194762588501
 30
0.0
 11
51.314250800431552
 21
87.594194762588529
 31
0.0
  0
LINE
  5
4E5E
  8
0
 62
     0
 10
50.314250800431488
 20
87.941233180748839
 30
0.0
 11
51.314250800431552
 21
88.941233180748895
 31
0.0
  0
LINE
  5
4E5F
  8
0
 62
     0
 10
50.314250800431488
 20
89.288271598909176
 30
0.0
 11
51.314250800431552
 21
90.288271598909233
 31
0.0
  0
ENDBLK
  5
4E61
  8
0
  0
BLOCK
  8
0
  2
*U160
 70
     1
 10
0.0
 20
0.0
 30
0.0
  3
*U160
  1

  0
SOLID
  5
4E63
  8
1DIM
 10
126.0805736337727
 20
162.0425678272511
 30
0.0
 11
126.8724892120149
 21
160.1760253476786
 31
0.0
 12
125.5180147527353
 22
161.68483615433081
 32
0.0
 13
125.5180147527353
 23
161.68483615433081
 33
0.0
  0
POLYLINE
  5
4E64
  8
1DIM
 66
     1
 10
0.0
 20
0.0
 30
0.0
  0
VERTEX
  5
4E65
  8
1DIM
 10
125.799294193254
 20
161.86370199079099
 30
0.0
  0
VERTEX
  5
4E66
  8
1DIM
 10
112.693272767819
 20
182.4738668323821
 30
0.0
  0
VERTEX
  5
4E67
  8
1DIM
 10
77.326606101152393
 20
182.4738668323821
 30
0.0
  0
SEQEND
  5
4E68
  8
1DIM
  0
ENDBLK
  5
4E6A
  8
0
  0
BLOCK
  8
0
  2
*U161
 70
     1
 10
0.0
 20
0.0
 30
0.0
  3
*U161
  1

  0
TEXT
  5
4E6C
  8
1DIM
 62
   201
 10
77.793272767819047
 20
183.173866832382
 30
0.0
 40
3.5
  1
材質：ステンレス
  0
ENDBLK
  5
4E6E
  8
0
  0
BLOCK
  8
0
  2
*U162
 70
     1
 10
0.0
 20
0.0
 30
0.0
  3
*U162
  1

  0
SOLID
  5
4E70
  8
1DIM
 10
43.573222995488223
 20
135.04448168954369
 30
0.0
 11
43.91202512055542
 21
133.0454008429642
 31
0.0
 12
42.94318607903363
 22
134.8265414951122
 32
0.0
 13
42.94318607903363
 23
134.8265414951122
 33
0.0
  0
POLYLINE
  5
4E71
  8
1DIM
 66
     1
 10
0.0
 20
0.0
 30
0.0
  0
VERTEX
  5
4E72
  8
1DIM
 10
43.25820453726093
 20
134.935511592328
 30
0.0
  0
VERTEX
  5
4E73
  8
1DIM
 10
30.700000924628519
 20
171.23965411615521
 30
0.0
  0
VERTEX
  5
4E74
  8
1DIM
 10
-0.4666657420381455
 20
171.23965411615521
 30
0.0
  0
SEQEND
  5
4E75
  8
1DIM
  0
ENDBLK
  5
4E77
  8
0
  0
BLOCK
  8
0
  2
*U163
 70
     1
 10
0.0
 20
0.0
 30
0.0
  3
*U163
  1

  0
TEXT
  5
4E79
  8
1DIM
 62
   201
 10
0.0000009246285019
 20
171.93965411615511
 30
0.0
 40
3.5
  1
材質：スチール
  0
ENDBLK
  5
4E7B
  8
0
  0
BLOCK
  8
0
  2
*U164
 70
     1
 10
0.0
 20
0.0
 30
0.0
  3
*U164
  1

  0
SOLID
  5
4E7D
  8
1DIM
 10
45.876464886716427
 20
92.154872685413181
 30
0.0
 11
44.367503449776962
 21
90.800566038844266
 31
0.0
 12
45.355664815562221
 22
92.571059819200613
 32
0.0
 13
45.355664815562221
 23
92.571059819200613
 33
0.0
  0
POLYLINE
  5
4E7E
  8
1DIM
 66
     1
 10
0.0
 20
0.0
 30
0.0
  0
VERTEX
  5
4E7F
  8
1DIM
 10
45.616064851139321
 20
92.362966252306904
 30
0.0
  0
VERTEX
  5
4E80
  8
1DIM
 10
53.641312426981912
 20
102.40544274717961
 30
0.0
  0
VERTEX
  5
4E81
  8
1DIM
 10
101.60797909364859
 20
102.40544274717961
 30
0.0
  0
SEQEND
  5
4E82
  8
1DIM
  0
ENDBLK
  5
4E84
  8
0
  0
BLOCK
  8
0
  2
*U165
 70
     1
 10
0.0
 20
0.0
 30
0.0
  3
*U165
  1

  0
TEXT
  5
4E86
  8
1DIM
 62
   201
 10
56.341312426981922
 20
103.10544274717959
 30
0.0
 40
3.5
  1
材質：亜鉛ダイキャスト
  0
ENDBLK
  5
4E88
  8
0
  0
BLOCK
  8
0
  2
*U166
 70
     1
 10
0.0
 20
0.0
 30
0.0
  3
*U166
  1

  0
TEXT
  5
4E8A
  8
1DIM
 62
   201
 10
286.3673535635765
 20
-20.08533334610723
 30
0.0
 40
3.5
  1
25 
  0
ENDBLK
  5
4E8C
  8
0
  0
BLOCK
  8
0
  2
*U167
 70
     1
 10
0.0
 20
0.0
 30
0.0
  3
*U167
  1

  0
TEXT
  5
4E8E
  8
1DIM
 62
   201
 10
267.675282488947
 20
-54.765582089316602
 30
0.0
 40
3.5
  1
φ3.5
 50
90.0
  0
ENDBLK
  5
4E90
  8
0
  0
BLOCK
  8
0
  2
*U168
 70
     1
 10
0.0
 20
0.0
 30
0.0
  3
*U168
  1

  0
TEXT
  5
4E92
  8
1DIM
 62
   201
 10
178.4657546195107
 20
-17.208770980293181
 30
0.0
 40
3.5
  1
11.5 
 50
90.0
  0
ENDBLK
  5
4E94
  8
0
  0
BLOCK
  8
0
  2
*U169
 70
     1
 10
0.0
 20
0.0
 30
0.0
  3
*U169
  1

  0
TEXT
  5
4E96
  8
1DIM
 62
   201
 10
178.4657546195107
 20
-102.7087709802932
 30
0.0
 40
3.5
  1
取付けねじピッチ100 
 50
90.0
  0
ENDBLK
  5
4E98
  8
0
  0
BLOCK
  8
0
  2
*U170
 70
     1
 10
0.0
 20
0.0
 30
0.0
  3
*U170
  1

  0
TEXT
  5
4E9A
  8
1DIM
 62
   201
 10
226.62932280694861
 20
-52.175437646959907
 30
0.0
 40
3.5
  1
上下調整範囲
 50
90.0
  0
TEXT
  5
4E9B
  8
1DIM
 62
   201
 10
232.46265614028189
 20
-52.992104313626569
 30
0.0
 40
3.5
  1
34.5~42.5
 50
90.0
  0
ENDBLK
  5
4E9D
  8
0
  0
BLOCK
  8
0
  2
*U171
 70
     1
 10
0.0
 20
0.0
 30
0.0
  3
*U171
  1

  0
TEXT
  5
4E9F
  8
1DIM
 62
   201
 10
232.46265614028201
 20
-79.825437646959955
 30
0.0
 40
3.5
  1
31.5 
 50
90.0
  0
ENDBLK
  5
4EA1
  8
0
  0
BLOCK
  8
0
  2
*U172
 70
     1
 10
0.0
 20
0.0
 30
0.0
  3
*U172
  1

  0
TEXT
  5
4EA3
  8
1DIM
 62
   201
 10
99.75451293804413
 20
-179.7770892863831
 30
0.0
 40
3.5
  1
13 
 50
90.0
  0
ENDBLK
  5
4EA5
  8
0
  0
BLOCK
  8
0
  2
*U173
 70
     1
 10
0.0
 20
0.0
 30
0.0
  3
*U173
  1

  0
TEXT
  5
4EA7
  8
1DIM
 62
   201
 10
127.2754243435993
 20
-65.973360685846572
 30
0.0
 40
3.5
  1
前後調整範囲
  0
TEXT
  5
4EA8
  8
1DIM
 62
   201
 10
128.55875767693269
 20
-71.806694019179915
 30
0.0
 40
3.5
  1
3.6 ～6.5
  0
ENDBLK
  5
4EAA
  8
0
  0
BLOCK
  8
0
  2
*U174
 70
     1
 10
0.0
 20
0.0
 30
0.0
  3
*U174
  1

  0
TEXT
  5
4EAC
  8
1DIM
 62
   201
 10
201.00601257123461
 20
-68.249974993381059
 30
0.0
 40
3.5
  1
9 
  0
ENDBLK
  5
4EAE
  8
0
  0
BLOCK
  8
0
  2
*U175
 70
     1
 10
0.0
 20
0.0
 30
0.0
  3
*U175
  1

  0
TEXT
  5
4EB0
  8
1DIM
 62
   201
 10
136.7867776923126
 20
-179.7770892863831
 30
0.0
 40
3.5
  1
16 
 50
90.0
  0
ENDBLK
  5
4EB2
  8
0
  0
BLOCK
  8
0
  2
*U176
 70
     1
 10
0.0
 20
0.0
 30
0.0
  3
*U176
  1

  0
TEXT
  5
4EB4
  8
1DIM
 62
   201
 10
110.65875767693269
 20
-157.61755593475129
 30
0.0
 40
3.5
  1
14.5 
  0
ENDBLK
  5
4EB6
  8
0
  0
BLOCK
  8
0
  2
*U177
 70
     1
 10
0.0
 20
0.0
 30
0.0
  3
*U177
  1

  0
TEXT
  5
4EB8
  8
1DIM
 62
   201
 10
127.4420910102661
 20
-149.7784317820736
 30
0.0
 40
3.5
  1
2.5 
  0
ENDBLK
  5
4EBA
  8
0
  0
BLOCK
  8
0
  2
*U178
 70
     1
 10
0.0
 20
0.0
 30
0.0
  3
*U178
  1

  0
TEXT
  5
4EBC
  8
1DIM
 62
   201
 10
84.485833933576671
 20
-98.525437646959645
 30
0.0
 40
3.5
  1
切欠き必要寸法75 
 50
90.0
  0
ENDBLK
  5
4EBE
  8
0
  0
BLOCK
  8
0
  2
*U179
 70
     1
 10
0.0
 20
0.0
 30
0.0
  3
*U179
  1

  0
TEXT
  5
4EC0
  8
1DIM
 62
   201
 10
91.66671063946724
 20
-83.825437646959656
 30
0.0
 40
3.5
  1
67 
 50
90.0
  0
ENDBLK
  5
4EC2
  8
0
  0
BLOCK
  8
0
  2
*U180
 70
     1
 10
0.0
 20
0.0
 30
0.0
  3
*U180
  1

  0
TEXT
  5
4EC4
  8
1DIM
 62
   201
 10
91.666710639467226
 20
-38.108770980292718
 30
0.0
 40
3.5
  1
4 可動シロ
 50
90.0
  0
ENDBLK
  5
4EC6
  8
0
  0
BLOCK
  8
0
  2
*U181
 70
     1
 10
0.0
 20
0.0
 30
0.0
  3
*U181
  1

  0
TEXT
  5
4EC8
  8
1DIM
 62
   201
 10
91.666710639467226
 20
-144.70877098029331
 30
0.0
 40
3.5
  1
4 可動シロ
 50
90.0
  0
ENDBLK
  5
4ECA
  8
0
  0
BLOCK
  8
0
  2
*U182
 70
     1
 10
0.0
 20
0.0
 30
0.0
  3
*U182
  1

  0
TEXT
  5
4ECC
  8
1DIM
 62
   201
 10
199.83934590456789
 20
-157.61755593475129
 30
0.0
 40
3.5
  1
16 
  0
ENDBLK
  5
4ECE
  8
0
  0
BLOCK
  8
0
  2
*U183
 70
     1
 10
0.0
 20
0.0
 30
0.0
  3
*U183
  1

  0
TEXT
  5
4ED0
  8
1DIM
 62
   201
 10
239.68461147137131
 20
-86.492104313626555
 30
0.0
 40
3.5
  1
123 
 50
90.0
  0
ENDBLK
  5
4ED2
  8
0
  0
ENDSEC
  0
SECTION
  2
ENTITIES
  0
LINE
  5
48C6
  8
01
 10
301.78400394267902
 20
-52.700080590019873
 30
0.0
 11
301.78402023024319
 21
-45.700080590019859
 31
0.0
  0
LINE
  5
48C7
  8
01
 10
301.52152023024217
 20
-45.700080590019859
 30
0.0
 11
301.78402023024319
 21
-45.700080590019859
 31
0.0
  0
LINE
  5
48C8
  8
01
 10
301.52150394267812
 20
-52.700080590019873
 30
0.0
 11
301.78400394267902
 21
-52.700080590019873
 31
0.0
  0
LINE
  5
48C9
  8
01
 10
301.52152023024217
 20
-45.700080590019859
 30
0.0
 11
299.33399478077507
 21
-47.887580590019859
 31
0.0
  0
LINE
  5
48CA
  8
01
 10
301.52150394267812
 20
-52.700080590019873
 30
0.0
 11
299.33401921221639
 21
-50.512580590019873
 31
0.0
  0
LINE
  5
48CB
  8
01
 10
281.42152328420821
 20
-47.887580590019859
 30
0.0
 11
299.33399478077507
 21
-47.887580590019859
 31
0.0
  0
LINE
  5
48CC
  8
01
 10
281.42151717637159
 20
-50.512580590019873
 30
0.0
 11
299.33401921221639
 21
-50.512580590019873
 31
0.0
  0
LINE
  5
48CD
  8
01
 10
276.7840202302433
 20
-49.200080590019859
 30
0.0
 11
281.42152328420821
 21
-47.887580590019859
 31
0.0
  0
LINE
  5
48CE
  8
01
 10
276.7840202302433
 20
-49.200080590019859
 30
0.0
 11
281.42151717637159
 21
-50.512580590019873
 31
0.0
  0
LINE
  5
48CF
  8
01
 10
301.52150394267812
 20
-52.700080590019873
 30
0.0
 11
301.52152023024217
 21
-45.700080590019859
 31
0.0
  0
LINE
  5
48D0
  8
01
 10
291.2215161583988
 20
-50.950080590019873
 30
0.0
 11
290.5215243021828
 21
-47.450080590019859
 31
0.0
  0
LINE
  5
48D1
  8
01
 10
290.5215243021828
 20
-47.450080590019859
 30
0.0
 11
290.43402328420979
 21
-47.887580590019859
 31
0.0
  0
LINE
  5
48D2
  8
01
 10
288.4215161583989
 20
-50.950080590019873
 30
0.0
 11
287.72152430217909
 21
-47.450080590019859
 31
0.0
  0
LINE
  5
48D3
  8
01
 10
289.82151615839871
 20
-50.950080590019873
 30
0.0
 11
289.12152430217901
 21
-47.450080590019859
 31
0.0
  0
LINE
  5
48D4
  8
01
 10
285.62151615839878
 20
-50.950080590019873
 30
0.0
 11
284.92152430217902
 21
-47.450080590019859
 31
0.0
  0
LINE
  5
48D5
  8
01
 10
287.0215161583987
 20
-50.950080590019873
 30
0.0
 11
286.321524302179
 21
-47.450080590019859
 31
0.0
  0
LINE
  5
48D6
  8
01
 10
282.82151615839871
 20
-50.950080590019873
 30
0.0
 11
282.1215243021789
 21
-47.450080590019859
 31
0.0
  0
LINE
  5
48D7
  8
01
 10
280.72152384122671
 20
-47.64818676069833
 30
0.0
 11
280.6084119808005
 21
-48.117706279060599
 31
0.0
  0
LINE
  5
48D8
  8
01
 10
281.42151615839879
 20
-50.950080590019873
 30
0.0
 11
280.72152384122671
 21
-47.64818676069833
 31
0.0
  0
LINE
  5
48D9
  8
01
 10
284.2215161583988
 20
-50.950080590019873
 30
0.0
 11
283.52152430217899
 21
-47.450080590019859
 31
0.0
  0
LINE
  5
48DA
  8
01
 10
287.72152430217909
 20
-47.450080590019859
 30
0.0
 11
287.63402328420642
 21
-47.887580590019859
 31
0.0
  0
LINE
  5
48DB
  8
01
 10
289.12152430217901
 20
-47.450080590019859
 30
0.0
 11
289.03402328420663
 21
-47.887580590019859
 31
0.0
  0
LINE
  5
48DC
  8
01
 10
284.92152430217902
 20
-47.450080590019859
 30
0.0
 11
284.83402328420641
 21
-47.887580590019859
 31
0.0
  0
LINE
  5
48DD
  8
01
 10
286.321524302179
 20
-47.450080590019859
 30
0.0
 11
286.2340232842065
 21
-47.887580590019859
 31
0.0
  0
LINE
  5
48DE
  8
01
 10
282.1215243021789
 20
-47.450080590019859
 30
0.0
 11
282.03402328420663
 21
-47.887580590019859
 31
0.0
  0
LINE
  5
48DF
  8
01
 10
283.52152430217899
 20
-47.450080590019859
 30
0.0
 11
283.4340232842066
 21
-47.887580590019859
 31
0.0
  0
LINE
  5
48E0
  8
1CENTER
 10
275.67902033837038
 20
-49.200080590019859
 30
0.0
 11
303.2414955147903
 21
-49.200080590019859
 31
0.0
  0
LINE
  5
48E1
  8
01
 10
280.120190403614
 20
-50.144280317462233
 30
0.0
 11
280.02151708030772
 21
-50.553866465718471
 31
0.0
  0
LINE
  5
48E2
  8
01
 10
277.92152199741679
 20
-48.440611443410234
 30
0.0
 11
277.64872337319622
 21
-48.95535344657236
 31
0.0
  0
LINE
  5
48E3
  8
01
 10
278.7540243240968
 20
-49.757629285624027
 30
0.0
 11
278.6215180022113
 21
-50.15765464617624
 31
0.0
  0
LINE
  5
48E4
  8
01
 10
279.32152291932181
 20
-48.044399102054278
 30
0.0
 11
279.16160429452219
 21
-48.527179882882137
 31
0.0
  0
LINE
  5
48E5
  8
01
 10
278.6215180022113
 20
-50.15765464617624
 30
0.0
 11
277.92152199741679
 21
-48.440611443410234
 31
0.0
  0
LINE
  5
48E6
  8
01
 10
280.02151708030772
 20
-50.553866465718471
 30
0.0
 11
279.32152291932181
 21
-48.044399102054278
 31
0.0
  0
LINE
  5
48E7
  8
01
 10
288.50901717637129
 20
-50.512580590019873
 30
0.0
 11
288.4215161583989
 21
-50.950080590019873
 31
0.0
  0
LINE
  5
48E8
  8
01
 10
289.90901717637178
 20
-50.512580590019873
 30
0.0
 11
289.82151615839871
 21
-50.950080590019873
 31
0.0
  0
LINE
  5
48E9
  8
01
 10
284.3090171763713
 20
-50.512580590019873
 30
0.0
 11
284.2215161583988
 21
-50.950080590019873
 31
0.0
  0
LINE
  5
48EA
  8
01
 10
285.70901717637128
 20
-50.512580590019873
 30
0.0
 11
285.62151615839878
 21
-50.950080590019873
 31
0.0
  0
LINE
  5
48EB
  8
01
 10
287.10901717637108
 20
-50.512580590019873
 30
0.0
 11
287.0215161583987
 21
-50.950080590019873
 31
0.0
  0
LINE
  5
48EC
  8
01
 10
282.90901717637121
 20
-50.512580590019873
 30
0.0
 11
282.82151615839871
 21
-50.950080590019873
 31
0.0
  0
LINE
  5
48ED
  8
01
 10
281.5090171763714
 20
-50.512580590019873
 30
0.0
 11
281.42151615839879
 21
-50.950080590019873
 31
0.0
  0
LINE
  5
48EE
  8
01
 10
291.3090171763717
 20
-50.512580590019873
 30
0.0
 11
291.2215161583988
 21
-50.950080590019873
 31
0.0
  0
LINE
  5
48EF
  8
01
 10
292.62151615840082
 20
-50.950080590019873
 30
0.0
 11
291.92152430218482
 21
-47.450080590019859
 31
0.0
  0
LINE
  5
48F0
  8
01
 10
291.92152430218482
 20
-47.450080590019859
 30
0.0
 11
291.83402328421192
 21
-47.887580590019859
 31
0.0
  0
LINE
  5
48F1
  8
01
 10
292.70901717637378
 20
-50.512580590019873
 30
0.0
 11
292.62151615840082
 21
-50.950080590019873
 31
0.0
  0
LINE
  5
48F2
  8
01
 10
294.0215161584029
 20
-50.950080590019873
 30
0.0
 11
293.32152430218679
 21
-47.450080590019859
 31
0.0
  0
LINE
  5
48F3
  8
01
 10
293.32152430218679
 20
-47.450080590019859
 30
0.0
 11
293.23402328421389
 21
-47.887580590019859
 31
0.0
  0
LINE
  5
48F4
  8
01
 10
294.1090171763758
 20
-50.512580590019873
 30
0.0
 11
294.0215161584029
 21
-50.950080590019873
 31
0.0
  0
LINE
  5
48F5
  8
01
 10
295.42151615840493
 20
-50.950080590019873
 30
0.0
 11
294.72152430218893
 21
-47.450080590019859
 31
0.0
  0
LINE
  5
48F6
  8
01
 10
294.72152430218893
 20
-47.450080590019859
 30
0.0
 11
294.63402328421591
 21
-47.887580590019859
 31
0.0
  0
LINE
  5
48F7
  8
01
 10
295.50901717637782
 20
-50.512580590019873
 30
0.0
 11
295.42151615840493
 21
-50.950080590019873
 31
0.0
  0
LINE
  5
48F8
  8
01
 10
296.82151615840689
 20
-50.950080590019873
 30
0.0
 11
296.12152430219089
 21
-47.450080590019859
 31
0.0
  0
LINE
  5
48F9
  8
01
 10
296.12152430219089
 20
-47.450080590019859
 30
0.0
 11
296.03402328421788
 21
-47.887580590019859
 31
0.0
  0
LINE
  5
48FA
  8
01
 10
296.9090171763799
 20
-50.512580590019873
 30
0.0
 11
296.82151615840689
 21
-50.950080590019873
 31
0.0
  0
LINE
  5
48FB
  8
01
 10
298.22151615840892
 20
-50.950080590019873
 30
0.0
 11
297.52152430219292
 21
-47.450080590019859
 31
0.0
  0
LINE
  5
48FC
  8
01
 10
297.52152430219292
 20
-47.450080590019859
 30
0.0
 11
297.43402328422002
 21
-47.887580590019859
 31
0.0
  0
LINE
  5
48FD
  8
01
 10
298.30901717638187
 20
-50.512580590019873
 30
0.0
 11
298.22151615840892
 21
-50.950080590019873
 31
0.0
  0
LINE
  5
48FE
  8
01
 10
301.78400394267902
 20
-40.198915422649968
 30
0.0
 11
301.78402023024319
 21
-33.198915422649968
 31
0.0
  0
LINE
  5
48FF
  8
01
 10
301.52152023024217
 20
-33.198915422649968
 30
0.0
 11
301.78402023024319
 21
-33.198915422649968
 31
0.0
  0
LINE
  5
4900
  8
01
 10
301.52150394267812
 20
-40.198915422649968
 30
0.0
 11
301.78400394267902
 21
-40.198915422649968
 31
0.0
  0
LINE
  5
4901
  8
01
 10
301.52152023024217
 20
-33.198915422649968
 30
0.0
 11
299.33399478077507
 21
-35.386415422649968
 31
0.0
  0
LINE
  5
4902
  8
01
 10
301.52150394267812
 20
-40.198915422649968
 30
0.0
 11
299.33401921221639
 21
-38.011415422649982
 31
0.0
  0
LINE
  5
4903
  8
01
 10
281.42152328420821
 20
-35.386415422649968
 30
0.0
 11
299.33399478077507
 21
-35.386415422649968
 31
0.0
  0
LINE
  5
4904
  8
01
 10
281.42151717637159
 20
-38.011415422649982
 30
0.0
 11
299.33401921221639
 21
-38.011415422649982
 31
0.0
  0
LINE
  5
4905
  8
01
 10
276.7840202302433
 20
-36.698915422649982
 30
0.0
 11
281.42152328420821
 21
-35.386415422649968
 31
0.0
  0
LINE
  5
4906
  8
01
 10
276.7840202302433
 20
-36.698915422649982
 30
0.0
 11
281.42151717637159
 21
-38.011415422649982
 31
0.0
  0
LINE
  5
4907
  8
01
 10
301.52150394267812
 20
-40.198915422649968
 30
0.0
 11
301.52152023024217
 21
-33.198915422649968
 31
0.0
  0
LINE
  5
4908
  8
01
 10
291.2215161583988
 20
-38.448915422649982
 30
0.0
 11
290.5215243021828
 21
-34.948915422649982
 31
0.0
  0
LINE
  5
4909
  8
01
 10
290.5215243021828
 20
-34.948915422649982
 30
0.0
 11
290.43402328420979
 21
-35.386415422649968
 31
0.0
  0
LINE
  5
490A
  8
01
 10
288.4215161583989
 20
-38.448915422649982
 30
0.0
 11
287.72152430217909
 21
-34.948915422649982
 31
0.0
  0
LINE
  5
490B
  8
01
 10
289.82151615839871
 20
-38.448915422649982
 30
0.0
 11
289.12152430217901
 21
-34.948915422649982
 31
0.0
  0
LINE
  5
490C
  8
01
 10
285.62151615839878
 20
-38.448915422649982
 30
0.0
 11
284.92152430217902
 21
-34.948915422649982
 31
0.0
  0
LINE
  5
490D
  8
01
 10
287.0215161583987
 20
-38.448915422649982
 30
0.0
 11
286.321524302179
 21
-34.948915422649982
 31
0.0
  0
LINE
  5
490E
  8
01
 10
282.82151615839871
 20
-38.448915422649982
 30
0.0
 11
282.1215243021789
 21
-34.948915422649982
 31
0.0
  0
LINE
  5
490F
  8
01
 10
280.72152384122671
 20
-35.147021593328454
 30
0.0
 11
280.6084119808005
 21
-35.616541111690708
 31
0.0
  0
LINE
  5
4910
  8
01
 10
281.42151615839879
 20
-38.448915422649982
 30
0.0
 11
280.72152384122671
 21
-35.147021593328454
 31
0.0
  0
LINE
  5
4911
  8
01
 10
284.2215161583988
 20
-38.448915422649982
 30
0.0
 11
283.52152430217899
 21
-34.948915422649982
 31
0.0
  0
LINE
  5
4912
  8
01
 10
287.72152430217909
 20
-34.948915422649982
 30
0.0
 11
287.63402328420642
 21
-35.386415422649968
 31
0.0
  0
LINE
  5
4913
  8
01
 10
289.12152430217901
 20
-34.948915422649982
 30
0.0
 11
289.03402328420663
 21
-35.386415422649968
 31
0.0
  0
LINE
  5
4914
  8
01
 10
284.92152430217902
 20
-34.948915422649982
 30
0.0
 11
284.83402328420641
 21
-35.386415422649968
 31
0.0
  0
LINE
  5
4915
  8
01
 10
286.321524302179
 20
-34.948915422649982
 30
0.0
 11
286.2340232842065
 21
-35.386415422649968
 31
0.0
  0
LINE
  5
4916
  8
01
 10
282.1215243021789
 20
-34.948915422649982
 30
0.0
 11
282.03402328420663
 21
-35.386415422649968
 31
0.0
  0
LINE
  5
4917
  8
01
 10
283.52152430217899
 20
-34.948915422649982
 30
0.0
 11
283.4340232842066
 21
-35.386415422649968
 31
0.0
  0
LINE
  5
4918
  8
1CENTER
 10
275.67902033837038
 20
-36.698915422649982
 30
0.0
 11
303.2414955147903
 21
-36.698915422649982
 31
0.0
  0
LINE
  5
4919
  8
01
 10
280.120190403614
 20
-37.643115150092342
 30
0.0
 11
280.02151708030772
 21
-38.05270129834858
 31
0.0
  0
LINE
  5
491A
  8
01
 10
277.92152199741679
 20
-35.939446276040343
 30
0.0
 11
277.64872337319622
 21
-36.454188279202469
 31
0.0
  0
LINE
  5
491B
  8
01
 10
278.7540243240968
 20
-37.256464118254137
 30
0.0
 11
278.6215180022113
 21
-37.65648947880635
 31
0.0
  0
LINE
  5
491C
  8
01
 10
279.32152291932181
 20
-35.543233934684402
 30
0.0
 11
279.16160429452219
 21
-36.026014715512247
 31
0.0
  0
LINE
  5
491D
  8
01
 10
278.6215180022113
 20
-37.65648947880635
 30
0.0
 11
277.92152199741679
 21
-35.939446276040343
 31
0.0
  0
LINE
  5
491E
  8
01
 10
280.02151708030772
 20
-38.05270129834858
 30
0.0
 11
279.32152291932181
 21
-35.543233934684402
 31
0.0
  0
LINE
  5
491F
  8
01
 10
288.50901717637129
 20
-38.011415422649982
 30
0.0
 11
288.4215161583989
 21
-38.448915422649982
 31
0.0
  0
LINE
  5
4920
  8
01
 10
289.90901717637178
 20
-38.011415422649982
 30
0.0
 11
289.82151615839871
 21
-38.448915422649982
 31
0.0
  0
LINE
  5
4921
  8
01
 10
284.3090171763713
 20
-38.011415422649982
 30
0.0
 11
284.2215161583988
 21
-38.448915422649982
 31
0.0
  0
LINE
  5
4922
  8
01
 10
285.70901717637128
 20
-38.011415422649982
 30
0.0
 11
285.62151615839878
 21
-38.448915422649982
 31
0.0
  0
LINE
  5
4923
  8
01
 10
287.10901717637108
 20
-38.011415422649982
 30
0.0
 11
287.0215161583987
 21
-38.448915422649982
 31
0.0
  0
LINE
  5
4924
  8
01
 10
282.90901717637121
 20
-38.011415422649982
 30
0.0
 11
282.82151615839871
 21
-38.448915422649982
 31
0.0
  0
LINE
  5
4925
  8
01
 10
281.5090171763714
 20
-38.011415422649982
 30
0.0
 11
281.42151615839879
 21
-38.448915422649982
 31
0.0
  0
LINE
  5
4926
  8
01
 10
291.3090171763717
 20
-38.011415422649982
 30
0.0
 11
291.2215161583988
 21
-38.448915422649982
 31
0.0
  0
LINE
  5
4927
  8
01
 10
292.62151615840082
 20
-38.448915422649982
 30
0.0
 11
291.92152430218482
 21
-34.948915422649982
 31
0.0
  0
LINE
  5
4928
  8
01
 10
291.92152430218482
 20
-34.948915422649982
 30
0.0
 11
291.83402328421192
 21
-35.386415422649968
 31
0.0
  0
LINE
  5
4929
  8
01
 10
292.70901717637378
 20
-38.011415422649982
 30
0.0
 11
292.62151615840082
 21
-38.448915422649982
 31
0.0
  0
LINE
  5
492A
  8
01
 10
294.0215161584029
 20
-38.448915422649982
 30
0.0
 11
293.32152430218679
 21
-34.948915422649982
 31
0.0
  0
LINE
  5
492B
  8
01
 10
293.32152430218679
 20
-34.948915422649982
 30
0.0
 11
293.23402328421389
 21
-35.386415422649968
 31
0.0
  0
LINE
  5
492C
  8
01
 10
294.1090171763758
 20
-38.011415422649982
 30
0.0
 11
294.0215161584029
 21
-38.448915422649982
 31
0.0
  0
LINE
  5
492D
  8
01
 10
295.42151615840493
 20
-38.448915422649982
 30
0.0
 11
294.72152430218893
 21
-34.948915422649982
 31
0.0
  0
LINE
  5
492E
  8
01
 10
294.72152430218893
 20
-34.948915422649982
 30
0.0
 11
294.63402328421591
 21
-35.386415422649968
 31
0.0
  0
LINE
  5
492F
  8
01
 10
295.50901717637782
 20
-38.011415422649982
 30
0.0
 11
295.42151615840493
 21
-38.448915422649982
 31
0.0
  0
LINE
  5
4930
  8
01
 10
296.82151615840689
 20
-38.448915422649982
 30
0.0
 11
296.12152430219089
 21
-34.948915422649982
 31
0.0
  0
LINE
  5
4931
  8
01
 10
296.12152430219089
 20
-34.948915422649982
 30
0.0
 11
296.03402328421788
 21
-35.386415422649968
 31
0.0
  0
LINE
  5
4932
  8
01
 10
296.9090171763799
 20
-38.011415422649982
 30
0.0
 11
296.82151615840689
 21
-38.448915422649982
 31
0.0
  0
LINE
  5
4933
  8
01
 10
298.22151615840892
 20
-38.448915422649982
 30
0.0
 11
297.52152430219292
 21
-34.948915422649982
 31
0.0
  0
LINE
  5
4934
  8
01
 10
297.52152430219292
 20
-34.948915422649982
 30
0.0
 11
297.43402328422002
 21
-35.386415422649968
 31
0.0
  0
LINE
  5
4935
  8
01
 10
298.30901717638187
 20
-38.011415422649982
 30
0.0
 11
298.22151615840892
 21
-38.448915422649982
 31
0.0
  0
LINE
  5
493A
  8
01
  6
BYBLOCK
 10
206.67267923790129
 20
-94.908770980293326
 30
0.0
 11
206.67267923790129
 21
-55.408770980293333
 31
0.0
  0
LINE
  5
493B
  8
01
  6
BYBLOCK
 10
197.67267923790129
 20
-94.908770980293326
 30
0.0
 11
197.67267923790129
 21
-55.408770980293333
 31
0.0
  0
LINE
  5
493C
  8
01
  6
BYBLOCK
 10
197.67267923790129
 20
-94.908770980293326
 30
0.0
 11
206.67267923790129
 21
-94.908770980293326
 31
0.0
  0
LINE
  5
493D
  8
01
  6
BYBLOCK
 10
198.17267923790129
 20
-90.908770980293326
 30
0.0
 11
195.67267923790129
 21
-90.908770980293326
 31
0.0
  0
LINE
  5
493E
  8
01
  6
BYBLOCK
 10
206.17267923790129
 20
-90.908770980293326
 30
0.0
 11
208.67267923790129
 21
-90.908770980293326
 31
0.0
  0
LINE
  5
493F
  8
01
  6
BYBLOCK
 10
197.67267923790129
 20
-94.908770980293326
 30
0.0
 11
196.67267923790129
 21
-94.908770980293326
 31
0.0
  0
LINE
  5
4940
  8
01
  6
BYBLOCK
 10
196.67267923790129
 20
-93.908770980293326
 30
0.0
 11
197.67267923790129
 21
-93.908770980293326
 31
0.0
  0
LINE
  5
4941
  8
01
  6
BYBLOCK
 10
196.67267923790129
 20
-92.908770980293326
 30
0.0
 11
197.67267923790129
 21
-92.908770980293326
 31
0.0
  0
LINE
  5
4942
  8
01
  6
BYBLOCK
 10
196.67267923790129
 20
-91.908770980293326
 30
0.0
 11
197.67267923790129
 21
-91.908770980293326
 31
0.0
  0
LINE
  5
4943
  8
01
  6
BYBLOCK
 10
206.67267923790129
 20
-94.908770980293326
 30
0.0
 11
207.67267923790129
 21
-94.908770980293326
 31
0.0
  0
LINE
  5
4944
  8
01
  6
BYBLOCK
 10
206.67267923790129
 20
-93.908770980293326
 30
0.0
 11
207.67267923790129
 21
-93.908770980293326
 31
0.0
  0
LINE
  5
4945
  8
01
  6
BYBLOCK
 10
206.67267923790129
 20
-92.908770980293326
 30
0.0
 11
207.67267923790129
 21
-92.908770980293326
 31
0.0
  0
LINE
  5
4946
  8
01
  6
BYBLOCK
 10
206.67267923790129
 20
-91.908770980293326
 30
0.0
 11
207.67267923790129
 21
-91.908770980293326
 31
0.0
  0
LINE
  5
4947
  8
01
  6
BYBLOCK
 10
206.67267923790129
 20
-89.908770980293326
 30
0.0
 11
207.67267923790129
 21
-89.908770980293326
 31
0.0
  0
LINE
  5
4948
  8
01
  6
BYBLOCK
 10
206.67267923790129
 20
-88.908770980293326
 30
0.0
 11
207.67267923790129
 21
-88.908770980293326
 31
0.0
  0
LINE
  5
4949
  8
01
  6
BYBLOCK
 10
206.67267923790129
 20
-87.908770980293326
 30
0.0
 11
207.67267923790129
 21
-87.908770980293326
 31
0.0
  0
LINE
  5
494A
  8
01
  6
BYBLOCK
 10
206.67267923790129
 20
-86.908770980293326
 30
0.0
 11
207.67267923790129
 21
-86.908770980293326
 31
0.0
  0
LINE
  5
494B
  8
01
  6
BYBLOCK
 10
196.67267923790129
 20
-89.908770980293326
 30
0.0
 11
197.67267923790129
 21
-89.908770980293326
 31
0.0
  0
LINE
  5
494C
  8
01
  6
BYBLOCK
 10
196.67267923790129
 20
-88.908770980293326
 30
0.0
 11
197.67267923790129
 21
-88.908770980293326
 31
0.0
  0
LINE
  5
494D
  8
01
  6
BYBLOCK
 10
196.67267923790129
 20
-87.908770980293326
 30
0.0
 11
197.67267923790129
 21
-87.908770980293326
 31
0.0
  0
LINE
  5
494E
  8
01
  6
BYBLOCK
 10
196.67267923790129
 20
-86.908770980293326
 30
0.0
 11
197.67267923790129
 21
-86.908770980293326
 31
0.0
  0
TEXT
  5
494F
  8
01
  6
BYBLOCK
 10
195.96713778769731
 20
-50.44213237933721
 30
0.0
 40
4.0
  1
KAWAJUN
 41
0.45
  0
LINE
  5
4950
  8
01
  6
BYBLOCK
 10
197.67267923790129
 20
-90.908770980293326
 30
0.0
 11
206.67267923790129
 21
-90.908770980293326
 31
0.0
  0
LINE
  5
4951
  8
01
  6
BYBLOCK
 10
194.17267923790129
 20
-143.9087709802933
 30
0.0
 11
210.17267923790129
 21
-143.9087709802933
 31
0.0
  0
LINE
  5
4952
  8
1CENTER
 10
194.17267923790109
 20
-132.4087709802933
 30
0.0
 11
210.17267923790109
 21
-132.4087709802933
 31
0.0
  0
LINE
  5
4953
  8
01
  6
BYBLOCK
 10
194.17267923790129
 20
-20.908770980293209
 30
0.0
 11
210.17267923790129
 21
-20.908770980293209
 31
0.0
  0
LINE
  5
4954
  8
1CENTER
 10
194.17267923790129
 20
-32.408770980293212
 30
0.0
 11
210.17267923790129
 21
-32.408770980293212
 31
0.0
  0
LINE
  5
4955
  8
01
  6
BYBLOCK
 10
197.67267923790129
 20
-59.408770980293319
 30
0.0
 11
206.67267923790129
 21
-59.408770980293319
 31
0.0
  0
LINE
  5
4956
  8
01
  6
BYBLOCK
 10
197.67267923790129
 20
-55.408770980293333
 30
0.0
 11
206.67267923790129
 21
-55.408770980293333
 31
0.0
  0
LINE
  5
4957
  8
1CENTER
 10
202.17267923790129
 20
-12.143855845688361
 30
0.0
 11
202.17267923790129
 21
-150.92264914818281
 31
0.0
  0
LINE
  5
4958
  8
01
  6
BYBLOCK
 10
194.17267923790129
 20
-20.908770980293209
 30
0.0
 11
194.17267923790129
 21
-143.9087709802933
 31
0.0
  0
LINE
  5
4959
  8
01
  6
BYBLOCK
 10
210.17267923790129
 20
-20.908770980293209
 30
0.0
 11
210.17267923790129
 21
-143.9087709802933
 31
0.0
  0
LINE
  5
495A
  8
1CENTER
 10
210.17267923790129
 20
-106.4087709802931
 30
0.0
 11
194.17267923790129
 21
-106.4087709802931
 31
0.0
  0
LINE
  5
495B
  8
01
  6
BYBLOCK
 10
198.67267923790129
 20
-110.4087709802931
 30
0.0
 11
198.67267923790129
 21
-102.4087709802931
 31
0.0
  0
ARC
  5
495C
  8
01
  6
BYBLOCK
 10
202.17267923790129
 20
-102.4087709802931
 30
0.0
 40
3.5
 50
0.0
 51
180.0
  0
ARC
  5
495D
  8
01
  6
BYBLOCK
 10
202.17267923790129
 20
-110.4087709802931
 30
0.0
 40
3.5
 50
180.0
 51
0.0
  0
LINE
  5
495E
  8
1CENTER
 10
196.77117923790121
 20
-110.4087709802931
 30
0.0
 11
207.44887923790139
 21
-110.4087709802931
 31
0.0
  0
LINE
  5
495F
  8
1CENTER
 10
196.77117923790121
 20
-102.4087709802931
 30
0.0
 11
207.44887923790139
 21
-102.4087709802931
 31
0.0
  0
LINE
  5
4960
  8
01
  6
BYBLOCK
 10
205.67267923790129
 20
-110.4087709802931
 30
0.0
 11
205.67267923790129
 21
-102.4087709802931
 31
0.0
  0
CIRCLE
  5
4961
  8
01
  6
BYBLOCK
 10
202.17267923790129
 20
-106.4087709802931
 30
0.0
 40
3.5
  0
LINE
  5
4962
  8
01
  6
BYBLOCK
 10
199.98067923790131
 20
-108.0347709802931
 30
0.0
 11
200.54637923790119
 21
-108.60077098029311
 31
0.0
  0
ARC
  5
4963
  8
01
  6
BYBLOCK
 10
199.48567923790119
 20
-106.4087709802931
 30
0.0
 40
1.5
 50
315.0
 51
45.0
  0
LINE
  5
4964
  8
01
  6
BYBLOCK
 10
199.98067923790131
 20
-108.0347709802931
 30
0.0
 11
200.54637923790119
 21
-107.46977098029301
 31
0.0
  0
LINE
  5
4965
  8
01
  6
BYBLOCK
 10
203.7990792379012
 20
-108.60077098029311
 30
0.0
 11
204.3646792379013
 21
-108.0347709802931
 31
0.0
  0
LINE
  5
4966
  8
01
  6
BYBLOCK
 10
200.54637923790119
 20
-108.60077098029311
 30
0.0
 11
201.11197923790129
 21
-108.0347709802931
 31
0.0
  0
ARC
  5
4967
  8
01
  6
BYBLOCK
 10
202.17267923790129
 20
-109.095770980293
 30
0.0
 40
1.5
 50
45.0
 51
135.0
  0
LINE
  5
4968
  8
01
  6
BYBLOCK
 10
203.23337923790129
 20
-108.0347709802931
 30
0.0
 11
203.7990792379012
 21
-108.60077098029311
 31
0.0
  0
ARC
  5
4969
  8
01
  6
BYBLOCK
 10
204.8596792379013
 20
-106.4087709802931
 30
0.0
 40
1.5
 50
135.0
 51
225.0
  0
LINE
  5
496A
  8
01
  6
BYBLOCK
 10
203.7990792379012
 20
-107.46977098029301
 30
0.0
 11
204.3646792379013
 21
-108.0347709802931
 31
0.0
  0
LINE
  5
496B
  8
01
  6
BYBLOCK
 10
203.7990792379012
 20
-104.21677098029311
 30
0.0
 11
204.3646792379013
 21
-104.78277098029309
 31
0.0
  0
LINE
  5
496C
  8
01
  6
BYBLOCK
 10
203.7990792379012
 20
-105.34777098029291
 30
0.0
 11
204.3646792379013
 21
-104.78277098029309
 31
0.0
  0
LINE
  5
496D
  8
01
  6
BYBLOCK
 10
200.54637923790119
 20
-104.21677098029311
 30
0.0
 11
201.11197923790129
 21
-104.78277098029309
 31
0.0
  0
ARC
  5
496E
  8
01
  6
BYBLOCK
 10
202.17267923790129
 20
-103.7217709802931
 30
0.0
 40
1.5
 50
225.0
 51
315.0
  0
LINE
  5
496F
  8
01
  6
BYBLOCK
 10
203.23337923790129
 20
-104.78277098029309
 30
0.0
 11
203.7990792379012
 21
-104.21677098029311
 31
0.0
  0
LINE
  5
4970
  8
01
  6
BYBLOCK
 10
199.98067923790131
 20
-104.78277098029309
 30
0.0
 11
200.54637923790119
 21
-104.21677098029311
 31
0.0
  0
LINE
  5
4971
  8
01
  6
BYBLOCK
 10
199.98067923790131
 20
-104.78277098029309
 30
0.0
 11
200.54637923790119
 21
-105.34777098029291
 31
0.0
  0
ARC
  5
4972
  8
01
  6
BYBLOCK
 10
202.17267923790129
 20
-109.6947709802929
 30
0.0
 40
6.4142900000000003
 50
231.41999999999859
 51
308.58000000000141
  0
LINE
  5
4973
  8
01
  6
BYBLOCK
 10
198.76007923790121
 20
-115.4087709802931
 30
0.0
 11
198.17267923790129
 21
-114.708770980293
 31
0.0
  0
LINE
  5
4974
  8
01
  6
BYBLOCK
 10
198.17267923790129
 20
-114.708770980293
 30
0.0
 11
199.03137923790129
 21
-115.0217709802929
 31
0.0
  0
LINE
  5
4975
  8
01
  6
BYBLOCK
 10
205.5852792379012
 20
-115.4087709802931
 30
0.0
 11
206.17267923790129
 21
-114.708770980293
 31
0.0
  0
LINE
  5
4976
  8
01
  6
BYBLOCK
 10
206.17267923790129
 20
-114.708770980293
 30
0.0
 11
205.31397923790129
 21
-115.0217709802929
 31
0.0
  0
TEXT
  5
4977
  8
01
  6
BYBLOCK
 10
196.53451257123459
 20
-119.32377098029301
 30
0.0
 40
2.5
  1
前後調整
 72
     1
 11
202.2011792379013
 21
-118.07377098029301
 31
0.0
 73
     2
  0
CIRCLE
  5
4978
  8
01
  6
BYBLOCK
 10
202.17267923790129
 20
-132.4087709802933
 30
0.0
 40
2.0
  0
CIRCLE
  5
4979
  8
01
  6
BYBLOCK
 10
202.17267923790129
 20
-132.4087709802933
 30
0.0
 40
3.5
  0
CIRCLE
  5
497A
  8
01
  6
BYBLOCK
 10
202.17267923790129
 20
-32.408770980293212
 30
0.0
 40
2.0
  0
CIRCLE
  5
497B
  8
01
  6
BYBLOCK
 10
202.17267923790129
 20
-32.408770980293212
 30
0.0
 40
3.5
  0
LINE
  5
497C
  8
01
  6
BYBLOCK
 10
120.07542434359959
 20
-47.408770980292722
 30
0.0
 11
109.57542434359949
 21
-47.408770980292722
 31
0.0
  0
LINE
  5
497D
  8
1PHANTOM
 10
119.0467087194766
 20
-43.408770980292729
 30
0.0
 11
109.57542434359949
 21
-43.408770980292729
 31
0.0
  0
LINE
  5
497E
  8
01
  6
BYBLOCK
 10
120.57542434359949
 20
-47.908770980292722
 30
0.0
 11
109.57542434359929
 21
-47.908770980292722
 31
0.0
  0
LINE
  5
4981
  8
01
  6
BYBLOCK
 10
120.57542434359949
 20
-25.908770980293191
 30
0.0
 11
120.57542434359949
 21
-103.908770980293
 31
0.0
  0
LINE
  5
4982
  8
01
  6
BYBLOCK
 10
120.57542434359949
 20
-108.9087709802934
 30
0.0
 11
120.57542434359949
 21
-138.9087709802933
 31
0.0
  0
LINE
  5
4984
  8
01
  6
BYBLOCK
 10
121.57542434359949
 20
-20.90877098029301
 30
0.0
 11
121.57542434359929
 21
-143.9087709802933
 31
0.0
  0
LINE
  5
4985
  8
01
  6
BYBLOCK
 10
122.57542434359949
 20
-20.90877098029307
 30
0.0
 11
122.57542434359949
 21
-143.9087709802933
 31
0.0
  0
LINE
  5
4986
  8
01
  6
BYBLOCK
 10
122.57542434359949
 20
-20.90877098029307
 30
0.0
 11
122.57542434359929
 21
-143.9087709802933
 31
0.0
  0
LINE
  5
4987
  8
01
  6
BYBLOCK
 10
120.0754243435991
 20
-25.908770980293191
 30
0.0
 11
120.07542434359959
 21
-47.408770980292722
 31
0.0
  0
LINE
  5
4988
  8
01
  6
BYBLOCK
 10
120.07542434359949
 20
-114.4087709802933
 30
0.0
 11
120.07542434359959
 21
-138.9087709802933
 31
0.0
  0
LINE
  5
4989
  8
01
  6
BYBLOCK
 10
109.57542434359929
 20
-47.408770980292722
 30
0.0
 11
109.57542434359929
 21
-114.4087709802933
 31
0.0
  0
LINE
  5
498A
  8
01
  6
BYBLOCK
 10
122.57542434359929
 20
-20.90877098029318
 30
0.0
 11
121.57542434359949
 21
-20.90877098029301
 31
0.0
  0
LINE
  5
498B
  8
01
  6
BYBLOCK
 10
121.57542434359949
 20
-25.908770980293191
 30
0.0
 11
120.07542434359929
 21
-25.908770980293191
 31
0.0
  0
LINE
  5
498C
  8
01
  6
BYBLOCK
 10
121.57542434359949
 20
-59.408770980293291
 30
0.0
 11
120.57542434359949
 21
-59.408770980293291
 31
0.0
  0
LINE
  5
498D
  8
01
  6
BYBLOCK
 10
122.57542434359949
 20
-55.408770980293298
 30
0.0
 11
121.57542434359949
 21
-55.408770980293298
 31
0.0
  0
LINE
  5
498E
  8
1CENTER
 10
130.57200747531971
 20
-132.4087709802933
 30
0.0
 11
110.1562854317782
 21
-132.4087709802933
 31
0.0
  0
LINE
  5
498F
  8
01
  6
BYBLOCK
 10
122.5754243435991
 20
-143.9087709802933
 30
0.0
 11
121.57542434359929
 21
-143.9087709802933
 31
0.0
  0
LINE
  5
4990
  8
01
  6
BYBLOCK
 10
121.57542434359929
 20
-138.9087709802933
 30
0.0
 11
120.07542434359949
 21
-138.9087709802933
 31
0.0
  0
LINE
  5
4991
  8
01
  6
BYBLOCK
 10
122.57542434359929
 20
-113.9087709802933
 30
0.0
 11
121.57542434359929
 21
-113.9087709802933
 31
0.0
  0
LINE
  5
4992
  8
01
  6
BYBLOCK
 10
122.57542434359949
 20
-98.908770980293298
 30
0.0
 11
121.57542434359949
 21
-98.908770980293298
 31
0.0
  0
LINE
  5
4993
  8
01
  6
BYBLOCK
 10
121.57542434359949
 20
-109.9087709802933
 30
0.0
 11
120.1754243435995
 21
-108.50877098029331
 31
0.0
  0
LINE
  5
4994
  8
01
  6
BYBLOCK
 10
120.1754243435995
 20
-104.3087709802931
 30
0.0
 11
121.57542434359949
 21
-102.9087709802933
 31
0.0
  0
LINE
  5
4995
  8
01
  6
BYBLOCK
 10
120.1754243435995
 20
-104.3087709802931
 30
0.0
 11
120.1754243435995
 21
-108.50877098029331
 31
0.0
  0
LINE
  5
4996
  8
01
  6
BYBLOCK
 10
119.87542434359951
 20
-107.9087709802933
 30
0.0
 11
119.7754243435993
 21
-107.9087709802933
 31
0.0
  0
LINE
  5
4997
  8
01
  6
BYBLOCK
 10
119.87542434359951
 20
-104.9087709802933
 30
0.0
 11
119.7754243435993
 21
-104.9087709802933
 31
0.0
  0
LINE
  5
4998
  8
01
  6
BYBLOCK
 10
109.57542434359929
 20
-110.4087709802933
 30
0.0
 11
108.7754243435993
 21
-110.4087709802933
 31
0.0
  0
LINE
  5
4999
  8
01
  6
BYBLOCK
 10
108.7754243435993
 20
-110.4087709802933
 30
0.0
 11
108.7754243435993
 21
-102.4087709802933
 31
0.0
  0
LINE
  5
499A
  8
01
  6
BYBLOCK
 10
109.57542434359929
 20
-102.4087709802933
 30
0.0
 11
108.7754243435993
 21
-102.4087709802933
 31
0.0
  0
ARC
  5
499B
  8
01
  6
BYBLOCK
 10
112.2754243435993
 20
-106.4087709802933
 30
0.0
 40
4.2000000000000002
 50
146.44269023808249
 51
213.55730976191751
  0
LINE
  5
499C
  8
1CENTER
 10
125.6144243435993
 20
-106.4087709802933
 30
0.0
 11
102.11342434359941
 21
-106.4087709802933
 31
0.0
  0
LINE
  5
499D
  8
01
  6
BYBLOCK
 10
122.57542434359949
 20
-94.908770980293284
 30
0.0
 11
121.57542434359949
 21
-94.908770980293284
 31
0.0
  0
LINE
  5
499E
  8
01
  6
BYBLOCK
 10
121.57542434359929
 20
-90.908770980293284
 30
0.0
 11
113.9754243435994
 21
-90.908770980293284
 31
0.0
  0
LINE
  5
499F
  8
01
  6
BYBLOCK
 10
118.9754243435994
 20
-113.4087709802933
 30
0.0
 11
118.9754243435994
 21
-110.36877098029321
 31
0.0
  0
ARC
  5
49A0
  8
01
  6
BYBLOCK
 10
118.4754243435994
 20
-110.36877098029321
 30
0.0
 40
0.5
 50
0.0
 51
85.236400000004707
  0
LINE
  5
49A1
  8
01
  6
BYBLOCK
 10
118.5174243435995
 20
-109.8707709802933
 30
0.0
 11
112.9754243435994
 21
-109.4087709802933
 31
0.0
  0
LINE
  5
49A2
  8
01
  6
BYBLOCK
 10
118.9754243435994
 20
-102.4487709802932
 30
0.0
 11
118.9754243435994
 21
-90.908770980293284
 31
0.0
  0
ARC
  5
49A3
  8
01
  6
BYBLOCK
 10
118.4754243435994
 20
-102.4487709802932
 30
0.0
 40
0.5
 50
274.76400000000473
 51
0.0
  0
LINE
  5
49A4
  8
01
  6
BYBLOCK
 10
118.5174243435995
 20
-102.94677098029329
 30
0.0
 11
112.9754243435994
 21
-103.4087709802933
 31
0.0
  0
LINE
  5
49A5
  8
01
  6
BYBLOCK
 10
120.57542434359949
 20
-113.4087709802933
 30
0.0
 11
113.9754243435994
 21
-113.4087709802933
 31
0.0
  0
LINE
  5
49A6
  8
01
  6
BYBLOCK
 10
120.57542434359949
 20
-113.9087709802933
 30
0.0
 11
109.57542434359929
 21
-113.9087709802933
 31
0.0
  0
LINE
  5
49A7
  8
01
  6
BYBLOCK
 10
120.07542434359949
 20
-114.4087709802933
 30
0.0
 11
109.57542434359929
 21
-114.4087709802933
 31
0.0
  0
LINE
  5
49A8
  8
1PHANTOM
 10
118.8587196607109
 20
-118.4087709802933
 30
0.0
 11
109.57542434359929
 21
-118.4087709802933
 31
0.0
  0
ARC
  5
49A9
  8
01
  6
BYBLOCK
 10
113.9754243435994
 20
-112.4087709802933
 30
0.0
 40
1.0
 50
180.0
 51
270.0
  0
ARC
  5
49AA
  8
01
  6
BYBLOCK
 10
113.9754243435994
 20
-91.908770980293298
 30
0.0
 40
1.0
 50
90.0
 51
179.99999999997391
  0
LINE
  5
49AB
  8
01
  6
BYBLOCK
 10
120.1754243435995
 20
-104.3087709802931
 30
0.0
 11
110.9195400973739
 21
-104.3087709802931
 31
0.0
  0
LINE
  5
49AC
  8
01
  6
BYBLOCK
 10
120.1754243435995
 20
-104.9087709802933
 30
0.0
 11
110.9069945580959
 21
-104.9087709802933
 31
0.0
  0
LINE
  5
49AD
  8
01
  6
BYBLOCK
 10
120.1754243435995
 20
-107.9087709802933
 30
0.0
 11
110.9528822730627
 21
-107.9087709802933
 31
0.0
  0
LINE
  5
49AE
  8
01
  6
BYBLOCK
 10
120.1754243435995
 20
-108.50877098029331
 30
0.0
 11
110.9897051670104
 21
-108.50877098029331
 31
0.0
  0
LINE
  5
49AF
  8
01
  6
BYBLOCK
 10
112.9754243435994
 20
-112.4087709802933
 30
0.0
 11
112.9754243435994
 21
-107.9087709802933
 31
0.0
  0
LINE
  5
49B0
  8
01
  6
BYBLOCK
 10
112.9754243435994
 20
-104.9087709802933
 30
0.0
 11
112.9754243435994
 21
-91.908770980293298
 31
0.0
  0
LINE
  5
49B1
  8
1CENTER
 10
130.57200747531971
 20
-32.408770980293191
 30
0.0
 11
110.1562854317782
 21
-32.408770980293191
 31
0.0
  0
LINE
  5
49B2
  8
01
  6
BYBLOCK
 10
109.57542434359929
 20
-170.94375595304979
 30
0.0
 11
109.57542434359929
 21
-183.94375595304979
 31
0.0
  0
LINE
  5
49B3
  8
01
  6
BYBLOCK
 10
109.57542434359929
 20
-173.44375595304979
 30
0.0
 11
108.7754243435993
 21
-173.44375595304979
 31
0.0
  0
LINE
  5
49B4
  8
01
  6
BYBLOCK
 10
108.7754243435993
 20
-173.44375595304979
 30
0.0
 11
108.7754243435993
 21
-181.44375595304979
 31
0.0
  0
ARC
  5
49B5
  8
01
  6
BYBLOCK
 10
112.1754243435994
 20
-177.44375595304979
 30
0.0
 40
4.2000000000000002
 50
144.04899999999719
 51
215.95100000000281
  0
LINE
  5
49B6
  8
01
  6
BYBLOCK
 10
109.57542434359929
 20
-181.44375595304979
 30
0.0
 11
108.7754243435993
 21
-181.44375595304979
 31
0.0
  0
LINE
  5
49B7
  8
01
  6
BYBLOCK
 10
109.57542434359929
 20
-183.44375595304979
 30
0.0
 11
120.07542434359929
 21
-183.44375595304979
 31
0.0
  0
LINE
  5
49B8
  8
01
  6
BYBLOCK
 10
109.57542434359929
 20
-171.44375595304979
 30
0.0
 11
120.07542434359929
 21
-171.44375595304979
 31
0.0
  0
LINE
  5
49B9
  8
01
  6
BYBLOCK
 10
120.07542434359929
 20
-183.94375595304979
 30
0.0
 11
120.07542434359929
 21
-170.94375595304979
 31
0.0
  0
LINE
  5
49BA
  8
01
  6
BYBLOCK
 10
109.57542434359929
 20
-183.94375595304979
 30
0.0
 11
121.57542434359929
 21
-183.94375595304979
 31
0.0
  0
LINE
  5
49BB
  8
01
  6
BYBLOCK
 10
109.57542434359929
 20
-170.94375595304979
 30
0.0
 11
121.57542434359929
 21
-170.94375595304979
 31
0.0
  0
LINE
  5
49BC
  8
01
  6
BYBLOCK
 10
120.07542434359929
 20
-183.94375595304979
 30
0.0
 11
120.07542434359929
 21
-170.94375595304979
 31
0.0
  0
LINE
  5
49BD
  8
01
  6
BYBLOCK
 10
121.57542434359929
 20
-185.44375595304979
 30
0.0
 11
122.57542434359929
 21
-185.44375595304979
 31
0.0
  0
LINE
  5
49BE
  8
01
  6
BYBLOCK
 10
121.57542434359929
 20
-169.44375595304979
 30
0.0
 11
122.57542434359929
 21
-169.44375595304979
 31
0.0
  0
LINE
  5
49BF
  8
1CENTER
 10
104.19446402444579
 20
-177.44375595304979
 30
0.0
 11
124.7167906482528
 21
-177.44375595304979
 31
0.0
  0
LINE
  5
49C0
  8
01
  6
BYBLOCK
 10
120.57542434359929
 20
-173.4437559530499
 30
0.0
 11
121.57542434359929
 21
-173.44375595304979
 31
0.0
  0
LINE
  5
49C1
  8
01
  6
BYBLOCK
 10
120.57542434359929
 20
-181.44375595304979
 30
0.0
 11
121.57542434359929
 21
-181.44375595304979
 31
0.0
  0
LINE
  5
49C2
  8
01
  6
BYBLOCK
 10
122.57542434359929
 20
-185.44375595304979
 30
0.0
 11
122.57542434359929
 21
-169.44375595304979
 31
0.0
  0
LINE
  5
49C3
  8
01
  6
BYBLOCK
 10
109.57542434359929
 20
-183.94375595304979
 30
0.0
 11
109.57542434359929
 21
-170.94375595304979
 31
0.0
  0
LINE
  5
49C4
  8
01
  6
BYBLOCK
 10
121.57542434359929
 20
-185.44375595304979
 30
0.0
 11
121.57542434359929
 21
-169.44375595304979
 31
0.0
  0
LINE
  5
49C5
  8
01
  6
BYBLOCK
 10
120.57542434359929
 20
-183.94375595304979
 30
0.0
 11
120.57542434359929
 21
-180.54375595304981
 31
0.0
  0
LINE
  5
49C6
  8
01
  6
BYBLOCK
 10
120.57542434359929
 20
-174.34375595304991
 30
0.0
 11
120.57542434359929
 21
-170.94375595304979
 31
0.0
  0
LINE
  5
49C7
  8
01
  6
BYBLOCK
 10
120.57542434359929
 20
-174.19375595304979
 30
0.0
 11
120.07542434359929
 21
-174.19375595304979
 31
0.0
  0
LINE
  5
49C8
  8
01
  6
BYBLOCK
 10
120.57542434359929
 20
-180.69375595304979
 30
0.0
 11
120.07542434359929
 21
-180.69375595304979
 31
0.0
  0
LINE
  5
49C9
  8
01
  6
BYBLOCK
 10
121.57542434359929
 20
-181.3577559530498
 30
0.0
 11
120.7614243435993
 21
-180.54375595304981
 31
0.0
  0
LINE
  5
49CA
  8
01
  6
BYBLOCK
 10
121.57542434359929
 20
-173.5297559530498
 30
0.0
 11
120.7614243435993
 21
-174.34375595304991
 31
0.0
  0
LINE
  5
49CB
  8
01
  6
BYBLOCK
 10
120.7614243435993
 20
-174.34375595304991
 30
0.0
 11
120.0754243435991
 21
-174.34375595304991
 31
0.0
  0
LINE
  5
49CC
  8
01
  6
BYBLOCK
 10
120.7614243435993
 20
-180.54375595304981
 30
0.0
 11
120.07542434359929
 21
-180.54375595304981
 31
0.0
  0
LINE
  5
49CD
  8
01
  6
BYBLOCK
 10
120.7614243435993
 20
-180.54375595304981
 30
0.0
 11
120.7614243435993
 21
-174.34375595304991
 31
0.0
  0
LINE
  5
49D8
  8
1PHANTOM
 10
109.57542434359929
 20
-118.4087709802933
 30
0.0
 11
109.57542434359929
 21
-116.58914203376099
 31
0.0
  0
LINE
  5
49D9
  8
1PHANTOM
 10
109.57542434359949
 20
-43.408770980292729
 30
0.0
 11
109.57542434359949
 21
-45.749803642763247
 31
0.0
  0
POLYLINE
  8
1PHANTOM
  5
4ED3
  66
     1
 10
0.000000
 20
0.000000
 30
0.000000
  70
     8
  0
VERTEX
  8
1PHANTOM
  5
4ED4
 10
122.575
 20
-82.9733
 30
0.000000
  70
    32
  0
VERTEX
  8
1PHANTOM
  5
4ED5
 10
122.423
 20
-82.9926
 30
0.000000
  70
    32
  0
VERTEX
  8
1PHANTOM
  5
4ED6
 10
122.270
 20
-83.0124
 30
0.000000
  70
    32
  0
VERTEX
  8
1PHANTOM
  5
4ED7
 10
122.118
 20
-83.0326
 30
0.000000
  70
    32
  0
VERTEX
  8
1PHANTOM
  5
4ED8
 10
121.966
 20
-83.0534
 30
0.000000
  70
    32
  0
VERTEX
  8
1PHANTOM
  5
4ED9
 10
121.814
 20
-83.0748
 30
0.000000
  70
    32
  0
VERTEX
  8
1PHANTOM
  5
4EDA
 10
121.663
 20
-83.0968
 30
0.000000
  70
    32
  0
VERTEX
  8
1PHANTOM
  5
4EDB
 10
121.512
 20
-83.1195
 30
0.000000
  70
    32
  0
VERTEX
  8
1PHANTOM
  5
4EDC
 10
121.361
 20
-83.1429
 30
0.000000
  70
    32
  0
VERTEX
  8
1PHANTOM
  5
4EDD
 10
121.211
 20
-83.1670
 30
0.000000
  70
    32
  0
VERTEX
  8
1PHANTOM
  5
4EDE
 10
121.062
 20
-83.1920
 30
0.000000
  70
    32
  0
VERTEX
  8
1PHANTOM
  5
4EDF
 10
120.912
 20
-83.2177
 30
0.000000
  70
    32
  0
VERTEX
  8
1PHANTOM
  5
4EE0
 10
120.764
 20
-83.2443
 30
0.000000
  70
    32
  0
VERTEX
  8
1PHANTOM
  5
4EE1
 10
120.616
 20
-83.2719
 30
0.000000
  70
    32
  0
VERTEX
  8
1PHANTOM
  5
4EE2
 10
120.468
 20
-83.3003
 30
0.000000
  70
    32
  0
VERTEX
  8
1PHANTOM
  5
4EE3
 10
120.321
 20
-83.3298
 30
0.000000
  70
    32
  0
VERTEX
  8
1PHANTOM
  5
4EE4
 10
120.175
 20
-83.3603
 30
0.000000
  70
    32
  0
VERTEX
  8
1PHANTOM
  5
4EE5
 10
120.029
 20
-83.3919
 30
0.000000
  70
    32
  0
VERTEX
  8
1PHANTOM
  5
4EE6
 10
119.884
 20
-83.4245
 30
0.000000
  70
    32
  0
VERTEX
  8
1PHANTOM
  5
4EE7
 10
119.740
 20
-83.4583
 30
0.000000
  70
    32
  0
VERTEX
  8
1PHANTOM
  5
4EE8
 10
119.596
 20
-83.4933
 30
0.000000
  70
    32
  0
VERTEX
  8
1PHANTOM
  5
4EE9
 10
119.453
 20
-83.5296
 30
0.000000
  70
    32
  0
VERTEX
  8
1PHANTOM
  5
4EEA
 10
119.311
 20
-83.5671
 30
0.000000
  70
    32
  0
VERTEX
  8
1PHANTOM
  5
4EEB
 10
119.169
 20
-83.6059
 30
0.000000
  70
    32
  0
VERTEX
  8
1PHANTOM
  5
4EEC
 10
119.028
 20
-83.6460
 30
0.000000
  70
    32
  0
VERTEX
  8
1PHANTOM
  5
4EED
 10
118.888
 20
-83.6876
 30
0.000000
  70
    32
  0
VERTEX
  8
1PHANTOM
  5
4EEE
 10
118.749
 20
-83.7305
 30
0.000000
  70
    32
  0
VERTEX
  8
1PHANTOM
  5
4EEF
 10
118.611
 20
-83.7749
 30
0.000000
  70
    32
  0
VERTEX
  8
1PHANTOM
  5
4EF0
 10
118.474
 20
-83.8209
 30
0.000000
  70
    32
  0
VERTEX
  8
1PHANTOM
  5
4EF1
 10
118.337
 20
-83.8683
 30
0.000000
  70
    32
  0
VERTEX
  8
1PHANTOM
  5
4EF2
 10
118.202
 20
-83.9174
 30
0.000000
  70
    32
  0
VERTEX
  8
1PHANTOM
  5
4EF3
 10
118.067
 20
-83.9681
 30
0.000000
  70
    32
  0
VERTEX
  8
1PHANTOM
  5
4EF4
 10
117.933
 20
-84.0205
 30
0.000000
  70
    32
  0
VERTEX
  8
1PHANTOM
  5
4EF5
 10
117.801
 20
-84.0745
 30
0.000000
  70
    32
  0
VERTEX
  8
1PHANTOM
  5
4EF6
 10
117.669
 20
-84.1303
 30
0.000000
  70
    32
  0
VERTEX
  8
1PHANTOM
  5
4EF7
 10
117.538
 20
-84.1879
 30
0.000000
  70
    32
  0
VERTEX
  8
1PHANTOM
  5
4EF8
 10
117.409
 20
-84.2473
 30
0.000000
  70
    32
  0
VERTEX
  8
1PHANTOM
  5
4EF9
 10
117.280
 20
-84.3086
 30
0.000000
  70
    32
  0
VERTEX
  8
1PHANTOM
  5
4EFA
 10
117.153
 20
-84.3718
 30
0.000000
  70
    32
  0
VERTEX
  8
1PHANTOM
  5
4EFB
 10
117.027
 20
-84.4369
 30
0.000000
  70
    32
  0
VERTEX
  8
1PHANTOM
  5
4EFC
 10
116.902
 20
-84.5040
 30
0.000000
  70
    32
  0
VERTEX
  8
1PHANTOM
  5
4EFD
 10
116.778
 20
-84.5732
 30
0.000000
  70
    32
  0
VERTEX
  8
1PHANTOM
  5
4EFE
 10
116.655
 20
-84.6444
 30
0.000000
  70
    32
  0
VERTEX
  8
1PHANTOM
  5
4EFF
 10
116.534
 20
-84.7177
 30
0.000000
  70
    32
  0
VERTEX
  8
1PHANTOM
  5
4F00
 10
116.413
 20
-84.7932
 30
0.000000
  70
    32
  0
VERTEX
  8
1PHANTOM
  5
4F01
 10
116.295
 20
-84.8708
 30
0.000000
  70
    32
  0
VERTEX
  8
1PHANTOM
  5
4F02
 10
116.177
 20
-84.9507
 30
0.000000
  70
    32
  0
VERTEX
  8
1PHANTOM
  5
4F03
 10
116.061
 20
-85.0328
 30
0.000000
  70
    32
  0
VERTEX
  8
1PHANTOM
  5
4F04
 10
115.945
 20
-85.1171
 30
0.000000
  70
    32
  0
VERTEX
  8
1PHANTOM
  5
4F05
 10
115.832
 20
-85.2036
 30
0.000000
  70
    32
  0
VERTEX
  8
1PHANTOM
  5
4F06
 10
115.719
 20
-85.2922
 30
0.000000
  70
    32
  0
VERTEX
  8
1PHANTOM
  5
4F07
 10
115.608
 20
-85.3830
 30
0.000000
  70
    32
  0
VERTEX
  8
1PHANTOM
  5
4F08
 10
115.499
 20
-85.4758
 30
0.000000
  70
    32
  0
VERTEX
  8
1PHANTOM
  5
4F09
 10
115.390
 20
-85.5706
 30
0.000000
  70
    32
  0
VERTEX
  8
1PHANTOM
  5
4F0A
 10
115.283
 20
-85.6674
 30
0.000000
  70
    32
  0
VERTEX
  8
1PHANTOM
  5
4F0B
 10
115.177
 20
-85.7662
 30
0.000000
  70
    32
  0
VERTEX
  8
1PHANTOM
  5
4F0C
 10
115.073
 20
-85.8669
 30
0.000000
  70
    32
  0
VERTEX
  8
1PHANTOM
  5
4F0D
 10
114.970
 20
-85.9695
 30
0.000000
  70
    32
  0
VERTEX
  8
1PHANTOM
  5
4F0E
 10
114.868
 20
-86.0739
 30
0.000000
  70
    32
  0
VERTEX
  8
1PHANTOM
  5
4F0F
 10
114.768
 20
-86.1801
 30
0.000000
  70
    32
  0
VERTEX
  8
1PHANTOM
  5
4F10
 10
114.669
 20
-86.2881
 30
0.000000
  70
    32
  0
VERTEX
  8
1PHANTOM
  5
4F11
 10
114.571
 20
-86.3978
 30
0.000000
  70
    32
  0
VERTEX
  8
1PHANTOM
  5
4F12
 10
114.475
 20
-86.5092
 30
0.000000
  70
    32
  0
VERTEX
  8
1PHANTOM
  5
4F13
 10
114.380
 20
-86.6223
 30
0.000000
  70
    32
  0
VERTEX
  8
1PHANTOM
  5
4F14
 10
114.286
 20
-86.7370
 30
0.000000
  70
    32
  0
VERTEX
  8
1PHANTOM
  5
4F15
 10
114.194
 20
-86.8532
 30
0.000000
  70
    32
  0
VERTEX
  8
1PHANTOM
  5
4F16
 10
114.103
 20
-86.9710
 30
0.000000
  70
    32
  0
VERTEX
  8
1PHANTOM
  5
4F17
 10
114.014
 20
-87.0904
 30
0.000000
  70
    32
  0
VERTEX
  8
1PHANTOM
  5
4F18
 10
113.926
 20
-87.2111
 30
0.000000
  70
    32
  0
VERTEX
  8
1PHANTOM
  5
4F19
 10
113.839
 20
-87.3334
 30
0.000000
  70
    32
  0
VERTEX
  8
1PHANTOM
  5
4F1A
 10
113.754
 20
-87.4570
 30
0.000000
  70
    32
  0
VERTEX
  8
1PHANTOM
  5
4F1B
 10
113.670
 20
-87.5819
 30
0.000000
  70
    32
  0
VERTEX
  8
1PHANTOM
  5
4F1C
 10
113.587
 20
-87.7082
 30
0.000000
  70
    32
  0
VERTEX
  8
1PHANTOM
  5
4F1D
 10
113.506
 20
-87.8358
 30
0.000000
  70
    32
  0
VERTEX
  8
1PHANTOM
  5
4F1E
 10
113.426
 20
-87.9646
 30
0.000000
  70
    32
  0
VERTEX
  8
1PHANTOM
  5
4F1F
 10
113.348
 20
-88.0946
 30
0.000000
  70
    32
  0
VERTEX
  8
1PHANTOM
  5
4F20
 10
113.271
 20
-88.2258
 30
0.000000
  70
    32
  0
VERTEX
  8
1PHANTOM
  5
4F21
 10
113.195
 20
-88.3581
 30
0.000000
  70
    32
  0
VERTEX
  8
1PHANTOM
  5
4F22
 10
113.121
 20
-88.4915
 30
0.000000
  70
    32
  0
VERTEX
  8
1PHANTOM
  5
4F23
 10
113.048
 20
-88.6260
 30
0.000000
  70
    32
  0
VERTEX
  8
1PHANTOM
  5
4F24
 10
112.977
 20
-88.7615
 30
0.000000
  70
    32
  0
VERTEX
  8
1PHANTOM
  5
4F25
 10
112.907
 20
-88.8980
 30
0.000000
  70
    32
  0
VERTEX
  8
1PHANTOM
  5
4F26
 10
112.838
 20
-89.0354
 30
0.000000
  70
    32
  0
VERTEX
  8
1PHANTOM
  5
4F27
 10
112.771
 20
-89.1738
 30
0.000000
  70
    32
  0
VERTEX
  8
1PHANTOM
  5
4F28
 10
112.706
 20
-89.3130
 30
0.000000
  70
    32
  0
VERTEX
  8
1PHANTOM
  5
4F29
 10
112.641
 20
-89.4530
 30
0.000000
  70
    32
  0
VERTEX
  8
1PHANTOM
  5
4F2A
 10
112.578
 20
-89.5939
 30
0.000000
  70
    32
  0
VERTEX
  8
1PHANTOM
  5
4F2B
 10
112.517
 20
-89.7355
 30
0.000000
  70
    32
  0
VERTEX
  8
1PHANTOM
  5
4F2C
 10
112.457
 20
-89.8778
 30
0.000000
  70
    32
  0
VERTEX
  8
1PHANTOM
  5
4F2D
 10
112.399
 20
-90.0208
 30
0.000000
  70
    32
  0
VERTEX
  8
1PHANTOM
  5
4F2E
 10
112.341
 20
-90.1645
 30
0.000000
  70
    32
  0
VERTEX
  8
1PHANTOM
  5
4F2F
 10
112.286
 20
-90.3088
 30
0.000000
  70
    32
  0
VERTEX
  8
1PHANTOM
  5
4F30
 10
112.232
 20
-90.4536
 30
0.000000
  70
    32
  0
VERTEX
  8
1PHANTOM
  5
4F31
 10
112.179
 20
-90.5990
 30
0.000000
  70
    32
  0
VERTEX
  8
1PHANTOM
  5
4F32
 10
112.127
 20
-90.7449
 30
0.000000
  70
    32
  0
VERTEX
  8
1PHANTOM
  5
4F33
 10
112.078
 20
-90.8912
 30
0.000000
  70
    32
  0
VERTEX
  8
1PHANTOM
  5
4F34
 10
112.029
 20
-91.0380
 30
0.000000
  70
    32
  0
VERTEX
  8
1PHANTOM
  5
4F35
 10
111.982
 20
-91.1851
 30
0.000000
  70
    32
  0
VERTEX
  8
1PHANTOM
  5
4F36
 10
111.937
 20
-91.3327
 30
0.000000
  70
    32
  0
VERTEX
  8
1PHANTOM
  5
4F37
 10
111.893
 20
-91.4805
 30
0.000000
  70
    32
  0
VERTEX
  8
1PHANTOM
  5
4F38
 10
111.850
 20
-91.6286
 30
0.000000
  70
    32
  0
VERTEX
  8
1PHANTOM
  5
4F39
 10
111.809
 20
-91.7769
 30
0.000000
  70
    32
  0
VERTEX
  8
1PHANTOM
  5
4F3A
 10
111.769
 20
-91.9254
 30
0.000000
  70
    32
  0
VERTEX
  8
1PHANTOM
  5
4F3B
 10
111.731
 20
-92.0741
 30
0.000000
  70
    32
  0
VERTEX
  8
1PHANTOM
  5
4F3C
 10
111.695
 20
-92.2230
 30
0.000000
  70
    32
  0
VERTEX
  8
1PHANTOM
  5
4F3D
 10
111.659
 20
-92.3719
 30
0.000000
  70
    32
  0
VERTEX
  8
1PHANTOM
  5
4F3E
 10
111.626
 20
-92.5209
 30
0.000000
  70
    32
  0
VERTEX
  8
1PHANTOM
  5
4F3F
 10
111.594
 20
-92.6698
 30
0.000000
  70
    32
  0
VERTEX
  8
1PHANTOM
  5
4F40
 10
111.563
 20
-92.8188
 30
0.000000
  70
    32
  0
VERTEX
  8
1PHANTOM
  5
4F41
 10
111.534
 20
-92.9677
 30
0.000000
  70
    32
  0
VERTEX
  8
1PHANTOM
  5
4F42
 10
111.506
 20
-93.1165
 30
0.000000
  70
    32
  0
VERTEX
  8
1PHANTOM
  5
4F43
 10
111.480
 20
-93.2652
 30
0.000000
  70
    32
  0
VERTEX
  8
1PHANTOM
  5
4F44
 10
111.455
 20
-93.4138
 30
0.000000
  70
    32
  0
VERTEX
  8
1PHANTOM
  5
4F45
 10
111.432
 20
-93.5622
 30
0.000000
  70
    32
  0
VERTEX
  8
1PHANTOM
  5
4F46
 10
111.409
 20
-93.7106
 30
0.000000
  70
    32
  0
VERTEX
  8
1PHANTOM
  5
4F47
 10
111.389
 20
-93.8588
 30
0.000000
  70
    32
  0
VERTEX
  8
1PHANTOM
  5
4F48
 10
111.369
 20
-94.0070
 30
0.000000
  70
    32
  0
VERTEX
  8
1PHANTOM
  5
4F49
 10
111.351
 20
-94.1550
 30
0.000000
  70
    32
  0
VERTEX
  8
1PHANTOM
  5
4F4A
 10
111.334
 20
-94.3029
 30
0.000000
  70
    32
  0
VERTEX
  8
1PHANTOM
  5
4F4B
 10
111.317
 20
-94.4507
 30
0.000000
  70
    32
  0
VERTEX
  8
1PHANTOM
  5
4F4C
 10
111.303
 20
-94.5984
 30
0.000000
  70
    32
  0
VERTEX
  8
1PHANTOM
  5
4F4D
 10
111.289
 20
-94.7459
 30
0.000000
  70
    32
  0
VERTEX
  8
1PHANTOM
  5
4F4E
 10
111.276
 20
-94.8934
 30
0.000000
  70
    32
  0
VERTEX
  8
1PHANTOM
  5
4F4F
 10
111.263
 20
-95.0408
 30
0.000000
  70
    32
  0
VERTEX
  8
1PHANTOM
  5
4F50
 10
111.252
 20
-95.1880
 30
0.000000
  70
    32
  0
VERTEX
  8
1PHANTOM
  5
4F51
 10
111.242
 20
-95.3352
 30
0.000000
  70
    32
  0
VERTEX
  8
1PHANTOM
  5
4F52
 10
111.232
 20
-95.4822
 30
0.000000
  70
    32
  0
VERTEX
  8
1PHANTOM
  5
4F53
 10
111.224
 20
-95.6291
 30
0.000000
  70
    32
  0
VERTEX
  8
1PHANTOM
  5
4F54
 10
111.216
 20
-95.7759
 30
0.000000
  70
    32
  0
VERTEX
  8
1PHANTOM
  5
4F55
 10
111.208
 20
-95.9226
 30
0.000000
  70
    32
  0
VERTEX
  8
1PHANTOM
  5
4F56
 10
111.201
 20
-96.0692
 30
0.000000
  70
    32
  0
VERTEX
  8
1PHANTOM
  5
4F57
 10
111.195
 20
-96.2157
 30
0.000000
  70
    32
  0
VERTEX
  8
1PHANTOM
  5
4F58
 10
111.189
 20
-96.3621
 30
0.000000
  70
    32
  0
VERTEX
  8
1PHANTOM
  5
4F59
 10
111.184
 20
-96.5084
 30
0.000000
  70
    32
  0
VERTEX
  8
1PHANTOM
  5
4F5A
 10
111.180
 20
-96.6546
 30
0.000000
  70
    32
  0
VERTEX
  8
1PHANTOM
  5
4F5B
 10
111.175
 20
-96.8007
 30
0.000000
  70
    32
  0
VERTEX
  8
1PHANTOM
  5
4F5C
 10
111.171
 20
-96.9466
 30
0.000000
  70
    32
  0
VERTEX
  8
1PHANTOM
  5
4F5D
 10
111.167
 20
-97.0925
 30
0.000000
  70
    32
  0
VERTEX
  8
1PHANTOM
  5
4F5E
 10
111.164
 20
-97.2383
 30
0.000000
  70
    32
  0
VERTEX
  8
1PHANTOM
  5
4F5F
 10
111.161
 20
-97.3839
 30
0.000000
  70
    32
  0
VERTEX
  8
1PHANTOM
  5
4F60
 10
111.158
 20
-97.5295
 30
0.000000
  70
    32
  0
VERTEX
  8
1PHANTOM
  5
4F61
 10
111.155
 20
-97.6749
 30
0.000000
  70
    32
  0
VERTEX
  8
1PHANTOM
  5
4F62
 10
111.152
 20
-97.8203
 30
0.000000
  70
    32
  0
VERTEX
  8
1PHANTOM
  5
4F63
 10
111.149
 20
-97.9655
 30
0.000000
  70
    32
  0
VERTEX
  8
1PHANTOM
  5
4F64
 10
111.146
 20
-98.1107
 30
0.000000
  70
    32
  0
VERTEX
  8
1PHANTOM
  5
4F65
 10
111.143
 20
-98.2557
 30
0.000000
  70
    32
  0
VERTEX
  8
1PHANTOM
  5
4F66
 10
111.140
 20
-98.4007
 30
0.000000
  70
    32
  0
VERTEX
  8
1PHANTOM
  5
4F67
 10
111.137
 20
-98.5455
 30
0.000000
  70
    32
  0
VERTEX
  8
1PHANTOM
  5
4F68
 10
111.134
 20
-98.6902
 30
0.000000
  70
    32
  0
VERTEX
  8
1PHANTOM
  5
4F69
 10
111.130
 20
-98.8349
 30
0.000000
  70
    32
  0
VERTEX
  8
1PHANTOM
  5
4F6A
 10
111.126
 20
-98.9794
 30
0.000000
  70
    32
  0
VERTEX
  8
1PHANTOM
  5
4F6B
 10
111.122
 20
-99.1239
 30
0.000000
  70
    32
  0
VERTEX
  8
1PHANTOM
  5
4F6C
 10
111.118
 20
-99.2683
 30
0.000000
  70
    32
  0
VERTEX
  8
1PHANTOM
  5
4F6D
 10
111.113
 20
-99.4125
 30
0.000000
  70
    32
  0
VERTEX
  8
1PHANTOM
  5
4F6E
 10
111.108
 20
-99.5567
 30
0.000000
  70
    32
  0
VERTEX
  8
1PHANTOM
  5
4F6F
 10
111.103
 20
-99.7009
 30
0.000000
  70
    32
  0
VERTEX
  8
1PHANTOM
  5
4F70
 10
111.098
 20
-99.8450
 30
0.000000
  70
    32
  0
VERTEX
  8
1PHANTOM
  5
4F71
 10
111.092
 20
-99.9890
 30
0.000000
  70
    32
  0
VERTEX
  8
1PHANTOM
  5
4F72
 10
111.087
 20
-100.133
 30
0.000000
  70
    32
  0
VERTEX
  8
1PHANTOM
  5
4F73
 10
111.081
 20
-100.277
 30
0.000000
  70
    32
  0
VERTEX
  8
1PHANTOM
  5
4F74
 10
111.075
 20
-100.421
 30
0.000000
  70
    32
  0
VERTEX
  8
1PHANTOM
  5
4F75
 10
111.069
 20
-100.565
 30
0.000000
  70
    32
  0
VERTEX
  8
1PHANTOM
  5
4F76
 10
111.063
 20
-100.709
 30
0.000000
  70
    32
  0
VERTEX
  8
1PHANTOM
  5
4F77
 10
111.056
 20
-100.852
 30
0.000000
  70
    32
  0
VERTEX
  8
1PHANTOM
  5
4F78
 10
111.050
 20
-100.996
 30
0.000000
  70
    32
  0
VERTEX
  8
1PHANTOM
  5
4F79
 10
111.044
 20
-101.140
 30
0.000000
  70
    32
  0
VERTEX
  8
1PHANTOM
  5
4F7A
 10
111.037
 20
-101.284
 30
0.000000
  70
    32
  0
VERTEX
  8
1PHANTOM
  5
4F7B
 10
111.031
 20
-101.428
 30
0.000000
  70
    32
  0
VERTEX
  8
1PHANTOM
  5
4F7C
 10
111.024
 20
-101.571
 30
0.000000
  70
    32
  0
VERTEX
  8
1PHANTOM
  5
4F7D
 10
111.018
 20
-101.715
 30
0.000000
  70
    32
  0
VERTEX
  8
1PHANTOM
  5
4F7E
 10
111.012
 20
-101.859
 30
0.000000
  70
    32
  0
VERTEX
  8
1PHANTOM
  5
4F7F
 10
111.005
 20
-102.003
 30
0.000000
  70
    32
  0
VERTEX
  8
1PHANTOM
  5
4F80
 10
110.999
 20
-102.147
 30
0.000000
  70
    32
  0
VERTEX
  8
1PHANTOM
  5
4F81
 10
110.992
 20
-102.291
 30
0.000000
  70
    32
  0
VERTEX
  8
1PHANTOM
  5
4F82
 10
110.986
 20
-102.435
 30
0.000000
  70
    32
  0
VERTEX
  8
1PHANTOM
  5
4F83
 10
110.980
 20
-102.579
 30
0.000000
  70
    32
  0
VERTEX
  8
1PHANTOM
  5
4F84
 10
110.974
 20
-102.724
 30
0.000000
  70
    32
  0
VERTEX
  8
1PHANTOM
  5
4F85
 10
110.968
 20
-102.868
 30
0.000000
  70
    32
  0
VERTEX
  8
1PHANTOM
  5
4F86
 10
110.962
 20
-103.012
 30
0.000000
  70
    32
  0
VERTEX
  8
1PHANTOM
  5
4F87
 10
110.957
 20
-103.157
 30
0.000000
  70
    32
  0
VERTEX
  8
1PHANTOM
  5
4F88
 10
110.951
 20
-103.301
 30
0.000000
  70
    32
  0
VERTEX
  8
1PHANTOM
  5
4F89
 10
110.946
 20
-103.446
 30
0.000000
  70
    32
  0
VERTEX
  8
1PHANTOM
  5
4F8A
 10
110.941
 20
-103.591
 30
0.000000
  70
    32
  0
VERTEX
  8
1PHANTOM
  5
4F8B
 10
110.936
 20
-103.735
 30
0.000000
  70
    32
  0
VERTEX
  8
1PHANTOM
  5
4F8C
 10
110.932
 20
-103.880
 30
0.000000
  70
    32
  0
VERTEX
  8
1PHANTOM
  5
4F8D
 10
110.927
 20
-104.025
 30
0.000000
  70
    32
  0
VERTEX
  8
1PHANTOM
  5
4F8E
 10
110.923
 20
-104.171
 30
0.000000
  70
    32
  0
VERTEX
  8
1PHANTOM
  5
4F8F
 10
110.919
 20
-104.316
 30
0.000000
  70
    32
  0
VERTEX
  8
1PHANTOM
  5
4F90
 10
110.916
 20
-104.462
 30
0.000000
  70
    32
  0
VERTEX
  8
1PHANTOM
  5
4F91
 10
110.913
 20
-104.607
 30
0.000000
  70
    32
  0
VERTEX
  8
1PHANTOM
  5
4F92
 10
110.910
 20
-104.753
 30
0.000000
  70
    32
  0
VERTEX
  8
1PHANTOM
  5
4F93
 10
110.907
 20
-104.899
 30
0.000000
  70
    32
  0
VERTEX
  8
1PHANTOM
  5
4F94
 10
110.905
 20
-105.045
 30
0.000000
  70
    32
  0
VERTEX
  8
1PHANTOM
  5
4F95
 10
110.903
 20
-105.191
 30
0.000000
  70
    32
  0
VERTEX
  8
1PHANTOM
  5
4F96
 10
110.902
 20
-105.338
 30
0.000000
  70
    32
  0
VERTEX
  8
1PHANTOM
  5
4F97
 10
110.901
 20
-105.485
 30
0.000000
  70
    32
  0
VERTEX
  8
1PHANTOM
  5
4F98
 10
110.900
 20
-105.632
 30
0.000000
  70
    32
  0
VERTEX
  8
1PHANTOM
  5
4F99
 10
110.900
 20
-105.779
 30
0.000000
  70
    32
  0
VERTEX
  8
1PHANTOM
  5
4F9A
 10
110.900
 20
-105.926
 30
0.000000
  70
    32
  0
VERTEX
  8
1PHANTOM
  5
4F9B
 10
110.901
 20
-106.073
 30
0.000000
  70
    32
  0
VERTEX
  8
1PHANTOM
  5
4F9C
 10
110.902
 20
-106.221
 30
0.000000
  70
    32
  0
VERTEX
  8
1PHANTOM
  5
4F9D
 10
110.904
 20
-106.369
 30
0.000000
  70
    32
  0
VERTEX
  8
1PHANTOM
  5
4F9E
 10
110.906
 20
-106.517
 30
0.000000
  70
    32
  0
VERTEX
  8
1PHANTOM
  5
4F9F
 10
110.908
 20
-106.666
 30
0.000000
  70
    32
  0
VERTEX
  8
1PHANTOM
  5
4FA0
 10
110.912
 20
-106.815
 30
0.000000
  70
    32
  0
VERTEX
  8
1PHANTOM
  5
4FA1
 10
110.915
 20
-106.963
 30
0.000000
  70
    32
  0
VERTEX
  8
1PHANTOM
  5
4FA2
 10
110.920
 20
-107.113
 30
0.000000
  70
    32
  0
VERTEX
  8
1PHANTOM
  5
4FA3
 10
110.925
 20
-107.262
 30
0.000000
  70
    32
  0
VERTEX
  8
1PHANTOM
  5
4FA4
 10
110.930
 20
-107.412
 30
0.000000
  70
    32
  0
VERTEX
  8
1PHANTOM
  5
4FA5
 10
110.936
 20
-107.562
 30
0.000000
  70
    32
  0
VERTEX
  8
1PHANTOM
  5
4FA6
 10
110.943
 20
-107.712
 30
0.000000
  70
    32
  0
VERTEX
  8
1PHANTOM
  5
4FA7
 10
110.950
 20
-107.863
 30
0.000000
  70
    32
  0
VERTEX
  8
1PHANTOM
  5
4FA8
 10
110.959
 20
-108.014
 30
0.000000
  70
    32
  0
VERTEX
  8
1PHANTOM
  5
4FA9
 10
110.967
 20
-108.165
 30
0.000000
  70
    32
  0
VERTEX
  8
1PHANTOM
  5
4FAA
 10
110.977
 20
-108.316
 30
0.000000
  70
    32
  0
VERTEX
  8
1PHANTOM
  5
4FAB
 10
110.987
 20
-108.468
 30
0.000000
  70
    32
  0
VERTEX
  8
1PHANTOM
  5
4FAC
 10
110.998
 20
-108.620
 30
0.000000
  70
    32
  0
VERTEX
  8
1PHANTOM
  5
4FAD
 10
111.009
 20
-108.773
 30
0.000000
  70
    32
  0
VERTEX
  8
1PHANTOM
  5
4FAE
 10
111.022
 20
-108.926
 30
0.000000
  70
    32
  0
VERTEX
  8
1PHANTOM
  5
4FAF
 10
111.035
 20
-109.079
 30
0.000000
  70
    32
  0
VERTEX
  8
1PHANTOM
  5
4FB0
 10
111.049
 20
-109.233
 30
0.000000
  70
    32
  0
VERTEX
  8
1PHANTOM
  5
4FB1
 10
111.063
 20
-109.386
 30
0.000000
  70
    32
  0
VERTEX
  8
1PHANTOM
  5
4FB2
 10
111.079
 20
-109.541
 30
0.000000
  70
    32
  0
VERTEX
  8
1PHANTOM
  5
4FB3
 10
111.095
 20
-109.695
 30
0.000000
  70
    32
  0
VERTEX
  8
1PHANTOM
  5
4FB4
 10
111.112
 20
-109.850
 30
0.000000
  70
    32
  0
VERTEX
  8
1PHANTOM
  5
4FB5
 10
111.130
 20
-110.006
 30
0.000000
  70
    32
  0
VERTEX
  8
1PHANTOM
  5
4FB6
 10
111.149
 20
-110.161
 30
0.000000
  70
    32
  0
VERTEX
  8
1PHANTOM
  5
4FB7
 10
111.169
 20
-110.317
 30
0.000000
  70
    32
  0
VERTEX
  8
1PHANTOM
  5
4FB8
 10
111.190
 20
-110.474
 30
0.000000
  70
    32
  0
VERTEX
  8
1PHANTOM
  5
4FB9
 10
111.212
 20
-110.630
 30
0.000000
  70
    32
  0
VERTEX
  8
1PHANTOM
  5
4FBA
 10
111.235
 20
-110.786
 30
0.000000
  70
    32
  0
VERTEX
  8
1PHANTOM
  5
4FBB
 10
111.259
 20
-110.942
 30
0.000000
  70
    32
  0
VERTEX
  8
1PHANTOM
  5
4FBC
 10
111.285
 20
-111.098
 30
0.000000
  70
    32
  0
VERTEX
  8
1PHANTOM
  5
4FBD
 10
111.312
 20
-111.254
 30
0.000000
  70
    32
  0
VERTEX
  8
1PHANTOM
  5
4FBE
 10
111.340
 20
-111.410
 30
0.000000
  70
    32
  0
VERTEX
  8
1PHANTOM
  5
4FBF
 10
111.369
 20
-111.564
 30
0.000000
  70
    32
  0
VERTEX
  8
1PHANTOM
  5
4FC0
 10
111.401
 20
-111.719
 30
0.000000
  70
    32
  0
VERTEX
  8
1PHANTOM
  5
4FC1
 10
111.433
 20
-111.872
 30
0.000000
  70
    32
  0
VERTEX
  8
1PHANTOM
  5
4FC2
 10
111.468
 20
-112.025
 30
0.000000
  70
    32
  0
VERTEX
  8
1PHANTOM
  5
4FC3
 10
111.504
 20
-112.177
 30
0.000000
  70
    32
  0
VERTEX
  8
1PHANTOM
  5
4FC4
 10
111.541
 20
-112.328
 30
0.000000
  70
    32
  0
VERTEX
  8
1PHANTOM
  5
4FC5
 10
111.581
 20
-112.478
 30
0.000000
  70
    32
  0
VERTEX
  8
1PHANTOM
  5
4FC6
 10
111.623
 20
-112.626
 30
0.000000
  70
    32
  0
VERTEX
  8
1PHANTOM
  5
4FC7
 10
111.666
 20
-112.774
 30
0.000000
  70
    32
  0
VERTEX
  8
1PHANTOM
  5
4FC8
 10
111.712
 20
-112.920
 30
0.000000
  70
    32
  0
VERTEX
  8
1PHANTOM
  5
4FC9
 10
111.759
 20
-113.064
 30
0.000000
  70
    32
  0
VERTEX
  8
1PHANTOM
  5
4FCA
 10
111.809
 20
-113.207
 30
0.000000
  70
    32
  0
VERTEX
  8
1PHANTOM
  5
4FCB
 10
111.861
 20
-113.349
 30
0.000000
  70
    32
  0
VERTEX
  8
1PHANTOM
  5
4FCC
 10
111.915
 20
-113.488
 30
0.000000
  70
    32
  0
VERTEX
  8
1PHANTOM
  5
4FCD
 10
111.971
 20
-113.626
 30
0.000000
  70
    32
  0
VERTEX
  8
1PHANTOM
  5
4FCE
 10
112.030
 20
-113.762
 30
0.000000
  70
    32
  0
VERTEX
  8
1PHANTOM
  5
4FCF
 10
112.091
 20
-113.896
 30
0.000000
  70
    32
  0
VERTEX
  8
1PHANTOM
  5
4FD0
 10
112.155
 20
-114.028
 30
0.000000
  70
    32
  0
VERTEX
  8
1PHANTOM
  5
4FD1
 10
112.222
 20
-114.157
 30
0.000000
  70
    32
  0
VERTEX
  8
1PHANTOM
  5
4FD2
 10
112.291
 20
-114.284
 30
0.000000
  70
    32
  0
VERTEX
  8
1PHANTOM
  5
4FD3
 10
112.363
 20
-114.409
 30
0.000000
  70
    32
  0
SEQEND
  8
1PHANTOM
  5
4FD4
  0
POLYLINE
  8
1PHANTOM
  5
4FD5
  66
     1
 10
0.000000
 20
0.000000
 30
0.000000
  70
     8
  0
VERTEX
  8
1PHANTOM
  5
4FD6
 10
120.075
 20
-117.718
 30
0.000000
  70
    32
  0
VERTEX
  8
1PHANTOM
  5
4FD7
 10
120.095
 20
-117.722
 30
0.000000
  70
    32
  0
VERTEX
  8
1PHANTOM
  5
4FD8
 10
120.115
 20
-117.725
 30
0.000000
  70
    32
  0
VERTEX
  8
1PHANTOM
  5
4FD9
 10
120.135
 20
-117.729
 30
0.000000
  70
    32
  0
VERTEX
  8
1PHANTOM
  5
4FDA
 10
120.155
 20
-117.732
 30
0.000000
  70
    32
  0
VERTEX
  8
1PHANTOM
  5
4FDB
 10
120.175
 20
-117.736
 30
0.000000
  70
    32
  0
VERTEX
  8
1PHANTOM
  5
4FDC
 10
120.194
 20
-117.739
 30
0.000000
  70
    32
  0
VERTEX
  8
1PHANTOM
  5
4FDD
 10
120.214
 20
-117.743
 30
0.000000
  70
    32
  0
VERTEX
  8
1PHANTOM
  5
4FDE
 10
120.234
 20
-117.746
 30
0.000000
  70
    32
  0
VERTEX
  8
1PHANTOM
  5
4FDF
 10
120.254
 20
-117.750
 30
0.000000
  70
    32
  0
VERTEX
  8
1PHANTOM
  5
4FE0
 10
120.274
 20
-117.753
 30
0.000000
  70
    32
  0
VERTEX
  8
1PHANTOM
  5
4FE1
 10
120.293
 20
-117.756
 30
0.000000
  70
    32
  0
VERTEX
  8
1PHANTOM
  5
4FE2
 10
120.313
 20
-117.760
 30
0.000000
  70
    32
  0
VERTEX
  8
1PHANTOM
  5
4FE3
 10
120.333
 20
-117.763
 30
0.000000
  70
    32
  0
VERTEX
  8
1PHANTOM
  5
4FE4
 10
120.353
 20
-117.767
 30
0.000000
  70
    32
  0
VERTEX
  8
1PHANTOM
  5
4FE5
 10
120.372
 20
-117.770
 30
0.000000
  70
    32
  0
VERTEX
  8
1PHANTOM
  5
4FE6
 10
120.392
 20
-117.774
 30
0.000000
  70
    32
  0
VERTEX
  8
1PHANTOM
  5
4FE7
 10
120.412
 20
-117.777
 30
0.000000
  70
    32
  0
VERTEX
  8
1PHANTOM
  5
4FE8
 10
120.432
 20
-117.780
 30
0.000000
  70
    32
  0
VERTEX
  8
1PHANTOM
  5
4FE9
 10
120.452
 20
-117.784
 30
0.000000
  70
    32
  0
VERTEX
  8
1PHANTOM
  5
4FEA
 10
120.471
 20
-117.787
 30
0.000000
  70
    32
  0
VERTEX
  8
1PHANTOM
  5
4FEB
 10
120.491
 20
-117.791
 30
0.000000
  70
    32
  0
VERTEX
  8
1PHANTOM
  5
4FEC
 10
120.511
 20
-117.794
 30
0.000000
  70
    32
  0
VERTEX
  8
1PHANTOM
  5
4FED
 10
120.531
 20
-117.797
 30
0.000000
  70
    32
  0
VERTEX
  8
1PHANTOM
  5
4FEE
 10
120.550
 20
-117.801
 30
0.000000
  70
    32
  0
VERTEX
  8
1PHANTOM
  5
4FEF
 10
120.570
 20
-117.804
 30
0.000000
  70
    32
  0
VERTEX
  8
1PHANTOM
  5
4FF0
 10
120.590
 20
-117.807
 30
0.000000
  70
    32
  0
VERTEX
  8
1PHANTOM
  5
4FF1
 10
120.610
 20
-117.811
 30
0.000000
  70
    32
  0
VERTEX
  8
1PHANTOM
  5
4FF2
 10
120.629
 20
-117.814
 30
0.000000
  70
    32
  0
VERTEX
  8
1PHANTOM
  5
4FF3
 10
120.649
 20
-117.818
 30
0.000000
  70
    32
  0
VERTEX
  8
1PHANTOM
  5
4FF4
 10
120.669
 20
-117.821
 30
0.000000
  70
    32
  0
VERTEX
  8
1PHANTOM
  5
4FF5
 10
120.689
 20
-117.824
 30
0.000000
  70
    32
  0
VERTEX
  8
1PHANTOM
  5
4FF6
 10
120.708
 20
-117.828
 30
0.000000
  70
    32
  0
VERTEX
  8
1PHANTOM
  5
4FF7
 10
120.728
 20
-117.831
 30
0.000000
  70
    32
  0
VERTEX
  8
1PHANTOM
  5
4FF8
 10
120.748
 20
-117.834
 30
0.000000
  70
    32
  0
VERTEX
  8
1PHANTOM
  5
4FF9
 10
120.768
 20
-117.838
 30
0.000000
  70
    32
  0
VERTEX
  8
1PHANTOM
  5
4FFA
 10
120.787
 20
-117.841
 30
0.000000
  70
    32
  0
VERTEX
  8
1PHANTOM
  5
4FFB
 10
120.807
 20
-117.844
 30
0.000000
  70
    32
  0
VERTEX
  8
1PHANTOM
  5
4FFC
 10
120.827
 20
-117.847
 30
0.000000
  70
    32
  0
VERTEX
  8
1PHANTOM
  5
4FFD
 10
120.847
 20
-117.851
 30
0.000000
  70
    32
  0
VERTEX
  8
1PHANTOM
  5
4FFE
 10
120.866
 20
-117.854
 30
0.000000
  70
    32
  0
VERTEX
  8
1PHANTOM
  5
4FFF
 10
120.886
 20
-117.857
 30
0.000000
  70
    32
  0
VERTEX
  8
1PHANTOM
  5
5000
 10
120.906
 20
-117.861
 30
0.000000
  70
    32
  0
VERTEX
  8
1PHANTOM
  5
5001
 10
120.925
 20
-117.864
 30
0.000000
  70
    32
  0
VERTEX
  8
1PHANTOM
  5
5002
 10
120.945
 20
-117.867
 30
0.000000
  70
    32
  0
VERTEX
  8
1PHANTOM
  5
5003
 10
120.965
 20
-117.871
 30
0.000000
  70
    32
  0
VERTEX
  8
1PHANTOM
  5
5004
 10
120.985
 20
-117.874
 30
0.000000
  70
    32
  0
VERTEX
  8
1PHANTOM
  5
5005
 10
121.004
 20
-117.877
 30
0.000000
  70
    32
  0
VERTEX
  8
1PHANTOM
  5
5006
 10
121.024
 20
-117.880
 30
0.000000
  70
    32
  0
VERTEX
  8
1PHANTOM
  5
5007
 10
121.044
 20
-117.884
 30
0.000000
  70
    32
  0
VERTEX
  8
1PHANTOM
  5
5008
 10
121.063
 20
-117.887
 30
0.000000
  70
    32
  0
VERTEX
  8
1PHANTOM
  5
5009
 10
121.083
 20
-117.890
 30
0.000000
  70
    32
  0
VERTEX
  8
1PHANTOM
  5
500A
 10
121.103
 20
-117.893
 30
0.000000
  70
    32
  0
VERTEX
  8
1PHANTOM
  5
500B
 10
121.122
 20
-117.897
 30
0.000000
  70
    32
  0
VERTEX
  8
1PHANTOM
  5
500C
 10
121.142
 20
-117.900
 30
0.000000
  70
    32
  0
VERTEX
  8
1PHANTOM
  5
500D
 10
121.162
 20
-117.903
 30
0.000000
  70
    32
  0
VERTEX
  8
1PHANTOM
  5
500E
 10
121.182
 20
-117.906
 30
0.000000
  70
    32
  0
VERTEX
  8
1PHANTOM
  5
500F
 10
121.201
 20
-117.910
 30
0.000000
  70
    32
  0
VERTEX
  8
1PHANTOM
  5
5010
 10
121.221
 20
-117.913
 30
0.000000
  70
    32
  0
VERTEX
  8
1PHANTOM
  5
5011
 10
121.241
 20
-117.916
 30
0.000000
  70
    32
  0
VERTEX
  8
1PHANTOM
  5
5012
 10
121.260
 20
-117.919
 30
0.000000
  70
    32
  0
VERTEX
  8
1PHANTOM
  5
5013
 10
121.280
 20
-117.922
 30
0.000000
  70
    32
  0
VERTEX
  8
1PHANTOM
  5
5014
 10
121.300
 20
-117.926
 30
0.000000
  70
    32
  0
VERTEX
  8
1PHANTOM
  5
5015
 10
121.319
 20
-117.929
 30
0.000000
  70
    32
  0
VERTEX
  8
1PHANTOM
  5
5016
 10
121.339
 20
-117.932
 30
0.000000
  70
    32
  0
VERTEX
  8
1PHANTOM
  5
5017
 10
121.359
 20
-117.935
 30
0.000000
  70
    32
  0
VERTEX
  8
1PHANTOM
  5
5018
 10
121.378
 20
-117.938
 30
0.000000
  70
    32
  0
VERTEX
  8
1PHANTOM
  5
5019
 10
121.398
 20
-117.942
 30
0.000000
  70
    32
  0
VERTEX
  8
1PHANTOM
  5
501A
 10
121.418
 20
-117.945
 30
0.000000
  70
    32
  0
VERTEX
  8
1PHANTOM
  5
501B
 10
121.437
 20
-117.948
 30
0.000000
  70
    32
  0
VERTEX
  8
1PHANTOM
  5
501C
 10
121.457
 20
-117.951
 30
0.000000
  70
    32
  0
VERTEX
  8
1PHANTOM
  5
501D
 10
121.477
 20
-117.954
 30
0.000000
  70
    32
  0
VERTEX
  8
1PHANTOM
  5
501E
 10
121.496
 20
-117.958
 30
0.000000
  70
    32
  0
VERTEX
  8
1PHANTOM
  5
501F
 10
121.516
 20
-117.961
 30
0.000000
  70
    32
  0
VERTEX
  8
1PHANTOM
  5
5020
 10
121.536
 20
-117.964
 30
0.000000
  70
    32
  0
VERTEX
  8
1PHANTOM
  5
5021
 10
121.555
 20
-117.967
 30
0.000000
  70
    32
  0
VERTEX
  8
1PHANTOM
  5
5022
 10
121.575
 20
-117.970
 30
0.000000
  70
    32
  0
VERTEX
  8
1PHANTOM
  5
5023
 10
121.595
 20
-117.973
 30
0.000000
  70
    32
  0
VERTEX
  8
1PHANTOM
  5
5024
 10
121.614
 20
-117.977
 30
0.000000
  70
    32
  0
VERTEX
  8
1PHANTOM
  5
5025
 10
121.634
 20
-117.980
 30
0.000000
  70
    32
  0
VERTEX
  8
1PHANTOM
  5
5026
 10
121.653
 20
-117.983
 30
0.000000
  70
    32
  0
VERTEX
  8
1PHANTOM
  5
5027
 10
121.673
 20
-117.986
 30
0.000000
  70
    32
  0
VERTEX
  8
1PHANTOM
  5
5028
 10
121.693
 20
-117.989
 30
0.000000
  70
    32
  0
VERTEX
  8
1PHANTOM
  5
5029
 10
121.712
 20
-117.992
 30
0.000000
  70
    32
  0
VERTEX
  8
1PHANTOM
  5
502A
 10
121.732
 20
-117.995
 30
0.000000
  70
    32
  0
VERTEX
  8
1PHANTOM
  5
502B
 10
121.752
 20
-117.999
 30
0.000000
  70
    32
  0
VERTEX
  8
1PHANTOM
  5
502C
 10
121.771
 20
-118.002
 30
0.000000
  70
    32
  0
VERTEX
  8
1PHANTOM
  5
502D
 10
121.791
 20
-118.005
 30
0.000000
  70
    32
  0
VERTEX
  8
1PHANTOM
  5
502E
 10
121.811
 20
-118.008
 30
0.000000
  70
    32
  0
VERTEX
  8
1PHANTOM
  5
502F
 10
121.830
 20
-118.011
 30
0.000000
  70
    32
  0
VERTEX
  8
1PHANTOM
  5
5030
 10
121.850
 20
-118.014
 30
0.000000
  70
    32
  0
VERTEX
  8
1PHANTOM
  5
5031
 10
121.869
 20
-118.017
 30
0.000000
  70
    32
  0
VERTEX
  8
1PHANTOM
  5
5032
 10
121.889
 20
-118.020
 30
0.000000
  70
    32
  0
VERTEX
  8
1PHANTOM
  5
5033
 10
121.909
 20
-118.024
 30
0.000000
  70
    32
  0
VERTEX
  8
1PHANTOM
  5
5034
 10
121.928
 20
-118.027
 30
0.000000
  70
    32
  0
VERTEX
  8
1PHANTOM
  5
5035
 10
121.948
 20
-118.030
 30
0.000000
  70
    32
  0
VERTEX
  8
1PHANTOM
  5
5036
 10
121.968
 20
-118.033
 30
0.000000
  70
    32
  0
VERTEX
  8
1PHANTOM
  5
5037
 10
121.987
 20
-118.036
 30
0.000000
  70
    32
  0
VERTEX
  8
1PHANTOM
  5
5038
 10
122.007
 20
-118.039
 30
0.000000
  70
    32
  0
VERTEX
  8
1PHANTOM
  5
5039
 10
122.026
 20
-118.042
 30
0.000000
  70
    32
  0
VERTEX
  8
1PHANTOM
  5
503A
 10
122.046
 20
-118.045
 30
0.000000
  70
    32
  0
VERTEX
  8
1PHANTOM
  5
503B
 10
122.066
 20
-118.048
 30
0.000000
  70
    32
  0
VERTEX
  8
1PHANTOM
  5
503C
 10
122.085
 20
-118.051
 30
0.000000
  70
    32
  0
VERTEX
  8
1PHANTOM
  5
503D
 10
122.105
 20
-118.054
 30
0.000000
  70
    32
  0
VERTEX
  8
1PHANTOM
  5
503E
 10
122.125
 20
-118.058
 30
0.000000
  70
    32
  0
VERTEX
  8
1PHANTOM
  5
503F
 10
122.144
 20
-118.061
 30
0.000000
  70
    32
  0
VERTEX
  8
1PHANTOM
  5
5040
 10
122.164
 20
-118.064
 30
0.000000
  70
    32
  0
VERTEX
  8
1PHANTOM
  5
5041
 10
122.183
 20
-118.067
 30
0.000000
  70
    32
  0
VERTEX
  8
1PHANTOM
  5
5042
 10
122.203
 20
-118.070
 30
0.000000
  70
    32
  0
VERTEX
  8
1PHANTOM
  5
5043
 10
122.223
 20
-118.073
 30
0.000000
  70
    32
  0
VERTEX
  8
1PHANTOM
  5
5044
 10
122.242
 20
-118.076
 30
0.000000
  70
    32
  0
VERTEX
  8
1PHANTOM
  5
5045
 10
122.262
 20
-118.079
 30
0.000000
  70
    32
  0
VERTEX
  8
1PHANTOM
  5
5046
 10
122.281
 20
-118.082
 30
0.000000
  70
    32
  0
VERTEX
  8
1PHANTOM
  5
5047
 10
122.301
 20
-118.085
 30
0.000000
  70
    32
  0
VERTEX
  8
1PHANTOM
  5
5048
 10
122.321
 20
-118.088
 30
0.000000
  70
    32
  0
VERTEX
  8
1PHANTOM
  5
5049
 10
122.340
 20
-118.091
 30
0.000000
  70
    32
  0
VERTEX
  8
1PHANTOM
  5
504A
 10
122.360
 20
-118.094
 30
0.000000
  70
    32
  0
VERTEX
  8
1PHANTOM
  5
504B
 10
122.379
 20
-118.097
 30
0.000000
  70
    32
  0
VERTEX
  8
1PHANTOM
  5
504C
 10
122.399
 20
-118.101
 30
0.000000
  70
    32
  0
VERTEX
  8
1PHANTOM
  5
504D
 10
122.419
 20
-118.104
 30
0.000000
  70
    32
  0
VERTEX
  8
1PHANTOM
  5
504E
 10
122.438
 20
-118.107
 30
0.000000
  70
    32
  0
VERTEX
  8
1PHANTOM
  5
504F
 10
122.458
 20
-118.110
 30
0.000000
  70
    32
  0
VERTEX
  8
1PHANTOM
  5
5050
 10
122.477
 20
-118.113
 30
0.000000
  70
    32
  0
VERTEX
  8
1PHANTOM
  5
5051
 10
122.497
 20
-118.116
 30
0.000000
  70
    32
  0
VERTEX
  8
1PHANTOM
  5
5052
 10
122.517
 20
-118.119
 30
0.000000
  70
    32
  0
VERTEX
  8
1PHANTOM
  5
5053
 10
122.536
 20
-118.122
 30
0.000000
  70
    32
  0
VERTEX
  8
1PHANTOM
  5
5054
 10
122.556
 20
-118.125
 30
0.000000
  70
    32
  0
VERTEX
  8
1PHANTOM
  5
5055
 10
122.575
 20
-118.128
 30
0.000000
  70
    32
  0
SEQEND
  8
1PHANTOM
  5
5056
  0
TEXT
  5
49E2
  8
1TEXT
 10
281.12498810167199
 20
-60.175583908724199
 30
0.0
 40
4.0
  1
付属ねじ
  0
TEXT
  5
49E3
  8
1TEXT
 10
87.356248402969527
 20
22.197490523547259
 30
0.0
 40
8.0
  1
KM-01-E7T
  0
TEXT
  5
4BAD
  8
1DIM
 10
127.6024859701497
 20
-82.338312753316103
 30
0.0
 40
3.5
  1
材質：亜鉛ダイキャスト
  0
SOLID
  5
4BAE
  8
1DIM
 10
117.13763842988421
 20
-93.288882815082545
 30
0.0
 11
115.6286769929448
 21
-94.64318946165146
 31
0.0
 12
116.61683835873001
 22
-92.872695681295113
 32
0.0
 13
116.61683835873001
 23
-92.872695681295113
 33
0.0
1001
ACAD
1000
DSTYLE
1002
{
1070
   341
1005
0
1002
}
  0
TEXT
  5
4BB0
  8
1DIM
 10
71.261174467796337
 20
-13.50410138434057
 30
0.0
 40
3.5
  1
材質：スチール
  0
SOLID
  5
4BB1
  8
1DIM
 10
114.83439653865599
 20
-50.399273810952003
 30
0.0
 11
115.1731986637232
 21
-52.398354657531513
 31
0.0
 12
114.20435962220149
 22
-50.617214005383502
 32
0.0
 13
114.20435962220149
 23
-50.617214005383502
 33
0.0
1001
ACAD
1000
DSTYLE
1002
{
1070
   341
1005
0
1002
}
  0
TEXT
  5
4BB3
  8
1DIM
 10
149.05444631098689
 20
-2.2698886681136501
 30
0.0
 40
3.5
  1
材質：ステンレス
  0
SOLID
  5
4BB4
  8
1DIM
 10
197.3417471769406
 20
-23.401187673244621
 30
0.0
 11
198.13366275518271
 21
-25.26773015281708
 31
0.0
 12
196.77918829590311
 22
-23.758919346164909
 32
0.0
 13
196.77918829590311
 23
-23.758919346164909
 33
0.0
1001
ACAD
1000
DSTYLE
1002
{
1070
   341
1005
0
1002
}
  0
LINE
  5
4BB6
  8
1DIM
 10
210.17267923790129
 20
-20.908770980293209
 30
0.0
 11
241.3846114713713
 21
-20.90877098029322
 31
0.0
  0
LINE
  5
4BB7
  8
1DIM
 10
210.17267923790129
 20
-143.9087709802933
 30
0.0
 11
241.3846114713713
 21
-143.9087709802933
 31
0.0
  0
LINE
  5
4BB8
  8
1DIM
 10
240.3846114713713
 20
-22.90877098029322
 30
0.0
 11
240.3846114713713
 21
-141.9087709802933
 31
0.0
  0
LINE
  5
4BBC
  8
1DIM
 10
194.17267923790129
 20
-143.9087709802933
 30
0.0
 11
194.17267923790129
 21
-159.31755593475131
 31
0.0
  0
LINE
  5
4BBD
  8
1DIM
 10
210.17267923790129
 20
-143.9087709802933
 30
0.0
 11
210.17267923790129
 21
-159.31755593475131
 31
0.0
  0
LINE
  5
4BBE
  8
1DIM
 10
196.17267923790129
 20
-158.31755593475131
 30
0.0
 11
208.17267923790129
 21
-158.31755593475131
 31
0.0
  0
LINE
  5
4BC2
  8
1DIM
 10
109.57542434359929
 20
-114.4087709802933
 30
0.0
 11
91.366710639467215
 21
-114.4087709802933
 31
0.0
  0
LINE
  5
4BC3
  8
1DIM
 10
109.57542434359929
 20
-118.4087709802933
 30
0.0
 11
91.366710639467215
 21
-118.4087709802932
 31
0.0
  0
LINE
  5
4BC4
  8
1DIM
 10
92.366710639467215
 20
-112.4087709802933
 30
0.0
 11
92.366710639467215
 21
-110.4087709802933
 31
0.0
  0
LINE
  5
4BC5
  8
1DIM
 10
92.366710639467215
 20
-120.4087709802933
 30
0.0
 11
92.366710639467215
 21
-146.00877098029329
 31
0.0
  0
LINE
  5
4BC6
  8
1DIM
 10
92.366710639467215
 20
-114.4087709802933
 30
0.0
 11
92.366710639467215
 21
-118.4087709802932
 31
0.0
  0
LINE
  5
4BCA
  8
1DIM
 10
109.57542434359949
 20
-47.408770980292722
 30
0.0
 11
91.366710639467215
 21
-47.408770980292722
 31
0.0
  0
LINE
  5
4BCB
  8
1DIM
 10
109.57542434359949
 20
-43.408770980292729
 30
0.0
 11
91.366710639467215
 21
-43.408770980292729
 31
0.0
  0
LINE
  5
4BCC
  8
1DIM
 10
92.366710639467215
 20
-49.408770980292729
 30
0.0
 11
92.366710639467215
 21
-51.408770980292729
 31
0.0
  0
LINE
  5
4BCD
  8
1DIM
 10
92.366710639467215
 20
-41.408770980292729
 30
0.0
 11
92.366710639467215
 21
-15.808770980292721
 31
0.0
  0
LINE
  5
4BCE
  8
1DIM
 10
92.366710639467215
 20
-47.408770980292722
 30
0.0
 11
92.366710639467215
 21
-43.408770980292729
 31
0.0
  0
LINE
  5
4BD2
  8
1DIM
 10
109.57542434359929
 20
-47.408770980292722
 30
0.0
 11
91.366710639467229
 21
-47.408770980292722
 31
0.0
  0
LINE
  5
4BD3
  8
1DIM
 10
109.57542434359929
 20
-114.4087709802933
 30
0.0
 11
91.366710639467215
 21
-114.4087709802933
 31
0.0
  0
LINE
  5
4BD4
  8
1DIM
 10
92.366710639467215
 20
-49.408770980292729
 30
0.0
 11
92.366710639467215
 21
-112.4087709802933
 31
0.0
  0
LINE
  5
4BD8
  8
1DIM
 10
109.57542434359949
 20
-43.408770980292729
 30
0.0
 11
84.18583393357666
 21
-43.408770980292729
 31
0.0
  0
LINE
  5
4BD9
  8
1DIM
 10
109.57542434359949
 20
-118.4087709802933
 30
0.0
 11
84.185833933576646
 21
-118.4087709802932
 31
0.0
  0
LINE
  5
4BDA
  8
1DIM
 10
85.18583393357666
 20
-45.408770980292722
 30
0.0
 11
85.185833933576646
 21
-116.4087709802933
 31
0.0
  0
LINE
  5
4BDE
  8
1DIM
 10
120.07542434359959
 20
-138.9087709802933
 30
0.0
 11
120.07542434359959
 21
-151.47843178207361
 31
0.0
  0
LINE
  5
4BDF
  8
1DIM
 10
122.57542434359949
 20
-143.9087709802933
 30
0.0
 11
122.57542434359949
 21
-151.47843178207361
 31
0.0
  0
LINE
  5
4BE0
  8
1DIM
 10
118.07542434359959
 20
-150.47843178207361
 30
0.0
 11
116.07542434359959
 21
-150.47843178207361
 31
0.0
  0
LINE
  5
4BE1
  8
1DIM
 10
124.57542434359939
 20
-150.47843178207361
 30
0.0
 11
135.3087576769328
 21
-150.47843178207361
 31
0.0
  0
LINE
  5
4BE2
  8
1DIM
 10
120.07542434359959
 20
-150.47843178207361
 30
0.0
 11
122.57542434359949
 21
-150.47843178207361
 31
0.0
  0
LINE
  5
4BE6
  8
1DIM
 10
122.57542434359949
 20
-143.9087709802933
 30
0.0
 11
122.57542434359949
 21
-159.31755593475131
 31
0.0
  0
LINE
  5
4BE7
  8
1DIM
 10
108.0754243435992
 20
-106.4087709802933
 30
0.0
 11
108.0754243435992
 21
-159.31755593475131
 31
0.0
  0
LINE
  5
4BE8
  8
1DIM
 10
120.57542434359949
 20
-158.31755593475131
 30
0.0
 11
110.0754243435992
 21
-158.31755593475131
 31
0.0
  0
LINE
  5
4BEC
  8
1DIM
 10
122.57542434359929
 20
-185.44375595304979
 30
0.0
 11
138.4867776923125
 21
-185.44375595304979
 31
0.0
  0
LINE
  5
4BED
  8
1DIM
 10
122.57542434359929
 20
-169.44375595304979
 30
0.0
 11
138.4867776923125
 21
-169.44375595304979
 31
0.0
  0
LINE
  5
4BEE
  8
1DIM
 10
137.4867776923125
 20
-183.44375595304979
 30
0.0
 11
137.4867776923125
 21
-171.44375595304979
 31
0.0
  0
LINE
  5
4BF2
  8
1DIM
 10
199.67267923790129
 20
-68.949974993381062
 30
0.0
 11
204.67267923790129
 21
-68.949974993381062
 31
0.0
  0
LINE
  5
4BF6
  8
1DIM
 10
118.9754243435994
 20
-90.908770980293284
 30
0.0
 11
118.9754243435994
 21
-71.506694019179903
 31
0.0
  0
LINE
  5
4BF7
  8
1DIM
 10
116.9754243435994
 20
-72.506694019179918
 30
0.0
 11
114.9754243435994
 21
-72.506694019179918
 31
0.0
  0
LINE
  5
4BF8
  8
1DIM
 10
124.57542434359929
 20
-72.506694019179918
 30
0.0
 11
152.0087576769327
 21
-72.506694019179918
 31
0.0
  0
LINE
  5
4BF9
  8
1DIM
 10
118.9754243435994
 20
-72.506694019179918
 30
0.0
 11
122.57542434359929
 21
-72.506694019179918
 31
0.0
  0
LINE
  5
4BFD
  8
1DIM
 10
109.57542434359929
 20
-183.94375595304979
 30
0.0
 11
99.454512938044104
 21
-183.94375595304979
 31
0.0
  0
LINE
  5
4BFE
  8
1DIM
 10
109.57542434359929
 20
-170.94375595304979
 30
0.0
 11
99.454512938044104
 21
-170.94375595304979
 31
0.0
  0
LINE
  5
4BFF
  8
1DIM
 10
100.4545129380441
 20
-181.94375595304979
 30
0.0
 11
100.4545129380441
 21
-172.94375595304979
 31
0.0
  0
LINE
  5
4C03
  8
1DIM
 10
206.67267923790129
 20
-59.408770980293319
 30
0.0
 11
234.16265614028191
 21
-59.408770980293333
 31
0.0
  0
LINE
  5
4C04
  8
1DIM
 10
208.67267923790129
 20
-90.908770980293326
 30
0.0
 11
234.16265614028191
 21
-90.90877098029334
 31
0.0
  0
LINE
  5
4C05
  8
1DIM
 10
233.16265614028191
 20
-61.408770980293333
 30
0.0
 11
233.16265614028191
 21
-88.908770980293326
 31
0.0
  0
LINE
  5
4C09
  8
1DIM
 10
210.17267923790129
 20
-20.908770980293209
 30
0.0
 11
234.16265614028191
 21
-20.90877098029322
 31
0.0
  0
LINE
  5
4C0A
  8
1DIM
 10
206.67267923790129
 20
-59.408770980293319
 30
0.0
 11
234.16265614028191
 21
-59.408770980293333
 31
0.0
  0
LINE
  5
4C0B
  8
1DIM
 10
233.16265614028191
 20
-22.90877098029322
 30
0.0
 11
233.16265614028191
 21
-57.408770980293333
 31
0.0
  0
LINE
  5
4C0F
  8
1DIM
 10
194.17267923790129
 20
-32.408770980293212
 30
0.0
 11
178.16575461951069
 21
-32.408770980293212
 31
0.0
  0
LINE
  5
4C10
  8
1DIM
 10
194.17267923790129
 20
-132.4087709802933
 30
0.0
 11
178.16575461951061
 21
-132.4087709802933
 31
0.0
  0
LINE
  5
4C11
  8
1DIM
 10
179.16575461951069
 20
-34.408770980293212
 30
0.0
 11
179.16575461951061
 21
-130.4087709802933
 31
0.0
  0
LINE
  5
4C15
  8
1DIM
 10
194.17267923790129
 20
-32.408770980293212
 30
0.0
 11
178.16575461951061
 21
-32.408770980293212
 31
0.0
  0
LINE
  5
4C16
  8
1DIM
 10
194.17267923790129
 20
-20.908770980293209
 30
0.0
 11
178.16575461951061
 21
-20.908770980293209
 31
0.0
  0
LINE
  5
4C17
  8
1DIM
 10
179.16575461951061
 20
-30.408770980293209
 30
0.0
 11
179.16575461951061
 21
-22.908770980293209
 31
0.0
  0
LINE
  5
4C18
  8
1DIM
 10
179.16575461951061
 20
-20.908770980293209
 30
0.0
 11
179.16575461951061
 21
-7.3421043136265434
 31
0.0
  0
LINE
  5
4C1C
  8
1HATCH
 10
121.57542434359939
 20
-96.15548390158645
 30
0.0
 11
122.57542434359929
 21
-95.155483901586464
 31
0.0
1001
ACAD
1010
0.0
1020
0.0
1030
0.0
  0
LINE
  5
4C1D
  8
1HATCH
 10
121.57542434359939
 20
-97.502522319746845
 30
0.0
 11
122.57542434359939
 21
-96.502522319746845
 31
0.0
1001
ACAD
1010
0.0
1020
0.0
1030
0.0
  0
LINE
  5
4C1E
  8
1HATCH
 10
121.57542434359939
 20
-98.849560737907211
 30
0.0
 11
122.57542434359939
 21
-97.849560737907225
 31
0.0
1001
ACAD
1010
0.0
1020
0.0
1030
0.0
  0
LINE
  5
4C1F
  8
1HATCH
 10
121.57542434359929
 20
-115.01402175583171
 30
0.0
 11
122.57542434359929
 21
-114.01402175583161
 31
0.0
1001
ACAD
1010
0.0
1020
0.0
1030
0.0
  0
LINE
  5
4C20
  8
1HATCH
 10
121.57542434359929
 20
-116.3610601739921
 30
0.0
 11
122.57542434359939
 21
-115.361060173992
 31
0.0
1001
ACAD
1010
0.0
1020
0.0
1030
0.0
  0
LINE
  5
4C21
  8
1HATCH
 10
121.57542434359939
 20
-117.7080985921524
 30
0.0
 11
122.57542434359939
 21
-116.7080985921524
 31
0.0
1001
ACAD
1010
0.0
1020
0.0
1030
0.0
  0
LINE
  5
4C22
  8
1HATCH
 10
122.512366973193
 20
-118.1181943807192
 30
0.0
 11
122.57542434359939
 21
-118.05513701031281
 31
0.0
1001
ACAD
1010
0.0
1020
0.0
1030
0.0
  0
LINE
  5
4C23
  8
1HATCH
 10
118.9754243435994
 20
-91.122266198677721
 30
0.0
 11
119.18891956198379
 21
-90.908770980293284
 31
0.0
1001
ACAD
1010
0.0
1020
0.0
1030
0.0
  0
LINE
  5
4C24
  8
1HATCH
 10
118.9754243435994
 20
-92.020291810784613
 30
0.0
 11
120.0869451740907
 21
-90.908770980293269
 31
0.0
1001
ACAD
1010
0.0
1020
0.0
1030
0.0
  0
LINE
  5
4C25
  8
1HATCH
 10
118.9754243435994
 20
-92.918317422891519
 30
0.0
 11
120.57542434359939
 21
-91.318317422891539
 31
0.0
1001
ACAD
1010
0.0
1020
0.0
1030
0.0
  0
LINE
  5
4C26
  8
1HATCH
 10
118.9754243435994
 20
-93.816343034998454
 30
0.0
 11
120.57542434359939
 21
-92.216343034998431
 31
0.0
1001
ACAD
1010
0.0
1020
0.0
1030
0.0
  0
LINE
  5
4C27
  8
1HATCH
 10
118.9754243435994
 20
-94.714368647105374
 30
0.0
 11
120.57542434359949
 21
-93.114368647105337
 31
0.0
1001
ACAD
1010
0.0
1020
0.0
1030
0.0
  0
LINE
  5
4C28
  8
1HATCH
 10
118.9754243435995
 20
-95.612394259212294
 30
0.0
 11
120.57542434359949
 21
-94.012394259212272
 31
0.0
1001
ACAD
1010
0.0
1020
0.0
1030
0.0
  0
LINE
  5
4C29
  8
1HATCH
 10
118.9754243435994
 20
-96.510419871319215
 30
0.0
 11
120.57542434359949
 21
-94.910419871319164
 31
0.0
1001
ACAD
1010
0.0
1020
0.0
1030
0.0
  0
LINE
  5
4C2A
  8
1HATCH
 10
118.9754243435994
 20
-97.408445483426135
 30
0.0
 11
120.57542434359939
 21
-95.808445483426141
 31
0.0
1001
ACAD
1010
0.0
1020
0.0
1030
0.0
  0
LINE
  5
4C2B
  8
1HATCH
 10
112.9754243435994
 20
-104.306471095533
 30
0.0
 11
113.9547656897921
 21
-103.3271297493403
 31
0.0
1001
ACAD
1010
0.0
1020
0.0
1030
0.0
  0
LINE
  5
4C2C
  8
1HATCH
 10
118.9754243435994
 20
-98.306471095533055
 30
0.0
 11
120.57542434359939
 21
-96.706471095533033
 31
0.0
1001
ACAD
1010
0.0
1020
0.0
1030
0.0
  0
LINE
  5
4C2D
  8
1HATCH
 10
113.8711500709462
 20
-104.3087709802931
 30
0.0
 11
114.9344621351261
 21
-103.24545891611319
 31
0.0
1001
ACAD
1010
0.0
1020
0.0
1030
0.0
  0
LINE
  5
4C2E
  8
1HATCH
 10
118.9754243435994
 20
-99.204496707639947
 30
0.0
 11
120.57542434359939
 21
-97.604496707639925
 31
0.0
1001
ACAD
1010
0.0
1020
0.0
1030
0.0
  0
LINE
  5
4C2F
  8
1HATCH
 10
114.76917568305321
 20
-104.3087709802931
 30
0.0
 11
115.91415858046
 21
-103.1637880828862
 31
0.0
1001
ACAD
1010
0.0
1020
0.0
1030
0.0
  0
LINE
  5
4C30
  8
1HATCH
 10
118.9754243435995
 20
-100.1025223197468
 30
0.0
 11
120.57542434359949
 21
-98.502522319746845
 31
0.0
1001
ACAD
1010
0.0
1020
0.0
1030
0.0
  0
LINE
  5
4C31
  8
1HATCH
 10
115.6672012951601
 20
-104.3087709802931
 30
0.0
 11
116.893855025794
 21
-103.08211724965921
 31
0.0
1001
ACAD
1010
0.0
1020
0.0
1030
0.0
  0
LINE
  5
4C32
  8
1HATCH
 10
118.9754243435994
 20
-101.0005479318538
 30
0.0
 11
120.57542434359939
 21
-99.400547931853794
 31
0.0
1001
ACAD
1010
0.0
1020
0.0
1030
0.0
  0
LINE
  5
4C33
  8
1HATCH
 10
116.565226907267
 20
-104.3087709802931
 30
0.0
 11
117.873551471128
 21
-103.0004464164322
 31
0.0
1001
ACAD
1010
0.0
1020
0.0
1030
0.0
  0
LINE
  5
4C34
  8
1HATCH
 10
118.9754243435994
 20
-101.89857354396069
 30
0.0
 11
120.57542434359949
 21
-100.2985735439607
 31
0.0
1001
ACAD
1010
0.0
1020
0.0
1030
0.0
  0
LINE
  5
4C35
  8
1HATCH
 10
112.9754243435995
 20
-108.7965991560675
 30
0.0
 11
113.26325251937369
 21
-108.50877098029331
 31
0.0
1001
ACAD
1010
0.0
1020
0.0
1030
0.0
  0
LINE
  5
4C36
  8
1HATCH
 10
117.4632525193739
 20
-104.3087709802931
 30
0.0
 11
120.57542434359939
 21
-101.19659915606761
 31
0.0
1001
ACAD
1010
0.0
1020
0.0
1030
0.0
  0
LINE
  5
4C37
  8
1HATCH
 10
113.23928205386559
 20
-109.4307670579083
 30
0.0
 11
114.1612781314806
 21
-108.50877098029331
 31
0.0
1001
ACAD
1010
0.0
1020
0.0
1030
0.0
  0
LINE
  5
4C38
  8
1HATCH
 10
118.3612781314808
 20
-104.3087709802931
 30
0.0
 11
120.57542434359949
 21
-102.0946247681745
 31
0.0
1001
ACAD
1010
0.0
1020
0.0
1030
0.0
  0
LINE
  5
4C39
  8
1HATCH
 10
114.0682057617763
 20
-109.4998689621045
 30
0.0
 11
115.05930374358751
 21
-108.50877098029331
 31
0.0
1001
ACAD
1010
0.0
1020
0.0
1030
0.0
  0
LINE
  5
4C3A
  8
1HATCH
 10
119.25930374358769
 20
-104.3087709802931
 30
0.0
 11
120.57542434359939
 21
-102.9926503802814
 31
0.0
1001
ACAD
1010
0.0
1020
0.0
1030
0.0
  0
LINE
  5
4C3B
  8
1HATCH
 10
114.8971294696872
 20
-109.5689708663005
 30
0.0
 11
115.9573293556944
 21
-108.50877098029331
 31
0.0
1001
ACAD
1010
0.0
1020
0.0
1030
0.0
  0
LINE
  5
4C3C
  8
1HATCH
 10
120.1573293556946
 20
-104.3087709802931
 30
0.0
 11
120.57542434359939
 21
-103.8906759923883
 31
0.0
1001
ACAD
1010
0.0
1020
0.0
1030
0.0
  0
LINE
  5
4C3D
  8
1HATCH
 10
115.7260531775981
 20
-109.63807277049661
 30
0.0
 11
116.8553549678014
 21
-108.50877098029331
 31
0.0
1001
ACAD
1010
0.0
1020
0.0
1030
0.0
  0
LINE
  5
4C3E
  8
1HATCH
 10
116.55497688550879
 20
-109.70717467469279
 30
0.0
 11
117.7533805799083
 21
-108.50877098029331
 31
0.0
1001
ACAD
1010
0.0
1020
0.0
1030
0.0
  0
LINE
  5
4C3F
  8
1HATCH
 10
117.3839005934197
 20
-109.7762765788889
 30
0.0
 11
118.6514061920153
 21
-108.50877098029331
 31
0.0
1001
ACAD
1010
0.0
1020
0.0
1030
0.0
  0
LINE
  5
4C40
  8
1HATCH
 10
118.2128243013304
 20
-109.845378483085
 30
0.0
 11
119.54943180412209
 21
-108.50877098029331
 31
0.0
1001
ACAD
1010
0.0
1020
0.0
1030
0.0
  0
LINE
  5
4C41
  8
1HATCH
 10
118.8805284730185
 20
-110.07569992350381
 30
0.0
 11
120.3114408799142
 21
-108.6447875166081
 31
0.0
1001
ACAD
1010
0.0
1020
0.0
1030
0.0
  0
LINE
  5
4C42
  8
1HATCH
 10
118.9754243435994
 20
-110.8788296650299
 30
0.0
 11
120.57542434359939
 21
-109.2788296650298
 31
0.0
1001
ACAD
1010
0.0
1020
0.0
1030
0.0
  0
LINE
  5
4C43
  8
1HATCH
 10
118.9754243435994
 20
-111.7768552771368
 30
0.0
 11
120.57542434359939
 21
-110.1768552771368
 31
0.0
1001
ACAD
1010
0.0
1020
0.0
1030
0.0
  0
LINE
  5
4C44
  8
1HATCH
 10
118.9754243435994
 20
-112.6748808892437
 30
0.0
 11
120.57542434359949
 21
-111.0748808892436
 31
0.0
1001
ACAD
1010
0.0
1020
0.0
1030
0.0
  0
LINE
  5
4C45
  8
1HATCH
 10
119.1395598646568
 20
-113.4087709802932
 30
0.0
 11
120.57542434359949
 21
-111.97290650135059
 31
0.0
1001
ACAD
1010
0.0
1020
0.0
1030
0.0
  0
LINE
  5
4C46
  8
1HATCH
 10
120.0375854767637
 20
-113.4087709802932
 30
0.0
 11
120.57542434359949
 21
-112.8709321134575
 31
0.0
1001
ACAD
1010
0.0
1020
0.0
1030
0.0
  0
LINE
  5
4C47
  8
1HATCH
 10
121.57542434359929
 20
-117.4894697072933
 30
0.0
 11
120.57542434359949
 21
-116.4894697072934
 31
0.0
1001
ACAD
1010
0.0
1020
0.0
1030
0.0
  0
LINE
  5
4C48
  8
1HATCH
 10
121.57542434359929
 20
-116.1424312891329
 30
0.0
 11
120.57542434359939
 21
-115.142431289133
 31
0.0
1001
ACAD
1010
0.0
1020
0.0
1030
0.0
  0
LINE
  5
4C49
  8
1HATCH
 10
121.57542434359929
 20
-114.79539287097261
 30
0.0
 11
120.57542434359939
 21
-113.79539287097271
 31
0.0
1001
ACAD
1010
0.0
1020
0.0
1030
0.0
  0
LINE
  5
4C4A
  8
1HATCH
 10
121.57542434359929
 20
-113.4483544528122
 30
0.0
 11
120.57542434359939
 21
-112.4483544528123
 31
0.0
1001
ACAD
1010
0.0
1020
0.0
1030
0.0
  0
LINE
  5
4C4B
  8
1HATCH
 10
121.57542434359929
 20
-112.1013160346518
 30
0.0
 11
120.57542434359939
 21
-111.1013160346519
 31
0.0
1001
ACAD
1010
0.0
1020
0.0
1030
0.0
  0
LINE
  5
4C4C
  8
1HATCH
 10
121.57542434359929
 20
-110.75427761649151
 30
0.0
 11
120.57542434359949
 21
-109.75427761649161
 31
0.0
1001
ACAD
1010
0.0
1020
0.0
1030
0.0
  0
LINE
  5
4C4D
  8
1HATCH
 10
121.0202670709012
 20
-103.46392825299149
 30
0.0
 11
120.57542434359939
 21
-103.0190855256897
 31
0.0
1001
ACAD
1010
0.0
1020
0.0
1030
0.0
  0
LINE
  5
4C4E
  8
1HATCH
 10
121.57542434359939
 20
-102.6720471075292
 30
0.0
 11
120.57542434359939
 21
-101.67204710752929
 31
0.0
1001
ACAD
1010
0.0
1020
0.0
1030
0.0
  0
LINE
  5
4C4F
  8
1HATCH
 10
121.57542434359929
 20
-101.3250086893688
 30
0.0
 11
120.57542434359939
 21
-100.3250086893689
 31
0.0
1001
ACAD
1010
0.0
1020
0.0
1030
0.0
  0
LINE
  5
4C50
  8
1HATCH
 10
121.57542434359929
 20
-99.977970271208505
 30
0.0
 11
120.57542434359939
 21
-98.977970271208576
 31
0.0
1001
ACAD
1010
0.0
1020
0.0
1030
0.0
  0
LINE
  5
4C51
  8
1HATCH
 10
121.57542434359929
 20
-98.630931853048082
 30
0.0
 11
120.57542434359939
 21
-97.630931853048196
 31
0.0
1001
ACAD
1010
0.0
1020
0.0
1030
0.0
  0
LINE
  5
4C52
  8
1HATCH
 10
121.57542434359929
 20
-97.283893434887716
 30
0.0
 11
120.57542434359939
 21
-96.283893434887844
 31
0.0
1001
ACAD
1010
0.0
1020
0.0
1030
0.0
  0
LINE
  5
4C53
  8
1HATCH
 10
121.57542434359929
 20
-95.936855016727364
 30
0.0
 11
120.57542434359949
 21
-94.936855016727463
 31
0.0
1001
ACAD
1010
0.0
1020
0.0
1030
0.0
  0
LINE
  5
4C54
  8
1HATCH
 10
121.57542434359929
 20
-94.589816598566983
 30
0.0
 11
120.57542434359939
 21
-93.589816598567069
 31
0.0
1001
ACAD
1010
0.0
1020
0.0
1030
0.0
  0
LINE
  5
4C55
  8
1HATCH
 10
121.57542434359929
 20
-93.242778180406603
 30
0.0
 11
120.57542434359939
 21
-92.242778180406702
 31
0.0
1001
ACAD
1010
0.0
1020
0.0
1030
0.0
  0
LINE
  5
4C56
  8
1HATCH
 10
121.57542434359929
 20
-91.895739762246265
 30
0.0
 11
120.5884555616464
 21
-90.908770980293326
 31
0.0
1001
ACAD
1010
0.0
1020
0.0
1030
0.0
  0
TEXT
  5
4C57
  8
1DIM
 10
217.7335700134781
 20
-112.991955731205
 30
0.0
 40
3.5
  1
隙間調整板
  0
TEXT
  5
4C58
  8
1DIM
 10
217.7335700134781
 20
-118.8252890645383
 30
0.0
 40
3.5
  1
取付けねじ
  0
LINE
  5
4C5B
  8
1DIM
 10
283.52152430217899
 20
-34.948915422649982
 30
0.0
 11
267.37528248894699
 21
-34.948915422649968
 31
0.0
  0
LINE
  5
4C5C
  8
1DIM
 10
282.82151615839871
 20
-38.448915422649982
 30
0.0
 11
267.37528248894699
 21
-38.448915422649968
 31
0.0
  0
LINE
  5
4C5D
  8
1DIM
 10
268.37528248894711
 20
-32.948915422649968
 30
0.0
 11
268.37528248894711
 21
-30.948915422649971
 31
0.0
  0
LINE
  5
4C5E
  8
1DIM
 10
268.37528248894711
 20
-40.448915422649968
 30
0.0
 11
268.37528248894711
 21
-55.182248755983302
 31
0.0
  0
LINE
  5
4C5F
  8
1DIM
 10
268.37528248894711
 20
-34.948915422649968
 30
0.0
 11
268.37528248894711
 21
-38.448915422649968
 31
0.0
  0
LINE
  5
4C63
  8
1DIM
 10
276.7840202302433
 20
-36.698915422649982
 30
0.0
 11
276.7840202302433
 21
-19.785333346107219
 31
0.0
  0
LINE
  5
4C64
  8
1DIM
 10
301.78402023024319
 20
-33.198915422649968
 30
0.0
 11
301.78402023024319
 21
-19.785333346107219
 31
0.0
  0
LINE
  5
4C65
  8
1DIM
 10
278.7840202302433
 20
-20.785333346107219
 30
0.0
 11
299.78402023024319
 21
-20.785333346107219
 31
0.0
  0
TEXT
  5
4C69
  8
1DIM
 10
286.3673535635765
 20
-20.08533334610723
 30
0.0
 40
3.5
  1
25 
  0
LINE
  5
4C6A
  8
0
  6
BYBLOCK
 10
299.78402023024319
 20
-20.24943496610722
 30
0.0
 11
301.78402023024319
 21
-20.785333346107219
 31
0.0
  0
LINE
  5
4C6B
  8
0
  6
BYBLOCK
 10
301.78402023024319
 20
-20.785333346107219
 30
0.0
 11
299.78402023024319
 21
-21.321231726107222
 31
0.0
  0
LINE
  5
4C6C
  8
0
  6
BYBLOCK
 10
301.78402023024319
 20
-20.785333346107219
 30
0.0
 11
299.78402023024319
 21
-20.785333346107219
 31
0.0
  0
LINE
  5
4C6D
  8
0
  6
BYBLOCK
 10
278.7840202302433
 20
-21.321231726107222
 30
0.0
 11
276.7840202302433
 21
-20.785333346107219
 31
0.0
  0
LINE
  5
4C6E
  8
0
  6
BYBLOCK
 10
276.7840202302433
 20
-20.785333346107219
 30
0.0
 11
278.7840202302433
 21
-20.24943496610722
 31
0.0
  0
LINE
  5
4C6F
  8
0
  6
BYBLOCK
 10
276.7840202302433
 20
-20.785333346107219
 30
0.0
 11
278.7840202302433
 21
-20.785333346107219
 31
0.0
  0
TEXT
  5
4C70
  8
1DIM
 10
267.675282488947
 20
-54.765582089316602
 30
0.0
 40
3.5
  1
φ3.5
 50
90.0
  0
LINE
  5
4C71
  8
0
  6
BYBLOCK
 10
267.83938410894712
 20
-40.448915422649968
 30
0.0
 11
268.37528248894711
 21
-38.448915422649968
 31
0.0
  0
LINE
  5
4C72
  8
0
  6
BYBLOCK
 10
268.37528248894711
 20
-38.448915422649968
 30
0.0
 11
268.91118086894699
 21
-40.448915422649968
 31
0.0
  0
LINE
  5
4C73
  8
0
  6
BYBLOCK
 10
268.37528248894711
 20
-38.448915422649968
 30
0.0
 11
268.37528248894711
 21
-40.448915422649968
 31
0.0
  0
LINE
  5
4C74
  8
0
  6
BYBLOCK
 10
268.91118086894699
 20
-32.948915422649968
 30
0.0
 11
268.37528248894711
 21
-34.948915422649968
 31
0.0
  0
LINE
  5
4C75
  8
0
  6
BYBLOCK
 10
268.37528248894711
 20
-34.948915422649968
 30
0.0
 11
267.83938410894712
 21
-32.948915422649968
 31
0.0
  0
LINE
  5
4C76
  8
0
  6
BYBLOCK
 10
268.37528248894711
 20
-34.948915422649968
 30
0.0
 11
268.37528248894711
 21
-32.948915422649968
 31
0.0
  0
LINE
  5
4C77
  8
1DIM
 10
206.02331004807149
 20
-110.3359381990104
 30
0.0
 11
215.03357001347811
 21
-119.5252890645383
 31
0.0
  0
LINE
  5
4C78
  8
1DIM
 10
215.03357001347811
 20
-119.5252890645383
 30
0.0
 11
237.80023668014479
 21
-119.5252890645383
 31
0.0
  0
LINE
  5
4C79
  8
0
  6
BYBLOCK
 10
205.64066231161701
 20
-110.7111285286737
 30
0.0
 11
204.62308066255511
 21
-108.9078773922041
 31
0.0
  0
LINE
  5
4C7A
  8
0
  6
BYBLOCK
 10
204.62308066255511
 20
-108.9078773922041
 30
0.0
 11
206.40595778452601
 21
-109.9607478693471
 31
0.0
  0
LINE
  5
4C7B
  8
0
  6
BYBLOCK
 10
204.62308066255511
 20
-108.9078773922041
 30
0.0
 11
206.02331004807149
 21
-110.3359381990104
 31
0.0
  0
TEXT
  5
4C7C
  8
1DIM
 10
178.4657546195107
 20
-17.208770980293181
 30
0.0
 40
3.5
  1
11.5 
 50
90.0
  0
LINE
  5
4C7D
  8
0
  6
BYBLOCK
 10
178.6298562395107
 20
-22.908770980293209
 30
0.0
 11
179.16575461951061
 21
-20.908770980293209
 31
0.0
  0
LINE
  5
4C7E
  8
0
  6
BYBLOCK
 10
179.16575461951061
 20
-20.908770980293209
 30
0.0
 11
179.7016529995106
 21
-22.908770980293209
 31
0.0
  0
LINE
  5
4C7F
  8
0
  6
BYBLOCK
 10
179.16575461951061
 20
-20.908770980293209
 30
0.0
 11
179.16575461951061
 21
-22.908770980293209
 31
0.0
  0
LINE
  5
4C80
  8
0
  6
BYBLOCK
 10
179.7016529995106
 20
-30.40877098029322
 30
0.0
 11
179.16575461951061
 21
-32.408770980293212
 31
0.0
  0
LINE
  5
4C81
  8
0
  6
BYBLOCK
 10
179.16575461951061
 20
-32.408770980293212
 30
0.0
 11
178.6298562395107
 21
-30.40877098029322
 31
0.0
  0
LINE
  5
4C82
  8
0
  6
BYBLOCK
 10
179.16575461951061
 20
-32.408770980293212
 30
0.0
 11
179.16575461951061
 21
-30.40877098029322
 31
0.0
  0
TEXT
  5
4C83
  8
1DIM
 10
178.4657546195107
 20
-102.7087709802932
 30
0.0
 40
3.5
  1
取付けねじピッチ100 
 50
90.0
  0
LINE
  5
4C84
  8
0
  6
BYBLOCK
 10
179.7016529995106
 20
-130.4087709802933
 30
0.0
 11
179.16575461951061
 21
-132.4087709802933
 31
0.0
  0
LINE
  5
4C85
  8
0
  6
BYBLOCK
 10
179.16575461951061
 20
-132.4087709802933
 30
0.0
 11
178.6298562395107
 21
-130.4087709802933
 31
0.0
  0
LINE
  5
4C86
  8
0
  6
BYBLOCK
 10
179.16575461951061
 20
-132.4087709802933
 30
0.0
 11
179.16575461951061
 21
-130.4087709802933
 31
0.0
  0
LINE
  5
4C87
  8
0
  6
BYBLOCK
 10
178.6298562395107
 20
-34.408770980293212
 30
0.0
 11
179.16575461951069
 21
-32.408770980293212
 31
0.0
  0
LINE
  5
4C88
  8
0
  6
BYBLOCK
 10
179.16575461951069
 20
-32.408770980293212
 30
0.0
 11
179.70165299951071
 21
-34.408770980293212
 31
0.0
  0
LINE
  5
4C89
  8
0
  6
BYBLOCK
 10
179.16575461951069
 20
-32.408770980293212
 30
0.0
 11
179.16575461951069
 21
-34.408770980293212
 31
0.0
  0
TEXT
  5
4C8A
  8
1DIM
 10
226.62932280694861
 20
-52.175437646959907
 30
0.0
 40
3.5
  1
上下調整範囲
 50
90.0
  0
TEXT
  5
4C8B
  8
1DIM
 10
232.46265614028189
 20
-52.992104313626569
 30
0.0
 40
3.5
  1
34.5~42.5
 50
90.0
  0
LINE
  5
4C8C
  8
0
  6
BYBLOCK
 10
233.6985545202819
 20
-57.408770980293333
 30
0.0
 11
233.16265614028191
 21
-59.408770980293333
 31
0.0
  0
LINE
  5
4C8D
  8
0
  6
BYBLOCK
 10
233.16265614028191
 20
-59.408770980293333
 30
0.0
 11
232.62675776028189
 21
-57.408770980293333
 31
0.0
  0
LINE
  5
4C8E
  8
0
  6
BYBLOCK
 10
233.16265614028191
 20
-59.408770980293333
 30
0.0
 11
233.16265614028191
 21
-57.408770980293333
 31
0.0
  0
LINE
  5
4C8F
  8
0
  6
BYBLOCK
 10
232.62675776028189
 20
-22.90877098029322
 30
0.0
 11
233.16265614028191
 21
-20.90877098029322
 31
0.0
  0
LINE
  5
4C90
  8
0
  6
BYBLOCK
 10
233.16265614028191
 20
-20.90877098029322
 30
0.0
 11
233.6985545202819
 21
-22.90877098029322
 31
0.0
  0
LINE
  5
4C91
  8
0
  6
BYBLOCK
 10
233.16265614028191
 20
-20.90877098029322
 30
0.0
 11
233.16265614028191
 21
-22.90877098029322
 31
0.0
  0
TEXT
  5
4C92
  8
1DIM
 10
232.46265614028201
 20
-79.825437646959955
 30
0.0
 40
3.5
  1
31.5 
 50
90.0
  0
LINE
  5
4C93
  8
0
  6
BYBLOCK
 10
233.6985545202819
 20
-88.908770980293326
 30
0.0
 11
233.16265614028191
 21
-90.90877098029334
 31
0.0
  0
LINE
  5
4C94
  8
0
  6
BYBLOCK
 10
233.16265614028191
 20
-90.90877098029334
 30
0.0
 11
232.62675776028189
 21
-88.908770980293326
 31
0.0
  0
LINE
  5
4C95
  8
0
  6
BYBLOCK
 10
233.16265614028191
 20
-90.90877098029334
 30
0.0
 11
233.16265614028191
 21
-88.908770980293326
 31
0.0
  0
LINE
  5
4C96
  8
0
  6
BYBLOCK
 10
232.62675776028189
 20
-61.408770980293333
 30
0.0
 11
233.16265614028191
 21
-59.408770980293333
 31
0.0
  0
LINE
  5
4C97
  8
0
  6
BYBLOCK
 10
233.16265614028191
 20
-59.408770980293333
 30
0.0
 11
233.6985545202819
 21
-61.408770980293333
 31
0.0
  0
LINE
  5
4C98
  8
0
  6
BYBLOCK
 10
233.16265614028191
 20
-59.408770980293333
 30
0.0
 11
233.16265614028191
 21
-61.408770980293333
 31
0.0
  0
TEXT
  5
4C99
  8
1DIM
 10
99.75451293804413
 20
-179.7770892863831
 30
0.0
 40
3.5
  1
13 
 50
90.0
  0
LINE
  5
4C9A
  8
0
  6
BYBLOCK
 10
99.918614558044112
 20
-172.94375595304979
 30
0.0
 11
100.4545129380441
 21
-170.94375595304979
 31
0.0
  0
LINE
  5
4C9B
  8
0
  6
BYBLOCK
 10
100.4545129380441
 20
-170.94375595304979
 30
0.0
 11
100.9904113180441
 21
-172.94375595304979
 31
0.0
  0
LINE
  5
4C9C
  8
0
  6
BYBLOCK
 10
100.4545129380441
 20
-170.94375595304979
 30
0.0
 11
100.4545129380441
 21
-172.94375595304979
 31
0.0
  0
LINE
  5
4C9D
  8
0
  6
BYBLOCK
 10
100.9904113180441
 20
-181.94375595304979
 30
0.0
 11
100.4545129380441
 21
-183.94375595304979
 31
0.0
  0
LINE
  5
4C9E
  8
0
  6
BYBLOCK
 10
100.4545129380441
 20
-183.94375595304979
 30
0.0
 11
99.918614558044112
 21
-181.94375595304979
 31
0.0
  0
LINE
  5
4C9F
  8
0
  6
BYBLOCK
 10
100.4545129380441
 20
-183.94375595304979
 30
0.0
 11
100.4545129380441
 21
-181.94375595304979
 31
0.0
  0
TEXT
  5
4CA0
  8
1DIM
 10
127.2754243435993
 20
-65.973360685846572
 30
0.0
 40
3.5
  1
前後調整範囲
  0
TEXT
  5
4CA1
  8
1DIM
 10
128.55875767693269
 20
-71.806694019179915
 30
0.0
 40
3.5
  1
3.6 ～6.5
  0
LINE
  5
4CA2
  8
0
  6
BYBLOCK
 10
124.57542434359929
 20
-73.042592399179924
 30
0.0
 11
122.57542434359929
 21
-72.506694019179918
 31
0.0
  0
LINE
  5
4CA3
  8
0
  6
BYBLOCK
 10
122.57542434359929
 20
-72.506694019179918
 30
0.0
 11
124.57542434359929
 21
-71.970795639179912
 31
0.0
  0
LINE
  5
4CA4
  8
0
  6
BYBLOCK
 10
122.57542434359929
 20
-72.506694019179918
 30
0.0
 11
124.57542434359929
 21
-72.506694019179918
 31
0.0
  0
LINE
  5
4CA5
  8
0
  6
BYBLOCK
 10
116.9754243435994
 20
-71.970795639179912
 30
0.0
 11
118.9754243435994
 21
-72.506694019179918
 31
0.0
  0
LINE
  5
4CA6
  8
0
  6
BYBLOCK
 10
118.9754243435994
 20
-72.506694019179918
 30
0.0
 11
116.9754243435994
 21
-73.042592399179924
 31
0.0
  0
LINE
  5
4CA7
  8
0
  6
BYBLOCK
 10
118.9754243435994
 20
-72.506694019179918
 30
0.0
 11
116.9754243435994
 21
-72.506694019179918
 31
0.0
  0
TEXT
  5
4CA8
  8
1DIM
 10
201.00601257123461
 20
-68.249974993381059
 30
0.0
 40
3.5
  1
9 
  0
LINE
  5
4CA9
  8
0
  6
BYBLOCK
 10
204.67267923790129
 20
-68.414076613381056
 30
0.0
 11
206.67267923790129
 21
-68.949974993381062
 31
0.0
  0
LINE
  5
4CAA
  8
0
  6
BYBLOCK
 10
206.67267923790129
 20
-68.949974993381062
 30
0.0
 11
204.67267923790129
 21
-69.485873373381068
 31
0.0
  0
LINE
  5
4CAB
  8
0
  6
BYBLOCK
 10
206.67267923790129
 20
-68.949974993381062
 30
0.0
 11
204.67267923790129
 21
-68.949974993381062
 31
0.0
  0
LINE
  5
4CAC
  8
0
  6
BYBLOCK
 10
199.67267923790129
 20
-69.485873373381068
 30
0.0
 11
197.67267923790129
 21
-68.949974993381062
 31
0.0
  0
LINE
  5
4CAD
  8
0
  6
BYBLOCK
 10
197.67267923790129
 20
-68.949974993381062
 30
0.0
 11
199.67267923790129
 21
-68.414076613381056
 31
0.0
  0
LINE
  5
4CAE
  8
0
  6
BYBLOCK
 10
197.67267923790129
 20
-68.949974993381062
 30
0.0
 11
199.67267923790129
 21
-68.949974993381062
 31
0.0
  0
TEXT
  5
4CAF
  8
1DIM
 10
136.7867776923126
 20
-179.7770892863831
 30
0.0
 40
3.5
  1
16 
 50
90.0
  0
LINE
  5
4CB0
  8
0
  6
BYBLOCK
 10
136.95087931231259
 20
-171.44375595304979
 30
0.0
 11
137.4867776923125
 21
-169.44375595304979
 31
0.0
  0
LINE
  5
4CB1
  8
0
  6
BYBLOCK
 10
137.4867776923125
 20
-169.44375595304979
 30
0.0
 11
138.02267607231249
 21
-171.44375595304979
 31
0.0
  0
LINE
  5
4CB2
  8
0
  6
BYBLOCK
 10
137.4867776923125
 20
-169.44375595304979
 30
0.0
 11
137.4867776923125
 21
-171.44375595304979
 31
0.0
  0
LINE
  5
4CB3
  8
0
  6
BYBLOCK
 10
138.02267607231249
 20
-183.44375595304979
 30
0.0
 11
137.4867776923125
 21
-185.44375595304979
 31
0.0
  0
LINE
  5
4CB4
  8
0
  6
BYBLOCK
 10
137.4867776923125
 20
-185.44375595304979
 30
0.0
 11
136.95087931231259
 21
-183.44375595304979
 31
0.0
  0
LINE
  5
4CB5
  8
0
  6
BYBLOCK
 10
137.4867776923125
 20
-185.44375595304979
 30
0.0
 11
137.4867776923125
 21
-183.44375595304979
 31
0.0
  0
TEXT
  5
4CB6
  8
1DIM
 10
110.65875767693269
 20
-157.61755593475129
 30
0.0
 40
3.5
  1
14.5 
  0
LINE
  5
4CB7
  8
0
  6
BYBLOCK
 10
110.0754243435992
 20
-158.8534543147513
 30
0.0
 11
108.0754243435992
 21
-158.31755593475131
 31
0.0
  0
LINE
  5
4CB8
  8
0
  6
BYBLOCK
 10
108.0754243435992
 20
-158.31755593475131
 30
0.0
 11
110.0754243435992
 21
-157.78165755475129
 31
0.0
  0
LINE
  5
4CB9
  8
0
  6
BYBLOCK
 10
108.0754243435992
 20
-158.31755593475131
 30
0.0
 11
110.0754243435992
 21
-158.31755593475131
 31
0.0
  0
LINE
  5
4CBA
  8
0
  6
BYBLOCK
 10
120.57542434359949
 20
-157.78165755475129
 30
0.0
 11
122.57542434359949
 21
-158.31755593475131
 31
0.0
  0
LINE
  5
4CBB
  8
0
  6
BYBLOCK
 10
122.57542434359949
 20
-158.31755593475131
 30
0.0
 11
120.57542434359949
 21
-158.8534543147513
 31
0.0
  0
LINE
  5
4CBC
  8
0
  6
BYBLOCK
 10
122.57542434359949
 20
-158.31755593475131
 30
0.0
 11
120.57542434359949
 21
-158.31755593475131
 31
0.0
  0
TEXT
  5
4CBD
  8
1DIM
 10
127.4420910102661
 20
-149.7784317820736
 30
0.0
 40
3.5
  1
2.5 
  0
LINE
  5
4CBE
  8
0
  6
BYBLOCK
 10
124.57542434359939
 20
-151.01433016207349
 30
0.0
 11
122.57542434359949
 21
-150.47843178207361
 31
0.0
  0
LINE
  5
4CBF
  8
0
  6
BYBLOCK
 10
122.57542434359949
 20
-150.47843178207361
 30
0.0
 11
124.57542434359939
 21
-149.94253340207359
 31
0.0
  0
LINE
  5
4CC0
  8
0
  6
BYBLOCK
 10
122.57542434359949
 20
-150.47843178207361
 30
0.0
 11
124.57542434359939
 21
-150.47843178207361
 31
0.0
  0
LINE
  5
4CC1
  8
0
  6
BYBLOCK
 10
118.07542434359959
 20
-149.94253340207359
 30
0.0
 11
120.07542434359959
 21
-150.47843178207361
 31
0.0
  0
LINE
  5
4CC2
  8
0
  6
BYBLOCK
 10
120.07542434359959
 20
-150.47843178207361
 30
0.0
 11
118.07542434359959
 21
-151.01433016207349
 31
0.0
  0
LINE
  5
4CC3
  8
0
  6
BYBLOCK
 10
120.07542434359959
 20
-150.47843178207361
 30
0.0
 11
118.07542434359959
 21
-150.47843178207361
 31
0.0
  0
TEXT
  5
4CC4
  8
1DIM
 10
84.485833933576671
 20
-98.525437646959645
 30
0.0
 40
3.5
  1
切欠き必要寸法75 
 50
90.0
  0
LINE
  5
4CC5
  8
0
  6
BYBLOCK
 10
85.721732313576638
 20
-116.4087709802933
 30
0.0
 11
85.185833933576646
 21
-118.4087709802932
 31
0.0
  0
LINE
  5
4CC6
  8
0
  6
BYBLOCK
 10
85.185833933576646
 20
-118.4087709802932
 30
0.0
 11
84.649935553576626
 21
-116.4087709802933
 31
0.0
  0
LINE
  5
4CC7
  8
0
  6
BYBLOCK
 10
85.185833933576646
 20
-118.4087709802932
 30
0.0
 11
85.185833933576646
 21
-116.4087709802933
 31
0.0
  0
LINE
  5
4CC8
  8
0
  6
BYBLOCK
 10
84.649935553576654
 20
-45.408770980292722
 30
0.0
 11
85.18583393357666
 21
-43.408770980292729
 31
0.0
  0
LINE
  5
4CC9
  8
0
  6
BYBLOCK
 10
85.18583393357666
 20
-43.408770980292729
 30
0.0
 11
85.721732313576666
 21
-45.408770980292722
 31
0.0
  0
LINE
  5
4CCA
  8
0
  6
BYBLOCK
 10
85.18583393357666
 20
-43.408770980292729
 30
0.0
 11
85.18583393357666
 21
-45.408770980292722
 31
0.0
  0
TEXT
  5
4CCB
  8
1DIM
 10
91.66671063946724
 20
-83.825437646959656
 30
0.0
 40
3.5
  1
67 
 50
90.0
  0
LINE
  5
4CCC
  8
0
  6
BYBLOCK
 10
92.902609019467207
 20
-112.4087709802933
 30
0.0
 11
92.366710639467215
 21
-114.4087709802933
 31
0.0
  0
LINE
  5
4CCD
  8
0
  6
BYBLOCK
 10
92.366710639467215
 20
-114.4087709802933
 30
0.0
 11
91.830812259467194
 21
-112.4087709802933
 31
0.0
  0
LINE
  5
4CCE
  8
0
  6
BYBLOCK
 10
92.366710639467215
 20
-114.4087709802933
 30
0.0
 11
92.366710639467215
 21
-112.4087709802933
 31
0.0
  0
LINE
  5
4CCF
  8
0
  6
BYBLOCK
 10
91.830812259467223
 20
-49.408770980292729
 30
0.0
 11
92.366710639467215
 21
-47.408770980292722
 31
0.0
  0
LINE
  5
4CD0
  8
0
  6
BYBLOCK
 10
92.366710639467215
 20
-47.408770980292722
 30
0.0
 11
92.902609019467235
 21
-49.408770980292729
 31
0.0
  0
LINE
  5
4CD1
  8
0
  6
BYBLOCK
 10
92.366710639467215
 20
-47.408770980292722
 30
0.0
 11
92.366710639467215
 21
-49.408770980292729
 31
0.0
  0
TEXT
  5
4CD2
  8
1DIM
 10
91.666710639467226
 20
-38.108770980292718
 30
0.0
 40
3.5
  1
4 可動シロ
 50
90.0
  0
LINE
  5
4CD3
  8
0
  6
BYBLOCK
 10
92.902609019467207
 20
-41.408770980292729
 30
0.0
 11
92.366710639467215
 21
-43.408770980292729
 31
0.0
  0
LINE
  5
4CD4
  8
0
  6
BYBLOCK
 10
92.366710639467215
 20
-43.408770980292729
 30
0.0
 11
91.830812259467194
 21
-41.408770980292729
 31
0.0
  0
LINE
  5
4CD5
  8
0
  6
BYBLOCK
 10
92.366710639467215
 20
-43.408770980292729
 30
0.0
 11
92.366710639467215
 21
-41.408770980292729
 31
0.0
  0
LINE
  5
4CD6
  8
0
  6
BYBLOCK
 10
91.830812259467194
 20
-49.408770980292729
 30
0.0
 11
92.366710639467215
 21
-47.408770980292722
 31
0.0
  0
LINE
  5
4CD7
  8
0
  6
BYBLOCK
 10
92.366710639467215
 20
-47.408770980292722
 30
0.0
 11
92.902609019467207
 21
-49.408770980292729
 31
0.0
  0
LINE
  5
4CD8
  8
0
  6
BYBLOCK
 10
92.366710639467215
 20
-47.408770980292722
 30
0.0
 11
92.366710639467215
 21
-49.408770980292729
 31
0.0
  0
TEXT
  5
4CD9
  8
1DIM
 10
91.666710639467226
 20
-144.70877098029331
 30
0.0
 40
3.5
  1
4 可動シロ
 50
90.0
  0
LINE
  5
4CDA
  8
0
  6
BYBLOCK
 10
91.830812259467194
 20
-120.4087709802933
 30
0.0
 11
92.366710639467215
 21
-118.4087709802932
 31
0.0
  0
LINE
  5
4CDB
  8
0
  6
BYBLOCK
 10
92.366710639467215
 20
-118.4087709802932
 30
0.0
 11
92.902609019467207
 21
-120.4087709802933
 31
0.0
  0
LINE
  5
4CDC
  8
0
  6
BYBLOCK
 10
92.366710639467215
 20
-118.4087709802932
 30
0.0
 11
92.366710639467215
 21
-120.4087709802933
 31
0.0
  0
LINE
  5
4CDD
  8
0
  6
BYBLOCK
 10
92.902609019467207
 20
-112.4087709802933
 30
0.0
 11
92.366710639467215
 21
-114.4087709802933
 31
0.0
  0
LINE
  5
4CDE
  8
0
  6
BYBLOCK
 10
92.366710639467215
 20
-114.4087709802933
 30
0.0
 11
91.830812259467194
 21
-112.4087709802933
 31
0.0
  0
LINE
  5
4CDF
  8
0
  6
BYBLOCK
 10
92.366710639467215
 20
-114.4087709802933
 30
0.0
 11
92.366710639467215
 21
-112.4087709802933
 31
0.0
  0
TEXT
  5
4CE0
  8
1DIM
 10
199.83934590456789
 20
-157.61755593475129
 30
0.0
 40
3.5
  1
16 
  0
LINE
  5
4CE1
  8
0
  6
BYBLOCK
 10
208.17267923790129
 20
-157.78165755475129
 30
0.0
 11
210.17267923790129
 21
-158.31755593475131
 31
0.0
  0
LINE
  5
4CE2
  8
0
  6
BYBLOCK
 10
210.17267923790129
 20
-158.31755593475131
 30
0.0
 11
208.17267923790129
 21
-158.8534543147513
 31
0.0
  0
LINE
  5
4CE3
  8
0
  6
BYBLOCK
 10
210.17267923790129
 20
-158.31755593475131
 30
0.0
 11
208.17267923790129
 21
-158.31755593475131
 31
0.0
  0
LINE
  5
4CE4
  8
0
  6
BYBLOCK
 10
196.17267923790129
 20
-158.8534543147513
 30
0.0
 11
194.17267923790129
 21
-158.31755593475131
 31
0.0
  0
LINE
  5
4CE5
  8
0
  6
BYBLOCK
 10
194.17267923790129
 20
-158.31755593475131
 30
0.0
 11
196.17267923790129
 21
-157.78165755475129
 31
0.0
  0
LINE
  5
4CE6
  8
0
  6
BYBLOCK
 10
194.17267923790129
 20
-158.31755593475131
 30
0.0
 11
196.17267923790129
 21
-158.31755593475131
 31
0.0
  0
TEXT
  5
4CE7
  8
1DIM
 10
239.68461147137131
 20
-86.492104313626555
 30
0.0
 40
3.5
  1
123 
 50
90.0
  0
LINE
  5
4CE8
  8
0
  6
BYBLOCK
 10
240.92050985137129
 20
-141.9087709802933
 30
0.0
 11
240.3846114713713
 21
-143.9087709802933
 31
0.0
  0
LINE
  5
4CE9
  8
0
  6
BYBLOCK
 10
240.3846114713713
 20
-143.9087709802933
 30
0.0
 11
239.84871309137131
 21
-141.9087709802933
 31
0.0
  0
LINE
  5
4CEA
  8
0
  6
BYBLOCK
 10
240.3846114713713
 20
-143.9087709802933
 30
0.0
 11
240.3846114713713
 21
-141.9087709802933
 31
0.0
  0
LINE
  5
4CEB
  8
0
  6
BYBLOCK
 10
239.84871309137131
 20
-22.90877098029322
 30
0.0
 11
240.3846114713713
 21
-20.90877098029322
 31
0.0
  0
LINE
  5
4CEC
  8
0
  6
BYBLOCK
 10
240.3846114713713
 20
-20.90877098029322
 30
0.0
 11
240.92050985137129
 21
-22.90877098029322
 31
0.0
  0
LINE
  5
4CED
  8
0
  6
BYBLOCK
 10
240.3846114713713
 20
-20.90877098029322
 30
0.0
 11
240.3846114713713
 21
-22.90877098029322
 31
0.0
  0
LINE
  5
4CEE
  8
1DIM
 10
197.0604677364218
 20
-23.580053509704769
 30
0.0
 11
183.9544463109869
 21
-2.9698886681136512
 31
0.0
1001
ACAD
1000
DSTYLE
1002
{
1070
   341
1005
0
1002
}
  0
LINE
  5
4CEF
  8
1DIM
 10
183.9544463109869
 20
-2.9698886681136512
 30
0.0
 11
148.58777964432019
 21
-2.9698886681136512
 31
0.0
1001
ACAD
1000
DSTYLE
1002
{
1070
   341
1005
0
1002
}
  0
LINE
  5
4CF0
  8
1DIM
 10
114.51937808042869
 20
-50.508243908167742
 30
0.0
 11
101.9611744677964
 21
-14.20410138434057
 31
0.0
1001
ACAD
1000
DSTYLE
1002
{
1070
   341
1005
0
1002
}
  0
LINE
  5
4CF1
  8
1DIM
 10
101.9611744677964
 20
-14.20410138434057
 30
0.0
 11
70.794507801129697
 21
-14.20410138434057
 31
0.0
1001
ACAD
1000
DSTYLE
1002
{
1070
   341
1005
0
1002
}
  0
LINE
  5
4CF2
  8
1DIM
 10
116.8772383943071
 20
-93.080789248188836
 30
0.0
 11
124.9024859701497
 21
-83.038312753316106
 31
0.0
1001
ACAD
1000
DSTYLE
1002
{
1070
   341
1005
0
1002
}
  0
LINE
  5
4CF3
  8
1DIM
 10
124.9024859701497
 20
-83.038312753316106
 30
0.0
 11
172.86915263681641
 21
-83.038312753316106
 31
0.0
1001
ACAD
1000
DSTYLE
1002
{
1070
   341
1005
0
1002
}
  0
VIEWPORT
  5
57
 67
     1
  8
0
 10
-7.7295765619316512
 20
11.073494138708821
 30
0.0
 40
413.26236075899033
 41
274.03098452472818
 68
     1
 69
     1
1001
ACAD
1000
MVIEW
1002
{
1070
    16
1010
0.0
1020
0.0
1030
0.0
1010
0.0
1020
0.0
1030
1.0
1040
0.0
1040
274.03098452472818
1040
-7.7295765619316512
1040
11.073494138708821
1040
50.0
1040
0.0
1040
0.0
1070
     0
1070
   100
1070
     1
1070
     1
1070
     0
1070
     0
1070
     0
1070
     0
1040
0.0
1040
0.0
1040
0.0
1040
10.0
1040
10.0
1040
10.0
1040
10.0
1070
     0
1002
{
1002
}
1002
}
  0
ENDSEC
  0
EOF
