  0
SECTION
  2
HEADER
  9
$ACADVER
  1
AC1009
  9
$INSBASE
 10
0.0
 20
0.0
 30
0.0
  9
$EXTMIN
 10
118.44371640889349
 20
-170.5336666342948
 30
0.0
  9
$EXTMAX
 10
358.52689716809027
 20
49.528639287409071
 30
0.0
  9
$LIMMIN
 10
0.0
 20
0.0
  9
$LIMMAX
 10
420.0
 20
297.0
  9
$ORTHOMODE
 70
     0
  9
$REGENMODE
 70
     1
  9
$FILLMODE
 70
     1
  9
$QTEXTMODE
 70
     0
  9
$MIRRTEXT
 70
     1
  9
$DRAGMODE
 70
     2
  9
$LTSCALE
 40
0.5
  9
$OSMODE
 70
  2175
  9
$ATTMODE
 70
     1
  9
$TEXTSIZE
 40
3.5
  9
$TRACEWID
 40
1.0
  9
$TEXTSTYLE
  7
STANDARD
  9
$CLAYER
  8
1TEXT
  9
$CELTYPE
  6
BYLAYER
  9
$CECOLOR
 62
   256
  9
$DIMSCALE
 40
1.0
  9
$DIMASZ
 40
2.0
  9
$DIMEXO
 40
0.0
  9
$DIMDLI
 40
7.0
  9
$DIMRND
 40
0.0
  9
$DIMDLE
 40
0.0
  9
$DIMEXE
 40
1.0
  9
$DIMTP
 40
0.0
  9
$DIMTM
 40
0.0
  9
$DIMTXT
 40
3.5
  9
$DIMCEN
 40
0.0
  9
$DIMTSZ
 40
0.0
  9
$DIMTOL
 70
     0
  9
$DIMLIM
 70
     0
  9
$DIMTIH
 70
     0
  9
$DIMTOH
 70
     0
  9
$DIMSE1
 70
     0
  9
$DIMSE2
 70
     0
  9
$DIMTAD
 70
     1
  9
$DIMZIN
 70
     8
  9
$DIMBLK
  1

  9
$DIMASO
 70
     1
  9
$DIMSHO
 70
     1
  9
$DIMPOST
  1
 
  9
$DIMAPOST
  1

  9
$DIMALT
 70
     0
  9
$DIMALTD
 70
     2
  9
$DIMALTF
 40
25.399999999999999
  9
$DIMLFAC
 40
1.0
  9
$DIMTOFL
 70
     1
  9
$DIMTVP
 40
0.0
  9
$DIMTIX
 70
     0
  9
$DIMSOXD
 70
     0
  9
$DIMSAH
 70
     1
  9
$DIMBLK1
  1
OPEN30
  9
$DIMBLK2
  1
OPEN30
  9
$DIMSTYLE
  2
NEWX10
  9
$DIMCLRD
 70
   256
  9
$DIMCLRE
 70
   256
  9
$DIMCLRT
 70
   201
  9
$DIMTFAC
 40
0.7
  9
$DIMGAP
 40
0.7
  9
$LUNITS
 70
     2
  9
$LUPREC
 70
     4
  9
$SKETCHINC
 40
1.0
  9
$FILLETRAD
 40
0.0
  9
$AUNITS
 70
     0
  9
$AUPREC
 70
     2
  9
$MENU
  1
acad
  9
$ELEVATION
 40
0.0
  9
$PELEVATION
 40
0.0
  9
$THICKNESS
 40
0.0
  9
$LIMCHECK
 70
     0
  9
$BLIPMODE
 70
     0
  9
$CHAMFERA
 40
1.1999999999999991
  9
$CHAMFERB
 40
1.1999999999999991
  9
$SKPOLY
 70
     0
  9
$TDCREATE
 40
2451318.621352917
  9
$TDUPDATE
 40
2455016.7237720611
  9
$TDINDWG
 40
0.5218475694
  9
$TDUSRTIMER
 40
0.5218475694
  9
$USRTIMER
 70
     1
  9
$ANGBASE
 50
0.0
  9
$ANGDIR
 70
     0
  9
$PDMODE
 70
     0
  9
$PDSIZE
 40
0.0
  9
$PLINEWID
 40
0.0
  9
$COORDS
 70
     2
  9
$SPLFRAME
 70
     0
  9
$SPLINETYPE
 70
     6
  9
$SPLINESEGS
 70
     8
  9
$ATTDIA
 70
     0
  9
$ATTREQ
 70
     1
  9
$HANDLING
 70
     1
  9
$HANDSEED
  5
4A97
  9
$SURFTAB1
 70
     6
  9
$SURFTAB2
 70
     6
  9
$SURFTYPE
 70
     6
  9
$SURFU
 70
     6
  9
$SURFV
 70
     6
  9
$UCSNAME
  2

  9
$UCSORG
 10
0.0
 20
0.0
 30
0.0
  9
$UCSXDIR
 10
1.0
 20
0.0
 30
0.0
  9
$UCSYDIR
 10
0.0
 20
1.0
 30
0.0
  9
$PUCSNAME
  2

  9
$PUCSORG
 10
0.0
 20
0.0
 30
0.0
  9
$PUCSXDIR
 10
1.0
 20
0.0
 30
0.0
  9
$PUCSYDIR
 10
0.0
 20
1.0
 30
0.0
  9
$USERI1
 70
     0
  9
$USERI2
 70
     0
  9
$USERI3
 70
     0
  9
$USERI4
 70
     0
  9
$USERI5
 70
     0
  9
$USERR1
 40
0.0
  9
$USERR2
 40
0.0
  9
$USERR3
 40
0.0
  9
$USERR4
 40
0.0
  9
$USERR5
 40
0.0
  9
$WORLDVIEW
 70
     1
  9
$SHADEDGE
 70
     3
  9
$SHADEDIF
 70
    70
  9
$TILEMODE
 70
     1
  9
$MAXACTVP
 70
    48
  9
$PLIMCHECK
 70
     0
  9
$PEXTMIN
 10
1.0000000000000000E+020
 20
1.0000000000000000E+020
 30
1.0000000000000000E+020
  9
$PEXTMAX
 10
-1.0000000000000000E+020
 20
-1.0000000000000000E+020
 30
-1.0000000000000000E+020
  9
$PLIMMIN
 10
0.0
 20
0.0
  9
$PLIMMAX
 10
420.0
 20
297.0
  9
$UNITMODE
 70
     0
  9
$VISRETAIN
 70
     1
  9
$PLINEGEN
 70
     0
  9
$PSLTSCALE
 70
     1
  0
ENDSEC
  0
SECTION
  2
TABLES
  0
TABLE
  2
VPORT
 70
     1
  0
VPORT
  2
*ACTIVE
 70
     0
 10
0.0
 20
0.0
 11
1.0
 21
1.0
 12
238.48663431183289
 22
-60.506020723648021
 13
0.0
 23
0.0
 14
10.0
 24
10.0
 15
10.0
 25
10.0
 16
0.0
 26
0.0
 36
1.0
 17
0.0
 27
0.0
 37
0.0
 40
233.41781851740581
 41
1.4123581336696089
 42
50.0
 43
0.0
 44
0.0
 50
0.0
 51
0.0
 71
     0
 72
  1000
 73
     1
 74
     1
 75
     0
 76
     0
 77
     0
 78
     0
  0
ENDTAB
  0
TABLE
  2
LTYPE
 70
    12
  0
LTYPE
  2
CONTINUOUS
 70
     0
  3
Solid line
 72
    65
 73
     0
 40
0.0
  0
LTYPE
  2
XREF1|CENTER2
 70
    48
  3
Center (.5x) ___ _ ___ _ ___ _ ___ _ ___ _ ___
 72
    65
 73
     4
 40
28.574999999999999
 49
19.050000000000001
 49
-3.1749999999999989
 49
3.1749999999999989
 49
-3.1749999999999989
  0
LTYPE
  2
A3WAKUDAKE|CENTER2
 70
    48
  3
Center (.5x) ___ _ ___ _ ___ _ ___ _ ___ _ ___
 72
    65
 73
     4
 40
28.574999999999999
 49
19.050000000000001
 49
-3.1749999999999989
 49
3.1749999999999989
 49
-3.1749999999999989
  0
ENDTAB
  0
TABLE
  2
LAYER
 70
    40
  0
LAYER
  2
0
 70
     0
 62
     7
  6
CONTINUOUS
  0
LAYER
  2
1TEXT
 70
     0
 62
     7
  6
CONTINUOUS
  0
LAYER
  2
XREF1|1CENTER
 70
    48
 62
     7
  6
XREF1|CENTER2
  0
LAYER
  2
01
 70
     0
 62
     1
  6
CONTINUOUS
  0
LAYER
  2
A3WAKUDAKE|THICK
 70
    48
 62
     7
  6
CONTINUOUS
  0
LAYER
  2
A3WAKUDAKE|POINT
 70
    48
 62
     7
  6
CONTINUOUS
  0
LAYER
  2
A3WAKUDAKE|1CENTER
 70
    48
 62
     7
  6
A3WAKUDAKE|CENTER2
  0
LAYER
  2
A3WAKUDAKE|0-6
 70
    48
 62
     7
  6
CONTINUOUS
  0
LAYER
  2
A3WAKUDAKE|1DIM
 70
    48
 62
     7
  6
CONTINUOUS
  0
ENDTAB
  0
TABLE
  2
STYLE
 70
     4
  0
STYLE
  2
STANDARD
 70
     0
 40
0.0
 41
1.0
 50
0.0
 71
     0
 42
3.5
  3
romans.shx
  4
extfont2.shx
  0
ENDTAB
  0
TABLE
  2
VIEW
 70
     0
  0
ENDTAB
  0
TABLE
  2
UCS
 70
     0
  0
ENDTAB
  0
TABLE
  2
APPID
 70
    10
  0
APPID
  2
ACAD
 70
     0
  0
APPID
  2
DRAWINGVARIABLESXDATA
 70
     0
  0
APPID
  2
CONTENTTABDATA
 70
     0
  0
APPID
  2
CONTENTCURRENTTAB
 70
     0
  0
APPID
  2
CONTENTBLOCKDESCRIPTION
 70
     0
  0
APPID
  2
CONTENTBLOCKICON
 70
     0
  0
APPID
  2
CONTENTLONGBLOCKNAME
 70
     0
  0
APPID
  2
ACAD_PSEXT
 70
     0
  0
APPID
  2
ACAD_MLEADERVER
 70
     0
  0
APPID
  2
ACAD_DSTYLE_DIMRADIAL_EXTENSION
 70
     0
  0
ENDTAB
  0
TABLE
  2
DIMSTYLE
 70
     5
  0
DIMSTYLE
  2
NEWX10
 70
     0
  3
 
  4

  5

  6
OPEN30
  7
OPEN30
 40
1.0
 41
2.0
 42
0.0
 43
7.0
 44
1.0
 45
0.0
 46
0.0
 47
0.0
 48
0.0
140
3.5
141
0.0
142
0.0
143
25.399999999999999
144
1.0
145
0.0
146
0.7
147
0.7
 71
     0
 72
     0
 73
     0
 74
     0
 75
     0
 76
     0
 77
     1
 78
     8
170
     0
171
     2
172
     1
173
     1
174
     0
175
     0
176
   256
177
   256
178
   201
  0
ENDTAB
  0
ENDSEC
  0
SECTION
  2
BLOCKS
  0
BLOCK
  8
0
  2
$MODEL_SPACE
 70
     0
 10
0.0
 20
0.0
 30
0.0
  3
$MODEL_SPACE
  1

  0
ENDBLK
  5
1A
  8
0
  0
BLOCK
 67
     1
  8
0
  2
$PAPER_SPACE
 70
     0
 10
0.0
 20
0.0
 30
0.0
  3
$PAPER_SPACE
  1

  0
ENDBLK
  5
17
 67
     1
  8
0
  0
BLOCK
  8
0
  2
_OPEN30
 70
     0
 10
0.0
 20
0.0
 30
0.0
  3
_OPEN30
  1

  0
LINE
  5
44
  8
0
  6
BYBLOCK
 62
     0
 10
-1.0
 20
0.26794919
 30
0.0
 11
0.0
 21
0.0
 31
0.0
  0
LINE
  5
45
  8
0
  6
BYBLOCK
 62
     0
 10
0.0
 20
0.0
 30
0.0
 11
-1.0
 21
-0.26794919
 31
0.0
  0
LINE
  5
46
  8
0
  6
BYBLOCK
 62
     0
 10
0.0
 20
0.0
 30
0.0
 11
-1.0
 21
0.0
 31
0.0
  0
ENDBLK
  5
47
  8
0
  0
BLOCK
  8
0
  2
XREF1
 70
    36
 10
0.0
 20
0.0
 30
0.0
  3
XREF1
  1
D:\ACLT\FORMAT\KAWAJUN(9)図面用.dwg
  0
ENDBLK
  5
5D
  8
0
  0
BLOCK
  8
0
  2
A3WAKUDAKE
 70
    36
 10
0.0
 20
0.0
 30
0.0
  3
A3WAKUDAKE
  1
D:\ACLT\FORMAT\A3WAKUdake.dwg
  0
ENDBLK
  5
3366
  8
0
  0
BLOCK
  8
0
  2
*U35
 70
     1
 10
0.0
 20
0.0
 30
0.0
  3
*U35
  1

  0
LINE
  5
4A20
  8
0
 10
-4.7499941827476269
 20
1.500051962965244
 30
0.0
 11
-1.6999825490125879
 21
1.5000142687798641
 31
0.0
  0
LINE
  5
4A21
  8
0
 10
-4.9999912742822508
 20
1.250054871430506
 30
0.0
 11
-4.7499941827476269
 21
1.500051962965244
 31
0.0
  0
LINE
  5
4A22
  8
0
 10
-0.1999790588486121
 20
3.0000003080426718
 30
0.0
 11
-1.6999825490125879
 21
1.5000142687798641
 31
0.0
  0
LINE
  5
4A23
  8
0
 10
-4.9999912742822508
 20
1.250054871430506
 30
0.0
 11
-5.0000087252440153
 21
-1.249945128534363
 31
0.0
  0
LINE
  5
4A24
  8
0
 10
-0.1999790588486121
 20
3.0000003080426718
 30
0.0
 11
0.0000209411432479
 21
2.9999984466066958
 31
0.0
  0
LINE
  5
4A25
  8
0
 10
-5.0000087252440153
 20
-1.249945128534363
 30
0.0
 11
-4.7500058167220232
 21
-1.4999480370562419
 31
0.0
  0
LINE
  5
4A26
  8
0
 10
0.0000209411432479
 20
2.9999984466066958
 30
0.0
 11
-0.0000209411649621
 21
-3.000001553263246
 31
0.0
  0
LINE
  5
4A27
  8
0
 10
-4.7500058167220232
 20
-1.4999480370562419
 30
0.0
 11
-1.7000244313859409
 21
-1.4999857309602469
 31
0.0
  0
LINE
  5
4A28
  8
0
 10
-0.2000209411568221
 20
-2.9999996918273828
 30
0.0
 11
-0.0000209411649621
 21
-3.000001553263246
 31
0.0
  0
LINE
  5
4A29
  8
0
 10
-0.2000209411568221
 20
-2.9999996918273828
 30
0.0
 11
-1.7000244313859409
 21
-1.4999857309602469
 31
0.0
  0
ENDBLK
  5
4A2B
  8
0
  0
BLOCK
  8
0
  2
*U36
 70
     1
 10
0.0
 20
0.0
 30
0.0
  3
*U36
  1

  0
TEXT
  5
4A30
  8
1TEXT
 62
   201
 10
217.78366853067061
 20
2.653185306401793
 30
0.0
 40
3.5
  1
B.S.38
  0
ENDBLK
  5
4A32
  8
0
  0
BLOCK
  8
0
  2
*U37
 70
     1
 10
0.0
 20
0.0
 30
0.0
  3
*U37
  1

  0
TEXT
  5
4A34
  8
1TEXT
 62
   201
 10
278.52964952895201
 20
-19.482244740596531
 30
0.0
 40
3.5
  1
21
 50
90.0
  0
ENDBLK
  5
4A36
  8
0
  0
BLOCK
  8
0
  2
*U38
 70
     1
 10
0.0
 20
0.0
 30
0.0
  3
*U38
  1

  0
TEXT
  5
4A38
  8
1TEXT
 62
   201
 10
278.52964952895212
 20
-121.1822412405964
 30
0.0
 40
3.5
  1
21
 50
90.0
  0
ENDBLK
  5
4A3A
  8
0
  0
BLOCK
  8
0
  2
*U39
 70
     1
 10
0.0
 20
0.0
 30
0.0
  3
*U39
  1

  0
TEXT
  5
4A3C
  8
1TEXT
 62
   201
 10
288.03170213620149
 20
-111.0822422405964
 30
0.0
 40
3.5
  1
47.5
 50
90.0
  0
ENDBLK
  5
4A3E
  8
0
  0
BLOCK
  8
0
  2
*U40
 70
     1
 10
0.0
 20
0.0
 30
0.0
  3
*U40
  1

  0
TEXT
  5
4A40
  8
1TEXT
 62
   201
 10
216.33366853067031
 20
-143.4158342788262
 30
0.0
 40
3.5
  1
58 （ケース奥行）
  0
ENDBLK
  5
4A42
  8
0
  0
BLOCK
  8
0
  2
*U41
 70
     1
 10
0.0
 20
0.0
 30
0.0
  3
*U41
  1

  0
TEXT
  5
4A44
  8
1TEXT
 62
   201
 10
277.80498998562632
 20
-164.20033430096129
 30
0.0
 40
3.5
  1
7
 50
90.0
  0
ENDBLK
  5
4A46
  8
0
  0
BLOCK
  8
0
  2
*U42
 70
     1
 10
0.0
 20
0.0
 30
0.0
  3
*U42
  1

  0
TEXT
  5
4A48
  8
1TEXT
 62
   201
 10
189.48033651349351
 20
-164.2003333009614
 30
0.0
 40
3.5
  1
3
 50
90.0
  0
ENDBLK
  5
4A4A
  8
0
  0
BLOCK
  8
0
  2
*U43
 70
     1
 10
0.0
 20
0.0
 30
0.0
  3
*U43
  1

  0
TEXT
  5
4A4C
  8
1TEXT
 62
   201
 10
182.7094566610993
 20
-166.11699996762809
 30
0.0
 40
3.5
  1
16
 50
90.0
  0
ENDBLK
  5
4A4E
  8
0
  0
BLOCK
  8
0
  2
*U44
 70
     1
 10
0.0
 20
0.0
 30
0.0
  3
*U44
  1

  0
TEXT
  5
4A50
  8
1TEXT
 62
   201
 10
158.2287826688941
 20
-142.70746661599631
 30
0.0
 40
3.5
  1
16
  0
ENDBLK
  5
4A52
  8
0
  0
BLOCK
  8
0
  2
*U45
 70
     1
 10
0.0
 20
0.0
 30
0.0
  3
*U45
  1

  0
TEXT
  5
4A54
  8
1TEXT
 62
   201
 10
202.5336417181241
 20
-90.677510285564765
 30
0.0
 40
3.5
  1
6
  0
ENDBLK
  5
4A56
  8
0
  0
BLOCK
  8
0
  2
*U46
 70
     1
 10
0.0
 20
0.0
 30
0.0
  3
*U46
  1

  0
TEXT
  5
4A58
  8
1TEXT
 62
   201
 10
278.52964952895201
 20
-85.548910207263177
 30
0.0
 40
3.5
  1
81（ケース高さ）
 50
90.0
  0
ENDBLK
  5
4A5A
  8
0
  0
BLOCK
  8
0
  2
*U47
 70
     1
 10
0.0
 20
0.0
 30
0.0
  3
*U47
  1

  0
TEXT
  5
4A5C
  8
1TEXT
 62
   201
 10
194.75033496233689
 20
-137.39410573926199
 30
0.0
 40
3.5
  1
2.7
  0
ENDBLK
  5
4A5E
  8
0
  0
BLOCK
  8
0
  2
*U48
 70
     1
 10
0.0
 20
0.0
 30
0.0
  3
*U48
  1

  0
LINE
  5
4A60
  8
0
 10
-0.0000093071795959
 20
-4.0
 30
0.0
 11
0.0000093071795959
 21
4.0
 31
0.0
  0
LINE
  5
4A61
  8
0
 10
-0.2999906928214955
 20
4.0
 30
0.0
 11
0.0000093071795959
 21
4.0
 31
0.0
  0
LINE
  5
4A62
  8
0
 10
-0.3000093071805736
 20
-4.0
 30
0.0
 11
-0.0000093071795959
 21
-4.0
 31
0.0
  0
LINE
  5
4A63
  8
0
 10
-0.2999906928214955
 20
4.0
 30
0.0
 11
-2.8000197779268201
 21
1.5
 31
0.0
  0
LINE
  5
4A64
  8
0
 10
-0.3000093071805736
 20
-4.0
 30
0.0
 11
-2.799991856279632
 21
-1.5
 31
0.0
  0
LINE
  5
4A65
  8
0
 10
-14.69999650980861
 20
1.5
 30
0.0
 11
-2.8000197779268201
 21
1.5
 31
0.0
  0
LINE
  5
4A66
  8
0
 10
-14.700003490193289
 20
-1.5
 30
0.0
 11
-2.799991856279632
 21
-1.5
 31
0.0
  0
LINE
  5
4A67
  8
0
 10
-20.000000000054168
 20
0.0
 30
0.0
 11
-14.69999650980861
 21
1.5
 31
0.0
  0
LINE
  5
4A68
  8
0
 10
-20.000000000054168
 20
0.0
 30
0.0
 11
-14.700003490193289
 21
-1.5
 31
0.0
  0
ENDBLK
  5
4A6A
  8
0
  0
BLOCK
  8
0
  2
*U49
 70
     1
 10
0.0
 20
0.0
 30
0.0
  3
*U49
  1

  0
TEXT
  5
4A6C
  8
1TEXT
 62
   201
 10
288.03170213620137
 20
-49.582242240596493
 30
0.0
 40
3.5
  1
75.5
 50
90.0
  0
ENDBLK
  5
4A6E
  8
0
  0
BLOCK
  8
0
  2
*U50
 70
     1
 10
0.0
 20
0.0
 30
0.0
  3
*U50
  1

  0
TEXT
  5
4A70
  8
1TEXT
 62
   201
 10
337.9844738347569
 20
-67.757042436904428
 30
0.0
 40
3.5
  1
32
  0
ENDBLK
  5
4A72
  8
0
  0
BLOCK
  8
0
  2
*U51
 70
     1
 10
0.0
 20
0.0
 30
0.0
  3
*U51
  1

  0
TEXT
  5
4A74
  8
1TEXT
 62
   201
 10
340.58896498974588
 20
-119.7277843907148
 30
0.0
 40
3.5
  1
20
  0
ENDBLK
  5
4A76
  8
0
  0
BLOCK
  8
0
  2
*U52
 70
     1
 10
0.0
 20
0.0
 30
0.0
  3
*U52
  1

  0
TEXT
  5
4A78
  8
1TEXT
 62
   201
 10
327.38626439073607
 20
-102.0749725014642
 30
0.0
 40
3.5
  1
φ4
 50
90.0
  0
ENDBLK
  5
4A7A
  8
0
  0
BLOCK
  8
0
  2
*U53
 70
     1
 10
0.0
 20
0.0
 30
0.0
  3
*U53
  1

  0
TEXT
  5
4A7C
  8
1TEXT
 62
   201
 10
335.4844738347569
 20
-48.854433691428952
 30
0.0
 40
3.5
  1
27
  0
ENDBLK
  5
4A7E
  8
0
  0
BLOCK
  8
0
  2
*U54
 70
     1
 10
0.0
 20
0.0
 30
0.0
  3
*U54
  1

  0
TEXT
  5
4A80
  8
1TEXT
 62
   201
 10
332.9844738347569
 20
-27.60071169142897
 30
0.0
 40
3.5
  1
22
  0
ENDBLK
  5
4A82
  8
0
  0
BLOCK
  8
0
  2
*U55
 70
     1
 10
0.0
 20
0.0
 30
0.0
  3
*U55
  1

  0
TEXT
  5
4A84
  8
1TEXT
 62
   201
 10
129.9933472986514
 20
-72.748909107263174
 30
0.0
 40
3.5
  1
123
 50
90.0
  0
ENDBLK
  5
4A86
  8
0
  0
BLOCK
  8
0
  2
*U56
 70
     1
 10
0.0
 20
0.0
 30
0.0
  3
*U56
  1

  0
TEXT
  5
4A88
  8
1TEXT
 62
   201
 10
169.29861811948541
 20
-6.0893626812023989
 30
0.0
 40
3.5
  1
R6
 50
42.145959113669342
  0
ENDBLK
  5
4A8A
  8
0
  0
BLOCK
  8
0
  2
*U57
 70
     1
 10
0.0
 20
0.0
 30
0.0
  3
*U57
  1

  0
TEXT
  5
4A8C
  8
1TEXT
 62
   201
 10
139.13289869920459
 20
-3.7989091072631598
 30
0.0
 40
3.5
  1
8.5
 50
90.0
  0
ENDBLK
  5
4A8E
  8
0
  0
BLOCK
  8
0
  2
*U58
 70
     1
 10
0.0
 20
0.0
 30
0.0
  3
*U58
  1

  0
TEXT
  5
4A90
  8
1TEXT
 62
   201
 10
139.13289869920459
 20
-89.048909107263128
 30
0.0
 40
3.5
  1
取付けネジピッチ106
 50
90.0
  0
ENDBLK
  5
4A92
  8
0
  0
BLOCK
  8
0
  2
*U59
 70
     1
 10
0.0
 20
0.0
 30
0.0
  3
*U59
  1

  0
TEXT
  5
4A94
  8
1TEXT
 62
   201
 10
202.1170018640037
 20
-95.775687777174014
 30
0.0
 40
3.5
  1
7
  0
ENDBLK
  5
4A96
  8
0
  0
ENDSEC
  0
SECTION
  2
ENTITIES
  0
LINE
  5
DA9
  8
01
 10
209.98366836567041
 20
-106.49890970726319
 30
0.0
 11
215.98366526567051
 21
-106.49890970726319
 31
0.0
  0
LINE
  5
DAA
  8
01
 10
209.9836652656704
 20
-107.69890670726321
 30
0.0
 11
263.78366876567031
 21
-107.69890670726321
 31
0.0
  0
LINE
  5
DAC
  8
01
 10
209.98366836567041
 20
-28.49891070726321
 30
0.0
 11
215.98366526567051
 21
-28.49891070726321
 31
0.0
  0
LINE
  5
DAD
  8
01
 10
209.98366836567041
 20
-27.298913707263271
 30
0.0
 11
263.78366876567031
 21
-27.298913707263271
 31
0.0
  0
LINE
  5
DAE
  8
01
 10
208.78362638336219
 20
-90.49890870711701
 30
0.0
 11
208.78366826567029
 21
-99.498908707263212
 31
0.0
  0
LINE
  5
DB0
  8
01
 10
208.78366826567029
 20
-107.6989097072632
 30
0.0
 11
208.78366826567029
 21
-128.49890910726319
 31
0.0
  0
LINE
  5
DB1
  8
01
 10
209.9836652656704
 20
-107.69890670726321
 30
0.0
 11
209.9836652656704
 21
-128.49890910726319
 31
0.0
  0
LINE
  5
DB3
  8
01
 10
208.78366826567029
 20
-128.49890910726319
 30
0.0
 11
209.9836652656704
 21
-128.49890910726319
 31
0.0
  0
LINE
  5
DB4
  8
01
 10
215.9836652656704
 20
-106.49890970726319
 30
0.0
 11
215.9836652656704
 21
-107.69890670726321
 31
0.0
  0
ARC
  5
DB9
  8
01
 10
209.98366836567041
 20
-107.6989097072632
 30
0.0
 40
1.1999999999999991
 50
90.000003000000149
 51
180.00000999999941
  0
CIRCLE
  5
DBA
  8
01
 10
221.48360723213031
 20
-97.399636112875015
 30
0.0
 40
1.5
  0
LINE
  5
DC0
  8
01
 10
239.98366476567031
 20
-106.49890970726319
 30
0.0
 11
239.98366476567031
 21
-107.69890670726321
 31
0.0
  0
LINE
  5
DC5
  8
01
 10
244.98366476567031
 20
-106.49890970726319
 30
0.0
 11
244.98366476567031
 21
-107.69890670726321
 31
0.0
  0
LINE
  5
DC8
  8
01
 10
208.78366826567029
 20
-35.498910707263207
 30
0.0
 11
208.78366826567029
 21
-72.498910707263207
 31
0.0
  0
CIRCLE
  5
DD3
  8
01
 10
245.2836687656704
 20
-68.998910707263207
 30
0.0
 40
3.5
  0
CIRCLE
  5
DD4
  8
01
 10
245.2836687656704
 20
-81.498908707263226
 30
0.0
 40
4.0999998999999994
  0
POINT
  5
DD5
  8
01
 10
245.2836687656704
 20
-81.498908707263226
 30
0.0
  0
LINE
  5
DD6
  8
01
 10
215.9836652656704
 20
-27.298913707263271
 30
0.0
 11
215.9836652656704
 21
-28.49891070726321
 31
0.0
  0
ARC
  5
DD7
  8
01
 10
209.98366836567041
 20
-27.298913707263271
 30
0.0
 40
1.1999999999999991
 50
179.99999000000059
 51
270.0
  0
LINE
  5
DEC
  8
01
 10
208.78366826567029
 20
-6.4989137072631991
 30
0.0
 11
208.78366826567029
 21
-27.298913707263271
 31
0.0
  0
LINE
  5
DED
  8
01
 10
209.98366836567041
 20
-6.4989137072631991
 30
0.0
 11
209.98366836567041
 21
-27.298913707263271
 31
0.0
  0
LINE
  5
DEE
  8
01
 10
209.93921486567029
 20
-23.029567707263229
 30
0.0
 11
209.98373596567041
 21
-22.985046707263201
 31
0.0
  0
LINE
  5
DF1
  8
01
 10
208.78366826567029
 20
-6.4989137072631991
 30
0.0
 11
209.98366836567041
 21
-6.4989137072631991
 31
0.0
  0
LINE
  5
DF4
  8
01
 10
239.98366476567031
 20
-27.298913707263271
 30
0.0
 11
239.98366476567031
 21
-28.49891070726321
 31
0.0
  0
LINE
  5
DF5
  8
01
 10
244.98366476567031
 20
-27.298913707263271
 30
0.0
 11
244.98366476567031
 21
-28.49891070726321
 31
0.0
  0
LINE
  5
DF7
  8
01
 10
264.98366876567019
 20
-28.49891370726327
 30
0.0
 11
264.98366876567019
 21
-106.4989067072632
 31
0.0
  0
LINE
  5
DFA
  8
01
 10
263.78366876567043
 20
-64.498910707263207
 30
0.0
 11
264.98366876567019
 21
-64.498910707263207
 31
0.0
  0
LINE
  5
DFB
  8
01
 10
263.78366876567043
 20
-70.498910707263207
 30
0.0
 11
264.98366876567019
 21
-70.498910707263207
 31
0.0
  0
LINE
  5
17A8
  8
01
 10
169.81211600222741
 20
-11.998909107263181
 30
0.0
 11
169.81211600222741
 21
-122.9989091072631
 31
0.0
  0
LINE
  5
17A9
  8
01
 10
153.81211600222741
 20
-11.998909107263181
 30
0.0
 11
153.81211600222741
 21
-122.9989091072631
 31
0.0
  0
LINE
  5
17AA
  8
01
 10
159.81211600222741
 20
-128.99890910726319
 30
0.0
 11
163.81211600222741
 21
-128.99890910726319
 31
0.0
  0
LINE
  5
17AB
  8
01
 10
159.81211600222741
 20
-5.9989091072631791
 30
0.0
 11
163.81211600222741
 21
-5.9989091072631791
 31
0.0
  0
LINE
  5
17AC
  8
01
 10
160.51211200222741
 20
-42.998909107263167
 30
0.0
 11
163.11211900222739
 21
-42.998909107263167
 31
0.0
  0
LINE
  5
17AE
  8
01
 10
156.3070420022274
 20
-14.498909107263181
 30
0.0
 11
167.8883100022274
 21
-14.498909107263181
 31
0.0
  0
LINE
  5
17AF
  8
01
 10
156.3070420022274
 20
-120.4989091072631
 30
0.0
 11
167.8883100022274
 21
-120.4989091072631
 31
0.0
  0
LINE
  5
17B0
  8
01
 10
160.01211200222741
 20
-43.498909107263181
 30
0.0
 11
160.01211200222741
 21
-74.998907107263179
 31
0.0
  0
LINE
  5
17B1
  8
01
 10
163.61211900222739
 20
-43.498909107263181
 30
0.0
 11
163.61211900222739
 21
-74.998907107263179
 31
0.0
  0
ARC
  5
17B2
  8
01
 10
159.81211600222741
 20
-11.998909107263181
 30
0.0
 40
6.0
 50
90.000002999999325
 51
180.000010000001
  0
ARC
  5
17B3
  8
01
 10
163.81211600222741
 20
-11.998909107263181
 30
0.0
 40
6.0
 50
0.0
 51
90.000002999999325
  0
ARC
  5
17B4
  8
01
 10
163.81211600222741
 20
-122.9989091072631
 30
0.0
 40
6.0
 50
270.0
 51
0.0
  0
ARC
  5
17B5
  8
01
 10
159.81211600222741
 20
-122.9989091072631
 30
0.0
 40
6.0
 50
179.999989999999
 51
270.0
  0
CIRCLE
  5
17B6
  8
01
 10
161.81211600222741
 20
-14.498909107263181
 30
0.0
 40
3.4000015000000001
  0
CIRCLE
  5
17B7
  8
01
 10
161.81211600222741
 20
-14.498909107263181
 30
0.0
 40
4.4000009999999996
  0
CIRCLE
  5
17B8
  8
01
 10
161.81211600222741
 20
-120.4989091072631
 30
0.0
 40
4.4000009999999996
  0
CIRCLE
  5
17B9
  8
01
 10
161.81211600222741
 20
-120.4989091072631
 30
0.0
 40
3.4000015000000001
  0
ARC
  5
17BA
  8
01
 10
160.51211200222741
 20
-43.498909107263181
 30
0.0
 40
0.5
 50
90.000002999999325
 51
180.000010000001
  0
ARC
  5
17BB
  8
01
 10
163.11211900222739
 20
-43.498909107263181
 30
0.0
 40
0.5
 50
0.0
 51
90.000002999999325
  0
ARC
  5
17BC
  8
01
 10
163.11211900222739
 20
-74.998907107263179
 30
0.0
 40
0.5
 50
293.57774087518669
 51
0.0
  0
ARC
  5
17BD
  8
01
 10
160.51211200222741
 20
-74.998907107263179
 30
0.0
 40
0.5
 50
179.999989999999
 51
246.42225912481331
  0
CIRCLE
  5
17D8
  8
01
 10
161.8121595766298
 20
-102.7992344172343
 30
0.0
 40
2.149999999999999
  0
LINE
  5
1920
  8
01
 10
207.28366829567031
 20
-5.998909107263187
 30
0.0
 11
207.28366829567031
 21
-128.9989091072631
 31
0.0
  0
LINE
  5
1921
  8
01
 10
208.78366826567029
 20
-5.998909107263187
 30
0.0
 11
208.78366826567029
 21
-128.9989091072631
 31
0.0
  0
LINE
  5
1922
  8
01
 10
205.55842380772421
 20
-120.4989091072632
 30
0.0
 11
213.01941454462781
 21
-120.4989091072632
 31
0.0
  0
LINE
  5
1924
  8
01
 10
209.9836652656704
 20
-117.0989141072632
 30
0.0
 11
208.53367628567031
 21
-117.0989141072631
 31
0.0
  0
LINE
  5
1925
  8
01
 10
209.9836652656704
 20
-123.8989111072632
 30
0.0
 11
208.5336651956703
 21
-123.8989111072631
 31
0.0
  0
LINE
  5
1927
  8
01
 10
207.28366829567031
 20
-128.9989091072631
 30
0.0
 11
208.78366826567029
 21
-128.9989091072631
 31
0.0
  0
LINE
  5
1928
  8
01
 10
208.53366829567031
 20
-123.8989071072631
 30
0.0
 11
207.28366825567031
 21
-125.1489071072631
 31
0.0
  0
LINE
  5
192A
  8
01
 10
208.53367092567029
 20
-117.0989081072631
 30
0.0
 11
207.28366825567031
 21
-115.8489041072631
 31
0.0
  0
LINE
  5
192E
  8
01
 10
203.8834457656703
 20
-14.49890910726319
 30
0.0
 11
215.38005426567031
 21
-14.49890910726319
 31
0.0
  0
LINE
  5
1932
  8
01
 10
209.98366836567041
 20
-17.89890310726318
 30
0.0
 11
208.53367628567031
 21
-17.89890310726318
 31
0.0
  0
LINE
  5
1934
  8
01
 10
208.53367092567029
 20
-17.89891110726316
 30
0.0
 11
207.2836696056703
 21
-19.14891110726316
 31
0.0
  0
LINE
  5
1936
  8
01
 10
207.28366829567031
 20
-5.998909107263187
 30
0.0
 11
208.78366826567029
 21
-5.998909107263187
 31
0.0
  0
LINE
  5
1937
  8
01
 10
209.98366836567041
 20
-11.09890810726316
 30
0.0
 11
208.5336651956703
 21
-11.098908107263149
 31
0.0
  0
LINE
  5
1938
  8
01
 10
208.53366829567031
 20
-11.098908107263149
 30
0.0
 11
207.2836696056703
 21
-9.8489081072631564
 31
0.0
  0
LINE
  5
2783
  8
01
 10
244.98366476567031
 20
-160.43367563429479
 30
0.0
 11
264.98366476567031
 21
-160.43367563429479
 31
0.0
  0
LINE
  5
2785
  8
01
 10
193.14357691026001
 20
-162.5336666342948
 30
0.0
 11
270.81972076567018
 21
-162.5336666342948
 31
0.0
  0
LINE
  5
2786
  8
01
 10
209.9836652656704
 20
-165.8336616342948
 30
0.0
 11
263.78366476567032
 21
-165.8336616342948
 31
0.0
  0
LINE
  5
278C
  8
01
 10
215.9836652656704
 20
-160.43367563429479
 30
0.0
 11
239.98366476567031
 21
-160.43367563429479
 31
0.0
  0
LINE
  5
278D
  8
01
 10
215.9836652656704
 20
-159.2336706342947
 30
0.0
 11
215.9836652656704
 21
-160.43367563429479
 31
0.0
  0
LINE
  5
278E
  8
01
 10
209.9836652656704
 20
-154.5336666342948
 30
0.0
 11
209.9836652656704
 21
-162.5336666342948
 31
0.0
  0
LINE
  5
278F
  8
01
 10
208.78366826567029
 20
-154.5336666342948
 30
0.0
 11
208.78366826567029
 21
-170.5336666342948
 31
0.0
  0
LINE
  5
2790
  8
01
 10
211.48366526567031
 20
-164.63365663429471
 30
0.0
 11
211.48366526567031
 21
-165.8336616342948
 31
0.0
  0
LINE
  5
2791
  8
01
 10
209.9836652656704
 20
-164.63365663429471
 30
0.0
 11
211.48366526567031
 21
-164.63365663429471
 31
0.0
  0
LINE
  5
2792
  8
01
 10
208.78366826567029
 20
-170.5336666342948
 30
0.0
 11
209.9836652656704
 21
-170.5336666342948
 31
0.0
  0
LINE
  5
2793
  8
01
 10
209.9836652656704
 20
-162.5336666342948
 30
0.0
 11
209.9836652656704
 21
-170.5336666342948
 31
0.0
  0
LINE
  5
2795
  8
01
 10
209.9836652656704
 20
-159.2336706342947
 30
0.0
 11
264.98366476567031
 21
-159.2336706342947
 31
0.0
  0
LINE
  5
2796
  8
01
 10
208.78366826567029
 20
-154.5336666342948
 30
0.0
 11
209.9836652656704
 21
-154.5336666342948
 31
0.0
  0
LINE
  5
2798
  8
01
 10
239.98366476567031
 20
-159.2336706342947
 30
0.0
 11
239.98366476567031
 21
-160.43367563429479
 31
0.0
  0
LINE
  5
2799
  8
01
 10
244.98366476567031
 20
-159.2336706342947
 30
0.0
 11
244.98366476567031
 21
-160.43367563429479
 31
0.0
  0
LINE
  5
27A1
  8
01
 10
263.78366876567031
 20
-159.2336706342947
 30
0.0
 11
263.78366876567031
 21
-165.8336616342948
 31
0.0
  0
LINE
  5
27A2
  8
01
 10
264.98366476567031
 20
-159.2336706342947
 30
0.0
 11
264.98366476567031
 21
-164.63366463429469
 31
0.0
  0
ARC
  5
27A5
  8
01
 10
263.78366476567032
 20
-164.63366463429469
 30
0.0
 40
1.1999999999999991
 50
270.0
 51
0.0
  0
LINE
  5
2883
  8
01
 10
207.28366829567031
 20
-154.5336666342948
 30
0.0
 11
208.78366826567029
 21
-154.5336666342948
 31
0.0
  0
LINE
  5
2884
  8
01
 10
207.28366829567031
 20
-170.5336666342948
 30
0.0
 11
208.78366826567029
 21
-170.5336666342948
 31
0.0
  0
LINE
  5
2885
  8
01
 10
207.28366829567031
 20
-154.5336666342948
 30
0.0
 11
207.28366829567031
 21
-170.5336666342948
 31
0.0
  0
LINE
  5
3037
  8
01
 10
239.98366476567031
 20
-28.49891070726321
 30
0.0
 11
244.9836647656702
 21
-28.49891070726321
 31
0.0
  0
LINE
  5
3039
  8
01
 10
263.78366876567043
 20
-64.498910707263207
 30
0.0
 11
263.78366876567043
 21
-70.498910707263207
 31
0.0
  0
LINE
  5
303C
  8
01
 10
239.98366476567031
 20
-106.49890970726319
 30
0.0
 11
244.98366476567031
 21
-106.49890970726319
 31
0.0
  0
CIRCLE
  5
303D
  8
01
 10
245.2836687656704
 20
-93.998908707263226
 30
0.0
 40
3.499999999999996
  0
ARC
  5
303E
  8
01
 10
222.4816797181241
 20
-61.998906910435181
 30
0.0
 40
5.0
 50
227.16658000000029
 51
270.0
  0
ARC
  5
303F
  8
01
 10
229.2836417181241
 20
-84.998906910435181
 30
0.0
 40
10.0
 50
179.9999899999998
 51
270.0
  0
ARC
  5
3048
  8
01
 10
217.2836417181241
 20
-76.998906910435181
 30
0.0
 40
2.0
 50
0.0
 51
90.000002999999325
  0
LINE
  5
3049
  8
01
 10
207.2836417181241
 20
-74.998906910435181
 30
0.0
 11
217.2836417181241
 21
-74.998906910435181
 31
0.0
  0
LINE
  5
304A
  8
01
 10
219.2836417181241
 20
-76.998906910435181
 30
0.0
 11
219.2836417181241
 21
-84.998906910435181
 31
0.0
  0
ARC
  5
304E
  8
01
 10
212.2836417181241
 20
-72.998906910435181
 30
0.0
 40
10.0
 50
47.166571000000211
 51
120.0000000000002
  0
ARC
  5
304F
  8
01
 10
252.2836417181241
 20
-74.498906910435181
 30
0.0
 40
2.0
 50
0.0
 51
90.000002999999325
  0
LINE
  5
3050
  8
01
 10
229.2836417181241
 20
-71.998906910435181
 30
0.0
 11
229.2836417181241
 21
-81.498906910435181
 31
0.0
  0
ARC
  5
3051
  8
01
 10
245.2836417181241
 20
-81.498906910435181
 30
0.0
 40
9.0
 50
90.000002999999325
 51
180.0000100000002
  0
ARC
  5
3052
  8
01
 10
237.7836417181241
 20
-89.998906910435181
 30
0.0
 40
5.0
 50
270.0
 51
331.92750999999993
  0
ARC
  5
3053
  8
01
 10
232.7836417181241
 20
-81.498906910435181
 30
0.0
 40
3.5
 50
179.9999899999998
 51
0.0000100179130762
  0
LINE
  5
3054
  8
01
 10
229.2836417181241
 20
-94.998906910435181
 30
0.0
 11
237.7836417181241
 21
-94.998906910435181
 31
0.0
  0
ARC
  5
3055
  8
01
 10
243.43364171812411
 20
-79.648906910435272
 30
0.0
 40
0.2
 50
90.000002999999325
 51
180.0000100000002
  0
ARC
  5
3056
  8
01
 10
243.43364171812411
 20
-83.348906910435105
 30
0.0
 40
0.2
 50
179.9999899999998
 51
270.0
  0
ARC
  5
3057
  8
01
 10
247.1336417181241
 20
-83.348906910435105
 30
0.0
 40
0.2
 50
270.0
 51
0.0
  0
ARC
  5
3058
  8
01
 10
247.1336417181241
 20
-79.648906910435272
 30
0.0
 40
0.2
 50
0.0
 51
90.000002999999325
  0
ARC
  5
305E
  8
01
 10
245.2836417181241
 20
-93.998906910435181
 30
0.0
 40
3.5
 50
90.000002999999325
 51
151.92751999999979
  0
ARC
  5
305F
  8
01
 10
245.2836417181241
 20
-81.498906910435181
 30
0.0
 40
9.0
 50
270.0
 51
0.0
  0
LINE
  5
3060
  8
01
 10
243.23364171812409
 20
-79.648906910435272
 30
0.0
 11
243.23364171812409
 21
-83.348906910435105
 31
0.0
  0
LINE
  5
3061
  8
01
 10
243.43364171812411
 20
-83.548906910435136
 30
0.0
 11
247.1336417181241
 21
-83.548906910435136
 31
0.0
  0
LINE
  5
3062
  8
01
 10
247.333641718124
 20
-79.648906910435272
 30
0.0
 11
247.333641718124
 21
-83.348906910435105
 31
0.0
  0
LINE
  5
3063
  8
01
 10
243.43364171812411
 20
-79.448906910435227
 30
0.0
 11
247.1336417181241
 21
-79.448906910435227
 31
0.0
  0
LINE
  5
3064
  8
01
 10
254.2836417181241
 20
-74.498906910435181
 30
0.0
 11
254.2836417181241
 21
-81.498906910435181
 31
0.0
  0
LINE
  5
3065
  8
01
 10
245.2836417181241
 20
-72.498906910435181
 30
0.0
 11
252.2836417181241
 21
-72.498906910435181
 31
0.0
  0
ARC
  5
306A
  8
01
 10
224.2836417181241
 20
-71.998906910435181
 30
0.0
 40
5.0
 50
0.0
 51
90.000002999999325
  0
LINE
  5
306B
  8
01
 10
222.4816797181241
 20
-66.998906910435181
 30
0.0
 11
224.2836417181241
 21
-66.998906910435181
 31
0.0
  0
LINE
  5
306C
  8
01
 10
263.78366876567031
 20
-27.298913707263271
 30
0.0
 11
264.98366876567019
 21
-28.49891370726327
 31
0.0
  0
LINE
  5
306D
  8
01
 10
263.78366876567031
 20
-107.69890670726321
 30
0.0
 11
264.98366876567019
 21
-106.4989067072632
 31
0.0
  0
CIRCLE
  5
306F
  8
01
 10
216.78366826567029
 20
-34.498910707263207
 30
0.0
 40
3.0
  0
CIRCLE
  5
3071
  8
01
 10
258.9836687656703
 20
-101.69890570726319
 30
0.0
 40
3.0
  0
LINE
  5
3073
  8
01
 10
163.31211550222741
 20
-62.998906910435181
 30
0.0
 11
160.31211550222741
 21
-62.998906910435181
 31
0.0
  0
LINE
  5
3074
  8
01
 10
160.31211550222741
 20
-84.998906910435181
 30
0.0
 11
163.31211550222741
 21
-84.998906910435181
 31
0.0
  0
LINE
  5
3076
  8
01
 10
161.81211550222741
 20
-2.711456680379797
 30
0.0
 11
161.81211550222741
 21
-132.29591090953591
 31
0.0
  0
LINE
  5
3077
  8
01
 10
160.31211550222741
 20
-62.998906910435181
 30
0.0
 11
160.31211550222741
 21
-84.998906910435181
 31
0.0
  0
LINE
  5
3078
  8
01
 10
163.31211550222741
 20
-62.998906910435181
 30
0.0
 11
163.31211550222741
 21
-84.998906910435181
 31
0.0
  0
LINE
  5
3079
  8
01
 10
195.35319382421031
 20
-161.0336666342948
 30
0.0
 11
195.35319382421031
 21
-164.0336666342948
 31
0.0
  0
LINE
  5
307A
  8
01
 10
195.35319382421031
 20
-164.0336666342948
 30
0.0
 11
207.28366829567031
 21
-164.0336666342948
 31
0.0
  0
LINE
  5
307B
  8
01
 10
195.35319382421031
 20
-161.0336666342948
 30
0.0
 11
207.28366829567031
 21
-161.0336666342948
 31
0.0
  0
LINE
  5
307F
  8
01
 10
223.68366876567089
 20
-81.498908707263197
 30
0.0
 11
266.8836687656709
 21
-81.498908707263197
 31
0.0
  0
LINE
  5
3080
  8
01
 10
245.28366876567091
 20
-103.09890870726301
 30
0.0
 11
245.28366876567091
 21
-59.898908707263203
 31
0.0
  0
TEXT
  5
4372
  8
01
 10
141.56574069640121
 20
41.528639287409078
 30
0.0
 40
8.0
  1
KM-01
  0
POINT
  5
44FF
  8
01
  6
CONTINUOUS
 10
325.31780716809021
 20
-75.348249293528255
 30
0.0
  0
POINT
  5
4500
  8
01
  6
CONTINUOUS
 10
325.31780716809021
 20
-75.348249293528255
 30
0.0
  0
POINT
  5
4501
  8
01
  6
CONTINUOUS
 10
357.31780316809022
 20
-75.348249293528255
 30
0.0
  0
POINT
  5
4502
  8
01
  6
CONTINUOUS
 10
357.31780316809022
 20
-79.348249293528255
 30
0.0
  0
POINT
  5
4504
  8
01
 10
352.31780516809022
 20
-59.348250193528258
 30
0.0
  0
POINT
  5
4505
  8
01
 10
352.31780516809022
 20
-55.348247193528259
 30
0.0
  0
POINT
  5
4508
  8
01
 10
325.31780256809043
 20
-55.857393391428957
 30
0.0
  0
POINT
  5
4509
  8
01
 10
352.31780216809028
 20
-59.857394091428972
 30
0.0
  0
POINT
  5
450A
  8
01
 10
325.31780256809043
 20
-35.857393091428982
 30
0.0
  0
POINT
  5
450B
  8
01
 10
347.3178021680904
 20
-39.857393791428962
 30
0.0
  0
POINT
  5
450C
  8
01
 10
325.31780256809043
 20
-55.857393391428957
 30
0.0
  0
POINT
  5
450D
  8
01
 10
352.31780216809028
 20
-55.857393391428957
 30
0.0
  0
POINT
  5
450E
  8
01
 10
325.31780256809043
 20
-35.857393091428982
 30
0.0
  0
POINT
  5
450F
  8
01
 10
347.3178021680904
 20
-35.857393091428982
 30
0.0
  0
LINE
  5
4510
  8
01
 10
325.31780256809043
 20
-59.857394091428972
 30
0.0
 11
325.31780256809043
 21
-55.857393391428957
 31
0.0
  0
LINE
  5
4511
  8
01
 10
352.31780216809028
 20
-59.857394091428972
 30
0.0
 11
352.31780216809028
 21
-55.857393391428957
 31
0.0
  0
LINE
  5
4512
  8
01
 10
325.31780256809043
 20
-59.857394091428972
 30
0.0
 11
352.31780216809028
 21
-59.857394091428972
 31
0.0
  0
LINE
  5
4513
  8
01
 10
325.31780256809043
 20
-55.857393391428957
 30
0.0
 11
352.31780216809028
 21
-55.857393391428957
 31
0.0
  0
LINE
  5
4514
  8
01
 10
323.80284716809018
 20
-57.857392891428951
 30
0.0
 11
353.52689716809027
 21
-57.857392891428951
 31
0.0
  0
LINE
  5
4515
  8
01
 10
325.31780256809043
 20
-55.857393791428962
 30
0.0
 11
352.31780416809028
 21
-59.857394091428972
 31
0.0
  0
LINE
  5
4516
  8
01
 10
325.3178016680904
 20
-59.857393091428968
 30
0.0
 11
352.31780416809028
 21
-55.857392891428958
 31
0.0
  0
LINE
  5
4517
  8
01
 10
325.31780256809043
 20
-39.857393791428962
 30
0.0
 11
325.31780256809043
 21
-35.857393091428982
 31
0.0
  0
LINE
  5
4518
  8
01
 10
347.3178021680904
 20
-39.857393791428962
 30
0.0
 11
347.3178021680904
 21
-35.857393091428982
 31
0.0
  0
LINE
  5
4519
  8
01
 10
325.31780256809043
 20
-39.857393791428962
 30
0.0
 11
347.3178021680904
 21
-39.857393791428962
 31
0.0
  0
LINE
  5
451A
  8
01
 10
325.31780256809043
 20
-35.857393091428982
 30
0.0
 11
347.3178021680904
 21
-35.857393091428982
 31
0.0
  0
LINE
  5
451B
  8
01
 10
323.80284756809027
 20
-37.857393091428968
 30
0.0
 11
348.52689716809027
 21
-37.857393091428968
 31
0.0
  0
LINE
  5
451C
  8
01
 10
325.31780216809028
 20
-35.857393091428982
 30
0.0
 11
347.3178021680904
 21
-39.857392891428958
 31
0.0
  0
LINE
  5
451D
  8
01
 10
325.31780256809043
 20
-39.857392891428958
 30
0.0
 11
347.3178021680904
 21
-35.857393091428982
 31
0.0
  0
LINE
  5
451E
  8
01
 10
325.31780256809043
 20
-75.857394091428972
 30
0.0
 11
357.31780416809039
 21
-79.857394391428983
 31
0.0
  0
LINE
  5
451F
  8
01
 10
325.3178016680904
 20
-79.857393391428985
 30
0.0
 11
357.31780416809039
 21
-75.857393191428969
 31
0.0
  0
LINE
  5
4520
  8
01
 10
323.80284716809018
 20
-77.857393191428969
 30
0.0
 11
358.52689716809027
 21
-77.857393191428969
 31
0.0
  0
LINE
  5
4521
  8
01
 10
325.31780256809043
 20
-79.857394391428983
 30
0.0
 11
357.31780216809028
 21
-79.857394391428983
 31
0.0
  0
LINE
  5
4522
  8
01
 10
325.31780256809043
 20
-75.857393691428953
 30
0.0
 11
357.31780216809028
 21
-75.857393691428953
 31
0.0
  0
POINT
  5
4524
  8
01
 10
325.31780256809043
 20
-75.857393691428953
 30
0.0
  0
POINT
  5
4525
  8
01
 10
325.31780256809043
 20
-75.857393691428953
 30
0.0
  0
LINE
  5
4526
  8
01
 10
325.31780256809043
 20
-79.857394391428983
 30
0.0
 11
325.31780256809043
 21
-75.857393691428953
 31
0.0
  0
POINT
  5
4527
  8
01
 10
357.31780516809022
 20
-79.348250493528269
 30
0.0
  0
POINT
  5
4528
  8
01
 10
357.31780516809022
 20
-75.348247493528277
 30
0.0
  0
POINT
  5
4529
  8
01
 10
357.31780216809028
 20
-79.857394391428983
 30
0.0
  0
POINT
  5
452A
  8
01
 10
357.31780216809028
 20
-75.857393691428953
 30
0.0
  0
LINE
  5
452B
  8
01
 10
357.31780216809028
 20
-79.857394391428983
 30
0.0
 11
357.31780216809028
 21
-75.857393691428953
 31
0.0
  0
TEXT
  5
45D7
  8
01
 10
333.79095060627498
 20
-127.7236509263964
 30
0.0
 40
4.0
  1
付属ねじ
  0
TEXT
  5
45D8
  8
01
 10
333.4188485066382
 20
-86.501106942873776
 30
0.0
 40
4.0
  1
付属角芯
  0
LINE
  5
47C3
  8
01
 10
201.2836687656704
 20
-74.998906910435252
 30
0.0
 11
207.28364171812399
 21
-74.998906910435238
 31
0.0
  0
ARC
  5
47C4
  8
01
 10
201.2836687656704
 20
-75.998906910435252
 30
0.0
 40
1.0
 50
90.0
 51
180.0
  0
LINE
  5
47C5
  8
01
 10
200.35319382421051
 20
-66.998908707263197
 30
0.0
 11
202.085601718124
 21
-66.998906910435224
 31
0.0
  0
ARC
  5
47C6
  8
01
 10
212.28364171812399
 20
-72.998906910435224
 30
0.0
 40
10.0
 50
119.9999999999997
 51
132.83342000000101
  0
ARC
  5
47C7
  8
01
 10
202.085601718124
 20
-61.998906910435217
 30
0.0
 40
5.0
 50
270.0
 51
312.83343000000002
  0
LINE
  5
47C8
  8
01
 10
200.2836687656704
 20
-83.998908707263197
 30
0.0
 11
200.2836687656704
 21
-75.998906910435252
 31
0.0
  0
LINE
  5
47C9
  8
01
 10
198.47824685577191
 20
-84.998908707263197
 30
0.0
 11
199.2836687656704
 21
-84.998908707263197
 31
0.0
  0
ARC
  5
47CA
  8
01
 10
199.2836687656704
 20
-83.998908707263197
 30
0.0
 40
1.0
 50
270.0
 51
0.0
  0
ARC
  5
47CB
  8
01
 10
245.28369581321709
 20
-69.498910504091171
 30
0.0
 40
50.0
 50
183.18473624538649
 51
197.21261266230439
  0
ARC
  5
47CC
  8
01
 10
198.47824685577191
 20
-83.998908707263197
 30
0.0
 40
1.0
 50
197.21261266230289
 51
270.00000000000648
  0
ARC
  5
47CD
  8
01
 10
200.35319382421031
 20
-71.998908707263197
 30
0.0
 40
5.0
 50
90.0
 51
183.18473624538649
  0
LINE
  5
4878
  8
01
 10
207.28366829567031
 20
-74.998906910435181
 30
0.0
 11
207.28366829567031
 21
-97.475687777174016
 31
0.0
  0
LINE
  5
4879
  8
01
 10
200.2836687656704
 20
-83.998908707263197
 30
0.0
 11
200.2836687656704
 21
-97.475687777174016
 31
0.0
  0
LINE
  5
487A
  8
01
 10
205.28366829567031
 20
-96.475687777174031
 30
0.0
 11
202.2836687656704
 21
-96.475687777174031
 31
0.0
  0
LINE
  5
487E
  8
01
 10
156.3070420022274
 20
-14.498909107263181
 30
0.0
 11
138.83289869920461
 21
-14.49890910726317
 31
0.0
  0
LINE
  5
487F
  8
01
 10
159.81211568806819
 20
-5.9989091072631879
 30
0.0
 11
138.83289869920461
 21
-5.9989091072631826
 31
0.0
  0
LINE
  5
4880
  8
01
 10
139.83289869920461
 20
-12.49890910726317
 30
0.0
 11
139.83289869920461
 21
-7.9989091072631826
 31
0.0
  0
LINE
  5
4881
  8
01
 10
139.83289869920461
 20
-5.9989091072631826
 30
0.0
 11
139.83289869920461
 21
4.7344242260701499
 31
0.0
  0
LINE
  5
4885
  8
01
 10
156.3070420022274
 20
-14.498909107263181
 30
0.0
 11
138.83289869920461
 21
-14.49890910726317
 31
0.0
  0
LINE
  5
4886
  8
01
 10
156.3070420022274
 20
-120.4989091072631
 30
0.0
 11
138.83289869920461
 21
-120.4989091072631
 31
0.0
  0
LINE
  5
4887
  8
01
 10
139.83289869920461
 20
-16.49890910726317
 30
0.0
 11
139.83289869920461
 21
-118.4989091072631
 31
0.0
  0
LINE
  5
488B
  8
01
 10
163.81211600222741
 20
-11.998909107263209
 30
0.0
 11
166.77786731326901
 21
-9.3148228267842654
 31
0.0
  0
LINE
  5
488C
  8
01
 10
168.26074296878971
 20
-7.9727796865448113
 30
0.0
 11
174.9831126071507
 21
-1.888850784125921
 31
0.0
  0
LINE
  5
488F
  8
01
 10
159.81211568806819
 20
-5.9989091072631879
 30
0.0
 11
129.69334729865139
 21
-5.9989091072631791
 31
0.0
  0
LINE
  5
4890
  8
01
 10
159.81211568806819
 20
-128.99890910726319
 30
0.0
 11
129.6933472986513
 21
-128.99890910726319
 31
0.0
  0
LINE
  5
4891
  8
01
 10
130.69334729865139
 20
-7.9989091072631799
 30
0.0
 11
130.6933472986513
 21
-126.9989091072632
 31
0.0
  0
TEXT
  5
4895
  8
01
 10
160.69386100203261
 20
7.731923874765072
 30
0.0
 40
3.5
  1
材質：ステンレス
  0
SOLID
  5
4896
  8
01
 10
203.28873785272339
 20
-66.763378475034884
 30
0.0
 11
203.14286517229391
 21
-68.785711848199526
 31
0.0
 12
202.62496093816031
 22
-66.825383733985575
 32
0.0
 13
202.62496093816031
 23
-66.825383733985575
 33
0.0
1001
ACAD
1000
DSTYLE
1002
{
1070
   341
1005
0
1002
}
  0
TEXT
  5
4898
  8
01
 10
266.42073259285121
 20
7.7319238747650756
 30
0.0
 40
3.5
  1
材質：スチール（亜鉛メッキ）
  0
SOLID
  5
4899
  8
01
 10
252.64572545391309
 20
-31.84173056050054
 30
0.0
 11
251.76207938748919
 21
-33.666636240365847
 31
0.0
 12
252.00609950009601
 22
-31.653786197328749
 32
0.0
 13
252.00609950009601
 23
-31.653786197328749
 33
0.0
1001
ACAD
1000
DSTYLE
1002
{
1070
   341
1005
0
1002
}
  0
TEXT
  5
489B
  8
01
 10
118.44371640889349
 20
7.731923874765072
 30
0.0
 40
3.5
  1
材質：ステンレス
  0
SOLID
  5
489C
  8
01
 10
160.35021882920969
 20
-6.215374685327232
 30
0.0
 11
160.8927205791548
 21
-8.1690386693371693
 31
0.0
 12
159.74592249655481
 22
-6.4969246574180843
 32
0.0
 13
159.74592249655481
 23
-6.4969246574180843
 33
0.0
1001
ACAD
1000
DSTYLE
1002
{
1070
   341
1005
0
1002
}
  0
LINE
  5
489E
  8
01
 10
340.82229832310531
 20
-110.0749725014642
 30
0.0
 11
327.08626439073612
 21
-110.0749725014642
 31
0.0
  0
LINE
  5
489F
  8
01
 10
340.0223076302828
 20
-106.0749725014642
 30
0.0
 11
327.08626439073612
 21
-106.0749725014642
 31
0.0
  0
LINE
  5
48A0
  8
01
 10
328.08626439073612
 20
-112.0749725014642
 30
0.0
 11
328.08626439073612
 21
-114.0749725014642
 31
0.0
  0
LINE
  5
48A1
  8
01
 10
328.08626439073612
 20
-104.0749725014642
 30
0.0
 11
328.08626439073612
 21
-94.174972501464225
 31
0.0
  0
LINE
  5
48A2
  8
01
 10
328.08626439073612
 20
-110.0749725014642
 30
0.0
 11
328.08626439073612
 21
-106.0749725014642
 31
0.0
  0
LINE
  5
48A6
  8
01
 10
333.92230297664202
 20
-108.0749725014642
 30
0.0
 11
333.92230297664202
 21
-121.42778439071481
 31
0.0
  0
LINE
  5
48A7
  8
01
 10
353.92229366951642
 20
-112.0749725014642
 30
0.0
 11
353.92229366951642
 21
-121.42778439071481
 31
0.0
  0
LINE
  5
48A8
  8
01
 10
335.92230297664202
 20
-120.42778439071481
 30
0.0
 11
351.92229366951642
 21
-120.42778439071481
 31
0.0
  0
LINE
  5
48AC
  8
01
 10
325.31780916809021
 20
-75.857394091428972
 30
0.0
 11
325.31780916809021
 21
-67.45704243690443
 31
0.0
  0
LINE
  5
48AD
  8
01
 10
357.31780516809022
 20
-75.857394091428972
 30
0.0
 11
357.31780516809022
 21
-67.45704243690443
 31
0.0
  0
LINE
  5
48AE
  8
01
 10
327.31780916809021
 20
-68.45704243690443
 30
0.0
 11
355.31780516809022
 21
-68.45704243690443
 31
0.0
  0
LINE
  5
48B3
  8
01
 10
353.6222936695155
 20
-101.75810389448409
 30
0.0
 11
353.62231228387458
 21
-93.758103894484123
 31
0.0
  0
LINE
  5
48B4
  8
01
 10
350.42229832310528
 20
-99.758103894484123
 30
0.0
 11
349.62230763028703
 21
-95.758103894484108
 31
0.0
  0
LINE
  5
48B5
  8
01
 10
349.62230763028703
 20
-95.758103894484108
 30
0.0
 11
349.52230646688929
 21
-96.258103894484123
 31
0.0
  0
LINE
  5
48B6
  8
01
 10
347.22229832310529
 20
-99.758103894484123
 30
0.0
 11
346.42230763028277
 21
-95.758103894484108
 31
0.0
  0
LINE
  5
48B7
  8
01
 10
348.8222983231052
 20
-99.758103894484123
 30
0.0
 11
348.02230763028268
 21
-95.758103894484108
 31
0.0
  0
LINE
  5
48B8
  8
01
 10
344.0222983231053
 20
-99.758103894484123
 30
0.0
 11
343.22230763028273
 21
-95.758103894484108
 31
0.0
  0
LINE
  5
48B9
  8
01
 10
345.62229832310521
 20
-99.758103894484123
 30
0.0
 11
344.82230763028258
 21
-95.758103894484108
 31
0.0
  0
LINE
  5
48BA
  8
01
 10
340.8222983231052
 20
-99.758103894484123
 30
0.0
 11
340.02230763028268
 21
-95.758103894484108
 31
0.0
  0
LINE
  5
48BB
  8
01
 10
338.42230710348002
 20
-95.984510946688076
 30
0.0
 11
338.29303640585022
 21
-96.52110468195923
 31
0.0
  0
LINE
  5
48BC
  8
01
 10
339.22229832310541
 20
-99.758103894484123
 30
0.0
 11
338.42230710348002
 21
-95.984510946688076
 31
0.0
  0
LINE
  5
48BD
  8
01
 10
342.42229832310528
 20
-99.758103894484123
 30
0.0
 11
341.62230763028271
 21
-95.758103894484108
 31
0.0
  0
LINE
  5
48BE
  8
01
 10
346.42230763028277
 20
-95.758103894484108
 30
0.0
 11
346.32230646688561
 21
-96.258103894484123
 31
0.0
  0
LINE
  5
48BF
  8
01
 10
348.02230763028268
 20
-95.758103894484108
 30
0.0
 11
347.92230646688557
 21
-96.258103894484123
 31
0.0
  0
LINE
  5
48C0
  8
01
 10
343.22230763028273
 20
-95.758103894484108
 30
0.0
 11
343.1223064668855
 21
-96.258103894484123
 31
0.0
  0
LINE
  5
48C1
  8
01
 10
344.82230763028258
 20
-95.758103894484108
 30
0.0
 11
344.72230646688553
 21
-96.258103894484123
 31
0.0
  0
LINE
  5
48C2
  8
01
 10
340.02230763028268
 20
-95.758103894484108
 30
0.0
 11
339.92230646688557
 21
-96.258103894484123
 31
0.0
  0
LINE
  5
48C3
  8
01
 10
341.62230763028271
 20
-95.758103894484108
 30
0.0
 11
341.52230646688571
 21
-96.258103894484123
 31
0.0
  0
LINE
  5
48C4
  8
01
 10
333.9223029766419
 20
-97.758103894484123
 30
0.0
 11
355.58799832335802
 21
-97.758103894484123
 31
0.0
  0
LINE
  5
48C5
  8
01
 10
337.73506888906547
 20
-98.837189297275415
 30
0.0
 11
337.62229937671549
 21
-99.305287752425386
 31
0.0
  0
LINE
  5
48C6
  8
01
 10
335.2223049962688
 20
-96.890139155501686
 30
0.0
 11
334.91053514001658
 21
-97.4784157305441
 31
0.0
  0
LINE
  5
48C7
  8
01
 10
336.17373622676013
 20
-98.39530240374603
 30
0.0
 11
336.02230043031972
 21
-98.852474244377106
 31
0.0
  0
LINE
  5
48C8
  8
01
 10
336.82230604987438
 20
-96.437325051094902
 30
0.0
 11
336.63954190724638
 21
-96.989074514898164
 31
0.0
  0
LINE
  5
48C9
  8
01
 10
336.02230043031972
 20
-98.852474244377106
 30
0.0
 11
335.2223049962688
 21
-96.890139155501686
 31
0.0
  0
LINE
  5
48CA
  8
01
 10
337.62229937671549
 20
-99.305287752425386
 30
0.0
 11
336.82230604987438
 21
-96.437325051094902
 31
0.0
  0
LINE
  5
48CB
  8
01
 10
347.32229948650252
 20
-99.258103894484137
 30
0.0
 11
347.22229832310529
 21
-99.758103894484123
 31
0.0
  0
LINE
  5
48CC
  8
01
 10
348.92229948650311
 20
-99.258103894484137
 30
0.0
 11
348.8222983231052
 21
-99.758103894484123
 31
0.0
  0
LINE
  5
48CD
  8
01
 10
342.5222994865025
 20
-99.258103894484137
 30
0.0
 11
342.42229832310528
 21
-99.758103894484123
 31
0.0
  0
LINE
  5
48CE
  8
01
 10
344.12229948650241
 20
-99.258103894484137
 30
0.0
 11
344.0222983231053
 21
-99.758103894484123
 31
0.0
  0
LINE
  5
48CF
  8
01
 10
345.72229948650232
 20
-99.258103894484137
 30
0.0
 11
345.62229832310521
 21
-99.758103894484123
 31
0.0
  0
LINE
  5
48D0
  8
01
 10
340.92229948650242
 20
-99.258103894484137
 30
0.0
 11
340.8222983231052
 21
-99.758103894484123
 31
0.0
  0
LINE
  5
48D1
  8
01
 10
339.32229948650252
 20
-99.258103894484137
 30
0.0
 11
339.22229832310541
 21
-99.758103894484123
 31
0.0
  0
LINE
  5
48D2
  8
01
 10
350.52229948650302
 20
-99.258103894484137
 30
0.0
 11
350.42229832310528
 21
-99.758103894484123
 31
0.0
  0
LINE
  5
48D4
  8
01
 10
353.6222936695155
 20
-112.0749725014642
 30
0.0
 11
353.62231228387458
 21
-104.0749725014642
 31
0.0
  0
LINE
  5
48D5
  8
01
 10
350.42229832310528
 20
-110.0749725014642
 30
0.0
 11
349.62230763028703
 21
-106.0749725014642
 31
0.0
  0
LINE
  5
48D6
  8
01
 10
349.62230763028703
 20
-106.0749725014642
 30
0.0
 11
349.52230646688929
 21
-106.5749725014642
 31
0.0
  0
LINE
  5
48D7
  8
01
 10
347.22229832310529
 20
-110.0749725014642
 30
0.0
 11
346.42230763028277
 21
-106.0749725014642
 31
0.0
  0
LINE
  5
48D8
  8
01
 10
348.8222983231052
 20
-110.0749725014642
 30
0.0
 11
348.02230763028268
 21
-106.0749725014642
 31
0.0
  0
LINE
  5
48D9
  8
01
 10
344.0222983231053
 20
-110.0749725014642
 30
0.0
 11
343.22230763028273
 21
-106.0749725014642
 31
0.0
  0
LINE
  5
48DA
  8
01
 10
345.62229832310521
 20
-110.0749725014642
 30
0.0
 11
344.82230763028258
 21
-106.0749725014642
 31
0.0
  0
LINE
  5
48DB
  8
01
 10
340.8222983231052
 20
-110.0749725014642
 30
0.0
 11
340.02230763028268
 21
-106.0749725014642
 31
0.0
  0
LINE
  5
48DC
  8
01
 10
338.42230710348002
 20
-106.3013795536682
 30
0.0
 11
338.29303640585022
 21
-106.8379732889393
 31
0.0
  0
LINE
  5
48DD
  8
01
 10
339.22229832310541
 20
-110.0749725014642
 30
0.0
 11
338.42230710348002
 21
-106.3013795536682
 31
0.0
  0
LINE
  5
48DE
  8
01
 10
342.42229832310528
 20
-110.0749725014642
 30
0.0
 11
341.62230763028271
 21
-106.0749725014642
 31
0.0
  0
LINE
  5
48DF
  8
01
 10
346.42230763028277
 20
-106.0749725014642
 30
0.0
 11
346.32230646688561
 21
-106.5749725014642
 31
0.0
  0
LINE
  5
48E0
  8
01
 10
348.02230763028268
 20
-106.0749725014642
 30
0.0
 11
347.92230646688557
 21
-106.5749725014642
 31
0.0
  0
LINE
  5
48E1
  8
01
 10
343.22230763028273
 20
-106.0749725014642
 30
0.0
 11
343.1223064668855
 21
-106.5749725014642
 31
0.0
  0
LINE
  5
48E2
  8
01
 10
344.82230763028258
 20
-106.0749725014642
 30
0.0
 11
344.72230646688553
 21
-106.5749725014642
 31
0.0
  0
LINE
  5
48E3
  8
01
 10
340.02230763028268
 20
-106.0749725014642
 30
0.0
 11
339.92230646688557
 21
-106.5749725014642
 31
0.0
  0
LINE
  5
48E4
  8
01
 10
341.62230763028271
 20
-106.0749725014642
 30
0.0
 11
341.52230646688571
 21
-106.5749725014642
 31
0.0
  0
LINE
  5
48E5
  8
01
 10
333.9223029766419
 20
-108.0749725014642
 30
0.0
 11
355.58799832335802
 21
-108.0749725014642
 31
0.0
  0
LINE
  5
48E6
  8
01
 10
337.73506888906547
 20
-109.1540579042555
 30
0.0
 11
337.62229937671549
 21
-109.62215635940549
 31
0.0
  0
LINE
  5
48E7
  8
01
 10
335.2223049962688
 20
-107.20700776248179
 30
0.0
 11
334.91053514001658
 21
-107.79528433752419
 31
0.0
  0
LINE
  5
48E8
  8
01
 10
336.17373622676013
 20
-108.7121710107261
 30
0.0
 11
336.02230043031972
 21
-109.1693428513572
 31
0.0
  0
LINE
  5
48E9
  8
01
 10
336.82230604987438
 20
-106.754193658075
 30
0.0
 11
336.63954190724638
 21
-107.3059431218782
 31
0.0
  0
LINE
  5
48EA
  8
01
 10
336.02230043031972
 20
-109.1693428513572
 30
0.0
 11
335.2223049962688
 21
-107.20700776248179
 31
0.0
  0
LINE
  5
48EB
  8
01
 10
337.62229937671549
 20
-109.62215635940549
 30
0.0
 11
336.82230604987438
 21
-106.754193658075
 31
0.0
  0
LINE
  5
48EC
  8
01
 10
347.32229948650252
 20
-109.5749725014642
 30
0.0
 11
347.22229832310529
 21
-110.0749725014642
 31
0.0
  0
LINE
  5
48ED
  8
01
 10
348.92229948650311
 20
-109.5749725014642
 30
0.0
 11
348.8222983231052
 21
-110.0749725014642
 31
0.0
  0
LINE
  5
48EE
  8
01
 10
342.5222994865025
 20
-109.5749725014642
 30
0.0
 11
342.42229832310528
 21
-110.0749725014642
 31
0.0
  0
LINE
  5
48EF
  8
01
 10
344.12229948650241
 20
-109.5749725014642
 30
0.0
 11
344.0222983231053
 21
-110.0749725014642
 31
0.0
  0
LINE
  5
48F0
  8
01
 10
345.72229948650232
 20
-109.5749725014642
 30
0.0
 11
345.62229832310521
 21
-110.0749725014642
 31
0.0
  0
LINE
  5
48F1
  8
01
 10
340.92229948650242
 20
-109.5749725014642
 30
0.0
 11
340.8222983231052
 21
-110.0749725014642
 31
0.0
  0
LINE
  5
48F2
  8
01
 10
339.32229948650252
 20
-109.5749725014642
 30
0.0
 11
339.22229832310541
 21
-110.0749725014642
 31
0.0
  0
LINE
  5
48F3
  8
01
 10
350.52229948650302
 20
-109.5749725014642
 30
0.0
 11
350.42229832310528
 21
-110.0749725014642
 31
0.0
  0
LINE
  5
48F4
  8
01
 10
325.31780916809021
 20
-35.857391691428973
 30
0.0
 11
325.31780916809021
 21
-27.30071169142898
 31
0.0
  0
LINE
  5
48F5
  8
01
 10
347.31780516809022
 20
-35.857391691428973
 30
0.0
 11
347.31780516809022
 21
-27.30071169142898
 31
0.0
  0
LINE
  5
48F6
  8
01
 10
327.31780916809021
 20
-28.300711691428969
 30
0.0
 11
345.31780516809022
 21
-28.300711691428969
 31
0.0
  0
LINE
  5
48FA
  8
01
 10
325.31780916809021
 20
-55.857393791428962
 30
0.0
 11
325.31780916809021
 21
-48.554433691428947
 31
0.0
  0
LINE
  5
48FB
  8
01
 10
352.31780516809022
 20
-55.857393791428962
 30
0.0
 11
352.31780516809022
 21
-48.554433691428947
 31
0.0
  0
LINE
  5
48FC
  8
01
 10
327.31780916809021
 20
-49.554433691428947
 30
0.0
 11
350.31780516809022
 21
-49.554433691428947
 31
0.0
  0
LINE
  5
4900
  8
01
 10
209.9836652656704
 20
-128.49890910726319
 30
0.0
 11
209.9836652656704
 21
-139.09410573926189
 31
0.0
  0
LINE
  5
4901
  8
01
 10
207.28366829567031
 20
-129.22237111494121
 30
0.0
 11
207.28366829567031
 21
-139.09410573926189
 31
0.0
  0
LINE
  5
4902
  8
01
 10
211.9836652656704
 20
-138.09410573926189
 30
0.0
 11
213.9836652656704
 21
-138.09410573926189
 31
0.0
  0
LINE
  5
4903
  8
01
 10
205.28366829567031
 20
-138.09410573926189
 30
0.0
 11
194.5503349623369
 21
-138.09410573926189
 31
0.0
  0
LINE
  5
4904
  8
01
 10
209.9836652656704
 20
-138.09410573926189
 30
0.0
 11
207.28366829567031
 21
-138.09410573926189
 31
0.0
  0
LINE
  5
4908
  8
01
 10
263.78366876567031
 20
-27.298913707263271
 30
0.0
 11
280.229649528952
 21
-27.298913707263281
 31
0.0
  0
LINE
  5
4909
  8
01
 10
263.78366876567031
 20
-107.69890670726321
 30
0.0
 11
280.229649528952
 21
-107.69890670726321
 31
0.0
  0
LINE
  5
490A
  8
01
 10
279.229649528952
 20
-29.298913707263271
 30
0.0
 11
279.229649528952
 21
-105.69890670726321
 31
0.0
  0
LINE
  5
490E
  8
01
 10
169.81211600222741
 20
-122.9989091072632
 30
0.0
 11
169.81211600222741
 21
-144.4074666159963
 31
0.0
  0
LINE
  5
490F
  8
01
 10
153.8121160022275
 20
-122.9989080600655
 30
0.0
 11
153.8121160022275
 21
-144.4074666159963
 31
0.0
  0
LINE
  5
4910
  8
01
 10
167.81211600222741
 20
-143.4074666159963
 30
0.0
 11
155.8121160022275
 21
-143.4074666159963
 31
0.0
  0
LINE
  5
4914
  8
01
 10
207.28366829567031
 20
-170.5336666342948
 30
0.0
 11
182.4094566610992
 21
-170.5336666342948
 31
0.0
  0
LINE
  5
4915
  8
01
 10
207.28366829567031
 20
-154.5336666342948
 30
0.0
 11
182.4094566610992
 21
-154.5336666342948
 31
0.0
  0
LINE
  5
4916
  8
01
 10
183.4094566610992
 20
-168.5336666342948
 30
0.0
 11
183.4094566610992
 21
-156.5336666342948
 31
0.0
  0
LINE
  5
491A
  8
01
 10
195.56228271812401
 20
-164.0336666342948
 30
0.0
 11
189.18033651349339
 21
-164.0336666342948
 31
0.0
  0
LINE
  5
491B
  8
01
 10
195.56228271812401
 20
-161.0336666342948
 30
0.0
 11
189.18033651349339
 21
-161.0336666342948
 31
0.0
  0
LINE
  5
491C
  8
01
 10
190.18033651349339
 20
-166.0336666342948
 30
0.0
 11
190.18033651349339
 21
-168.0336666342948
 31
0.0
  0
LINE
  5
491D
  8
01
 10
190.18033651349339
 20
-159.0336666342948
 30
0.0
 11
190.18033651349339
 21
-157.0336666342948
 31
0.0
  0
LINE
  5
491E
  8
01
 10
190.18033651349339
 20
-164.0336666342948
 30
0.0
 11
190.18033651349339
 21
-161.0336666342948
 31
0.0
  0
LINE
  5
4922
  8
01
 10
264.98366476567031
 20
-159.2336706342947
 30
0.0
 11
279.5049899856262
 21
-159.2336706342947
 31
0.0
  0
LINE
  5
4923
  8
01
 10
263.78366476567032
 20
-165.83366463429471
 30
0.0
 11
279.5049899856262
 21
-165.83366463429471
 31
0.0
  0
LINE
  5
4924
  8
01
 10
278.50498998562631
 20
-161.2336706342947
 30
0.0
 11
278.50498998562631
 21
-163.83366463429471
 31
0.0
  0
LINE
  5
4928
  8
01
 10
207.28366829567031
 20
-128.9989091072631
 30
0.0
 11
207.28366829567031
 21
-145.11583427882621
 31
0.0
  0
LINE
  5
4929
  8
01
 10
264.98366876567019
 20
-106.4989067072632
 30
0.0
 11
264.98366876567019
 21
-145.11583427882621
 31
0.0
  0
LINE
  5
492A
  8
01
 10
209.28366829567031
 20
-144.11583427882621
 30
0.0
 11
262.98366876567019
 21
-144.11583427882621
 31
0.0
  0
LINE
  5
492E
  8
01
 10
266.8836687656709
 20
-81.498908707263197
 30
0.0
 11
289.73170213620148
 21
-81.498908707263226
 31
0.0
  0
LINE
  5
492F
  8
01
 10
208.78366826567029
 20
-128.9989091072631
 30
0.0
 11
289.73170213620142
 21
-128.9989091072631
 31
0.0
  0
LINE
  5
4930
  8
01
 10
288.73170213620148
 20
-83.498908707263212
 30
0.0
 11
288.73170213620148
 21
-126.9989091072631
 31
0.0
  0
LINE
  5
4934
  8
01
 10
208.78366826567029
 20
-5.998909107263187
 30
0.0
 11
289.73170213620142
 21
-5.998909107263211
 31
0.0
  0
LINE
  5
4935
  8
01
 10
266.8836687656709
 20
-81.498908707263197
 30
0.0
 11
289.73170213620142
 21
-81.498908707263226
 31
0.0
  0
LINE
  5
4936
  8
01
 10
288.73170213620142
 20
-7.998909107263211
 30
0.0
 11
288.73170213620142
 21
-79.498908707263212
 31
0.0
  0
LINE
  5
493A
  8
01
 10
263.78366876567031
 20
-107.69890670726321
 30
0.0
 11
280.22964952895211
 21
-107.69890670726321
 31
0.0
  0
LINE
  5
493B
  8
01
 10
208.78366826567029
 20
-128.9989091072631
 30
0.0
 11
280.229649528952
 21
-128.9989091072631
 31
0.0
  0
LINE
  5
493C
  8
01
 10
279.229649528952
 20
-109.69890670726321
 30
0.0
 11
279.229649528952
 21
-126.9989091072631
 31
0.0
  0
LINE
  5
4940
  8
01
 10
208.78366826567029
 20
-5.998909107263187
 30
0.0
 11
280.229649528952
 21
-5.9989091072632084
 31
0.0
  0
LINE
  5
4941
  8
01
 10
263.78366876567031
 20
-27.298913707263271
 30
0.0
 11
280.229649528952
 21
-27.298913707263281
 31
0.0
  0
LINE
  5
4942
  8
01
 10
279.229649528952
 20
-7.9989091072632084
 30
0.0
 11
279.229649528952
 21
-25.298913707263271
 31
0.0
  0
LINE
  5
4946
  8
01
 10
207.28366829567031
 20
-5.998909107263187
 30
0.0
 11
207.28366829567031
 21
2.9531853064017919
 31
0.0
  0
LINE
  5
4947
  8
01
 10
245.28366876567091
 20
-59.898908707263203
 30
0.0
 11
245.28366876567091
 21
2.9531853064017919
 31
0.0
  0
LINE
  5
4948
  8
01
 10
209.28366829567031
 20
1.9531853064017921
 30
0.0
 11
243.28366876567091
 21
1.9531853064017921
 31
0.0
  0
LINE
  5
494C
  8
01
 10
260.93055838327717
 20
-102.7589167800451
 30
0.0
 11
259.8705869982191
 21
-101.6989305968677
 31
0.0
  0
LINE
  5
494D
  8
01
 10
260.93055219254609
 20
-100.6389506045077
 30
0.0
 11
260.04367684783182
 21
-99.752062878244843
 31
0.0
  0
LINE
  5
494E
  8
01
 10
260.93055219254609
 20
-100.6389506045077
 30
0.0
 11
259.8705869982191
 21
-101.6989305968677
 31
0.0
  0
LINE
  5
494F
  8
01
 10
260.04367065701427
 20
-103.6457921247594
 30
0.0
 11
260.93055838327717
 21
-102.7589167800451
 31
0.0
  0
LINE
  5
4950
  8
01
 10
260.04367065701427
 20
-103.6457921247594
 30
0.0
 11
258.9836968555752
 21
-102.5858331212668
 31
0.0
  0
LINE
  5
4951
  8
01
 10
258.9836968555752
 20
-102.5858331212668
 30
0.0
 11
257.92372547032733
 21
-103.645819304634
 31
0.0
  0
LINE
  5
4952
  8
01
 10
258.096781949248
 20
-101.6989305968677
 30
0.0
 11
257.03680195688798
 21
-100.63896540254061
 31
0.0
  0
LINE
  5
4953
  8
01
 10
258.096781949248
 20
-101.6989305968677
 30
0.0
 11
257.0368081479985
 21
-102.7588896001706
 31
0.0
  0
LINE
  5
4954
  8
01
 10
257.0368081479985
 20
-102.7588896001706
 30
0.0
 11
257.92372547032733
 21
-103.645819304634
 31
0.0
  0
LINE
  5
4955
  8
01
 10
258.9836968555752
 20
-100.81202807246849
 30
0.0
 11
257.92373166135138
 21
-99.752048080211907
 31
0.0
  0
LINE
  5
4956
  8
01
 10
257.92373166135138
 20
-99.752048080211907
 30
0.0
 11
257.03680195688798
 21
-100.63896540254061
 31
0.0
  0
LINE
  5
4957
  8
01
 10
260.04367684783182
 20
-99.752062878244843
 30
0.0
 11
258.9836968555752
 21
-100.81202807246849
 31
0.0
  0
LINE
  5
4958
  8
01
 10
218.7305578832773
 20
-35.558921780045161
 30
0.0
 11
217.67058649821911
 21
-34.49893559686771
 31
0.0
  0
LINE
  5
4959
  8
01
 10
218.73055169254619
 20
-33.43895560450774
 30
0.0
 11
217.8436763478318
 21
-32.55206787824482
 31
0.0
  0
LINE
  5
495A
  8
01
 10
218.73055169254619
 20
-33.43895560450774
 30
0.0
 11
217.67058649821911
 21
-34.49893559686771
 31
0.0
  0
LINE
  5
495B
  8
01
 10
217.84367015701429
 20
-36.445797124759473
 30
0.0
 11
218.7305578832773
 21
-35.558921780045161
 31
0.0
  0
LINE
  5
495C
  8
01
 10
217.84367015701429
 20
-36.445797124759473
 30
0.0
 11
216.78369635557519
 21
-35.38583812126685
 31
0.0
  0
LINE
  5
495D
  8
01
 10
216.78369635557519
 20
-35.38583812126685
 30
0.0
 11
215.72372497032731
 21
-36.445824304634051
 31
0.0
  0
LINE
  5
495E
  8
01
 10
215.8967814492481
 20
-34.498935596867703
 30
0.0
 11
214.836801456888
 21
-33.438970402540662
 31
0.0
  0
LINE
  5
495F
  8
01
 10
215.8967814492481
 20
-34.498935596867703
 30
0.0
 11
214.8368076479986
 21
-35.558894600170653
 31
0.0
  0
LINE
  5
4960
  8
01
 10
214.8368076479986
 20
-35.558894600170653
 30
0.0
 11
215.72372497032731
 21
-36.445824304634051
 31
0.0
  0
LINE
  5
4961
  8
01
 10
216.78369635557519
 20
-33.612033072468527
 30
0.0
 11
215.7237311613514
 21
-32.552053080211913
 31
0.0
  0
LINE
  5
4962
  8
01
 10
215.7237311613514
 20
-32.552053080211913
 30
0.0
 11
214.836801456888
 21
-33.438970402540662
 31
0.0
  0
LINE
  5
4963
  8
01
 10
217.8436763478318
 20
-32.55206787824482
 30
0.0
 11
216.78369635557519
 21
-33.612033072468527
 31
0.0
  0
TEXT
  5
4964
  8
01
 10
217.78366853067061
 20
2.653185306401793
 30
0.0
 40
3.5
  1
B.S.38
  0
LINE
  5
4965
  8
01
  6
BYBLOCK
 10
243.28366876567091
 20
2.4890836864017918
 30
0.0
 11
245.28366876567091
 21
1.9531853064017921
 31
0.0
  0
LINE
  5
4966
  8
01
  6
BYBLOCK
 10
245.28366876567091
 20
1.9531853064017921
 30
0.0
 11
243.28366876567091
 21
1.417286926401792
 31
0.0
  0
LINE
  5
4967
  8
01
  6
BYBLOCK
 10
245.28366876567091
 20
1.9531853064017921
 30
0.0
 11
243.28366876567091
 21
1.9531853064017921
 31
0.0
  0
LINE
  5
4968
  8
01
  6
BYBLOCK
 10
209.28366829567031
 20
1.4172869264017911
 30
0.0
 11
207.28366829567031
 21
1.9531853064017921
 31
0.0
  0
LINE
  5
4969
  8
01
  6
BYBLOCK
 10
207.28366829567031
 20
1.9531853064017921
 30
0.0
 11
209.28366829567031
 21
2.4890836864017918
 31
0.0
  0
LINE
  5
496A
  8
01
  6
BYBLOCK
 10
207.28366829567031
 20
1.9531853064017921
 30
0.0
 11
209.28366829567031
 21
1.9531853064017921
 31
0.0
  0
TEXT
  5
496B
  8
01
 10
278.52964952895201
 20
-19.482244740596531
 30
0.0
 40
3.5
  1
21
 50
90.0
  0
LINE
  5
496C
  8
01
  6
BYBLOCK
 10
279.76554790895199
 20
-25.298913707263271
 30
0.0
 11
279.229649528952
 21
-27.298913707263271
 31
0.0
  0
LINE
  5
496D
  8
01
  6
BYBLOCK
 10
279.229649528952
 20
-27.298913707263271
 30
0.0
 11
278.693751148952
 21
-25.298913707263271
 31
0.0
  0
LINE
  5
496E
  8
01
  6
BYBLOCK
 10
279.229649528952
 20
-27.298913707263271
 30
0.0
 11
279.229649528952
 21
-25.298913707263271
 31
0.0
  0
LINE
  5
496F
  8
01
  6
BYBLOCK
 10
278.693751148952
 20
-7.9989091072632084
 30
0.0
 11
279.229649528952
 21
-5.9989091072632084
 31
0.0
  0
LINE
  5
4970
  8
01
  6
BYBLOCK
 10
279.229649528952
 20
-5.9989091072632084
 30
0.0
 11
279.76554790895199
 21
-7.9989091072632084
 31
0.0
  0
LINE
  5
4971
  8
01
  6
BYBLOCK
 10
279.229649528952
 20
-5.9989091072632084
 30
0.0
 11
279.229649528952
 21
-7.9989091072632084
 31
0.0
  0
TEXT
  5
4972
  8
01
 10
278.52964952895212
 20
-121.1822412405964
 30
0.0
 40
3.5
  1
21
 50
90.0
  0
LINE
  5
4973
  8
01
  6
BYBLOCK
 10
279.76554790895199
 20
-126.9989091072631
 30
0.0
 11
279.229649528952
 21
-128.9989091072631
 31
0.0
  0
LINE
  5
4974
  8
01
  6
BYBLOCK
 10
279.229649528952
 20
-128.9989091072631
 30
0.0
 11
278.693751148952
 21
-126.9989091072631
 31
0.0
  0
LINE
  5
4975
  8
01
  6
BYBLOCK
 10
279.229649528952
 20
-128.9989091072631
 30
0.0
 11
279.229649528952
 21
-126.9989091072631
 31
0.0
  0
LINE
  5
4976
  8
01
  6
BYBLOCK
 10
278.693751148952
 20
-109.69890670726321
 30
0.0
 11
279.229649528952
 21
-107.69890670726321
 31
0.0
  0
LINE
  5
4977
  8
01
  6
BYBLOCK
 10
279.229649528952
 20
-107.69890670726321
 30
0.0
 11
279.76554790895199
 21
-109.69890670726321
 31
0.0
  0
LINE
  5
4978
  8
01
  6
BYBLOCK
 10
279.229649528952
 20
-107.69890670726321
 30
0.0
 11
279.229649528952
 21
-109.69890670726321
 31
0.0
  0
TEXT
  5
4979
  8
01
 10
288.03170213620137
 20
-49.582242240596493
 30
0.0
 40
3.5
  1
75.5
 50
90.0
  0
LINE
  5
497A
  8
01
  6
BYBLOCK
 10
289.26760051620141
 20
-79.498908707263212
 30
0.0
 11
288.73170213620142
 21
-81.498908707263226
 31
0.0
  0
LINE
  5
497B
  8
01
  6
BYBLOCK
 10
288.73170213620142
 20
-81.498908707263226
 30
0.0
 11
288.19580375620143
 21
-79.498908707263212
 31
0.0
  0
LINE
  5
497C
  8
01
  6
BYBLOCK
 10
288.73170213620142
 20
-81.498908707263226
 30
0.0
 11
288.73170213620142
 21
-79.498908707263212
 31
0.0
  0
LINE
  5
497D
  8
01
  6
BYBLOCK
 10
288.19580375620143
 20
-7.998909107263211
 30
0.0
 11
288.73170213620142
 21
-5.998909107263211
 31
0.0
  0
LINE
  5
497E
  8
01
  6
BYBLOCK
 10
288.73170213620142
 20
-5.998909107263211
 30
0.0
 11
289.26760051620141
 21
-7.998909107263211
 31
0.0
  0
LINE
  5
497F
  8
01
  6
BYBLOCK
 10
288.73170213620142
 20
-5.998909107263211
 30
0.0
 11
288.73170213620142
 21
-7.998909107263211
 31
0.0
  0
TEXT
  5
4980
  8
01
 10
288.03170213620149
 20
-111.0822422405964
 30
0.0
 40
3.5
  1
47.5
 50
90.0
  0
LINE
  5
4981
  8
01
  6
BYBLOCK
 10
289.26760051620141
 20
-126.9989091072631
 30
0.0
 11
288.73170213620142
 21
-128.9989091072631
 31
0.0
  0
LINE
  5
4982
  8
01
  6
BYBLOCK
 10
288.73170213620142
 20
-128.9989091072631
 30
0.0
 11
288.19580375620143
 21
-126.9989091072631
 31
0.0
  0
LINE
  5
4983
  8
01
  6
BYBLOCK
 10
288.73170213620142
 20
-128.9989091072631
 30
0.0
 11
288.73170213620142
 21
-126.9989091072631
 31
0.0
  0
LINE
  5
4984
  8
01
  6
BYBLOCK
 10
288.19580375620149
 20
-83.498908707263212
 30
0.0
 11
288.73170213620148
 21
-81.498908707263226
 31
0.0
  0
LINE
  5
4985
  8
01
  6
BYBLOCK
 10
288.73170213620148
 20
-81.498908707263226
 30
0.0
 11
289.26760051620141
 21
-83.498908707263212
 31
0.0
  0
LINE
  5
4986
  8
01
  6
BYBLOCK
 10
288.73170213620148
 20
-81.498908707263226
 30
0.0
 11
288.73170213620148
 21
-83.498908707263212
 31
0.0
  0
TEXT
  5
4987
  8
01
 10
216.33366853067031
 20
-143.4158342788262
 30
0.0
 40
3.5
  1
58 （ケース奥行）
  0
LINE
  5
4988
  8
01
  6
BYBLOCK
 10
262.98366876567019
 20
-143.57993589882619
 30
0.0
 11
264.98366876567019
 21
-144.11583427882621
 31
0.0
  0
LINE
  5
4989
  8
01
  6
BYBLOCK
 10
264.98366876567019
 20
-144.11583427882621
 30
0.0
 11
262.98366876567019
 21
-144.65173265882621
 31
0.0
  0
LINE
  5
498A
  8
01
  6
BYBLOCK
 10
264.98366876567019
 20
-144.11583427882621
 30
0.0
 11
262.98366876567019
 21
-144.11583427882621
 31
0.0
  0
LINE
  5
498B
  8
01
  6
BYBLOCK
 10
209.28366829567031
 20
-144.65173265882621
 30
0.0
 11
207.28366829567031
 21
-144.11583427882621
 31
0.0
  0
LINE
  5
498C
  8
01
  6
BYBLOCK
 10
207.28366829567031
 20
-144.11583427882621
 30
0.0
 11
209.28366829567031
 21
-143.57993589882619
 31
0.0
  0
LINE
  5
498D
  8
01
  6
BYBLOCK
 10
207.28366829567031
 20
-144.11583427882621
 30
0.0
 11
209.28366829567031
 21
-144.11583427882621
 31
0.0
  0
TEXT
  5
498E
  8
01
 10
277.80498998562632
 20
-164.20033430096129
 30
0.0
 40
3.5
  1
7
 50
90.0
  0
LINE
  5
498F
  8
01
  6
BYBLOCK
 10
279.0408883656263
 20
-163.83366463429471
 30
0.0
 11
278.50498998562631
 21
-165.83366463429471
 31
0.0
  0
LINE
  5
4990
  8
01
  6
BYBLOCK
 10
278.50498998562631
 20
-165.83366463429471
 30
0.0
 11
277.96909160562632
 21
-163.83366463429471
 31
0.0
  0
LINE
  5
4991
  8
01
  6
BYBLOCK
 10
278.50498998562631
 20
-165.83366463429471
 30
0.0
 11
278.50498998562631
 21
-163.83366463429471
 31
0.0
  0
LINE
  5
4992
  8
01
  6
BYBLOCK
 10
277.96909160562632
 20
-161.2336706342947
 30
0.0
 11
278.50498998562631
 21
-159.2336706342947
 31
0.0
  0
LINE
  5
4993
  8
01
  6
BYBLOCK
 10
278.50498998562631
 20
-159.2336706342947
 30
0.0
 11
279.0408883656263
 21
-161.2336706342947
 31
0.0
  0
LINE
  5
4994
  8
01
  6
BYBLOCK
 10
278.50498998562631
 20
-159.2336706342947
 30
0.0
 11
278.50498998562631
 21
-161.2336706342947
 31
0.0
  0
TEXT
  5
4995
  8
01
 10
189.48033651349351
 20
-164.2003333009614
 30
0.0
 40
3.5
  1
3
 50
90.0
  0
LINE
  5
4996
  8
01
  6
BYBLOCK
 10
190.71623489349341
 20
-159.0336666342948
 30
0.0
 11
190.18033651349339
 21
-161.0336666342948
 31
0.0
  0
LINE
  5
4997
  8
01
  6
BYBLOCK
 10
190.18033651349339
 20
-161.0336666342948
 30
0.0
 11
189.6444381334934
 21
-159.0336666342948
 31
0.0
  0
LINE
  5
4998
  8
01
  6
BYBLOCK
 10
190.18033651349339
 20
-161.0336666342948
 30
0.0
 11
190.18033651349339
 21
-159.0336666342948
 31
0.0
  0
LINE
  5
4999
  8
01
  6
BYBLOCK
 10
189.6444381334934
 20
-166.0336666342948
 30
0.0
 11
190.18033651349339
 21
-164.0336666342948
 31
0.0
  0
LINE
  5
499A
  8
01
  6
BYBLOCK
 10
190.18033651349339
 20
-164.0336666342948
 30
0.0
 11
190.71623489349341
 21
-166.0336666342948
 31
0.0
  0
LINE
  5
499B
  8
01
  6
BYBLOCK
 10
190.18033651349339
 20
-164.0336666342948
 30
0.0
 11
190.18033651349339
 21
-166.0336666342948
 31
0.0
  0
TEXT
  5
499C
  8
01
 10
182.7094566610993
 20
-166.11699996762809
 30
0.0
 40
3.5
  1
16
 50
90.0
  0
LINE
  5
499D
  8
01
  6
BYBLOCK
 10
182.87355828109921
 20
-156.5336666342948
 30
0.0
 11
183.4094566610992
 21
-154.5336666342948
 31
0.0
  0
LINE
  5
499E
  8
01
  6
BYBLOCK
 10
183.4094566610992
 20
-154.5336666342948
 30
0.0
 11
183.94535504109919
 21
-156.5336666342948
 31
0.0
  0
LINE
  5
499F
  8
01
  6
BYBLOCK
 10
183.4094566610992
 20
-154.5336666342948
 30
0.0
 11
183.4094566610992
 21
-156.5336666342948
 31
0.0
  0
LINE
  5
49A0
  8
01
  6
BYBLOCK
 10
183.94535504109919
 20
-168.5336666342948
 30
0.0
 11
183.4094566610992
 21
-170.5336666342948
 31
0.0
  0
LINE
  5
49A1
  8
01
  6
BYBLOCK
 10
183.4094566610992
 20
-170.5336666342948
 30
0.0
 11
182.87355828109921
 21
-168.5336666342948
 31
0.0
  0
LINE
  5
49A2
  8
01
  6
BYBLOCK
 10
183.4094566610992
 20
-170.5336666342948
 30
0.0
 11
183.4094566610992
 21
-168.5336666342948
 31
0.0
  0
TEXT
  5
49A3
  8
01
 10
158.2287826688941
 20
-142.70746661599631
 30
0.0
 40
3.5
  1
16
  0
LINE
  5
49A4
  8
01
  6
BYBLOCK
 10
155.8121160022275
 20
-143.94336499599629
 30
0.0
 11
153.8121160022275
 21
-143.4074666159963
 31
0.0
  0
LINE
  5
49A5
  8
01
  6
BYBLOCK
 10
153.8121160022275
 20
-143.4074666159963
 30
0.0
 11
155.8121160022275
 21
-142.87156823599631
 31
0.0
  0
LINE
  5
49A6
  8
01
  6
BYBLOCK
 10
153.8121160022275
 20
-143.4074666159963
 30
0.0
 11
155.8121160022275
 21
-143.4074666159963
 31
0.0
  0
LINE
  5
49A7
  8
01
  6
BYBLOCK
 10
167.81211600222741
 20
-142.87156823599631
 30
0.0
 11
169.81211600222741
 21
-143.4074666159963
 31
0.0
  0
LINE
  5
49A8
  8
01
  6
BYBLOCK
 10
169.81211600222741
 20
-143.4074666159963
 30
0.0
 11
167.81211600222741
 21
-143.94336499599629
 31
0.0
  0
LINE
  5
49A9
  8
01
  6
BYBLOCK
 10
169.81211600222741
 20
-143.4074666159963
 30
0.0
 11
167.81211600222741
 21
-143.4074666159963
 31
0.0
  0
TEXT
  5
49AA
  8
01
 10
278.52964952895201
 20
-85.548910207263177
 30
0.0
 40
3.5
  1
81（ケース高さ）
 50
90.0
  0
LINE
  5
49AB
  8
01
  6
BYBLOCK
 10
279.76554790895199
 20
-105.69890670726321
 30
0.0
 11
279.229649528952
 21
-107.69890670726321
 31
0.0
  0
LINE
  5
49AC
  8
01
  6
BYBLOCK
 10
279.229649528952
 20
-107.69890670726321
 30
0.0
 11
278.693751148952
 21
-105.69890670726321
 31
0.0
  0
LINE
  5
49AD
  8
01
  6
BYBLOCK
 10
279.229649528952
 20
-107.69890670726321
 30
0.0
 11
279.229649528952
 21
-105.69890670726321
 31
0.0
  0
LINE
  5
49AE
  8
01
  6
BYBLOCK
 10
278.693751148952
 20
-29.298913707263271
 30
0.0
 11
279.229649528952
 21
-27.298913707263271
 31
0.0
  0
LINE
  5
49AF
  8
01
  6
BYBLOCK
 10
279.229649528952
 20
-27.298913707263271
 30
0.0
 11
279.76554790895199
 21
-29.298913707263271
 31
0.0
  0
LINE
  5
49B0
  8
01
  6
BYBLOCK
 10
279.229649528952
 20
-27.298913707263271
 30
0.0
 11
279.229649528952
 21
-29.298913707263271
 31
0.0
  0
TEXT
  5
49B1
  8
01
 10
194.75033496233689
 20
-137.39410573926199
 30
0.0
 40
3.5
  1
2.7
  0
LINE
  5
49B2
  8
01
  6
BYBLOCK
 10
205.28366829567031
 20
-137.55820735926201
 30
0.0
 11
207.28366829567031
 21
-138.09410573926189
 31
0.0
  0
LINE
  5
49B3
  8
01
  6
BYBLOCK
 10
207.28366829567031
 20
-138.09410573926189
 30
0.0
 11
205.28366829567031
 21
-138.63000411926191
 31
0.0
  0
LINE
  5
49B4
  8
01
  6
BYBLOCK
 10
207.28366829567031
 20
-138.09410573926189
 30
0.0
 11
205.28366829567031
 21
-138.09410573926189
 31
0.0
  0
LINE
  5
49B5
  8
01
  6
BYBLOCK
 10
211.9836652656704
 20
-138.63000411926191
 30
0.0
 11
209.9836652656704
 21
-138.09410573926189
 31
0.0
  0
LINE
  5
49B6
  8
01
  6
BYBLOCK
 10
209.9836652656704
 20
-138.09410573926189
 30
0.0
 11
211.9836652656704
 21
-137.55820735926201
 31
0.0
  0
LINE
  5
49B7
  8
01
  6
BYBLOCK
 10
209.9836652656704
 20
-138.09410573926189
 30
0.0
 11
211.9836652656704
 21
-138.09410573926189
 31
0.0
  0
TEXT
  5
49B8
  8
01
 10
335.4844738347569
 20
-48.854433691428952
 30
0.0
 40
3.5
  1
27
  0
LINE
  5
49B9
  8
01
  6
BYBLOCK
 10
350.31780516809022
 20
-49.018535311428948
 30
0.0
 11
352.31780516809022
 21
-49.554433691428947
 31
0.0
  0
LINE
  5
49BA
  8
01
  6
BYBLOCK
 10
352.31780516809022
 20
-49.554433691428947
 30
0.0
 11
350.31780516809022
 21
-50.090332071428953
 31
0.0
  0
LINE
  5
49BB
  8
01
  6
BYBLOCK
 10
352.31780516809022
 20
-49.554433691428947
 30
0.0
 11
350.31780516809022
 21
-49.554433691428947
 31
0.0
  0
LINE
  5
49BC
  8
01
  6
BYBLOCK
 10
327.31780916809021
 20
-50.090332071428953
 30
0.0
 11
325.31780916809021
 21
-49.554433691428947
 31
0.0
  0
LINE
  5
49BD
  8
01
  6
BYBLOCK
 10
325.31780916809021
 20
-49.554433691428947
 30
0.0
 11
327.31780916809021
 21
-49.018535311428948
 31
0.0
  0
LINE
  5
49BE
  8
01
  6
BYBLOCK
 10
325.31780916809021
 20
-49.554433691428947
 30
0.0
 11
327.31780916809021
 21
-49.554433691428947
 31
0.0
  0
TEXT
  5
49BF
  8
01
 10
332.9844738347569
 20
-27.60071169142897
 30
0.0
 40
3.5
  1
22
  0
LINE
  5
49C0
  8
01
  6
BYBLOCK
 10
345.31780516809022
 20
-27.76481331142897
 30
0.0
 11
347.31780516809022
 21
-28.300711691428969
 31
0.0
  0
LINE
  5
49C1
  8
01
  6
BYBLOCK
 10
347.31780516809022
 20
-28.300711691428969
 30
0.0
 11
345.31780516809022
 21
-28.836610071428971
 31
0.0
  0
LINE
  5
49C2
  8
01
  6
BYBLOCK
 10
347.31780516809022
 20
-28.300711691428969
 30
0.0
 11
345.31780516809022
 21
-28.300711691428969
 31
0.0
  0
LINE
  5
49C3
  8
01
  6
BYBLOCK
 10
327.31780916809021
 20
-28.836610071428971
 30
0.0
 11
325.31780916809021
 21
-28.300711691428969
 31
0.0
  0
LINE
  5
49C4
  8
01
  6
BYBLOCK
 10
325.31780916809021
 20
-28.300711691428969
 30
0.0
 11
327.31780916809021
 21
-27.76481331142897
 31
0.0
  0
LINE
  5
49C5
  8
01
  6
BYBLOCK
 10
325.31780916809021
 20
-28.300711691428969
 30
0.0
 11
327.31780916809021
 21
-28.300711691428969
 31
0.0
  0
LINE
  5
49C6
  8
01
 10
353.92229366951648
 20
-112.0749725014642
 30
0.0
 11
353.92231228387573
 21
-104.0749725014642
 31
0.0
  0
LINE
  5
49C7
  8
01
 10
353.62231228387458
 20
-104.0749725014642
 30
0.0
 11
353.92231228387573
 21
-104.0749725014642
 31
0.0
  0
LINE
  5
49C8
  8
01
 10
353.6222936695155
 20
-112.0749725014642
 30
0.0
 11
353.92229366951648
 21
-112.0749725014642
 31
0.0
  0
LINE
  5
49C9
  8
01
 10
353.62231228387458
 20
-104.0749725014642
 30
0.0
 11
351.12228319876931
 21
-106.5749725014642
 31
0.0
  0
LINE
  5
49CA
  8
01
 10
353.6222936695155
 20
-112.0749725014642
 30
0.0
 11
351.12231112041638
 21
-109.5749725014642
 31
0.0
  0
LINE
  5
49CB
  8
01
 10
339.22230646688752
 20
-106.5749725014642
 30
0.0
 11
351.12228319876931
 21
-106.5749725014642
 31
0.0
  0
LINE
  5
49CC
  8
01
 10
339.22229948650278
 20
-109.5749725014642
 30
0.0
 11
351.12231112041638
 21
-109.5749725014642
 31
0.0
  0
LINE
  5
49CD
  8
01
 10
333.9223029766419
 20
-108.0749725014642
 30
0.0
 11
339.22230646688752
 21
-106.5749725014642
 31
0.0
  0
LINE
  5
49CE
  8
01
 10
333.9223029766419
 20
-108.0749725014642
 30
0.0
 11
339.22229948650278
 21
-109.5749725014642
 31
0.0
  0
LINE
  5
49CF
  8
01
 10
353.92229366951648
 20
-101.75810389448409
 30
0.0
 11
353.92231228387573
 21
-93.758103894484123
 31
0.0
  0
LINE
  5
49D0
  8
01
 10
353.62231228387458
 20
-93.758103894484123
 30
0.0
 11
353.92231228387573
 21
-93.758103894484123
 31
0.0
  0
LINE
  5
49D1
  8
01
 10
353.6222936695155
 20
-101.75810389448409
 30
0.0
 11
353.92229366951648
 21
-101.75810389448409
 31
0.0
  0
LINE
  5
49D2
  8
01
 10
353.62231228387458
 20
-93.758103894484123
 30
0.0
 11
351.12228319876931
 21
-96.258103894484123
 31
0.0
  0
LINE
  5
49D3
  8
01
 10
353.6222936695155
 20
-101.75810389448409
 30
0.0
 11
351.12231112041638
 21
-99.258103894484137
 31
0.0
  0
LINE
  5
49D4
  8
01
 10
339.22230646688752
 20
-96.258103894484123
 30
0.0
 11
351.12228319876931
 21
-96.258103894484123
 31
0.0
  0
LINE
  5
49D5
  8
01
 10
339.22229948650278
 20
-99.258103894484137
 30
0.0
 11
351.12231112041638
 21
-99.258103894484137
 31
0.0
  0
LINE
  5
49D6
  8
01
 10
333.9223029766419
 20
-97.758103894484123
 30
0.0
 11
339.22230646688752
 21
-96.258103894484123
 31
0.0
  0
LINE
  5
49D7
  8
01
 10
333.9223029766419
 20
-97.758103894484123
 30
0.0
 11
339.22229948650278
 21
-99.258103894484137
 31
0.0
  0
TEXT
  5
49D8
  8
01
 10
337.9844738347569
 20
-67.757042436904428
 30
0.0
 40
3.5
  1
32
  0
LINE
  5
49D9
  8
01
  6
BYBLOCK
 10
355.31780516809022
 20
-67.921144056904424
 30
0.0
 11
357.31780516809022
 21
-68.45704243690443
 31
0.0
  0
LINE
  5
49DA
  8
01
  6
BYBLOCK
 10
357.31780516809022
 20
-68.45704243690443
 30
0.0
 11
355.31780516809022
 21
-68.992940816904436
 31
0.0
  0
LINE
  5
49DB
  8
01
  6
BYBLOCK
 10
357.31780516809022
 20
-68.45704243690443
 30
0.0
 11
355.31780516809022
 21
-68.45704243690443
 31
0.0
  0
LINE
  5
49DC
  8
01
  6
BYBLOCK
 10
327.31780916809021
 20
-68.992940816904436
 30
0.0
 11
325.31780916809021
 21
-68.45704243690443
 31
0.0
  0
LINE
  5
49DD
  8
01
  6
BYBLOCK
 10
325.31780916809021
 20
-68.45704243690443
 30
0.0
 11
327.31780916809021
 21
-67.921144056904424
 31
0.0
  0
LINE
  5
49DE
  8
01
  6
BYBLOCK
 10
325.31780916809021
 20
-68.45704243690443
 30
0.0
 11
327.31780916809021
 21
-68.45704243690443
 31
0.0
  0
TEXT
  5
49DF
  8
01
 10
340.58896498974588
 20
-119.7277843907148
 30
0.0
 40
3.5
  1
20
  0
LINE
  5
49E0
  8
01
  6
BYBLOCK
 10
351.92229366951642
 20
-119.8918860107148
 30
0.0
 11
353.92229366951642
 21
-120.42778439071481
 31
0.0
  0
LINE
  5
49E1
  8
01
  6
BYBLOCK
 10
353.92229366951642
 20
-120.42778439071481
 30
0.0
 11
351.92229366951642
 21
-120.9636827707148
 31
0.0
  0
LINE
  5
49E2
  8
01
  6
BYBLOCK
 10
353.92229366951642
 20
-120.42778439071481
 30
0.0
 11
351.92229366951642
 21
-120.42778439071481
 31
0.0
  0
LINE
  5
49E3
  8
01
  6
BYBLOCK
 10
335.92230297664202
 20
-120.9636827707148
 30
0.0
 11
333.92230297664202
 21
-120.42778439071481
 31
0.0
  0
LINE
  5
49E4
  8
01
  6
BYBLOCK
 10
333.92230297664202
 20
-120.42778439071481
 30
0.0
 11
335.92230297664202
 21
-119.8918860107148
 31
0.0
  0
LINE
  5
49E5
  8
01
  6
BYBLOCK
 10
333.92230297664202
 20
-120.42778439071481
 30
0.0
 11
335.92230297664202
 21
-120.42778439071481
 31
0.0
  0
TEXT
  5
49E6
  8
01
 10
327.38626439073607
 20
-102.0749725014642
 30
0.0
 40
3.5
  1
φ4
 50
90.0
  0
LINE
  5
49E7
  8
01
  6
BYBLOCK
 10
328.62216277073611
 20
-104.0749725014642
 30
0.0
 11
328.08626439073612
 21
-106.0749725014642
 31
0.0
  0
LINE
  5
49E8
  8
01
  6
BYBLOCK
 10
328.08626439073612
 20
-106.0749725014642
 30
0.0
 11
327.55036601073613
 21
-104.0749725014642
 31
0.0
  0
LINE
  5
49E9
  8
01
  6
BYBLOCK
 10
328.08626439073612
 20
-106.0749725014642
 30
0.0
 11
328.08626439073612
 21
-104.0749725014642
 31
0.0
  0
LINE
  5
49EA
  8
01
  6
BYBLOCK
 10
327.55036601073613
 20
-112.0749725014642
 30
0.0
 11
328.08626439073612
 21
-110.0749725014642
 31
0.0
  0
LINE
  5
49EB
  8
01
  6
BYBLOCK
 10
328.08626439073612
 20
-110.0749725014642
 30
0.0
 11
328.62216277073611
 21
-112.0749725014642
 31
0.0
  0
LINE
  5
49EC
  8
01
  6
BYBLOCK
 10
328.08626439073612
 20
-110.0749725014642
 30
0.0
 11
328.08626439073612
 21
-112.0749725014642
 31
0.0
  0
LINE
  5
49ED
  8
01
 10
160.0480706628822
 20
-6.3561496713726591
 30
0.0
 11
153.81038307556011
 21
7.031923874765071
 31
0.0
1001
ACAD
1000
DSTYLE
1002
{
1070
   341
1005
0
1002
}
  0
LINE
  5
49EE
  8
01
 10
153.81038307556011
 20
7.031923874765071
 30
0.0
 11
118.44371640889349
 21
7.031923874765071
 31
0.0
1001
ACAD
1000
DSTYLE
1002
{
1070
   341
1005
0
1002
}
  0
LINE
  5
49EF
  8
01
 10
252.32591247700461
 20
-31.74775837891465
 30
0.0
 11
263.72073259285122
 21
7.0319238747650736
 31
0.0
1001
ACAD
1000
DSTYLE
1002
{
1070
   341
1005
0
1002
}
  0
LINE
  5
49F0
  8
01
 10
263.72073259285122
 20
7.0319238747650736
 30
0.0
 11
324.75406592618452
 21
7.0319238747650736
 31
0.0
1001
ACAD
1000
DSTYLE
1002
{
1070
   341
1005
0
1002
}
  0
LINE
  5
49F1
  8
01
 10
202.95684939544191
 20
-66.794381104510236
 30
0.0
 11
196.06052766869919
 21
7.031923874765071
 31
0.0
1001
ACAD
1000
DSTYLE
1002
{
1070
   341
1005
0
1002
}
  0
LINE
  5
49F2
  8
01
 10
196.06052766869919
 20
7.031923874765071
 30
0.0
 11
160.69386100203261
 21
7.031923874765071
 31
0.0
1001
ACAD
1000
DSTYLE
1002
{
1070
   341
1005
0
1002
}
  0
TEXT
  5
49F3
  8
01
 10
129.9933472986514
 20
-72.748909107263174
 30
0.0
 40
3.5
  1
123
 50
90.0
  0
LINE
  5
49F4
  8
01
  6
BYBLOCK
 10
131.2292456786513
 20
-126.9989091072632
 30
0.0
 11
130.6933472986513
 21
-128.99890910726319
 31
0.0
  0
LINE
  5
49F5
  8
01
  6
BYBLOCK
 10
130.6933472986513
 20
-128.99890910726319
 30
0.0
 11
130.15744891865131
 21
-126.9989091072632
 31
0.0
  0
LINE
  5
49F6
  8
01
  6
BYBLOCK
 10
130.6933472986513
 20
-128.99890910726319
 30
0.0
 11
130.6933472986513
 21
-126.9989091072632
 31
0.0
  0
LINE
  5
49F7
  8
01
  6
BYBLOCK
 10
130.1574489186514
 20
-7.9989091072631799
 30
0.0
 11
130.69334729865139
 21
-5.9989091072631799
 31
0.0
  0
LINE
  5
49F8
  8
01
  6
BYBLOCK
 10
130.69334729865139
 20
-5.9989091072631799
 30
0.0
 11
131.2292456786513
 21
-7.9989091072631799
 31
0.0
  0
LINE
  5
49F9
  8
01
  6
BYBLOCK
 10
130.69334729865139
 20
-5.9989091072631799
 30
0.0
 11
130.69334729865139
 21
-7.9989091072631799
 31
0.0
  0
TEXT
  5
49FA
  8
01
 10
169.29861811948541
 20
-6.0893626812023989
 30
0.0
 40
3.5
  1
R6
 50
42.145959113669342
  0
LINE
  5
49FB
  8
01
  6
BYBLOCK
 10
166.4182679408967
 20
-8.9174874960167596
 30
0.0
 11
168.26074296878971
 21
-7.9727796865448113
 31
0.0
  0
LINE
  5
49FC
  8
01
  6
BYBLOCK
 10
168.26074296878971
 20
-7.9727796865448113
 30
0.0
 11
167.13746668564119
 21
-9.7121581575517872
 31
0.0
  0
LINE
  5
49FD
  8
01
  6
BYBLOCK
 10
168.26074296878971
 20
-7.9727796865448113
 30
0.0
 11
166.77786731326901
 21
-9.3148228267842725
 31
0.0
  0
TEXT
  5
49FE
  8
01
 10
139.13289869920459
 20
-89.048909107263128
 30
0.0
 40
3.5
  1
取付けネジピッチ106
 50
90.0
  0
LINE
  5
49FF
  8
01
  6
BYBLOCK
 10
140.3687970792046
 20
-118.4989091072631
 30
0.0
 11
139.83289869920461
 21
-120.4989091072631
 31
0.0
  0
LINE
  5
4A00
  8
01
  6
BYBLOCK
 10
139.83289869920461
 20
-120.4989091072631
 30
0.0
 11
139.29700031920461
 21
-118.4989091072631
 31
0.0
  0
LINE
  5
4A01
  8
01
  6
BYBLOCK
 10
139.83289869920461
 20
-120.4989091072631
 30
0.0
 11
139.83289869920461
 21
-118.4989091072631
 31
0.0
  0
LINE
  5
4A02
  8
01
  6
BYBLOCK
 10
139.29700031920461
 20
-16.49890910726317
 30
0.0
 11
139.83289869920461
 21
-14.49890910726317
 31
0.0
  0
LINE
  5
4A03
  8
01
  6
BYBLOCK
 10
139.83289869920461
 20
-14.49890910726317
 30
0.0
 11
140.3687970792046
 21
-16.49890910726317
 31
0.0
  0
LINE
  5
4A04
  8
01
  6
BYBLOCK
 10
139.83289869920461
 20
-14.49890910726317
 30
0.0
 11
139.83289869920461
 21
-16.49890910726317
 31
0.0
  0
TEXT
  5
4A05
  8
01
 10
139.13289869920459
 20
-3.7989091072631598
 30
0.0
 40
3.5
  1
8.5
 50
90.0
  0
LINE
  5
4A06
  8
01
  6
BYBLOCK
 10
139.29700031920461
 20
-7.9989091072631826
 30
0.0
 11
139.83289869920461
 21
-5.9989091072631826
 31
0.0
  0
LINE
  5
4A07
  8
01
  6
BYBLOCK
 10
139.83289869920461
 20
-5.9989091072631826
 30
0.0
 11
140.3687970792046
 21
-7.9989091072631826
 31
0.0
  0
LINE
  5
4A08
  8
01
  6
BYBLOCK
 10
139.83289869920461
 20
-5.9989091072631826
 30
0.0
 11
139.83289869920461
 21
-7.9989091072631826
 31
0.0
  0
LINE
  5
4A09
  8
01
  6
BYBLOCK
 10
140.3687970792046
 20
-12.49890910726317
 30
0.0
 11
139.83289869920461
 21
-14.49890910726317
 31
0.0
  0
LINE
  5
4A0A
  8
01
  6
BYBLOCK
 10
139.83289869920461
 20
-14.49890910726317
 30
0.0
 11
139.29700031920461
 21
-12.49890910726317
 31
0.0
  0
LINE
  5
4A0B
  8
01
  6
BYBLOCK
 10
139.83289869920461
 20
-14.49890910726317
 30
0.0
 11
139.83289869920461
 21
-12.49890910726317
 31
0.0
  0
TEXT
  5
4A0C
  8
01
 10
202.1170018640037
 20
-95.775687777174014
 30
0.0
 40
3.5
  1
7
  0
LINE
  5
4A0D
  8
01
  6
BYBLOCK
 10
202.2836687656704
 20
-97.011586157174037
 30
0.0
 11
200.2836687656704
 21
-96.475687777174031
 31
0.0
  0
LINE
  5
4A0E
  8
01
  6
BYBLOCK
 10
200.2836687656704
 20
-96.475687777174031
 30
0.0
 11
202.2836687656704
 21
-95.939789397173996
 31
0.0
  0
LINE
  5
4A0F
  8
01
  6
BYBLOCK
 10
200.2836687656704
 20
-96.475687777174031
 30
0.0
 11
202.2836687656704
 21
-96.475687777174031
 31
0.0
  0
LINE
  5
4A10
  8
01
  6
BYBLOCK
 10
205.28366829567031
 20
-95.939789397173996
 30
0.0
 11
207.28366829567031
 21
-96.475687777174031
 31
0.0
  0
LINE
  5
4A11
  8
01
  6
BYBLOCK
 10
207.28366829567031
 20
-96.475687777174031
 30
0.0
 11
205.28366829567031
 21
-97.011586157174037
 31
0.0
  0
LINE
  5
4A12
  8
01
  6
BYBLOCK
 10
207.28366829567031
 20
-96.475687777174031
 30
0.0
 11
205.28366829567031
 21
-96.475687777174031
 31
0.0
  0
VIEWPORT
  5
57
 67
     1
  8
0
 10
3.6922474791460038
 20
28.454467487321679
 30
0.0
 40
436.2980259704874
 41
308.9145844594612
 68
     1
 69
     1
1001
ACAD
1000
MVIEW
1002
{
1070
    16
1010
0.0
1020
0.0
1030
0.0
1010
0.0
1020
0.0
1030
1.0
1040
0.0
1040
308.9145844594612
1040
3.6922474791460038
1040
28.454467487321679
1040
50.0
1040
0.0
1040
0.0
1070
     0
1070
   100
1070
     1
1070
     1
1070
     0
1070
     0
1070
     0
1070
     0
1040
0.0
1040
0.0
1040
0.0
1040
10.0
1040
10.0
1040
10.0
1040
10.0
1070
     0
1002
{
1002
}
1002
}
  0
ENDSEC
  0
EOF
