  0
SECTION
  2
HEADER
  9
$ACADVER
  1
AC1009
  9
$INSBASE
 10
0.0
 20
0.0
 30
0.0
  9
$EXTMIN
 10
5315.8363922149256
 20
-368.46620152473128
 30
0.0
  9
$EXTMAX
 10
5619.2646775973581
 20
-168.2898775912108
 30
0.0
  9
$LIMMIN
 10
0.0
 20
0.0
  9
$LIMMAX
 10
420.0
 20
297.0
  9
$ORTHOMODE
 70
     0
  9
$REGENMODE
 70
     1
  9
$FILLMODE
 70
     1
  9
$QTEXTMODE
 70
     0
  9
$MIRRTEXT
 70
     0
  9
$DRAGMODE
 70
     2
  9
$LTSCALE
 40
0.5
  9
$OSMODE
 70
   127
  9
$ATTMODE
 70
     1
  9
$TEXTSIZE
 40
4.0
  9
$TRACEWID
 40
1.0
  9
$TEXTSTYLE
  7
STANDARD
  9
$CLAYER
  8
1TEXT
  9
$CELTYPE
  6
BYLAYER
  9
$CECOLOR
 62
   256
  9
$DIMSCALE
 40
1.0
  9
$DIMASZ
 40
2.0
  9
$DIMEXO
 40
0.0
  9
$DIMDLI
 40
7.0
  9
$DIMRND
 40
0.0
  9
$DIMDLE
 40
0.0
  9
$DIMEXE
 40
1.0
  9
$DIMTP
 40
0.0
  9
$DIMTM
 40
0.0
  9
$DIMTXT
 40
3.5
  9
$DIMCEN
 40
0.0
  9
$DIMTSZ
 40
0.0
  9
$DIMTOL
 70
     0
  9
$DIMLIM
 70
     0
  9
$DIMTIH
 70
     0
  9
$DIMTOH
 70
     0
  9
$DIMSE1
 70
     0
  9
$DIMSE2
 70
     0
  9
$DIMTAD
 70
     1
  9
$DIMZIN
 70
     8
  9
$DIMBLK
  1

  9
$DIMASO
 70
     1
  9
$DIMSHO
 70
     1
  9
$DIMPOST
  1
 
  9
$DIMAPOST
  1

  9
$DIMALT
 70
     0
  9
$DIMALTD
 70
     2
  9
$DIMALTF
 40
25.399999999999999
  9
$DIMLFAC
 40
1.0
  9
$DIMTOFL
 70
     1
  9
$DIMTVP
 40
0.0
  9
$DIMTIX
 70
     0
  9
$DIMSOXD
 70
     0
  9
$DIMSAH
 70
     1
  9
$DIMBLK1
  1
OPEN30
  9
$DIMBLK2
  1
OPEN30
  9
$DIMSTYLE
  2
NEWX10
  9
$DIMCLRD
 70
   256
  9
$DIMCLRE
 70
   256
  9
$DIMCLRT
 70
   201
  9
$DIMTFAC
 40
0.7
  9
$DIMGAP
 40
0.7
  9
$LUNITS
 70
     2
  9
$LUPREC
 70
     4
  9
$SKETCHINC
 40
1.0
  9
$FILLETRAD
 40
0.5
  9
$AUNITS
 70
     0
  9
$AUPREC
 70
     2
  9
$MENU
  1
acad
  9
$ELEVATION
 40
0.0
  9
$PELEVATION
 40
0.0
  9
$THICKNESS
 40
0.0
  9
$LIMCHECK
 70
     0
  9
$BLIPMODE
 70
     0
  9
$CHAMFERA
 40
10.0
  9
$CHAMFERB
 40
10.0
  9
$SKPOLY
 70
     0
  9
$TDCREATE
 40
2451318.621352917
  9
$TDUPDATE
 40
2454918.6043366548
  9
$TDINDWG
 40
0.7844582755
  9
$TDUSRTIMER
 40
0.7844582755
  9
$USRTIMER
 70
     1
  9
$ANGBASE
 50
0.0
  9
$ANGDIR
 70
     0
  9
$PDMODE
 70
     0
  9
$PDSIZE
 40
0.0
  9
$PLINEWID
 40
0.0
  9
$COORDS
 70
     2
  9
$SPLFRAME
 70
     0
  9
$SPLINETYPE
 70
     6
  9
$SPLINESEGS
 70
     8
  9
$ATTDIA
 70
     0
  9
$ATTREQ
 70
     1
  9
$HANDLING
 70
     1
  9
$HANDSEED
  5
980B
  9
$SURFTAB1
 70
     6
  9
$SURFTAB2
 70
     6
  9
$SURFTYPE
 70
     6
  9
$SURFU
 70
     6
  9
$SURFV
 70
     6
  9
$UCSNAME
  2

  9
$UCSORG
 10
0.0
 20
0.0
 30
0.0
  9
$UCSXDIR
 10
1.0
 20
0.0
 30
0.0
  9
$UCSYDIR
 10
0.0
 20
1.0
 30
0.0
  9
$PUCSNAME
  2

  9
$PUCSORG
 10
0.0
 20
0.0
 30
0.0
  9
$PUCSXDIR
 10
1.0
 20
0.0
 30
0.0
  9
$PUCSYDIR
 10
0.0
 20
1.0
 30
0.0
  9
$USERI1
 70
     0
  9
$USERI2
 70
     0
  9
$USERI3
 70
     0
  9
$USERI4
 70
     0
  9
$USERI5
 70
     0
  9
$USERR1
 40
0.0
  9
$USERR2
 40
0.0
  9
$USERR3
 40
0.0
  9
$USERR4
 40
0.0
  9
$USERR5
 40
0.0
  9
$WORLDVIEW
 70
     1
  9
$SHADEDGE
 70
     3
  9
$SHADEDIF
 70
    70
  9
$TILEMODE
 70
     1
  9
$MAXACTVP
 70
    48
  9
$PLIMCHECK
 70
     0
  9
$PEXTMIN
 10
1.0000000000000000E+020
 20
1.0000000000000000E+020
 30
1.0000000000000000E+020
  9
$PEXTMAX
 10
-1.0000000000000000E+020
 20
-1.0000000000000000E+020
 30
-1.0000000000000000E+020
  9
$PLIMMIN
 10
0.0
 20
0.0
  9
$PLIMMAX
 10
420.0
 20
297.0
  9
$UNITMODE
 70
     0
  9
$VISRETAIN
 70
     1
  9
$PLINEGEN
 70
     0
  9
$PSLTSCALE
 70
     1
  0
ENDSEC
  0
SECTION
  2
TABLES
  0
TABLE
  2
VPORT
 70
     4
  0
VPORT
  2
*ACTIVE
 70
     0
 10
0.0
 20
0.0
 11
1.0
 21
1.0
 12
5467.4564034964296
 22
-268.36601386566753
 13
0.0
 23
0.0
 14
10.0
 24
10.0
 15
10.0
 25
10.0
 16
0.0
 26
0.0
 36
1.0
 17
0.0
 27
0.0
 37
0.0
 40
213.29728164782361
 41
1.508086253369272
 42
50.0
 43
0.0
 44
0.0
 50
0.0
 51
0.0
 71
     0
 72
   100
 73
     1
 74
     1
 75
     0
 76
     0
 77
     0
 78
     0
  0
ENDTAB
  0
TABLE
  2
LTYPE
 70
    14
  0
LTYPE
  2
CONTINUOUS
 70
     0
  3
Solid line
 72
    65
 73
     0
 40
0.0
  0
LTYPE
  2
XREF1|CENTER2
 70
    48
  3
Center (.5x) ___ _ ___ _ ___ _ ___ _ ___ _ ___
 72
    65
 73
     4
 40
28.574999999999999
 49
19.050000000000001
 49
-3.1749999999999989
 49
3.1749999999999989
 49
-3.1749999999999989
  0
LTYPE
  2
A3WAKUDAKE|CENTER2
 70
    48
  3
Center (.5x) ___ _ ___ _ ___ _ ___ _ ___ _ ___
 72
    65
 73
     4
 40
28.574999999999999
 49
19.050000000000001
 49
-3.1749999999999989
 49
3.1749999999999989
 49
-3.1749999999999989
  0
LTYPE
  2
CENTER2
 70
     0
  3
Center (.5x) ___ _ ___ _ ___ _ ___ _ ___ _ ___
 72
    65
 73
     4
 40
28.574999999999999
 49
19.050000000000001
 49
-3.1749999999999989
 49
3.1749999999999989
 49
-3.1749999999999989
  0
ENDTAB
  0
TABLE
  2
LAYER
 70
    42
  0
LAYER
  2
0
 70
     0
 62
     7
  6
CONTINUOUS
  0
LAYER
  2
1CENTER
 70
     0
 62
     7
  6
CENTER2
  0
LAYER
  2
1TEXT
 70
     0
 62
     7
  6
CONTINUOUS
  0
LAYER
  2
01
 70
     0
 62
     1
  6
CONTINUOUS
  0
LAYER
  2
1DIM
 70
     0
 62
     7
  6
CONTINUOUS
  0
LAYER
  2
A3WAKUDAKE|THICK
 70
    48
 62
     7
  6
CONTINUOUS
  0
LAYER
  2
A3WAKUDAKE|POINT
 70
    48
 62
     7
  6
CONTINUOUS
  0
LAYER
  2
A3WAKUDAKE|1CENTER
 70
    48
 62
     7
  6
A3WAKUDAKE|CENTER2
  0
LAYER
  2
A3WAKUDAKE|0-6
 70
    48
 62
     7
  6
CONTINUOUS
  0
LAYER
  2
A3WAKUDAKE|1DIM
 70
    48
 62
     7
  6
CONTINUOUS
  0
LAYER
  2
XREF1|1CENTER
 70
    48
 62
     7
  6
XREF1|CENTER2
  0
ENDTAB
  0
TABLE
  2
STYLE
 70
    21
  0
STYLE
  2
STANDARD
 70
     0
 40
0.0
 41
1.0
 50
0.0
 71
     0
 42
4.0
  3
txt.shx
  4
extfont.shx
  0
ENDTAB
  0
TABLE
  2
VIEW
 70
     0
  0
ENDTAB
  0
TABLE
  2
UCS
 70
     0
  0
ENDTAB
  0
TABLE
  2
APPID
 70
     9
  0
APPID
  2
ACAD
 70
     0
  0
APPID
  2
DRAWINGVARIABLESXDATA
 70
     0
  0
APPID
  2
CONTENTTABDATA
 70
     0
  0
APPID
  2
CONTENTCURRENTTAB
 70
     0
  0
APPID
  2
CONTENTBLOCKDESCRIPTION
 70
     0
  0
APPID
  2
CONTENTBLOCKICON
 70
     0
  0
APPID
  2
CONTENTLONGBLOCKNAME
 70
     0
  0
APPID
  2
ACAD_PSEXT
 70
     0
  0
APPID
  2
ACAD_MLEADERVER
 70
     0
  0
ENDTAB
  0
TABLE
  2
DIMSTYLE
 70
     6
  0
DIMSTYLE
  2
NEWX10
 70
     0
  3
 
  4

  5

  6
OPEN30
  7
OPEN30
 40
1.0
 41
2.0
 42
0.0
 43
7.0
 44
1.0
 45
0.0
 46
0.0
 47
0.0
 48
0.0
140
3.5
141
0.0
142
0.0
143
25.399999999999999
144
1.0
145
0.0
146
0.7
147
0.7
 71
     0
 72
     0
 73
     0
 74
     0
 75
     0
 76
     0
 77
     1
 78
     8
170
     0
171
     2
172
     1
173
     1
174
     0
175
     0
176
   256
177
   256
178
   201
  0
ENDTAB
  0
ENDSEC
  0
SECTION
  2
BLOCKS
  0
BLOCK
  8
0
  2
$MODEL_SPACE
 70
     0
 10
0.0
 20
0.0
 30
0.0
  3
$MODEL_SPACE
  1

  0
ENDBLK
  5
1A
  8
0
  0
BLOCK
 67
     1
  8
0
  2
$PAPER_SPACE
 70
     0
 10
0.0
 20
0.0
 30
0.0
  3
$PAPER_SPACE
  1

  0
ENDBLK
  5
17
 67
     1
  8
0
  0
BLOCK
  8
0
  2
_OPEN30
 70
     0
 10
0.0
 20
0.0
 30
0.0
  3
_OPEN30
  1

  0
LINE
  5
44
  8
0
  6
BYBLOCK
 62
     0
 10
-1.0
 20
0.26794919
 30
0.0
 11
0.0
 21
0.0
 31
0.0
  0
LINE
  5
45
  8
0
  6
BYBLOCK
 62
     0
 10
0.0
 20
0.0
 30
0.0
 11
-1.0
 21
-0.26794919
 31
0.0
  0
LINE
  5
46
  8
0
  6
BYBLOCK
 62
     0
 10
0.0
 20
0.0
 30
0.0
 11
-1.0
 21
0.0
 31
0.0
  0
ENDBLK
  5
47
  8
0
  0
BLOCK
  8
0
  2
XREF1
 70
    36
 10
0.0
 20
0.0
 30
0.0
  3
XREF1
  1
D:\ACLT\FORMAT\KAWAJUN(9)É}û╩ùp.dwg
  0
ENDBLK
  5
5D
  8
0
  0
BLOCK
  8
0
  2
A3WAKUDAKE
 70
    36
 10
0.0
 20
0.0
 30
0.0
  3
A3WAKUDAKE
  1
D:\ACLT\FORMAT\A3WAKUdake.dwg
  0
ENDBLK
  5
6A0
  8
0
  0
BLOCK
  8
0
  2
*U13
 70
     1
 10
0.0
 20
0.0
 30
0.0
  3
*U13
  1

  0
CIRCLE
  5
97ED
  8
0
 10
0.0
 20
0.0
 30
0.0
 40
3.0
  0
ENDBLK
  5
97EF
  8
0
  0
BLOCK
  8
0
  2
*U14
 70
     1
 10
0.0
 20
0.0
 30
0.0
  3
*U14
  1

  0
TEXT
  5
97F4
  8
1DIM
 62
   201
 10
5432.0546775973571
 20
-336.22712355336552
 30
0.0
 40
4.5499999999999989
  1
âË50
 50
90.0
  0
ENDBLK
  5
97F6
  8
0
  0
BLOCK
  8
0
  2
*U15
 70
     1
 10
0.0
 20
0.0
 30
0.0
  3
*U15
  1

  0
TEXT
  5
97F8
  8
1DIM
 62
   201
 10
5607.0546775973571
 20
-212.5836442578767
 30
0.0
 40
4.5499999999999989
  1
35 
 50
90.0
  0
ENDBLK
  5
97FA
  8
0
  0
BLOCK
  8
0
  2
*U16
 70
     1
 10
0.0
 20
0.0
 30
0.0
  3
*U16
  1

  0
TEXT
  5
97FC
  8
1DIM
 62
   201
 10
5617.0546775973571
 20
-224.8253109245434
 30
0.0
 40
4.5499999999999989
  1
61 
 50
90.0
  0
ENDBLK
  5
97FE
  8
0
  0
BLOCK
  8
0
  2
*U17
 70
     1
 10
0.0
 20
0.0
 30
0.0
  3
*U17
  1

  0
TEXT
  5
9800
  8
1DIM
 62
   201
 10
5607.0546775973571
 20
-335.2665442578766
 30
0.0
 40
4.5499999999999989
  1
âË22
 50
90.0
  0
ENDBLK
  5
9802
  8
0
  0
BLOCK
  8
0
  2
*U18
 70
     1
 10
0.0
 20
0.0
 30
0.0
  3
*U18
  1

  0
TEXT
  5
9804
  8
1DIM
 62
   201
 10
5525.1563442640254
 20
-266.3819775912109
 30
0.0
 40
4.5499999999999989
  1
125 
  0
ENDBLK
  5
9806
  8
0
  0
BLOCK
  8
0
  2
*U19
 70
     1
 10
0.0
 20
0.0
 30
0.0
  3
*U19
  1

  0
TEXT
  5
9808
  8
1DIM
 62
   201
 10
5514.1563461640253
 20
-276.3819775912109
 30
0.0
 40
4.5499999999999989
  1
136 
  0
ENDBLK
  5
980A
  8
0
  0
ENDSEC
  0
SECTION
  2
ENTITIES
  0
LINE
  5
71B4
  8
01
 10
5443.4646775973579
 20
-199.79197759121101
 30
0.0
 11
5492.464677597357
 21
-199.79197759121101
 31
0.0
  0
LINE
  5
71B5
  8
01
 10
5442.9646775973579
 20
-191.29197759121101
 30
0.0
 11
5442.9646775973579
 21
-199.29197759121101
 31
0.0
  0
LINE
  5
71B7
  8
01
 10
5492.9646775973579
 20
-191.29197759121101
 30
0.0
 11
5492.9646775973579
 21
-199.29197759121101
 31
0.0
  0
ARC
  5
71B9
  8
01
 10
5467.9646775973579
 20
-328.28987759121082
 30
0.0
 40
25.0
 50
21.100196024092622
 51
338.8998039759071
  0
LINE
  5
71BC
  8
1CENTER
 10
5467.9646775973579
 20
-334.28987759121082
 30
0.0
 11
5467.9646775973579
 21
-322.28987759121082
 31
0.0
  0
LINE
  5
71BD
  8
1CENTER
 10
5461.964677597357
 20
-328.28987759121082
 30
0.0
 11
5473.9646775973579
 21
-328.28987759121082
 31
0.0
  0
LINE
  5
71C0
  8
1CENTER
 10
5467.9646775973579
 20
-188.45490209562689
 30
0.0
 11
5467.9646775973579
 21
-211.08318747805831
 31
0.0
  0
LINE
  5
7206
  8
01
 10
5317.9646775973579
 20
-303.28987759121082
 30
0.0
 11
5317.9646775973579
 21
-353.28987759121082
 31
0.0
  0
LINE
  5
7207
  8
01
 10
5326.4646775973579
 20
-352.78987759121082
 30
0.0
 11
5326.4646775973579
 21
-303.78987759121082
 31
0.0
  0
LINE
  5
7208
  8
01
 10
5317.9646775973579
 20
-353.28987759121082
 30
0.0
 11
5325.9646775973579
 21
-353.28987759121082
 31
0.0
  0
LINE
  5
720A
  8
01
 10
5317.9646775973579
 20
-303.28987759121082
 30
0.0
 11
5325.9646775973579
 21
-303.28987759121082
 31
0.0
  0
LINE
  5
78AF
  8
1CENTER
 10
5332.464677597357
 20
-334.28987759121082
 30
0.0
 11
5332.464677597357
 21
-322.28987759121082
 31
0.0
  0
LINE
  5
78B0
  8
1CENTER
 10
5315.8363922149256
 20
-328.28987759121082
 30
0.0
 11
5338.464677597357
 21
-328.28987759121082
 31
0.0
  0
TEXT
  5
78D4
  8
1TEXT
 10
5317.9646775973579
 20
-178.2898775912108
 30
0.0
 40
10.0
  1
KSC
 41
1.017187499999999
  0
LINE
  5
79A8
  8
01
 10
5442.9646775973579
 20
-191.29197759121101
 30
0.0
 11
5492.9646775973579
 21
-191.29197759121101
 31
0.0
  0
LINE
  5
8262
  8
01
 10
5427.9646775973579
 20
-191.29197759121101
 30
0.0
 11
5570.7198255947051
 21
-191.29197759121101
 31
0.0
  0
LINE
  5
88CA
  8
01
 10
5317.9646775973579
 20
-288.11355365769032
 30
0.0
 11
5317.9646775973579
 21
-368.46620152473128
 31
0.0
  0
LINE
  5
906B
  8
1CENTER
 10
5451.8810028334156
 20
-205.79196955795771
 30
0.0
 11
5460.0146751952643
 21
-205.79197759120831
 31
0.0
  0
LINE
  5
9224
  8
01
 10
5377.9646775973579
 20
-317.28987759121082
 30
0.0
 11
5326.9646775973579
 21
-317.28987759121082
 31
0.0
  0
LINE
  5
922B
  8
01
 10
5326.9646775973579
 20
-336.03987759121082
 30
0.0
 11
5326.9646775973579
 21
-317.28987759121082
 31
0.0
  0
LINE
  5
922F
  8
01
 10
5377.9646775973579
 20
-339.28987759121088
 30
0.0
 11
5326.9646775973579
 21
-339.28987759121082
 31
0.0
  0
LINE
  5
9230
  8
01
 10
5326.9646775973579
 20
-339.28987759121082
 30
0.0
 11
5326.9646775973579
 21
-336.03987759121082
 31
0.0
  0
LINE
  5
9232
  8
01
 10
5378.9646775973579
 20
-338.28987759121082
 30
0.0
 11
5378.9646775973579
 21
-318.28987759121082
 31
0.0
  0
ARC
  5
9233
  8
01
 10
5377.9646775973579
 20
-318.289877591211
 30
0.0
 40
1.0
 50
0.0
 51
89.999999999999986
  0
ARC
  5
9237
  8
01
 10
5377.9646775973579
 20
-338.289877591211
 30
0.0
 40
1.0
 50
270.0
 51
0.0
  0
LINE
  5
934D
  8
01
 10
5492.9646775973579
 20
-337.28987759121082
 30
0.0
 11
5492.9646775973579
 21
-319.28987759121082
 31
0.0
  0
LINE
  5
934E
  8
01
 10
5474.2892329176939
 20
-319.28987759121088
 30
0.0
 11
5492.9646775973579
 21
-319.28987759121082
 31
0.0
  0
LINE
  5
934F
  8
01
 10
5474.2892329176939
 20
-337.28987759121088
 30
0.0
 11
5492.9646775973579
 21
-337.28987759121082
 31
0.0
  0
LINE
  5
9351
  8
01
 10
5592.9646775973579
 20
-318.28987759121082
 30
0.0
 11
5592.9646775973579
 21
-338.28987759121082
 31
0.0
  0
LINE
  5
9352
  8
01
 10
5492.9646775973579
 20
-338.28987759121082
 30
0.0
 11
5492.9646775973579
 21
-318.28987759121082
 31
0.0
  0
LINE
  5
9354
  8
01
 10
5493.964677597357
 20
-317.28987759121082
 30
0.0
 11
5591.9646775973579
 21
-317.28987759121082
 31
0.0
  0
ARC
  5
9355
  8
01
 10
5493.964677597357
 20
-318.28987759121082
 30
0.0
 40
1.0
 50
90.0
 51
180.0
  0
ARC
  5
9356
  8
01
 10
5591.9646775973579
 20
-318.28987759121082
 30
0.0
 40
1.0
 50
0.0
 51
90.0
  0
LINE
  5
9357
  8
01
 10
5493.964677597357
 20
-339.28987759121082
 30
0.0
 11
5591.9646775973579
 21
-339.28987759121082
 31
0.0
  0
ARC
  5
9358
  8
01
 10
5493.964677597357
 20
-338.28987759121082
 30
0.0
 40
1.0
 50
180.0
 51
270.0
  0
ARC
  5
9359
  8
01
 10
5591.9646775973579
 20
-338.28987759121082
 30
0.0
 40
1.0
 50
270.0
 51
0.0
  0
CIRCLE
  5
935A
  8
01
 10
5467.9646775973579
 20
-328.28987759121082
 30
0.0
 40
11.0
  0
LINE
  5
935B
  8
01
 10
5456.9646775973579
 20
-251.29197759121101
 30
0.0
 11
5456.9646775973579
 21
-200.29197759121101
 31
0.0
  0
LINE
  5
935C
  8
01
 10
5492.9646775973579
 20
-246.29197759121101
 30
0.0
 11
5492.9646775973579
 21
-228.29197759121101
 31
0.0
  0
LINE
  5
9362
  8
01
 10
5475.7146775973579
 20
-200.29197759121101
 30
0.0
 11
5456.9646775973579
 21
-200.29197759121101
 31
0.0
  0
LINE
  5
9365
  8
01
 10
5479.4646775973579
 20
-228.29197759121101
 30
0.0
 11
5492.9646775973579
 21
-228.29197759121101
 31
0.0
  0
LINE
  5
9366
  8
01
 10
5478.9646775973579
 20
-227.79197759121101
 30
0.0
 11
5478.9646775973579
 21
-200.29197759121101
 31
0.0
  0
LINE
  5
9367
  8
01
 10
5478.9646775973579
 20
-200.29197759121101
 30
0.0
 11
5475.7146775973579
 21
-200.29197759121101
 31
0.0
  0
ARC
  5
9368
  8
01
 10
5479.4646775973579
 20
-227.79197759121101
 30
0.0
 40
0.5
 50
180.0
 51
270.0
  0
LINE
  5
9369
  8
01
 10
5477.9646775973579
 20
-252.29197759121101
 30
0.0
 11
5457.9646775973579
 21
-252.29197759121101
 31
0.0
  0
ARC
  5
936A
  8
01
 10
5457.9646775973579
 20
-251.29197759121101
 30
0.0
 40
1.0
 50
180.0
 51
270.0
  0
LINE
  5
936B
  8
01
 10
5479.4646775973579
 20
-246.29197759121101
 30
0.0
 11
5492.9646775973579
 21
-246.29197759121101
 31
0.0
  0
ARC
  5
936C
  8
01
 10
5479.4646775973579
 20
-246.79197759121101
 30
0.0
 40
0.5
 50
90.000000000000028
 51
180.0
  0
LINE
  5
936D
  8
01
 10
5478.9646775973579
 20
-251.29197759121101
 30
0.0
 11
5478.9646775973579
 21
-246.79197759121101
 31
0.0
  0
ARC
  5
936E
  8
01
 10
5477.9646775973579
 20
-251.29197759121101
 30
0.0
 40
1.0
 50
270.0
 51
0.0
  0
LINE
  5
936F
  8
01
 10
5592.9646775973579
 20
-227.29197759121101
 30
0.0
 11
5592.9646775973579
 21
-247.29197759121101
 31
0.0
  0
LINE
  5
9370
  8
01
 10
5492.9646775973579
 20
-247.29197759121101
 30
0.0
 11
5492.9646775973579
 21
-227.29197759121101
 31
0.0
  0
LINE
  5
9371
  8
01
 10
5493.964677597357
 20
-226.29197759121101
 30
0.0
 11
5591.9646775973579
 21
-226.29197759121101
 31
0.0
  0
ARC
  5
9372
  8
01
 10
5493.964677597357
 20
-227.29197759121101
 30
0.0
 40
1.0
 50
90.000000000000028
 51
180.0
  0
ARC
  5
9373
  8
01
 10
5591.9646775973579
 20
-227.29197759121101
 30
0.0
 40
1.0
 50
0.0
 51
90.000000000000028
  0
LINE
  5
9374
  8
01
 10
5493.964677597357
 20
-248.29197759121101
 30
0.0
 11
5591.9646775973579
 21
-248.29197759121101
 31
0.0
  0
ARC
  5
9375
  8
01
 10
5493.964677597357
 20
-247.29197759121101
 30
0.0
 40
1.0
 50
180.0
 51
270.0
  0
ARC
  5
9376
  8
01
 10
5591.9646775973579
 20
-247.29197759121101
 30
0.0
 40
1.0
 50
270.0
 51
0.0
  0
ARC
  5
9379
  8
01
 10
5485.2892329176939
 20
-237.29197759121109
 30
0.0
 40
10.999999999999959
 50
125.0968012276048
 51
234.9031987723952
  0
ARC
  5
9651
  8
01
 10
5492.464677597357
 20
-199.29197759121101
 30
0.0
 40
0.5
 50
270.0
 51
0.0
  0
ARC
  5
9652
  8
01
 10
5443.4646775973579
 20
-199.29197759121101
 30
0.0
 40
0.5
 50
180.00000000000651
 51
269.99999999999989
  0
ARC
  5
9653
  8
01
 10
5325.9646775973579
 20
-303.78987759121082
 30
0.0
 40
0.5
 50
0.0
 51
90.0
  0
ARC
  5
9654
  8
01
 10
5325.9646775973579
 20
-352.78987759121082
 30
0.0
 40
0.5
 50
270.0
 51
0.0
  0
POINT
  5
977E
  8
01
 10
5332.464677597357
 20
-328.28987759121082
 30
0.0
  0
LINE
  5
977F
  8
01
 10
5332.0646775873574
 20
-330.03987759121082
 30
0.0
 11
5332.0646775873574
 21
-329.18987757121067
 31
0.0
  0
LINE
  5
9780
  8
01
 10
5332.8646776073583
 20
-330.03987759121082
 30
0.0
 11
5332.8646776073583
 21
-329.18987757121067
 31
0.0
  0
LINE
  5
9781
  8
01
 10
5331.5646776173571
 20
-328.68987760121081
 30
0.0
 11
5330.7146775973579
 21
-328.68987760121081
 31
0.0
  0
LINE
  5
9782
  8
01
 10
5331.5646776173571
 20
-327.8898775812109
 30
0.0
 11
5330.7146775973579
 21
-327.8898775812109
 31
0.0
  0
LINE
  5
9783
  8
01
 10
5330.7146775973579
 20
-328.68987760121081
 30
0.0
 11
5330.7146775973579
 21
-327.8898775812109
 31
0.0
  0
LINE
  5
9784
  8
01
 10
5332.8646776073583
 20
-330.03987759121082
 30
0.0
 11
5332.0646775873574
 21
-330.03987759121082
 31
0.0
  0
LINE
  5
9785
  8
01
 10
5332.8646776073583
 20
-326.53987759121082
 30
0.0
 11
5332.8646776073583
 21
-327.38987761121098
 31
0.0
  0
LINE
  5
9786
  8
01
 10
5332.0646775873574
 20
-326.53987759121082
 30
0.0
 11
5332.0646775873574
 21
-327.38987761121098
 31
0.0
  0
LINE
  5
9787
  8
01
 10
5333.3646775773577
 20
-327.8898775812109
 30
0.0
 11
5334.2146775973579
 21
-327.8898775812109
 31
0.0
  0
LINE
  5
9788
  8
01
 10
5333.3646775773577
 20
-328.68987760121081
 30
0.0
 11
5334.2146775973579
 21
-328.68987760121081
 31
0.0
  0
LINE
  5
9789
  8
01
 10
5334.2146775973579
 20
-327.8898775812109
 30
0.0
 11
5334.2146775973579
 21
-328.68987760121081
 31
0.0
  0
LINE
  5
978A
  8
01
 10
5332.0646775873574
 20
-326.53987759121082
 30
0.0
 11
5332.8646776073583
 21
-326.53987759121082
 31
0.0
  0
CIRCLE
  5
978B
  8
01
 10
5332.464677597357
 20
-328.28987759121082
 30
0.0
 40
2.5
  0
ARC
  5
978C
  8
01
 10
5333.3646775773577
 20
-327.38987761121098
 30
0.0
 40
0.5
 50
179.999989999999
 51
270.0
  0
ARC
  5
978D
  8
01
 10
5333.3646775773577
 20
-329.18987757121067
 30
0.0
 40
0.5
 50
90.000002999984659
 51
180.000010000001
  0
ARC
  5
978E
  8
01
 10
5331.5646776173571
 20
-329.18987757121067
 30
0.0
 40
0.5
 50
0.0
 51
90.000002999984659
  0
ARC
  5
978F
  8
01
 10
5331.5646776173571
 20
-327.38987761121098
 30
0.0
 40
0.5
 50
270.0
 51
0.0
  0
CIRCLE
  5
9791
  8
01
 10
5332.464677597357
 20
-328.28987759121082
 30
0.0
 40
3.0
  0
LINE
  5
9792
  8
1DIM
 10
5456.9646775973579
 20
-251.29197759121101
 30
0.0
 11
5456.9646775973579
 21
-278.59197759121099
 31
0.0
  0
LINE
  5
9793
  8
1DIM
 10
5592.9646775973579
 20
-247.29197759121101
 30
0.0
 11
5592.9646775973579
 21
-278.59197759121099
 31
0.0
  0
LINE
  5
9794
  8
1DIM
 10
5459.5646775973582
 20
-277.29197759121098
 30
0.0
 11
5590.3646775973566
 21
-277.29197759121098
 31
0.0
  0
LINE
  5
9798
  8
1DIM
 10
5467.9646775973579
 20
-211.08318747805831
 30
0.0
 11
5467.9646775973579
 21
-268.59197759121099
 31
0.0
  0
LINE
  5
9799
  8
1DIM
 10
5592.9646775973579
 20
-247.29197759121101
 30
0.0
 11
5592.9646775973579
 21
-268.59197759121099
 31
0.0
  0
LINE
  5
979A
  8
1DIM
 10
5470.5646775973592
 20
-267.29197759121098
 30
0.0
 11
5590.3646775973566
 21
-267.29197759121098
 31
0.0
  0
LINE
  5
979E
  8
1DIM
 10
5591.9646775973579
 20
-339.28987759121082
 30
0.0
 11
5609.264677597359
 21
-339.28987759121082
 31
0.0
  0
LINE
  5
979F
  8
1DIM
 10
5591.9646775973579
 20
-317.28987759121082
 30
0.0
 11
5609.264677597359
 21
-317.28987759121082
 31
0.0
  0
LINE
  5
97A0
  8
1DIM
 10
5607.9646775973579
 20
-336.6898775912108
 30
0.0
 11
5607.9646775973579
 21
-319.8898775912109
 31
0.0
  0
LINE
  5
97A4
  8
1DIM
 10
5568.0745848805163
 20
-191.29197759121101
 30
0.0
 11
5619.2646775973581
 21
-191.29197759121101
 31
0.0
  0
LINE
  5
97A5
  8
1DIM
 10
5477.9646775973579
 20
-252.29197759121101
 30
0.0
 11
5619.2646775973581
 21
-252.29197759121101
 31
0.0
  0
LINE
  5
97A6
  8
1DIM
 10
5617.9646775973579
 20
-193.891977591211
 30
0.0
 11
5617.9646775973579
 21
-249.69197759121101
 31
0.0
  0
LINE
  5
97AA
  8
1DIM
 10
5568.0745848805163
 20
-191.29197759121101
 30
0.0
 11
5609.264677597359
 21
-191.29197759121101
 31
0.0
  0
LINE
  5
97AB
  8
1DIM
 10
5591.9646775973579
 20
-226.29197759121101
 30
0.0
 11
5609.264677597359
 21
-226.29197759121101
 31
0.0
  0
LINE
  5
97AC
  8
1DIM
 10
5607.9646775973579
 20
-193.891977591211
 30
0.0
 11
5607.9646775973579
 21
-223.69197759121101
 31
0.0
  0
LINE
  5
97B0
  8
1DIM
 10
5467.9646775973579
 20
-303.28987759121082
 30
0.0
 11
5431.6646775973577
 21
-303.28987759121082
 31
0.0
  0
LINE
  5
97B1
  8
1DIM
 10
5467.9646775973579
 20
-353.28987759120992
 30
0.0
 11
5431.6646775973577
 21
-353.28987759120992
 31
0.0
  0
LINE
  5
97B2
  8
1DIM
 10
5432.964677597357
 20
-305.88987759121079
 30
0.0
 11
5432.964677597357
 21
-350.68987759120989
 31
0.0
  0
TEXT
  5
97B6
  8
1DIM
 10
5432.0546775973571
 20
-336.22712355336552
 30
0.0
 40
4.5499999999999989
  1
âË50
 50
90.0
  0
LINE
  5
97B7
  8
0
  6
BYBLOCK
 10
5433.6613454913577
 20
-350.68987759120989
 30
0.0
 11
5432.964677597357
 21
-353.28987759120992
 31
0.0
  0
LINE
  5
97B8
  8
0
  6
BYBLOCK
 10
5432.964677597357
 20
-353.28987759120992
 30
0.0
 11
5432.2680097033581
 21
-350.68987759120989
 31
0.0
  0
LINE
  5
97B9
  8
0
  6
BYBLOCK
 10
5432.964677597357
 20
-353.28987759120992
 30
0.0
 11
5432.964677597357
 21
-350.68987759120989
 31
0.0
  0
LINE
  5
97BA
  8
0
  6
BYBLOCK
 10
5432.2680097033581
 20
-305.88987759121079
 30
0.0
 11
5432.964677597357
 21
-303.28987759121082
 31
0.0
  0
LINE
  5
97BB
  8
0
  6
BYBLOCK
 10
5432.964677597357
 20
-303.28987759121082
 30
0.0
 11
5433.6613454913577
 21
-305.88987759121079
 31
0.0
  0
LINE
  5
97BC
  8
0
  6
BYBLOCK
 10
5432.964677597357
 20
-303.28987759121082
 30
0.0
 11
5432.964677597357
 21
-305.88987759121079
 31
0.0
  0
TEXT
  5
97BD
  8
1DIM
 10
5607.0546775973571
 20
-212.5836442578767
 30
0.0
 40
4.5499999999999989
  1
35 
 50
90.0
  0
LINE
  5
97BE
  8
0
  6
BYBLOCK
 10
5608.6613454913568
 20
-223.69197759121101
 30
0.0
 11
5607.9646775973579
 21
-226.29197759121101
 31
0.0
  0
LINE
  5
97BF
  8
0
  6
BYBLOCK
 10
5607.9646775973579
 20
-226.29197759121101
 30
0.0
 11
5607.2680097033581
 21
-223.69197759121101
 31
0.0
  0
LINE
  5
97C0
  8
0
  6
BYBLOCK
 10
5607.9646775973579
 20
-226.29197759121101
 30
0.0
 11
5607.9646775973579
 21
-223.69197759121101
 31
0.0
  0
LINE
  5
97C1
  8
0
  6
BYBLOCK
 10
5607.2680097033581
 20
-193.891977591211
 30
0.0
 11
5607.9646775973579
 21
-191.29197759121101
 31
0.0
  0
LINE
  5
97C2
  8
0
  6
BYBLOCK
 10
5607.9646775973579
 20
-191.29197759121101
 30
0.0
 11
5608.6613454913568
 21
-193.891977591211
 31
0.0
  0
LINE
  5
97C3
  8
0
  6
BYBLOCK
 10
5607.9646775973579
 20
-191.29197759121101
 30
0.0
 11
5607.9646775973579
 21
-193.891977591211
 31
0.0
  0
TEXT
  5
97C4
  8
1DIM
 10
5617.0546775973571
 20
-224.8253109245434
 30
0.0
 40
4.5499999999999989
  1
61 
 50
90.0
  0
LINE
  5
97C5
  8
0
  6
BYBLOCK
 10
5618.6613454913568
 20
-249.69197759121101
 30
0.0
 11
5617.9646775973579
 21
-252.29197759121101
 31
0.0
  0
LINE
  5
97C6
  8
0
  6
BYBLOCK
 10
5617.9646775973579
 20
-252.29197759121101
 30
0.0
 11
5617.268009703359
 21
-249.69197759121101
 31
0.0
  0
LINE
  5
97C7
  8
0
  6
BYBLOCK
 10
5617.9646775973579
 20
-252.29197759121101
 30
0.0
 11
5617.9646775973579
 21
-249.69197759121101
 31
0.0
  0
LINE
  5
97C8
  8
0
  6
BYBLOCK
 10
5617.268009703359
 20
-193.891977591211
 30
0.0
 11
5617.9646775973579
 21
-191.29197759121101
 31
0.0
  0
LINE
  5
97C9
  8
0
  6
BYBLOCK
 10
5617.9646775973579
 20
-191.29197759121101
 30
0.0
 11
5618.6613454913568
 21
-193.891977591211
 31
0.0
  0
LINE
  5
97CA
  8
0
  6
BYBLOCK
 10
5617.9646775973579
 20
-191.29197759121101
 30
0.0
 11
5617.9646775973579
 21
-193.891977591211
 31
0.0
  0
TEXT
  5
97CB
  8
1DIM
 10
5607.0546775973571
 20
-335.2665442578766
 30
0.0
 40
4.5499999999999989
  1
âË22
 50
90.0
  0
LINE
  5
97CC
  8
0
  6
BYBLOCK
 10
5607.2680097033581
 20
-319.8898775912109
 30
0.0
 11
5607.9646775973579
 21
-317.28987759121082
 31
0.0
  0
LINE
  5
97CD
  8
0
  6
BYBLOCK
 10
5607.9646775973579
 20
-317.28987759121082
 30
0.0
 11
5608.6613454913568
 21
-319.8898775912109
 31
0.0
  0
LINE
  5
97CE
  8
0
  6
BYBLOCK
 10
5607.9646775973579
 20
-317.28987759121082
 30
0.0
 11
5607.9646775973579
 21
-319.8898775912109
 31
0.0
  0
LINE
  5
97CF
  8
0
  6
BYBLOCK
 10
5608.6613454913568
 20
-336.6898775912108
 30
0.0
 11
5607.9646775973579
 21
-339.28987759121082
 31
0.0
  0
LINE
  5
97D0
  8
0
  6
BYBLOCK
 10
5607.9646775973579
 20
-339.28987759121082
 30
0.0
 11
5607.2680097033581
 21
-336.6898775912108
 31
0.0
  0
LINE
  5
97D1
  8
0
  6
BYBLOCK
 10
5607.9646775973579
 20
-339.28987759121082
 30
0.0
 11
5607.9646775973579
 21
-336.6898775912108
 31
0.0
  0
TEXT
  5
97D2
  8
1DIM
 10
5525.1563442640254
 20
-266.3819775912109
 30
0.0
 40
4.5499999999999989
  1
125 
  0
LINE
  5
97D3
  8
0
  6
BYBLOCK
 10
5590.3646775973566
 20
-266.59530969721101
 30
0.0
 11
5592.9646775973579
 21
-267.29197759121098
 31
0.0
  0
LINE
  5
97D4
  8
0
  6
BYBLOCK
 10
5592.9646775973579
 20
-267.29197759121098
 30
0.0
 11
5590.3646775973566
 21
-267.9886454852109
 31
0.0
  0
LINE
  5
97D5
  8
0
  6
BYBLOCK
 10
5592.9646775973579
 20
-267.29197759121098
 30
0.0
 11
5590.3646775973566
 21
-267.29197759121098
 31
0.0
  0
LINE
  5
97D6
  8
0
  6
BYBLOCK
 10
5470.5646775973592
 20
-267.9886454852109
 30
0.0
 11
5467.9646775973579
 21
-267.29197759121098
 31
0.0
  0
LINE
  5
97D7
  8
0
  6
BYBLOCK
 10
5467.9646775973579
 20
-267.29197759121098
 30
0.0
 11
5470.5646775973592
 21
-266.59530969721101
 31
0.0
  0
LINE
  5
97D8
  8
0
  6
BYBLOCK
 10
5467.9646775973579
 20
-267.29197759121098
 30
0.0
 11
5470.5646775973592
 21
-267.29197759121098
 31
0.0
  0
TEXT
  5
97D9
  8
1DIM
 10
5514.1563461640253
 20
-276.3819775912109
 30
0.0
 40
4.5499999999999989
  1
136 
  0
LINE
  5
97DA
  8
0
  6
BYBLOCK
 10
5590.3646775973566
 20
-276.59530969721101
 30
0.0
 11
5592.9646775973579
 21
-277.29197759121098
 31
0.0
  0
LINE
  5
97DB
  8
0
  6
BYBLOCK
 10
5592.9646775973579
 20
-277.29197759121098
 30
0.0
 11
5590.3646775973566
 21
-277.98864548521101
 31
0.0
  0
LINE
  5
97DC
  8
0
  6
BYBLOCK
 10
5592.9646775973579
 20
-277.29197759121098
 30
0.0
 11
5590.3646775973566
 21
-277.29197759121098
 31
0.0
  0
LINE
  5
97DD
  8
0
  6
BYBLOCK
 10
5459.5646775973582
 20
-277.98864548521101
 30
0.0
 11
5456.9646775973579
 21
-277.29197759121098
 31
0.0
  0
LINE
  5
97DE
  8
0
  6
BYBLOCK
 10
5456.9646775973579
 20
-277.29197759121098
 30
0.0
 11
5459.5646775973582
 21
-276.59530969721101
 31
0.0
  0
LINE
  5
97DF
  8
0
  6
BYBLOCK
 10
5456.9646775973579
 20
-277.29197759121098
 30
0.0
 11
5459.5646775973582
 21
-277.29197759121098
 31
0.0
  0
VIEWPORT
  5
57
 67
     1
  8
0
 10
-4.9620007825589019
 20
10.09248672500371
 30
0.0
 40
426.7028381698197
 41
282.94325819660969
 68
     1
 69
     1
1001
ACAD
1000
MVIEW
1002
{
1070
    16
1010
0.0
1020
0.0
1030
0.0
1010
0.0
1020
0.0
1030
1.0
1040
0.0
1040
282.94325819660969
1040
-4.9620007825589019
1040
10.09248672500371
1040
50.0
1040
0.0
1040
0.0
1070
     0
1070
   100
1070
     1
1070
     1
1070
     0
1070
     0
1070
     0
1070
     0
1040
0.0
1040
0.0
1040
0.0
1040
10.0
1040
10.0
1040
10.0
1040
10.0
1070
     0
1002
{
1002
}
1002
}
  0
ENDSEC
  0
EOF
