  0
SECTION
  2
HEADER
  9
$ACADVER
  1
AC1009
  9
$INSBASE
 10
0.0
 20
0.0
 30
0.0
  9
$EXTMIN
 10
5371.3807870481378
 20
2280.0143742939181
 30
0.0
  9
$EXTMAX
 10
5669.0590724305703
 20
2480.190698227439
 30
0.0
  9
$LIMMIN
 10
0.0
 20
0.0
  9
$LIMMAX
 10
420.0
 20
297.0
  9
$ORTHOMODE
 70
     0
  9
$REGENMODE
 70
     1
  9
$FILLMODE
 70
     1
  9
$QTEXTMODE
 70
     0
  9
$MIRRTEXT
 70
     0
  9
$DRAGMODE
 70
     2
  9
$LTSCALE
 40
0.5
  9
$OSMODE
 70
   127
  9
$ATTMODE
 70
     1
  9
$TEXTSIZE
 40
4.0
  9
$TRACEWID
 40
1.0
  9
$TEXTSTYLE
  7
STANDARD
  9
$CLAYER
  8
1TEXT
  9
$CELTYPE
  6
BYLAYER
  9
$CECOLOR
 62
   256
  9
$DIMSCALE
 40
1.0
  9
$DIMASZ
 40
2.0
  9
$DIMEXO
 40
0.0
  9
$DIMDLI
 40
7.0
  9
$DIMRND
 40
0.0
  9
$DIMDLE
 40
0.0
  9
$DIMEXE
 40
1.0
  9
$DIMTP
 40
0.0
  9
$DIMTM
 40
0.0
  9
$DIMTXT
 40
3.5
  9
$DIMCEN
 40
0.0
  9
$DIMTSZ
 40
0.0
  9
$DIMTOL
 70
     0
  9
$DIMLIM
 70
     0
  9
$DIMTIH
 70
     0
  9
$DIMTOH
 70
     0
  9
$DIMSE1
 70
     0
  9
$DIMSE2
 70
     0
  9
$DIMTAD
 70
     1
  9
$DIMZIN
 70
     8
  9
$DIMBLK
  1

  9
$DIMASO
 70
     1
  9
$DIMSHO
 70
     1
  9
$DIMPOST
  1
 
  9
$DIMAPOST
  1

  9
$DIMALT
 70
     0
  9
$DIMALTD
 70
     2
  9
$DIMALTF
 40
25.399999999999999
  9
$DIMLFAC
 40
1.0
  9
$DIMTOFL
 70
     1
  9
$DIMTVP
 40
0.0
  9
$DIMTIX
 70
     0
  9
$DIMSOXD
 70
     0
  9
$DIMSAH
 70
     1
  9
$DIMBLK1
  1
OPEN30
  9
$DIMBLK2
  1
OPEN30
  9
$DIMSTYLE
  2
NEWX10
  9
$DIMCLRD
 70
   256
  9
$DIMCLRE
 70
   256
  9
$DIMCLRT
 70
   201
  9
$DIMTFAC
 40
0.7
  9
$DIMGAP
 40
0.7
  9
$LUNITS
 70
     2
  9
$LUPREC
 70
     4
  9
$SKETCHINC
 40
1.0
  9
$FILLETRAD
 40
0.5
  9
$AUNITS
 70
     0
  9
$AUPREC
 70
     2
  9
$MENU
  1
acad
  9
$ELEVATION
 40
0.0
  9
$PELEVATION
 40
0.0
  9
$THICKNESS
 40
0.0
  9
$LIMCHECK
 70
     0
  9
$BLIPMODE
 70
     0
  9
$CHAMFERA
 40
10.0
  9
$CHAMFERB
 40
10.0
  9
$SKPOLY
 70
     0
  9
$TDCREATE
 40
2451318.621352917
  9
$TDUPDATE
 40
2454918.6045511342
  9
$TDINDWG
 40
0.7654790046
  9
$TDUSRTIMER
 40
0.7654790046
  9
$USRTIMER
 70
     1
  9
$ANGBASE
 50
0.0
  9
$ANGDIR
 70
     0
  9
$PDMODE
 70
     0
  9
$PDSIZE
 40
0.0
  9
$PLINEWID
 40
0.0
  9
$COORDS
 70
     2
  9
$SPLFRAME
 70
     0
  9
$SPLINETYPE
 70
     6
  9
$SPLINESEGS
 70
     8
  9
$ATTDIA
 70
     0
  9
$ATTREQ
 70
     1
  9
$HANDLING
 70
     1
  9
$HANDSEED
  5
AA88
  9
$SURFTAB1
 70
     6
  9
$SURFTAB2
 70
     6
  9
$SURFTYPE
 70
     6
  9
$SURFU
 70
     6
  9
$SURFV
 70
     6
  9
$UCSNAME
  2

  9
$UCSORG
 10
0.0
 20
0.0
 30
0.0
  9
$UCSXDIR
 10
1.0
 20
0.0
 30
0.0
  9
$UCSYDIR
 10
0.0
 20
1.0
 30
0.0
  9
$PUCSNAME
  2

  9
$PUCSORG
 10
0.0
 20
0.0
 30
0.0
  9
$PUCSXDIR
 10
1.0
 20
0.0
 30
0.0
  9
$PUCSYDIR
 10
0.0
 20
1.0
 30
0.0
  9
$USERI1
 70
     0
  9
$USERI2
 70
     0
  9
$USERI3
 70
     0
  9
$USERI4
 70
     0
  9
$USERI5
 70
     0
  9
$USERR1
 40
0.0
  9
$USERR2
 40
0.0
  9
$USERR3
 40
0.0
  9
$USERR4
 40
0.0
  9
$USERR5
 40
0.0
  9
$WORLDVIEW
 70
     1
  9
$SHADEDGE
 70
     3
  9
$SHADEDIF
 70
    70
  9
$TILEMODE
 70
     1
  9
$MAXACTVP
 70
    48
  9
$PLIMCHECK
 70
     0
  9
$PEXTMIN
 10
1.0000000000000000E+020
 20
1.0000000000000000E+020
 30
1.0000000000000000E+020
  9
$PEXTMAX
 10
-1.0000000000000000E+020
 20
-1.0000000000000000E+020
 30
-1.0000000000000000E+020
  9
$PLIMMIN
 10
0.0
 20
0.0
  9
$PLIMMAX
 10
420.0
 20
297.0
  9
$UNITMODE
 70
     0
  9
$VISRETAIN
 70
     1
  9
$PLINEGEN
 70
     0
  9
$PSLTSCALE
 70
     1
  0
ENDSEC
  0
SECTION
  2
TABLES
  0
TABLE
  2
VPORT
 70
     4
  0
VPORT
  2
*ACTIVE
 70
     0
 10
0.0
 20
0.0
 11
1.0
 21
1.0
 12
5520.2307175693586
 22
2380.0725337569138
 13
0.0
 23
0.0
 14
10.0
 24
10.0
 15
10.0
 25
10.0
 16
0.0
 26
0.0
 36
1.0
 17
0.0
 27
0.0
 37
0.0
 40
212.63781507213071
 41
1.508086253369272
 42
50.0
 43
0.0
 44
0.0
 50
0.0
 51
0.0
 71
     0
 72
   100
 73
     1
 74
     1
 75
     0
 76
     0
 77
     0
 78
     0
  0
ENDTAB
  0
TABLE
  2
LTYPE
 70
    15
  0
LTYPE
  2
CONTINUOUS
 70
     0
  3
Solid line
 72
    65
 73
     0
 40
0.0
  0
LTYPE
  2
XREF1|CENTER2
 70
    48
  3
Center (.5x) ___ _ ___ _ ___ _ ___ _ ___ _ ___
 72
    65
 73
     4
 40
28.574999999999999
 49
19.050000000000001
 49
-3.1749999999999989
 49
3.1749999999999989
 49
-3.1749999999999989
  0
LTYPE
  2
A3WAKUDAKE|CENTER2
 70
    48
  3
Center (.5x) ___ _ ___ _ ___ _ ___ _ ___ _ ___
 72
    65
 73
     4
 40
28.574999999999999
 49
19.050000000000001
 49
-3.1749999999999989
 49
3.1749999999999989
 49
-3.1749999999999989
  0
LTYPE
  2
CENTER2
 70
     0
  3
Center (.5x) ___ _ ___ _ ___ _ ___ _ ___ _ ___
 72
    65
 73
     4
 40
28.574999999999999
 49
19.050000000000001
 49
-3.1749999999999989
 49
3.1749999999999989
 49
-3.1749999999999989
  0
ENDTAB
  0
TABLE
  2
LAYER
 70
    52
  0
LAYER
  2
0
 70
     0
 62
     7
  6
CONTINUOUS
  0
LAYER
  2
1CENTER
 70
     0
 62
     7
  6
CENTER2
  0
LAYER
  2
1TEXT
 70
     0
 62
     7
  6
CONTINUOUS
  0
LAYER
  2
01
 70
     0
 62
     1
  6
CONTINUOUS
  0
LAYER
  2
1DIM
 70
     0
 62
     7
  6
CONTINUOUS
  0
LAYER
  2
A3WAKUDAKE|THICK
 70
    48
 62
     7
  6
CONTINUOUS
  0
LAYER
  2
A3WAKUDAKE|POINT
 70
    48
 62
     7
  6
CONTINUOUS
  0
LAYER
  2
A3WAKUDAKE|1CENTER
 70
    48
 62
     7
  6
A3WAKUDAKE|CENTER2
  0
LAYER
  2
A3WAKUDAKE|0-6
 70
    48
 62
     7
  6
CONTINUOUS
  0
LAYER
  2
A3WAKUDAKE|1DIM
 70
    48
 62
     7
  6
CONTINUOUS
  0
LAYER
  2
XREF1|1CENTER
 70
    48
 62
     7
  6
XREF1|CENTER2
  0
ENDTAB
  0
TABLE
  2
STYLE
 70
    20
  0
STYLE
  2
STANDARD
 70
     0
 40
0.0
 41
1.0
 50
0.0
 71
     0
 42
4.0
  3
txt.shx
  4
extfont.shx
  0
ENDTAB
  0
TABLE
  2
VIEW
 70
     0
  0
ENDTAB
  0
TABLE
  2
UCS
 70
     5
  0
UCS
  2
U
 70
     0
 10
0.0
 20
0.0
 30
0.0
 11
1.0
 21
0.0
 31
0.0
 12
0.0
 22
0.0000000000000002
 32
1.0
  0
UCS
  2
L
 70
     0
 10
0.0
 20
0.0
 30
0.0
 11
-0.0000000000000002
 21
-1.0
 31
0.0000000000000002
 12
0.0
 22
0.0000000000000002
 32
1.0
  0
UCS
  2
R
 70
     0
 10
0.0
 20
0.0
 30
0.0
 11
0.0000000000000003
 21
1.0
 31
-0.0000000000000002
 12
0.0
 22
0.0000000000000002
 32
1.0
  0
UCS
  2
ISOME
 70
     0
 10
0.0
 20
0.0
 30
0.0
 11
0.7071450863198266
 21
-0.7070684729403536
 31
-0.0000383082461947
 12
0.4082704059428736
 22
0.408270407740115
 32
0.8164744636514736
  0
UCS
  2
PERSPECTIVE
 70
     0
 10
0.0
 20
0.0
 30
0.0
 11
0.8191477691768963
 21
-0.5735823260466403
 31
-0.0004974931557765
 12
0.1584844715982971
 22
0.225502028986108
 32
0.961265575782966
  0
ENDTAB
  0
TABLE
  2
APPID
 70
     9
  0
APPID
  2
ACAD
 70
     0
  0
APPID
  2
DRAWINGVARIABLESXDATA
 70
     0
  0
APPID
  2
CONTENTTABDATA
 70
     0
  0
APPID
  2
CONTENTCURRENTTAB
 70
     0
  0
APPID
  2
CONTENTBLOCKDESCRIPTION
 70
     0
  0
APPID
  2
CONTENTBLOCKICON
 70
     0
  0
APPID
  2
CONTENTLONGBLOCKNAME
 70
     0
  0
APPID
  2
ACAD_PSEXT
 70
     0
  0
APPID
  2
ACAD_MLEADERVER
 70
     0
  0
ENDTAB
  0
TABLE
  2
DIMSTYLE
 70
     6
  0
DIMSTYLE
  2
NEWX10
 70
     0
  3
 
  4

  5

  6
OPEN30
  7
OPEN30
 40
1.0
 41
2.0
 42
0.0
 43
7.0
 44
1.0
 45
0.0
 46
0.0
 47
0.0
 48
0.0
140
3.5
141
0.0
142
0.0
143
25.399999999999999
144
1.0
145
0.0
146
0.7
147
0.7
 71
     0
 72
     0
 73
     0
 74
     0
 75
     0
 76
     0
 77
     1
 78
     8
170
     0
171
     2
172
     1
173
     1
174
     0
175
     0
176
   256
177
   256
178
   201
  0
ENDTAB
  0
ENDSEC
  0
SECTION
  2
BLOCKS
  0
BLOCK
  8
0
  2
$MODEL_SPACE
 70
     0
 10
0.0
 20
0.0
 30
0.0
  3
$MODEL_SPACE
  1

  0
ENDBLK
  5
1A
  8
0
  0
BLOCK
 67
     1
  8
0
  2
$PAPER_SPACE
 70
     0
 10
0.0
 20
0.0
 30
0.0
  3
$PAPER_SPACE
  1

  0
ENDBLK
  5
17
 67
     1
  8
0
  0
BLOCK
  8
0
  2
_OPEN30
 70
     0
 10
0.0
 20
0.0
 30
0.0
  3
_OPEN30
  1

  0
LINE
  5
44
  8
0
  6
BYBLOCK
 62
     0
 10
-1.0
 20
0.26794919
 30
0.0
 11
0.0
 21
0.0
 31
0.0
  0
LINE
  5
45
  8
0
  6
BYBLOCK
 62
     0
 10
0.0
 20
0.0
 30
0.0
 11
-1.0
 21
-0.26794919
 31
0.0
  0
LINE
  5
46
  8
0
  6
BYBLOCK
 62
     0
 10
0.0
 20
0.0
 30
0.0
 11
-1.0
 21
0.0
 31
0.0
  0
ENDBLK
  5
47
  8
0
  0
BLOCK
  8
0
  2
XREF1
 70
    36
 10
0.0
 20
0.0
 30
0.0
  3
XREF1
  1
D:\ACLT\FORMAT\KAWAJUN(9)図面用.dwg
  0
ENDBLK
  5
5D
  8
0
  0
BLOCK
  8
0
  2
A3WAKUDAKE
 70
    36
 10
0.0
 20
0.0
 30
0.0
  3
A3WAKUDAKE
  1
D:\ACLT\FORMAT\A3WAKUdake.dwg
  0
ENDBLK
  5
6A0
  8
0
  0
BLOCK
  8
0
  2
*U12
 70
     1
 10
0.0
 20
0.0
 30
0.0
  3
*U12
  1

  0
CIRCLE
  5
AA6D
  8
0
 10
0.0
 20
0.0
 30
0.0
 40
3.0
  0
ENDBLK
  5
AA6F
  8
0
  0
BLOCK
  8
0
  2
*U13
 70
     1
 10
0.0
 20
0.0
 30
0.0
  3
*U13
  1

  0
TEXT
  5
AA71
  8
1DIM
 62
   201
 10
5487.5990724305693
 20
2313.5931982274401
 30
0.0
 40
4.5499999999999989
  1
φ50
 50
90.0
  0
ENDBLK
  5
AA73
  8
0
  0
BLOCK
  8
0
  2
*U14
 70
     1
 10
0.0
 20
0.0
 30
0.0
  3
*U14
  1

  0
TEXT
  5
AA75
  8
1DIM
 62
   201
 10
5666.8490724305693
 20
2436.8990315609772
 30
0.0
 40
4.5499999999999989
  1
59 
 50
90.0
  0
ENDBLK
  5
AA77
  8
0
  0
BLOCK
  8
0
  2
*U15
 70
     1
 10
0.0
 20
0.0
 30
0.0
  3
*U15
  1

  0
TEXT
  5
AA79
  8
1DIM
 62
   201
 10
5570.0799076639032
 20
2387.1006982278459
 30
0.0
 40
4.5499999999999989
  1
130 
  0
ENDBLK
  5
AA7B
  8
0
  0
BLOCK
  8
0
  2
*U16
 70
     1
 10
0.0
 20
0.0
 30
0.0
  3
*U16
  1

  0
TEXT
  5
AA7D
  8
1DIM
 62
   201
 10
5656.8490724305684
 20
2314.1240315607729
 30
0.0
 40
4.5499999999999989
  1
21.5 
 50
90.0
  0
ENDBLK
  5
AA7F
  8
0
  0
BLOCK
  8
0
  2
*U17
 70
     1
 10
0.0
 20
0.0
 30
0.0
  3
*U17
  1

  0
TEXT
  5
AA81
  8
1DIM
 62
   201
 10
5656.8490724305684
 20
2442.399031561079
 30
0.0
 40
4.5499999999999989
  1
48 
 50
90.0
  0
ENDBLK
  5
AA83
  8
0
  0
BLOCK
  8
0
  2
*U18
 70
     1
 10
0.0
 20
0.0
 30
0.0
  3
*U18
  1

  0
TEXT
  5
AA85
  8
1DIM
 62
   201
 10
5578.5840729055699
 20
2397.1006982278468
 30
0.0
 40
4.5499999999999989
  1
119 
  0
ENDBLK
  5
AA87
  8
0
  0
ENDSEC
  0
SECTION
  2
ENTITIES
  0
LINE
  5
9FDE
  8
01
 10
5642.75907338057
 20
2421.6906982280502
 30
0.0
 11
5642.75907338057
 21
2411.6906982280511
 31
0.0
  0
LINE
  5
9FE1
  8
01
 10
5513.2590733805719
 20
2411.1906982280502
 30
0.0
 11
5642.25907338057
 21
2411.1906982280511
 31
0.0
  0
ARC
  5
9FE2
  8
01
 10
5642.25907338057
 20
2411.6906982280511
 30
0.0
 40
0.5
 50
270.0
 51
0.0
  0
ARC
  5
9FE3
  8
01
 10
5513.2590733805719
 20
2411.6906982280511
 30
0.0
 40
0.5
 50
180.0
 51
270.0
  0
LINE
  5
9FE4
  8
01
 10
5534.75907338057
 20
2422.190698228052
 30
0.0
 11
5642.25907338057
 21
2422.1906982280502
 31
0.0
  0
ARC
  5
9FE5
  8
01
 10
5534.75907338057
 20
2422.690698228052
 30
0.0
 40
0.5
 50
180.0
 51
270.0
  0
ARC
  5
9FE6
  8
01
 10
5642.25907338057
 20
2421.6906982280502
 30
0.0
 40
0.5
 50
0.0
 51
90.0
  0
LINE
  5
9FEB
  8
01
 10
5512.75907338057
 20
2461.190698228037
 30
0.0
 11
5534.25907338057
 21
2461.1906982268401
 31
0.0
  0
LINE
  5
9FF3
  8
1CENTER
 10
5375.5090724297534
 20
2320.1906982274381
 30
0.0
 11
5432.5090724293459
 21
2320.19069822744
 31
0.0
  0
LINE
  5
9FF8
  8
01
 10
5382.5090724293541
 20
2309.4406982274372
 30
0.0
 11
5382.5090724303527
 21
2330.940698227435
 31
0.0
  0
LINE
  5
A003
  8
01
 10
5432.509072429345
 20
2309.9406982274372
 30
0.0
 11
5432.509072429345
 21
2330.4406982274359
 31
0.0
  0
LINE
  5
A005
  8
01
 10
5512.75907338057
 20
2461.190698228037
 30
0.0
 11
5512.759073380571
 21
2411.6906982280511
 31
0.0
  0
LINE
  5
A006
  8
01
 10
5534.25907338057
 20
2461.1906982268401
 30
0.0
 11
5534.25907338057
 21
2422.690698228052
 31
0.0
  0
LINE
  5
A09B
  8
1CENTER
 10
5373.4138734001017
 20
2320.1906982274381
 30
0.0
 11
5442.2963412345998
 21
2320.1906982274381
 31
0.0
  0
LINE
  5
A0B1
  8
01
 10
5382.509072429154
 20
2309.440698227435
 30
0.0
 11
5432.009072429345
 21
2309.4406982274372
 31
0.0
  0
ARC
  5
A0B2
  8
01
 10
5432.009072429345
 20
2309.9406982274372
 30
0.0
 40
0.5
 50
270.0
 51
0.0
  0
LINE
  5
A0B3
  8
01
 10
5382.5090724303527
 20
2330.940698227435
 30
0.0
 11
5432.009072429345
 21
2330.940698227435
 31
0.0
  0
ARC
  5
A0B4
  8
01
 10
5432.009072429345
 20
2330.4406982274359
 30
0.0
 40
0.5
 50
0.0
 51
90.0
  0
LINE
  5
A0B8
  8
01
 10
5513.2590724305701
 20
2330.9406982274381
 30
0.0
 11
5642.2590724305701
 21
2330.940698227434
 31
0.0
  0
ARC
  5
A0B9
  8
01
 10
5642.2590724305701
 20
2330.440698227434
 30
0.0
 40
0.5
 50
0.0
 51
90.0
  0
LINE
  5
A0BA
  8
01
 10
5513.2590724305701
 20
2309.440698227439
 30
0.0
 11
5642.2590724305701
 21
2309.4406982274322
 31
0.0
  0
ARC
  5
A0BB
  8
01
 10
5642.2590724305701
 20
2309.9406982274322
 30
0.0
 40
0.5
 50
270.0
 51
0.0
  0
ARC
  5
A0BC
  8
01
 10
5513.2590724305701
 20
2309.940698227439
 30
0.0
 40
0.5
 50
180.0
 51
270.0
  0
LINE
  5
A0BD
  8
01
 10
5512.7590724305701
 20
2330.4406982274381
 30
0.0
 11
5512.7590724305701
 21
2309.940698227439
 31
0.0
  0
ARC
  5
A0BE
  8
01
 10
5513.2590724305701
 20
2330.4406982274381
 30
0.0
 40
0.5
 50
90.0
 51
180.0
  0
LINE
  5
A0BF
  8
01
 10
5642.7590724305701
 20
2309.9406982274322
 30
0.0
 11
5642.7590724305701
 21
2330.440698227434
 31
0.0
  0
ARC
  5
A668
  8
01
 10
5523.5090724305701
 20
2320.190698227439
 30
0.0
 40
25.0
 50
25.467560142472799
 51
334.53243985752721
  0
LINE
  5
A669
  8
1CENTER
 10
5523.5090724305701
 20
2314.1906982274381
 30
0.0
 11
5523.5090724305701
 21
2326.1906982274381
 31
0.0
  0
LINE
  5
A66A
  8
1CENTER
 10
5517.5090724305701
 20
2320.190698227439
 30
0.0
 11
5529.5090724305701
 21
2320.190698227439
 31
0.0
  0
LINE
  5
A66C
  8
1CENTER
 10
5388.0090724305701
 20
2314.1906982274381
 30
0.0
 11
5388.0090724305701
 21
2326.1906982274381
 31
0.0
  0
LINE
  5
A66D
  8
1CENTER
 10
5371.3807870481378
 20
2320.190698227439
 30
0.0
 11
5394.0090724305701
 21
2320.190698227439
 31
0.0
  0
LINE
  5
A68A
  8
1CENTER
 10
5523.5090724305701
 20
2472.31898360987
 30
0.0
 11
5523.5090724305701
 21
2449.690698227439
 31
0.0
  0
LINE
  5
A68B
  8
01
 10
5498.5090724305701
 20
2470.190698227439
 30
0.0
 11
5548.5090724305701
 21
2470.190698227439
 31
0.0
  0
POINT
  5
A68C
  8
01
 10
5523.5090724305701
 20
2461.190698227439
 30
0.0
  0
LINE
  5
A68D
  8
1CENTER
 10
5507.4253976666278
 20
2455.690706260692
 30
0.0
 11
5515.5590700284756
 21
2455.6906982274409
 31
0.0
  0
LINE
  5
A691
  8
01
 10
5498.5090724305701
 20
2470.190698227439
 30
0.0
 11
5548.5090724305701
 21
2470.190698227439
 31
0.0
  0
LINE
  5
A692
  8
01
 10
5483.5090724305701
 20
2470.190698227439
 30
0.0
 11
5626.2642204279173
 21
2470.190698227439
 31
0.0
  0
LINE
  5
A697
  8
01
 10
5373.5090724305701
 20
2345.190698227439
 30
0.0
 11
5373.5090724305701
 21
2295.190698227439
 31
0.0
  0
TEXT
  5
A698
  8
1TEXT
 10
5373.5090724305701
 20
2470.190698227439
 30
0.0
 40
10.0
  1
L3C
 41
1.017187499999999
  0
LINE
  5
A69B
  8
01
 10
5499.0090724305701
 20
2461.690698227439
 30
0.0
 11
5548.0090724305692
 21
2461.690698227439
 31
0.0
  0
LINE
  5
A69C
  8
01
 10
5498.5090724305701
 20
2470.190698227439
 30
0.0
 11
5498.5090724305692
 21
2462.190698227439
 31
0.0
  0
LINE
  5
A69E
  8
01
 10
5548.5090724305701
 20
2470.190698227439
 30
0.0
 11
5548.5090724305692
 21
2462.190698227439
 31
0.0
  0
LINE
  5
A6A0
  8
01
 10
5373.5090724305701
 20
2360.3670221609591
 30
0.0
 11
5373.5090724305701
 21
2280.0143742939181
 31
0.0
  0
LINE
  5
A6A1
  8
01
 10
5382.0090724305701
 20
2295.6906982274381
 30
0.0
 11
5382.0090724305701
 21
2344.6906982274381
 31
0.0
  0
LINE
  5
A6A2
  8
01
 10
5373.5090724305701
 20
2295.190698227439
 30
0.0
 11
5381.509072430571
 21
2295.190698227439
 31
0.0
  0
LINE
  5
A6A4
  8
01
 10
5373.5090724305701
 20
2345.190698227439
 30
0.0
 11
5381.509072430571
 21
2345.190698227439
 31
0.0
  0
ARC
  5
A858
  8
01
 10
5548.0090724305692
 20
2462.190698227439
 30
0.0
 40
0.5
 50
270.0
 51
0.0
  0
ARC
  5
A859
  8
01
 10
5499.0090724305701
 20
2462.190698227439
 30
0.0
 40
0.5
 50
180.0
 51
270.0
  0
ARC
  5
A85A
  8
01
 10
5381.509072430571
 20
2344.6906982274381
 30
0.0
 40
0.5
 50
0.0
 51
90.0
  0
ARC
  5
A85B
  8
01
 10
5381.509072430571
 20
2295.6906982274381
 30
0.0
 40
0.5
 50
270.0
 51
0.0
  0
LINE
  5
A9FE
  8
1DIM
 10
5642.2590724305692
 20
2309.4406982274381
 30
0.0
 11
5659.0590724305703
 21
2309.4406982274381
 31
0.0
  0
LINE
  5
A9FF
  8
1DIM
 10
5642.259072430571
 20
2330.9406982274381
 30
0.0
 11
5659.0590724305703
 21
2330.9406982274381
 31
0.0
  0
LINE
  5
AA00
  8
1DIM
 10
5657.7590724305701
 20
2312.040698227439
 30
0.0
 11
5657.7590724305701
 21
2328.3406982274391
 31
0.0
  0
LINE
  5
AA04
  8
1DIM
 10
5512.7590733805682
 20
2411.690698227847
 30
0.0
 11
5512.7590733805682
 21
2384.8906982278472
 31
0.0
  0
LINE
  5
AA05
  8
1DIM
 10
5642.75907338057
 20
2411.690698227847
 30
0.0
 11
5642.75907338057
 21
2384.8906982278472
 31
0.0
  0
LINE
  5
AA06
  8
1DIM
 10
5515.3590733805686
 20
2386.190698227847
 30
0.0
 11
5640.1590733805688
 21
2386.190698227847
 31
0.0
  0
LINE
  5
AA0A
  8
1DIM
 10
5523.5090724305701
 20
2449.690698227439
 30
0.0
 11
5523.5090724305701
 21
2394.8906982278459
 31
0.0
  0
LINE
  5
AA0B
  8
1DIM
 10
5642.75907338057
 20
2411.690698227847
 30
0.0
 11
5642.75907338057
 21
2394.8906982278459
 31
0.0
  0
LINE
  5
AA0C
  8
1DIM
 10
5526.1090724305704
 20
2396.190698227846
 30
0.0
 11
5640.1590733805688
 21
2396.190698227846
 31
0.0
  0
LINE
  5
AA10
  8
1DIM
 10
5626.2642204279173
 20
2470.190698227439
 30
0.0
 11
5669.0590724305703
 21
2470.190698227439
 31
0.0
  0
LINE
  5
AA11
  8
1DIM
 10
5642.25907338057
 20
2411.190698227847
 30
0.0
 11
5669.0590724305703
 21
2411.190698227847
 31
0.0
  0
LINE
  5
AA12
  8
1DIM
 10
5667.7590724305701
 20
2467.5906982274391
 30
0.0
 11
5667.7590724305701
 21
2413.7906982278469
 31
0.0
  0
LINE
  5
AA16
  8
1DIM
 10
5626.2642204279173
 20
2470.190698227439
 30
0.0
 11
5659.0590724305703
 21
2470.190698227439
 31
0.0
  0
LINE
  5
AA17
  8
1DIM
 10
5642.25907338057
 20
2422.1906982280502
 30
0.0
 11
5659.0590724305703
 21
2422.1906982280502
 31
0.0
  0
LINE
  5
AA18
  8
1DIM
 10
5657.7590724305701
 20
2467.5906982274391
 30
0.0
 11
5657.7590724305701
 21
2424.7906982280501
 31
0.0
  0
LINE
  5
AA1C
  8
1DIM
 10
5523.5090724305701
 20
2295.190698227439
 30
0.0
 11
5487.209072430569
 21
2295.190698227439
 31
0.0
  0
LINE
  5
AA1D
  8
1DIM
 10
5523.5090724305701
 20
2345.190698227439
 30
0.0
 11
5487.209072430569
 21
2345.190698227439
 31
0.0
  0
LINE
  5
AA1E
  8
1DIM
 10
5488.5090724305701
 20
2297.790698227439
 30
0.0
 11
5488.5090724305701
 21
2342.5906982274391
 31
0.0
  0
POINT
  5
AA22
  8
0
 10
5388.0090724305701
 20
2320.190698227439
 30
0.0
  0
LINE
  5
AA23
  8
0
 10
5387.6090724205696
 20
2318.440698227439
 30
0.0
 11
5387.6090724205696
 21
2319.2906982474392
 31
0.0
  0
LINE
  5
AA24
  8
0
 10
5388.4090724405714
 20
2318.440698227439
 30
0.0
 11
5388.4090724405714
 21
2319.2906982474392
 31
0.0
  0
LINE
  5
AA25
  8
0
 10
5387.1090724505702
 20
2319.7906982174391
 30
0.0
 11
5386.2590724305701
 21
2319.7906982174391
 31
0.0
  0
LINE
  5
AA26
  8
0
 10
5387.1090724505702
 20
2320.590698237439
 30
0.0
 11
5386.2590724305701
 21
2320.590698237439
 31
0.0
  0
LINE
  5
AA27
  8
0
 10
5386.2590724305701
 20
2319.7906982174391
 30
0.0
 11
5386.2590724305701
 21
2320.590698237439
 31
0.0
  0
LINE
  5
AA28
  8
0
 10
5388.4090724405714
 20
2318.440698227439
 30
0.0
 11
5387.6090724205696
 21
2318.440698227439
 31
0.0
  0
LINE
  5
AA29
  8
0
 10
5388.4090724405714
 20
2321.940698227439
 30
0.0
 11
5388.4090724405714
 21
2321.090698207438
 31
0.0
  0
LINE
  5
AA2A
  8
0
 10
5387.6090724205696
 20
2321.940698227439
 30
0.0
 11
5387.6090724205696
 21
2321.090698207438
 31
0.0
  0
LINE
  5
AA2B
  8
0
 10
5388.909072410569
 20
2320.590698237439
 30
0.0
 11
5389.7590724305701
 21
2320.590698237439
 31
0.0
  0
LINE
  5
AA2C
  8
0
 10
5388.909072410569
 20
2319.7906982174391
 30
0.0
 11
5389.7590724305701
 21
2319.7906982174391
 31
0.0
  0
LINE
  5
AA2D
  8
0
 10
5389.7590724305701
 20
2320.590698237439
 30
0.0
 11
5389.7590724305701
 21
2319.7906982174391
 31
0.0
  0
LINE
  5
AA2E
  8
0
 10
5387.6090724205696
 20
2321.940698227439
 30
0.0
 11
5388.4090724405714
 21
2321.940698227439
 31
0.0
  0
CIRCLE
  5
AA2F
  8
0
 10
5388.0090724305701
 20
2320.190698227439
 30
0.0
 40
2.5
  0
ARC
  5
AA30
  8
0
 10
5388.909072410569
 20
2321.090698207438
 30
0.0
 40
0.5
 50
179.999989999999
 51
270.0
  0
ARC
  5
AA31
  8
0
 10
5388.909072410569
 20
2319.2906982474392
 30
0.0
 40
0.5
 50
90.000002999984659
 51
180.000010000001
  0
ARC
  5
AA32
  8
0
 10
5387.1090724505702
 20
2319.2906982474392
 30
0.0
 40
0.5
 50
0.0
 51
90.000002999984659
  0
ARC
  5
AA33
  8
0
 10
5387.1090724505702
 20
2321.090698207438
 30
0.0
 40
0.5
 50
270.0
 51
0.0
  0
CIRCLE
  5
AA35
  8
0
 10
5388.0090724305701
 20
2320.190698227439
 30
0.0
 40
3.0
  0
TEXT
  5
AA36
  8
1DIM
 10
5487.5990724305693
 20
2313.5931982274401
 30
0.0
 40
4.5499999999999989
  1
φ50
 50
90.0
  0
LINE
  5
AA37
  8
0
  6
BYBLOCK
 10
5487.8124045365703
 20
2342.5906982274391
 30
0.0
 11
5488.5090724305701
 21
2345.190698227439
 31
0.0
  0
LINE
  5
AA38
  8
0
  6
BYBLOCK
 10
5488.5090724305701
 20
2345.190698227439
 30
0.0
 11
5489.2057403245699
 21
2342.5906982274391
 31
0.0
  0
LINE
  5
AA39
  8
0
  6
BYBLOCK
 10
5488.5090724305701
 20
2345.190698227439
 30
0.0
 11
5488.5090724305701
 21
2342.5906982274391
 31
0.0
  0
LINE
  5
AA3A
  8
0
  6
BYBLOCK
 10
5489.2057403245699
 20
2297.790698227439
 30
0.0
 11
5488.5090724305701
 21
2295.190698227439
 31
0.0
  0
LINE
  5
AA3B
  8
0
  6
BYBLOCK
 10
5488.5090724305701
 20
2295.190698227439
 30
0.0
 11
5487.8124045365703
 21
2297.790698227439
 31
0.0
  0
LINE
  5
AA3C
  8
0
  6
BYBLOCK
 10
5488.5090724305701
 20
2295.190698227439
 30
0.0
 11
5488.5090724305701
 21
2297.790698227439
 31
0.0
  0
TEXT
  5
AA3D
  8
1DIM
 10
5656.8490724305684
 20
2442.399031561079
 30
0.0
 40
4.5499999999999989
  1
48 
 50
90.0
  0
LINE
  5
AA3E
  8
0
  6
BYBLOCK
 10
5658.455740324569
 20
2424.7906982280501
 30
0.0
 11
5657.7590724305701
 21
2422.1906982280502
 31
0.0
  0
LINE
  5
AA3F
  8
0
  6
BYBLOCK
 10
5657.7590724305701
 20
2422.1906982280502
 30
0.0
 11
5657.0624045365712
 21
2424.7906982280501
 31
0.0
  0
LINE
  5
AA40
  8
0
  6
BYBLOCK
 10
5657.7590724305701
 20
2422.1906982280502
 30
0.0
 11
5657.7590724305701
 21
2424.7906982280501
 31
0.0
  0
LINE
  5
AA41
  8
0
  6
BYBLOCK
 10
5657.0624045365712
 20
2467.5906982274391
 30
0.0
 11
5657.7590724305701
 21
2470.190698227439
 31
0.0
  0
LINE
  5
AA42
  8
0
  6
BYBLOCK
 10
5657.7590724305701
 20
2470.190698227439
 30
0.0
 11
5658.455740324569
 21
2467.5906982274391
 31
0.0
  0
LINE
  5
AA43
  8
0
  6
BYBLOCK
 10
5657.7590724305701
 20
2470.190698227439
 30
0.0
 11
5657.7590724305701
 21
2467.5906982274391
 31
0.0
  0
TEXT
  5
AA44
  8
1DIM
 10
5666.8490724305693
 20
2436.8990315609772
 30
0.0
 40
4.5499999999999989
  1
59 
 50
90.0
  0
LINE
  5
AA45
  8
0
  6
BYBLOCK
 10
5668.4557403245699
 20
2413.7906982278469
 30
0.0
 11
5667.7590724305701
 21
2411.190698227847
 31
0.0
  0
LINE
  5
AA46
  8
0
  6
BYBLOCK
 10
5667.7590724305701
 20
2411.190698227847
 30
0.0
 11
5667.0624045365703
 21
2413.7906982278469
 31
0.0
  0
LINE
  5
AA47
  8
0
  6
BYBLOCK
 10
5667.7590724305701
 20
2411.190698227847
 30
0.0
 11
5667.7590724305701
 21
2413.7906982278469
 31
0.0
  0
LINE
  5
AA48
  8
0
  6
BYBLOCK
 10
5667.0624045365703
 20
2467.5906982274391
 30
0.0
 11
5667.7590724305701
 21
2470.190698227439
 31
0.0
  0
LINE
  5
AA49
  8
0
  6
BYBLOCK
 10
5667.7590724305701
 20
2470.190698227439
 30
0.0
 11
5668.4557403245699
 21
2467.5906982274391
 31
0.0
  0
LINE
  5
AA4A
  8
0
  6
BYBLOCK
 10
5667.7590724305701
 20
2470.190698227439
 30
0.0
 11
5667.7590724305701
 21
2467.5906982274391
 31
0.0
  0
TEXT
  5
AA4B
  8
1DIM
 10
5578.5840729055699
 20
2397.1006982278468
 30
0.0
 40
4.5499999999999989
  1
119 
  0
LINE
  5
AA4C
  8
0
  6
BYBLOCK
 10
5640.1590733805688
 20
2396.8873661218472
 30
0.0
 11
5642.75907338057
 21
2396.190698227846
 31
0.0
  0
LINE
  5
AA4D
  8
0
  6
BYBLOCK
 10
5642.75907338057
 20
2396.190698227846
 30
0.0
 11
5640.1590733805688
 21
2395.4940303338471
 31
0.0
  0
LINE
  5
AA4E
  8
0
  6
BYBLOCK
 10
5642.75907338057
 20
2396.190698227846
 30
0.0
 11
5640.1590733805688
 21
2396.190698227846
 31
0.0
  0
LINE
  5
AA4F
  8
0
  6
BYBLOCK
 10
5526.1090724305704
 20
2395.4940303338471
 30
0.0
 11
5523.5090724305701
 21
2396.190698227846
 31
0.0
  0
LINE
  5
AA50
  8
0
  6
BYBLOCK
 10
5523.5090724305701
 20
2396.190698227846
 30
0.0
 11
5526.1090724305704
 21
2396.8873661218472
 31
0.0
  0
LINE
  5
AA51
  8
0
  6
BYBLOCK
 10
5523.5090724305701
 20
2396.190698227846
 30
0.0
 11
5526.1090724305704
 21
2396.190698227846
 31
0.0
  0
TEXT
  5
AA52
  8
1DIM
 10
5570.0799076639032
 20
2387.1006982278459
 30
0.0
 40
4.5499999999999989
  1
130 
  0
LINE
  5
AA53
  8
0
  6
BYBLOCK
 10
5640.1590733805688
 20
2386.8873661218458
 30
0.0
 11
5642.75907338057
 21
2386.190698227847
 31
0.0
  0
LINE
  5
AA54
  8
0
  6
BYBLOCK
 10
5642.75907338057
 20
2386.190698227847
 30
0.0
 11
5640.1590733805688
 21
2385.4940303338458
 31
0.0
  0
LINE
  5
AA55
  8
0
  6
BYBLOCK
 10
5642.75907338057
 20
2386.190698227847
 30
0.0
 11
5640.1590733805688
 21
2386.190698227847
 31
0.0
  0
LINE
  5
AA56
  8
0
  6
BYBLOCK
 10
5515.3590733805686
 20
2385.4940303338458
 30
0.0
 11
5512.7590733805682
 21
2386.190698227847
 31
0.0
  0
LINE
  5
AA57
  8
0
  6
BYBLOCK
 10
5512.7590733805682
 20
2386.190698227847
 30
0.0
 11
5515.3590733805686
 21
2386.8873661218458
 31
0.0
  0
LINE
  5
AA58
  8
0
  6
BYBLOCK
 10
5512.7590733805682
 20
2386.190698227847
 30
0.0
 11
5515.3590733805686
 21
2386.190698227847
 31
0.0
  0
TEXT
  5
AA59
  8
1DIM
 10
5656.8490724305684
 20
2314.1240315607729
 30
0.0
 40
4.5499999999999989
  1
21.5 
 50
90.0
  0
LINE
  5
AA5A
  8
0
  6
BYBLOCK
 10
5657.0624045365712
 20
2328.3406982274391
 30
0.0
 11
5657.7590724305701
 21
2330.9406982274381
 31
0.0
  0
LINE
  5
AA5B
  8
0
  6
BYBLOCK
 10
5657.7590724305701
 20
2330.9406982274381
 30
0.0
 11
5658.455740324569
 21
2328.3406982274391
 31
0.0
  0
LINE
  5
AA5C
  8
0
  6
BYBLOCK
 10
5657.7590724305701
 20
2330.9406982274381
 30
0.0
 11
5657.7590724305701
 21
2328.3406982274391
 31
0.0
  0
LINE
  5
AA5D
  8
0
  6
BYBLOCK
 10
5658.455740324569
 20
2312.040698227439
 30
0.0
 11
5657.7590724305701
 21
2309.4406982274381
 31
0.0
  0
LINE
  5
AA5E
  8
0
  6
BYBLOCK
 10
5657.7590724305701
 20
2309.4406982274381
 30
0.0
 11
5657.0624045365712
 21
2312.040698227439
 31
0.0
  0
LINE
  5
AA5F
  8
0
  6
BYBLOCK
 10
5657.7590724305701
 20
2309.4406982274381
 30
0.0
 11
5657.7590724305701
 21
2312.040698227439
 31
0.0
  0
VIEWPORT
  5
57
 67
     1
  8
0
 10
-0.9325626718296007
 20
10.083731670550931
 30
0.0
 40
408.96858674612321
 41
271.18381712745622
 68
     1
 69
     1
1001
ACAD
1000
MVIEW
1002
{
1070
    16
1010
0.0
1020
0.0
1030
0.0
1010
0.0
1020
0.0
1030
1.0
1040
0.0
1040
271.18381712745622
1040
-0.9325626718296007
1040
10.083731670550931
1040
50.0
1040
0.0
1040
0.0
1070
     0
1070
   100
1070
     1
1070
     1
1070
     0
1070
     0
1070
     0
1070
     0
1040
0.0
1040
0.0
1040
0.0
1040
10.0
1040
10.0
1040
10.0
1040
10.0
1070
     0
1002
{
1002
}
1002
}
  0
ENDSEC
  0
EOF
