  0
SECTION
  2
HEADER
  9
$ACADVER
  1
AC1012
  9
$DWGCODEPAGE
  3
ansi_932
  9
$INSBASE
 10
0.0
 20
0.0
 30
0.0
  9
$EXTMIN
 10
-691.2454374284869
 20
327.3271135699544
 30
0.0
  9
$EXTMAX
 10
-432.1387722704542
 20
518.8095450021684
 30
0.0
  9
$LIMMIN
 10
0.0
 20
0.0
  9
$LIMMAX
 10
12.0
 20
9.0
  9
$ORTHOMODE
 70
     0
  9
$REGENMODE
 70
     1
  9
$FILLMODE
 70
     1
  9
$QTEXTMODE
 70
     0
  9
$MIRRTEXT
 70
     0
  9
$DRAGMODE
 70
     2
  9
$LTSCALE
 40
0.5
  9
$OSMODE
 70
  2175
  9
$ATTMODE
 70
     1
  9
$TEXTSIZE
 40
4.0
  9
$TRACEWID
 40
0.05
  9
$TEXTSTYLE
  7
STANDARD
  9
$CLAYER
  8
1TEXT
  9
$CELTYPE
  6
BYLAYER
  9
$CECOLOR
 62
   256
  9
$CELTSCALE
 40
1.0
  9
$DELOBJ
 70
     1
  9
$DISPSILH
 70
     0
  9
$DIMSCALE
 40
1.0
  9
$DIMASZ
 40
2.0
  9
$DIMEXO
 40
0.0
  9
$DIMDLI
 40
7.0
  9
$DIMRND
 40
0.0
  9
$DIMDLE
 40
0.0
  9
$DIMEXE
 40
1.0
  9
$DIMTP
 40
0.0
  9
$DIMTM
 40
0.0
  9
$DIMTXT
 40
3.5
  9
$DIMCEN
 40
0.0
  9
$DIMTSZ
 40
0.0
  9
$DIMTOL
 70
     0
  9
$DIMLIM
 70
     0
  9
$DIMTIH
 70
     0
  9
$DIMTOH
 70
     0
  9
$DIMSE1
 70
     0
  9
$DIMSE2
 70
     0
  9
$DIMTAD
 70
     1
  9
$DIMZIN
 70
     8
  9
$DIMBLK
  1

  9
$DIMASO
 70
     1
  9
$DIMSHO
 70
     1
  9
$DIMPOST
  1
 
  9
$DIMAPOST
  1

  9
$DIMALT
 70
     0
  9
$DIMALTD
 70
     2
  9
$DIMALTF
 40
25.4
  9
$DIMLFAC
 40
1.0
  9
$DIMTOFL
 70
     1
  9
$DIMTVP
 40
0.0
  9
$DIMTIX
 70
     0
  9
$DIMSOXD
 70
     0
  9
$DIMSAH
 70
     1
  9
$DIMBLK1
  1
OPEN30
  9
$DIMBLK2
  1
OPEN30
  9
$DIMSTYLE
  2
NEWX10
  9
$DIMCLRD
 70
   256
  9
$DIMCLRE
 70
   256
  9
$DIMCLRT
 70
   201
  9
$DIMTFAC
 40
0.7
  9
$DIMGAP
 40
0.7
  9
$DIMJUST
 70
     0
  9
$DIMSD1
 70
     0
  9
$DIMSD2
 70
     0
  9
$DIMTOLJ
 70
     1
  9
$DIMTZIN
 70
     8
  9
$DIMALTZ
 70
     0
  9
$DIMALTTZ
 70
     0
  9
$DIMFIT
 70
     3
  9
$DIMUPT
 70
     0
  9
$DIMUNIT
 70
     2
  9
$DIMDEC
 70
     2
  9
$DIMTDEC
 70
     4
  9
$DIMALTU
 70
     2
  9
$DIMALTTD
 70
     2
  9
$DIMTXSTY
  7
STANDARD
  9
$DIMAUNIT
 70
     0
  9
$LUNITS
 70
     2
  9
$LUPREC
 70
     4
  9
$SKETCHINC
 40
0.1
  9
$FILLETRAD
 40
0.0
  9
$AUNITS
 70
     0
  9
$AUPREC
 70
     2
  9
$MENU
  1
acad
  9
$ELEVATION
 40
0.0
  9
$PELEVATION
 40
0.0
  9
$THICKNESS
 40
0.0
  9
$LIMCHECK
 70
     0
  9
$CHAMFERA
 40
1.0
  9
$CHAMFERB
 40
1.0
  9
$CHAMFERC
 40
0.0
  9
$CHAMFERD
 40
0.0
  9
$SKPOLY
 70
     0
  9
$TDCREATE
 40
2448750.487089236
  9
$TDUPDATE
 40
2460194.566338773
  9
$TDINDWG
 40
1.4256895949
  9
$TDUSRTIMER
 40
1.4256895949
  9
$USRTIMER
 70
     1
  9
$ANGBASE
 50
0.0
  9
$ANGDIR
 70
     0
  9
$PDMODE
 70
     0
  9
$PDSIZE
 40
0.0
  9
$PLINEWID
 40
1.0
  9
$COORDS
 70
     2
  9
$SPLFRAME
 70
     0
  9
$SPLINETYPE
 70
     6
  9
$SPLINESEGS
 70
     8
  9
$ATTDIA
 70
     0
  9
$ATTREQ
 70
     1
  9
$HANDLING
 70
     1
  9
$HANDSEED
  5
E384
  9
$SURFTAB1
 70
     6
  9
$SURFTAB2
 70
     6
  9
$SURFTYPE
 70
     6
  9
$SURFU
 70
     6
  9
$SURFV
 70
     6
  9
$UCSNAME
  2

  9
$UCSORG
 10
0.0
 20
0.0
 30
0.0
  9
$UCSXDIR
 10
1.0
 20
0.0
 30
0.0
  9
$UCSYDIR
 10
0.0
 20
1.0
 30
0.0
  9
$PUCSNAME
  2

  9
$PUCSORG
 10
0.0
 20
0.0
 30
0.0
  9
$PUCSXDIR
 10
1.0
 20
0.0
 30
0.0
  9
$PUCSYDIR
 10
0.0
 20
1.0
 30
0.0
  9
$USERI1
 70
     0
  9
$USERI2
 70
     0
  9
$USERI3
 70
     0
  9
$USERI4
 70
     0
  9
$USERI5
 70
     0
  9
$USERR1
 40
0.0
  9
$USERR2
 40
0.0
  9
$USERR3
 40
0.0
  9
$USERR4
 40
0.0
  9
$USERR5
 40
0.0
  9
$WORLDVIEW
 70
     1
  9
$SHADEDGE
 70
     3
  9
$SHADEDIF
 70
    70
  9
$TILEMODE
 70
     1
  9
$MAXACTVP
 70
    16
  9
$PINSBASE
 10
0.0
 20
0.0
 30
0.0
  9
$PLIMCHECK
 70
     0
  9
$PEXTMIN
 10
1.000000000000000E+20
 20
1.000000000000000E+20
 30
1.000000000000000E+20
  9
$PEXTMAX
 10
-1.000000000000000E+20
 20
-1.000000000000000E+20
 30
-1.000000000000000E+20
  9
$PLIMMIN
 10
-220.1847950731335
 20
-136.082518103414
  9
$PLIMMAX
 10
199.761860200304
 20
160.8434767696328
  9
$UNITMODE
 70
     0
  9
$VISRETAIN
 70
     0
  9
$PLINEGEN
 70
     0
  9
$PSLTSCALE
 70
     1
  9
$TREEDEPTH
 70
  3020
  9
$PICKSTYLE
 70
     1
  9
$CMLSTYLE
  2
STANDARD
  9
$CMLJUST
 70
     0
  9
$CMLSCALE
 40
1.0
  9
$SAVEIMAGES
 70
     1
  0
ENDSEC
  0
SECTION
  2
CLASSES
  0
CLASS
  1
LWPOLYLINE
  2
AcDbPolyline
  3
ObjectDBX Classes
 90
    32768
280
     0
281
     1
  0
CLASS
  1
DICTIONARYVAR
  2
AcDbDictionaryVar
  3
ObjectDBX Classes
 90
        0
280
     0
281
     0
  0
CLASS
  1
HATCH
  2
AcDbHatch
  3
ObjectDBX Classes
 90
    32768
280
     0
281
     1
  0
CLASS
  1
IDBUFFER
  2
AcDbIdBuffer
  3
ObjectDBX Classes
 90
    32768
280
     0
281
     0
  0
CLASS
  1
ACDBDICTIONARYWDFLT
  2
AcDbDictionaryWithDefault
  3
ObjectDBX Classes
 90
    32768
280
     0
281
     0
  0
CLASS
  1
MATERIAL
  2
AcDbMaterial
  3
ObjectDBX Classes
 90
     1153
280
     0
281
     0
  0
CLASS
  1
VISUALSTYLE
  2
AcDbVisualStyle
  3
ObjectDBX Classes
 90
     4095
280
     0
281
     0
  0
CLASS
  1
TABLESTYLE
  2
AcDbTableStyle
  3
ObjectDBX Classes
 90
     4095
280
     0
281
     0
  0
CLASS
  1
SCALE
  2
AcDbScale
  3
ObjectDBX Classes
 90
     1153
280
     0
281
     0
  0
CLASS
  1
MLEADERSTYLE
  2
AcDbMLeaderStyle
  3
ACDB_MLEADERSTYLE_CLASS
 90
     4095
280
     0
281
     0
  0
CLASS
  1
CELLSTYLEMAP
  2
AcDbCellStyleMap
  3
ObjectDBX Classes
 90
     1152
280
     0
281
     0
  0
CLASS
  1
ACDBPLACEHOLDER
  2
AcDbPlaceHolder
  3
ObjectDBX Classes
 90
        0
280
     0
281
     0
  0
CLASS
  1
LAYOUT
  2
AcDbLayout
  3
ObjectDBX Classes
 90
        0
280
     0
281
     0
  0
CLASS
  1
DIMASSOC
  2
AcDbDimAssoc
  3
"AcDbDimAssoc|Product Desc:     AcDim ARX App For Dimension|Company:          Autodesk, Inc.|WEB Address:      www.autodesk.com"
 90
        0
280
     0
281
     0
  0
CLASS
  1
SORTENTSTABLE
  2
AcDbSortentsTable
  3
ObjectDBX Classes
 90
    32768
280
     0
281
     0
  0
CLASS
  1
ACAD_EVALUATION_GRAPH
  2
AcDbEvalGraph
  3
ObjectDBX Classes
 90
     1153
280
     0
281
     0
  0
CLASS
  1
ACAECUSTOBJ
  2
AcAeEditorObj
  3
AcAeEditorObj
 90
     1024
280
     1
281
     0
  0
CLASS
  1
ACDB_DYNAMICBLOCKPURGEPREVENTER_VERSION
  2
AcDbDynamicBlockPurgePreventer
  3
ObjectDBX Classes
 90
     1153
280
     0
281
     0
  0
CLASS
  1
AEC_REFEDIT_STATUS_TRACKER
  2
AecDbRefEditStatusTracker
  3
AecArchBase60|Product Desc: Autodesk Architectural Desktop 2007 |Company: Autodesk,Inc. |WEB Address: www.autodesk.com
 90
      129
280
     1
281
     0
  0
CLASS
  1
NPOCOLLECTION
  2
AcDbImpNonPersistentObjectsCollection
  3
ObjectDBX Classes
 90
     1153
280
     1
281
     0
  0
CLASS
  1
EXACTERMXREFMAP
  2
ExAcTermXrefMap
  3
EXAC_SERVICE
 90
     1025
280
     1
281
     0
  0
CLASS
  1
EXACXREFPANELOBJECT
  2
ExAcXREFPanelObject
  3
EXAC_ESW
 90
     1025
280
     1
281
     0
  0
CLASS
  1
SUN
  2
AcDbSun
  3
SCENEOE
 90
     1153
280
     0
281
     0
  0
CLASS
  1
XRECORD
  2
AcDbXrecord
  3
ObjectDBX Classes
 90
    32768
280
     0
281
     0
  0
ENDSEC
  0
SECTION
  2
TABLES
  0
TABLE
  2
VPORT
  5
8
330
0
100
AcDbSymbolTable
 70
     1
  0
VPORT
  5
BE1
330
8
100
AcDbSymbolTableRecord
100
AcDbViewportTableRecord
  2
*ACTIVE
 70
     0
 10
0.0
 20
0.0
 11
1.0
 21
1.0
 12
-561.6921048494705
 22
423.0683292860614
 13
0.0
 23
0.0
 14
1.0
 24
1.0
 15
0.0
 25
0.0
 16
0.0
 26
0.0
 36
1.0
 17
0.0
 27
0.0
 37
0.0
 40
205.5916632219561
 41
1.65596919127086
 42
50.0
 43
0.0
 44
0.0
 50
0.0
 51
0.0
 71
    16
 72
  1000
 73
     1
 74
     1
 75
     0
 76
     0
 77
     0
 78
     0
1001
ACAD_NAV_VCDISPLAY
1070
     3
  0
ENDTAB
  0
TABLE
  2
LTYPE
  5
5
330
0
100
AcDbSymbolTable
 70
     2
  0
LTYPE
  5
13
330
5
100
AcDbSymbolTableRecord
100
AcDbLinetypeTableRecord
  2
BYBLOCK
 70
     0
  3

 72
    65
 73
     0
 40
0.0
  0
LTYPE
  5
14
330
5
100
AcDbSymbolTableRecord
100
AcDbLinetypeTableRecord
  2
BYLAYER
 70
     0
  3

 72
    65
 73
     0
 40
0.0
  0
LTYPE
  5
15
330
5
100
AcDbSymbolTableRecord
100
AcDbLinetypeTableRecord
  2
CONTINUOUS
 70
     0
  3
Solid line
 72
    65
 73
     0
 40
0.0
  0
LTYPE
  5
752
330
5
100
AcDbSymbolTableRecord
100
AcDbLinetypeTableRecord
  2
CENTER2
 70
     0
  3
Center (.5x) ___ _ ___ _ ___ _ ___ _ ___ _ ___
 72
    65
 73
     4
 40
28.575
 49
19.05
 74
     0
 49
-3.175
 74
     0
 49
3.175
 74
     0
 49
-3.175
 74
     0
  0
ENDTAB
  0
TABLE
  2
LAYER
  5
2
102
{ACAD_XDICTIONARY
360
FE0
102
}
330
0
100
AcDbSymbolTable
 70
     5
  0
LAYER
  5
F
102
{ACAD_XDICTIONARY
360
C40
102
}
330
2
100
AcDbSymbolTableRecord
100
AcDbLayerTableRecord
  2
0
 70
     0
 62
     7
  6
CONTINUOUS
  0
LAYER
  5
753
102
{ACAD_XDICTIONARY
360
C46
102
}
330
2
100
AcDbSymbolTableRecord
100
AcDbLayerTableRecord
  2
1CENTER
 70
     0
 62
     7
  6
CENTER2
  0
LAYER
  5
BC3
102
{ACAD_XDICTIONARY
360
C4A
102
}
330
2
100
AcDbSymbolTableRecord
100
AcDbLayerTableRecord
  2
1TEXT
 70
     0
 62
     7
  6
CONTINUOUS
  0
LAYER
  5
7013
102
{ACAD_XDICTIONARY
360
7014
102
}
330
2
100
AcDbSymbolTableRecord
100
AcDbLayerTableRecord
  2
1DIM
 70
     0
 62
     7
  6
CONTINUOUS
  0
LAYER
  5
7236
330
2
100
AcDbSymbolTableRecord
100
AcDbLayerTableRecord
  2
01
 70
     0
 62
     1
  6
CONTINUOUS
  0
ENDTAB
  0
TABLE
  2
STYLE
  5
3
330
0
100
AcDbSymbolTable
 70
     1
  0
STYLE
  5
10
330
3
100
AcDbSymbolTableRecord
100
AcDbTextStyleTableRecord
  2
STANDARD
 70
     0
 40
0.0
 41
1.0
 50
0.0
 71
     0
 42
4.0
  3
txt.shx
  4
extfont.shx
  0
ENDTAB
  0
TABLE
  2
VIEW
  5
6
330
0
100
AcDbSymbolTable
 70
     0
  0
ENDTAB
  0
TABLE
  2
UCS
  5
7
330
0
100
AcDbSymbolTable
 70
     5
  0
UCS
  5
6E5E
330
7
100
AcDbSymbolTableRecord
100
AcDbUCSTableRecord
  2
U
 70
     0
 10
0.0
 20
0.0
 30
0.0
 11
1.0
 21
0.0
 31
0.0
 12
0.0
 22
2.220446049250313E-16
 32
1.0
 79
     0
146
0.0
  0
UCS
  5
6E5F
330
7
100
AcDbSymbolTableRecord
100
AcDbUCSTableRecord
  2
L
 70
     0
 10
0.0
 20
0.0
 30
0.0
 11
-2.220446049250313E-16
 21
-1.0
 31
2.220446049250313E-16
 12
0.0
 22
2.220446049250313E-16
 32
1.0
 79
     0
146
0.0
  0
UCS
  5
6E60
330
7
100
AcDbSymbolTableRecord
100
AcDbUCSTableRecord
  2
R
 70
     0
 10
0.0
 20
0.0
 30
0.0
 11
3.445092848397667E-16
 21
1.0
 31
-2.220446049250313E-16
 12
0.0
 22
2.220446049250313E-16
 32
1.0
 79
     0
146
0.0
  0
UCS
  5
6E61
330
7
100
AcDbSymbolTableRecord
100
AcDbUCSTableRecord
  2
ISOME
 70
     0
 10
0.0
 20
0.0
 30
0.0
 11
0.7071450863198265
 21
-0.7070684729403536
 31
-3.830824619466267E-5
 12
0.4082704059428734
 22
0.4082704077401151
 32
0.8164744636514736
 79
     0
146
0.0
  0
UCS
  5
6E62
330
7
100
AcDbSymbolTableRecord
100
AcDbUCSTableRecord
  2
PERSPECTIVE
 70
     0
 10
0.0
 20
0.0
 30
0.0
 11
0.8191477691768964
 21
-0.5735823260466403
 31
-0.0004974931557765462
 12
0.1584844715982971
 22
0.225502028986108
 32
0.961265575782966
 79
     0
146
0.0
  0
ENDTAB
  0
TABLE
  2
APPID
  5
9
330
0
100
AcDbSymbolTable
 70
    20
  0
APPID
  5
11
330
9
100
AcDbSymbolTableRecord
100
AcDbRegAppTableRecord
  2
ACAD
 70
     0
  0
APPID
  5
31C
330
9
100
AcDbSymbolTableRecord
100
AcDbRegAppTableRecord
  2
CONTENTTABDATA
 70
     0
  0
APPID
  5
31D
330
9
100
AcDbSymbolTableRecord
100
AcDbRegAppTableRecord
  2
CONTENTCURRENTTAB
 70
     0
  0
APPID
  5
33E
330
9
100
AcDbSymbolTableRecord
100
AcDbRegAppTableRecord
  2
CONTENTBLOCKDESCRIPTION
 70
     0
  0
APPID
  5
34A
330
9
100
AcDbSymbolTableRecord
100
AcDbRegAppTableRecord
  2
CONTENTBLOCKICON
 70
     0
  0
APPID
  5
378
330
9
100
AcDbSymbolTableRecord
100
AcDbRegAppTableRecord
  2
DRAWINGVARIABLESXDATA
 70
     0
  0
APPID
  5
B2A
330
9
100
AcDbSymbolTableRecord
100
AcDbRegAppTableRecord
  2
CONTENTLONGBLOCKNAME
 70
     0
  0
APPID
  5
C36
330
9
100
AcDbSymbolTableRecord
100
AcDbRegAppTableRecord
  2
ACAD_MLEADERVER
 70
     0
  0
APPID
  5
FDF
330
9
100
AcDbSymbolTableRecord
100
AcDbRegAppTableRecord
  2
ACAD_PSEXT
 70
     0
  0
APPID
  5
1300
330
9
100
AcDbSymbolTableRecord
100
AcDbRegAppTableRecord
  2
ACADANNOTATIVE
 70
     0
  0
APPID
  5
14D5
330
9
100
AcDbSymbolTableRecord
100
AcDbRegAppTableRecord
  2
ACDBBLOCKREPETAG
 70
     0
  0
APPID
  5
14D6
330
9
100
AcDbSymbolTableRecord
100
AcDbRegAppTableRecord
  2
ACDBDYNAMICBLOCKGUID
 70
     0
  0
APPID
  5
1A0E
330
9
100
AcDbSymbolTableRecord
100
AcDbRegAppTableRecord
  2
ACAUTHENVIRON
 70
     0
  0
APPID
  5
1A12
330
9
100
AcDbSymbolTableRecord
100
AcDbRegAppTableRecord
  2
ACDBDYNAMICBLOCKTRUENAME
 70
     0
  0
APPID
  5
1DAA
330
9
100
AcDbSymbolTableRecord
100
AcDbRegAppTableRecord
  2
ACAD_EXEMPT_FROM_CAD_STAND
 70
     0
  0
APPID
  5
255E
330
9
100
AcDbSymbolTableRecord
100
AcDbRegAppTableRecord
  2
ACADANNOAV
 70
     0
  0
APPID
  5
73AF
330
9
100
AcDbSymbolTableRecord
100
AcDbRegAppTableRecord
  2
ACAD_DSTYLE_DIMRADIAL_EXTE
 70
     0
  0
APPID
  5
B5E1
330
9
100
AcDbSymbolTableRecord
100
AcDbRegAppTableRecord
  2
ACAD_NAV_VCDISPLAY
 70
     0
  0
APPID
  5
C481
330
9
100
AcDbSymbolTableRecord
100
AcDbRegAppTableRecord
  2
ACLAYERTOOLS
 70
     0
  0
APPID
  5
D6E7
330
9
100
AcDbSymbolTableRecord
100
AcDbRegAppTableRecord
  2
ACAD_OBJECT_CHANGE_GUID
 70
     0
  0
ENDTAB
  0
TABLE
  2
DIMSTYLE
  5
A
330
0
100
AcDbSymbolTable
 70
     1
  0
DIMSTYLE
105
342
330
A
100
AcDbSymbolTableRecord
100
AcDbDimStyleTableRecord
  2
NEWX10
 70
     0
  3
 
  4

  5

  6
OPEN30
  7
OPEN30
 40
1.0
 41
2.0
 42
0.0
 43
7.0
 44
1.0
 45
0.0
 46
0.0
 47
0.0
 48
0.0
140
3.5
141
0.0
142
0.0
143
25.4
144
1.0
145
0.0
146
0.7
147
0.7
 71
     0
 72
     0
 73
     0
 74
     0
 75
     0
 76
     0
 77
     1
 78
     8
170
     0
171
     2
172
     1
173
     1
174
     0
175
     0
176
   256
177
   256
178
   201
179
     1
270
     2
271
     2
272
     4
273
     2
274
     2
340
10
275
     0
280
     0
281
     0
282
     0
283
     1
284
     8
285
     0
286
     0
287
     3
288
     0
  0
ENDTAB
  0
TABLE
  2
BLOCK_RECORD
  5
1
330
0
100
AcDbSymbolTable
 70
     8
  0
BLOCK_RECORD
  5
19
102
{ACAD_XDICTIONARY
360
11D9
102
}
330
1
100
AcDbSymbolTableRecord
100
AcDbBlockTableRecord
  2
*MODEL_SPACE
  0
BLOCK_RECORD
  5
16
102
{ACAD_XDICTIONARY
360
2400
102
}
330
1
100
AcDbSymbolTableRecord
100
AcDbBlockTableRecord
  2
*PAPER_SPACE
  0
BLOCK_RECORD
  5
38F
330
1
100
AcDbSymbolTableRecord
100
AcDbBlockTableRecord
  2
_OPEN30
  0
BLOCK_RECORD
  5
D80B
330
1
100
AcDbSymbolTableRecord
100
AcDbBlockTableRecord
  2
A3WAKUKAWAJUN2017_HYOUDAI_
  0
BLOCK_RECORD
  5
E1E4
330
1
100
AcDbSymbolTableRecord
100
AcDbBlockTableRecord
  2
*X144
  0
BLOCK_RECORD
  5
E232
330
1
100
AcDbSymbolTableRecord
100
AcDbBlockTableRecord
  2
*X145
  0
BLOCK_RECORD
  5
E284
330
1
100
AcDbSymbolTableRecord
100
AcDbBlockTableRecord
  2
*X146
  0
BLOCK_RECORD
  5
E2D5
330
1
100
AcDbSymbolTableRecord
100
AcDbBlockTableRecord
  2
*X147
  0
BLOCK_RECORD
  5
E312
330
1
100
AcDbSymbolTableRecord
100
AcDbBlockTableRecord
  2
*X148
  0
BLOCK_RECORD
  5
E352
330
1
100
AcDbSymbolTableRecord
100
AcDbBlockTableRecord
  2
*X149
  0
ENDTAB
  0
ENDSEC
  0
SECTION
  2
BLOCKS
  0
BLOCK
  5
1A
330
19
100
AcDbEntity
  8
0
100
AcDbBlockBegin
  2
*MODEL_SPACE
 70
     0
 10
0.0
 20
0.0
 30
0.0
  3
*MODEL_SPACE
  1

  0
ENDBLK
  5
1B
330
19
100
AcDbEntity
  8
0
100
AcDbBlockEnd
  0
BLOCK
  5
17
330
16
100
AcDbEntity
 67
     1
  8
0
100
AcDbBlockBegin
  2
*PAPER_SPACE
 70
     0
 10
0.0
 20
0.0
 30
0.0
  3
*PAPER_SPACE
  1

  0
ENDBLK
  5
18
330
16
100
AcDbEntity
 67
     1
  8
0
100
AcDbBlockEnd
  0
BLOCK
  5
390
330
38F
100
AcDbEntity
  8
0
100
AcDbBlockBegin
  2
_OPEN30
 70
     0
 10
0.0
 20
0.0
 30
0.0
  3
_OPEN30
  1

  0
LINE
  5
391
330
38F
100
AcDbEntity
  8
0
  6
BYBLOCK
 62
     0
100
AcDbLine
 10
-1.0
 20
0.26794919
 30
0.0
 11
0.0
 21
0.0
 31
0.0
  0
LINE
  5
392
330
38F
100
AcDbEntity
  8
0
  6
BYBLOCK
 62
     0
100
AcDbLine
 10
0.0
 20
0.0
 30
0.0
 11
-1.0
 21
-0.26794919
 31
0.0
  0
LINE
  5
393
330
38F
100
AcDbEntity
  8
0
  6
BYBLOCK
 62
     0
100
AcDbLine
 10
0.0
 20
0.0
 30
0.0
 11
-1.0
 21
0.0
 31
0.0
  0
ENDBLK
  5
394
330
38F
100
AcDbEntity
  8
0
100
AcDbBlockEnd
  0
BLOCK
  5
DF1D
330
D80B
100
AcDbEntity
  8
0
100
AcDbBlockBegin
  2
A3WAKUKAWAJUN2017_HYOUDAI_
 70
     0
 10
0.0
 20
0.0
 30
0.0
  3
A3WAKUKAWAJUN2017_HYOUDAI_
  1

  0
LINE
  5
D80D
330
D80B
100
AcDbEntity
  8
0
100
AcDbLine
 10
13.26299999998673
 20
-0.0001000000000317
 30
0.0
 11
9.236999999990758
 21
8.999899999990987
 31
0.0
1001
ACAD
1000
ASC_BOUNDS
1002
{
1070
    19
1005
D84E
1002
}
  0
LINE
  5
D80E
330
D80B
100
AcDbEntity
  8
0
100
AcDbLine
 10
5.657999999994331
 20
0.9999999999989768
 30
0.0
 11
9.236999999990758
 21
8.999999999991019
 31
0.0
1001
ACAD
1000
ASC_BOUNDS
1002
{
1070
    19
1005
D84E
1002
}
  0
LINE
  5
D80F
330
D80B
100
AcDbEntity
  8
0
100
AcDbLine
 10
18.59199999998134
 20
-0.2368999999997641
 30
0.0
 11
16.46099999998353
 21
5.432899999994561
 31
0.0
1001
ACAD
1000
ASC_BOUNDS
1002
{
1070
    19
1005
D84F
1002
}
  0
LINE
  5
D810
330
D80B
100
AcDbEntity
  8
0
100
AcDbLine
 10
18.59199999998134
 20
-0.2368999999997641
 30
0.0
 11
22.38199999997767
 21
8.763099999991255
 31
0.0
1001
ACAD
1000
ASC_BOUNDS
1002
{
1070
    19
1005
D84F
1002
}
  0
LINE
  5
D811
330
D80B
100
AcDbEntity
  8
0
100
AcDbLine
 10
14.32899999998563
 20
-0.2368999999997641
 30
0.0
 11
16.46099999998353
 21
5.432899999994561
 31
0.0
1001
ACAD
1000
ASC_BOUNDS
1002
{
1070
    19
1005
D84F
1002
}
  0
LINE
  5
D812
330
D80B
100
AcDbEntity
  8
0
100
AcDbLine
 10
14.32899999998563
 20
-0.2368999999997641
 30
0.0
 11
10.53899999998941
 21
8.763099999991255
 31
0.0
1001
ACAD
1000
ASC_BOUNDS
1002
{
1070
    19
1005
D84F
1002
}
  0
LINE
  5
D813
330
D80B
100
AcDbEntity
  8
0
100
AcDbLine
 10
19.53899999998043
 20
-0.0001000000000317
 30
0.0
 11
23.56599999997638
 21
8.999899999990987
 31
0.0
1001
ACAD
1000
ASC_BOUNDS
1002
{
1070
    19
1005
D850
1002
}
  0
LINE
  5
D814
330
D80B
100
AcDbEntity
  8
0
100
AcDbLine
 10
26.97358892824991
 20
1.383099999991202
 30
0.0
 11
23.56599999997638
 21
8.999899999990987
 31
0.0
1001
ACAD
1000
ASC_BOUNDS
1002
{
1070
    19
1005
D850
1002
}
  0
LINE
  5
D815
330
D80B
100
AcDbEntity
  8
0
100
AcDbLine
 10
5.657999999994331
 20
0.9999999999989768
 30
0.0
 11
3.181999999996833
 21
4.668599999995308
 31
0.0
1001
ACAD
1000
ASC_BOUNDS
1002
{
1070
    19
1005
D84E
1002
}
  0
LINE
  5
D816
330
D80B
100
AcDbEntity
  8
0
100
AcDbLine
 10
4.617999999995391
 20
-0.0001000000000317
 30
0.0
 11
1.420999999998571
 21
4.736799999995242
 31
0.0
1001
ACAD
1000
ASC_BOUNDS
1002
{
1070
    19
1005
D84E
1002
}
  0
LINE
  5
D817
330
D80B
100
AcDbEntity
  8
0
100
AcDbLine
 10
1.420999999998571
 20
8.763099999991255
 30
0.0
 11
1.420999999998571
 21
0.0
 31
0.0
1001
ACAD
1000
ASC_BOUNDS
1002
{
1070
    19
1005
D853
1002
}
  0
LINE
  5
D818
330
D80B
100
AcDbEntity
  8
0
100
AcDbLine
 10
0.0
 20
8.763099999991255
 30
0.0
 11
0.0
 21
0.0
 31
0.0
1001
ACAD
1000
ASC_BOUNDS
1002
{
1070
    19
1005
D853
1002
}
  0
LINE
  5
D819
330
D80B
100
AcDbEntity
  8
0
100
AcDbLine
 10
6.766999999993232
 20
-0.0001000000000317
 30
0.0
 11
7.826999999992154
 21
2.368399999997621
 31
0.0
1001
ACAD
1000
ASC_BOUNDS
1002
{
1070
    19
1005
D84E
1002
}
  0
LINE
  5
D81A
330
D80B
100
AcDbEntity
  8
0
100
AcDbLine
 10
0.0
 20
0.0
 30
0.0
 11
1.420999999998571
 21
0.0
 31
0.0
1001
ACAD
1000
ASC_BOUNDS
1002
{
1070
    19
1005
D853
1002
}
  0
LINE
  5
D81B
330
D80B
100
AcDbEntity
  8
0
100
AcDbLine
 10
4.617999999995391
 20
0.0
 30
0.0
 11
6.766999999993232
 21
0.0
 31
0.0
1001
ACAD
1000
ASC_BOUNDS
1002
{
1070
    19
1005
D84E
1002
}
  0
LINE
  5
D81C
330
D80B
100
AcDbEntity
  8
0
100
AcDbLine
 10
11.70599999998831
 20
-0.0001000000000317
 30
0.0
 11
10.64699999998936
 21
2.368399999997621
 31
0.0
1001
ACAD
1000
ASC_BOUNDS
1002
{
1070
    19
1005
D84E
1002
}
  0
LINE
  5
D81D
330
D80B
100
AcDbEntity
  8
0
100
AcDbLine
 10
7.826999999992154
 20
2.368399999997621
 30
0.0
 11
10.64699999998936
 21
2.368399999997621
 31
0.0
1001
ACAD
1000
ASC_BOUNDS
1002
{
1070
    19
1005
D84E
1002
}
  0
LINE
  5
D81E
330
D80B
100
AcDbEntity
  8
0
100
AcDbLine
 10
11.70599999998831
 20
0.0
 30
0.0
 11
13.26299999998673
 21
0.0
 31
0.0
1001
ACAD
1000
ASC_BOUNDS
1002
{
1070
    19
1005
D84E
1002
}
  0
LINE
  5
D81F
330
D80B
100
AcDbEntity
  8
0
100
AcDbLine
 10
22.15599999997789
 20
2.368399999997621
 30
0.0
 11
24.97599999997499
 21
2.368399999997621
 31
0.0
1001
ACAD
1000
ASC_BOUNDS
1002
{
1070
    19
1005
D850
1002
}
  0
LINE
  5
D820
330
D80B
100
AcDbEntity
  8
0
100
AcDbLine
 10
19.53899999998043
 20
0.0
 30
0.0
 11
21.09599999997886
 21
0.0
 31
0.0
1001
ACAD
1000
ASC_BOUNDS
1002
{
1070
    19
1005
D850
1002
}
  0
LINE
  5
D821
330
D80B
100
AcDbEntity
  8
0
100
AcDbLine
 10
21.09599999997886
 20
-0.0001000000000317
 30
0.0
 11
22.15599999997789
 21
2.368399999997621
 31
0.0
1001
ACAD
1000
ASC_BOUNDS
1002
{
1070
    19
1005
D850
1002
}
  0
LINE
  5
D822
330
D80B
100
AcDbEntity
  8
0
100
AcDbLine
 10
26.02015566812236
 20
0.0330999999912365
 30
0.0
 11
24.97599999997499
 21
2.368399999997621
 31
0.0
1001
ACAD
1000
ASC_BOUNDS
1002
{
1070
    19
1005
D850
1002
}
  0
LINE
  5
D823
330
D80B
100
AcDbEntity
  8
0
100
AcDbLine
 10
14.32399999998563
 20
3.315799999996671
 30
0.0
 11
16.46099999998353
 21
8.999899999990987
 31
0.0
1001
ACAD
1000
ASC_BOUNDS
1002
{
1070
    19
1005
D84F
1002
}
  0
LINE
  5
D824
330
D80B
100
AcDbEntity
  8
0
100
AcDbLine
 10
6.432999999993513
 20
8.763099999991255
 30
0.0
 11
3.181999999996833
 21
4.668599999995308
 31
0.0
1001
ACAD
1000
ASC_BOUNDS
1002
{
1070
    19
1005
D84E
1002
}
  0
LINE
  5
D825
330
D80B
100
AcDbEntity
  8
0
100
AcDbLine
 10
4.617999999995391
 20
8.763099999991255
 30
0.0
 11
1.420999999998571
 21
4.736799999995242
 31
0.0
1001
ACAD
1000
ASC_BOUNDS
1002
{
1070
    19
1005
D84E
1002
}
  0
LINE
  5
D826
330
D80B
100
AcDbEntity
  8
0
100
AcDbLine
 10
0.0
 20
8.763099999991255
 30
0.0
 11
1.420999999998571
 21
8.763099999991255
 31
0.0
1001
ACAD
1000
ASC_BOUNDS
1002
{
1070
    19
1005
D853
1002
}
  0
LINE
  5
D827
330
D80B
100
AcDbEntity
  8
0
100
AcDbLine
 10
4.617999999995391
 20
8.763099999991255
 30
0.0
 11
6.432999999993513
 21
8.763099999991255
 31
0.0
1001
ACAD
1000
ASC_BOUNDS
1002
{
1070
    19
1005
D84E
1002
}
  0
LINE
  5
D828
330
D80B
100
AcDbEntity
  8
0
100
AcDbLine
 10
14.32399999998563
 20
3.315799999996671
 30
0.0
 11
12.02999999998792
 21
8.763099999991255
 31
0.0
1001
ACAD
1000
ASC_BOUNDS
1002
{
1070
    19
1005
D84F
1002
}
  0
LINE
  5
D829
330
D80B
100
AcDbEntity
  8
0
100
AcDbLine
 10
10.06399999998996
 20
3.670999999996297
 30
0.0
 11
9.236999999990758
 21
5.5200999999945
 31
0.0
1001
ACAD
1000
ASC_BOUNDS
1002
{
1070
    19
1005
D84E
1002
}
  0
LINE
  5
D82A
330
D80B
100
AcDbEntity
  8
0
100
AcDbLine
 10
8.409999999991555
 20
3.670999999996297
 30
0.0
 11
9.236999999990758
 21
5.5200999999945
 31
0.0
1001
ACAD
1000
ASC_BOUNDS
1002
{
1070
    19
1005
D84E
1002
}
  0
LINE
  5
D82B
330
D80B
100
AcDbEntity
  8
0
100
AcDbLine
 10
8.409999999991555
 20
3.670999999996297
 30
0.0
 11
10.06399999998996
 21
3.670999999996297
 31
0.0
1001
ACAD
1000
ASC_BOUNDS
1002
{
1070
    19
1005
D84E
1002
}
  0
LINE
  5
D82C
330
D80B
100
AcDbEntity
  8
0
100
AcDbLine
 10
10.53899999998941
 20
8.763099999991255
 30
0.0
 11
12.02999999998792
 21
8.763099999991255
 31
0.0
1001
ACAD
1000
ASC_BOUNDS
1002
{
1070
    19
1005
D84F
1002
}
  0
LINE
  5
D82D
330
D80B
100
AcDbEntity
  8
0
100
AcDbLine
 10
22.7389999999773
 20
3.670999999996297
 30
0.0
 11
23.56599999997638
 21
5.5200999999945
 31
0.0
1001
ACAD
1000
ASC_BOUNDS
1002
{
1070
    19
1005
D850
1002
}
  0
LINE
  5
D82E
330
D80B
100
AcDbEntity
  8
0
100
AcDbLine
 10
22.7389999999773
 20
3.670999999996297
 30
0.0
 11
24.39299999997559
 21
3.670999999996297
 31
0.0
1001
ACAD
1000
ASC_BOUNDS
1002
{
1070
    19
1005
D850
1002
}
  0
LINE
  5
D82F
330
D80B
100
AcDbEntity
  8
0
100
AcDbLine
 10
18.59799999998143
 20
3.315799999996671
 30
0.0
 11
20.89099999997916
 21
8.763099999991255
 31
0.0
1001
ACAD
1000
ASC_BOUNDS
1002
{
1070
    19
1005
D84F
1002
}
  0
LINE
  5
D830
330
D80B
100
AcDbEntity
  8
0
100
AcDbLine
 10
18.59799999998143
 20
3.315799999996671
 30
0.0
 11
16.46099999998353
 21
8.999899999990987
 31
0.0
1001
ACAD
1000
ASC_BOUNDS
1002
{
1070
    19
1005
D84F
1002
}
  0
LINE
  5
D831
330
D80B
100
AcDbEntity
  8
0
100
AcDbLine
 10
20.89099999997916
 20
8.763099999991255
 30
0.0
 11
22.38199999997767
 21
8.763099999991255
 31
0.0
1001
ACAD
1000
ASC_BOUNDS
1002
{
1070
    19
1005
D84F
1002
}
  0
LINE
  5
D832
330
D80B
100
AcDbEntity
  8
0
100
AcDbLine
 10
24.39299999997559
 20
3.670999999996297
 30
0.0
 11
23.56599999997638
 21
5.5200999999945
 31
0.0
1001
ACAD
1000
ASC_BOUNDS
1002
{
1070
    19
1005
D850
1002
}
  0
LINE
  5
D833
330
D80B
100
AcDbEntity
  8
0
100
AcDbLine
 10
44.99999999995498
 20
-0.2368999999997641
 30
0.0
 11
40.02599999995994
 21
5.341799999994635
 31
0.0
1001
ACAD
1000
ASC_BOUNDS
1002
{
1070
    19
1005
D852
1002
}
  0
LINE
  5
D834
330
D80B
100
AcDbEntity
  8
0
100
AcDbLine
 10
40.02599999995994
 20
5.341799999994635
 30
0.0
 11
40.02599999995994
 21
0.0
 31
0.0
1001
ACAD
1000
ASC_BOUNDS
1002
{
1070
    19
1005
D852
1002
}
  0
LINE
  5
D835
330
D80B
100
AcDbEntity
  8
0
100
AcDbLine
 10
38.60499999996136
 20
8.999999999991019
 30
0.0
 11
38.60499999996136
 21
0.0
 31
0.0
1001
ACAD
1000
ASC_BOUNDS
1002
{
1070
    19
1005
D852
1002
}
  0
LINE
  5
D836
330
D80B
100
AcDbEntity
  8
0
100
AcDbLine
 10
44.99999999995498
 20
8.763099999991255
 30
0.0
 11
44.99999999995498
 21
-0.2368999999997641
 31
0.0
1001
ACAD
1000
ASC_BOUNDS
1002
{
1070
    19
1005
D852
1002
}
  0
LINE
  5
D837
330
D80B
100
AcDbEntity
  8
0
100
AcDbLine
 10
38.60499999996136
 20
0.0
 30
0.0
 11
40.02599999995994
 21
0.0
 31
0.0
1001
ACAD
1000
ASC_BOUNDS
1002
{
1070
    19
1005
D852
1002
}
  0
LINE
  5
D838
330
D80B
100
AcDbEntity
  8
0
100
AcDbLine
 10
43.57899999995641
 20
3.421199999996588
 30
0.0
 11
38.60499999996136
 21
8.999899999990987
 31
0.0
1001
ACAD
1000
ASC_BOUNDS
1002
{
1070
    19
1005
D852
1002
}
  0
LINE
  5
D839
330
D80B
100
AcDbEntity
  8
0
100
AcDbLine
 10
43.57899999995641
 20
8.763099999991255
 30
0.0
 11
43.57899999995641
 21
3.421199999996588
 31
0.0
1001
ACAD
1000
ASC_BOUNDS
1002
{
1070
    19
1005
D852
1002
}
  0
LINE
  5
D83A
330
D80B
100
AcDbEntity
  8
0
100
AcDbLine
 10
43.57899999995641
 20
8.763099999991255
 30
0.0
 11
44.99999999995498
 21
8.763099999991255
 31
0.0
1001
ACAD
1000
ASC_BOUNDS
1002
{
1070
    19
1005
D852
1002
}
  0
LINE
  5
D83B
330
D80B
100
AcDbEntity
  8
0
100
AcDbLine
 10
37.67199999996831
 20
8.763099999991255
 30
0.0
 11
36.23199999996837
 21
8.763099999991255
 31
0.0
  0
LINE
  5
D83C
330
D80B
100
AcDbEntity
  8
0
100
AcDbLine
 10
31.64199999996833
 20
8.763099999991255
 30
0.0
 11
31.64199999996833
 21
2.481619422925121
 31
0.0
  0
LINE
  5
D83D
330
D80B
100
AcDbEntity
  8
0
100
AcDbLine
 10
37.67199999996831
 20
8.763099999991255
 30
0.0
 11
37.67199999996831
 21
2.481619422925121
 31
0.0
  0
LINE
  5
D83E
330
D80B
100
AcDbEntity
  8
0
100
AcDbLine
 10
36.23199999996837
 20
8.763099999991255
 30
0.0
 11
36.23199999996837
 21
2.481619422925064
 31
0.0
  0
LINE
  5
D83F
330
D80B
100
AcDbEntity
  8
0
100
AcDbLine
 10
33.08199999996839
 20
8.763099999991255
 30
0.0
 11
33.08199999996839
 21
2.481619422925121
 31
0.0
  0
ARC
  5
D840
330
D80B
100
AcDbEntity
  8
0
100
AcDbCircle
 10
34.65699999996832
 20
3.183099999991214
 30
0.0
 40
3.420000000000007
100
AcDbArc
 50
240.0000000000255
 51
299.9999999999766
  0
ARC
  5
D841
330
D80B
100
AcDbEntity
  8
0
100
AcDbCircle
 10
34.65699999996832
 20
3.183099999991214
 30
0.0
 40
1.97999999999999
100
AcDbArc
 50
240.000000000026
 51
299.9999999999703
  0
LINE
  5
D842
330
D80B
100
AcDbEntity
  8
0
100
AcDbLine
 10
33.08199999996828
 20
8.763099999991255
 30
0.0
 11
31.64199999996833
 21
8.763099999991255
 31
0.0
  0
ARC
  5
D843
330
D80B
100
AcDbEntity
  8
0
100
AcDbCircle
 10
35.06199999996829
 20
2.481619422925064
 30
0.0
 40
1.17
100
AcDbArc
 50
299.9999999999699
 51
0.0
  0
ARC
  5
D844
330
D80B
100
AcDbEntity
  8
0
100
AcDbCircle
 10
34.25199999996835
 20
2.481619422925121
 30
0.0
 40
1.17
100
AcDbArc
 50
180.0
 51
240.0000000000238
  0
ARC
  5
D845
330
D80B
100
AcDbEntity
  8
0
100
AcDbCircle
 10
35.06199999996841
 20
2.481619422925121
 30
0.0
 40
2.61
100
AcDbArc
 50
299.9999999999756
 51
0.0
  0
ARC
  5
D846
330
D80B
100
AcDbEntity
  8
0
100
AcDbCircle
 10
34.25199999996835
 20
2.481619422925121
 30
0.0
 40
2.61
100
AcDbArc
 50
180.0
 51
240.0000000000244
  0
LINE
  5
D847
330
D80B
100
AcDbEntity
  8
0
100
AcDbLine
 10
29.30199999996933
 20
8.763099999991255
 30
0.0
 11
30.74199999996927
 21
8.763099999991255
 31
0.0
1001
ACAD
1000
ASC_BOUNDS
1002
{
1070
    19
1005
D850
1002
}
  0
LINE
  5
D848
330
D80B
100
AcDbEntity
  8
0
100
AcDbLine
 10
30.74199999996927
 20
8.763099999991255
 30
0.0
 11
30.74199999996927
 21
2.373099999991211
 31
0.0
1001
ACAD
1000
ASC_BOUNDS
1002
{
1070
    19
1005
D850
1002
}
  0
LINE
  5
D849
330
D80B
100
AcDbEntity
  8
0
100
AcDbLine
 10
26.02015566812236
 20
0.0330999999912365
 30
0.0
 11
28.40199999996923
 21
0.0330999999912365
 31
0.0
1001
ACAD
1000
ASC_BOUNDS
1002
{
1070
    19
1005
D850
1002
}
  0
LINE
  5
D84A
330
D80B
100
AcDbEntity
  8
0
100
AcDbLine
 10
29.30199999996933
 20
8.763099999991255
 30
0.0
 11
29.30199999996933
 21
2.283099999991236
 31
0.0
1001
ACAD
1000
ASC_BOUNDS
1002
{
1070
    19
1005
D850
1002
}
  0
LINE
  5
D84B
330
D80B
100
AcDbEntity
  8
0
100
AcDbLine
 10
26.97358892824991
 20
1.383099999991202
 30
0.0
 11
28.40199999996923
 21
1.383099999991202
 31
0.0
1001
ACAD
1000
ASC_BOUNDS
1002
{
1070
    19
1005
D850
1002
}
  0
ARC
  5
D84C
330
D80B
100
AcDbEntity
  8
0
100
AcDbCircle
 10
28.40199999996923
 20
2.283099999991236
 30
0.0
 40
0.9
100
AcDbArc
 50
270.0
 51
0.0
1001
ACAD
1000
ASC_BOUNDS
1002
{
1070
    19
1005
D850
1002
}
  0
ARC
  5
D84D
330
D80B
100
AcDbEntity
  8
0
100
AcDbCircle
 10
28.40199999996923
 20
2.373099999991211
 30
0.0
 40
2.34
100
AcDbArc
 50
270.0
 51
0.0
1001
ACAD
1000
ASC_BOUNDS
1002
{
1070
    19
1005
D850
1002
}
  0
INSERT
  5
D84E
330
D80B
100
AcDbEntity
  8
0
100
AcDbBlockReference
  2
*X144
 10
0.0
 20
0.0
 30
0.0
1001
ACAD
1000
HATCH
1002
{
1070
    19
1000
ANSI37
1040
0.15
1040
0.0
1000
ASC_BOUNDS
1070
     2
1070
     2
1070
    12
1005
D80D
1005
D80E
1005
D815
1005
D824
1005
D827
1005
D825
1005
D816
1005
D81B
1005
D819
1005
D81D
1005
D81C
1005
D81E
1070
     2
1070
     3
1005
D829
1005
D82B
1005
D82A
1000
ASC_SEEDPOINT
1011
3.614004224891801
1021
2.996669441146025
1031
0.0
1000
R14_HATCH_DATA
1000
D84E
1011
1.0
1021
0.0
1031
0.0
1011
0.0
1021
1.0
1031
0.0
1011
0.0
1021
0.0
1031
1.0
1040
0.0
1010
0.0
1020
0.0
1030
1.0
1000
ANSI37
1070
     0
1070
     1
1071
        2
1071
        7
1070
     0
1070
     1
1071
       17
1040
13.26299999998673
1040
-0.0001000000000317
1040
9.236999999990758
1040
8.999899999990987
1040
9.236999999990758
1040
8.999999999991019
1040
5.657999999994331
1040
0.9999999999989768
1040
3.181999999996833
1040
4.668599999995308
1040
6.432999999993513
1040
8.763099999991255
1040
4.617999999995391
1040
8.763099999991255
1040
1.420999999998571
1040
4.736799999995242
1040
4.617999999995391
1040
-0.0001000000000317
1040
4.617999999995391
1040
0.0
1040
6.766999999993232
1040
0.0
1040
6.766999999993232
1040
-0.0001000000000317
1040
7.826999999992154
1040
2.368399999997621
1040
10.64699999998936
1040
2.368399999997621
1040
11.70599999998831
1040
-0.0001000000000317
1040
11.70599999998831
1040
0.0
1040
13.26299999998673
1040
0.0
1071
       12
1005
D80D
1005
D80E
1005
D815
1005
D824
1005
D827
1005
D825
1005
D816
1005
D81B
1005
D819
1005
D81D
1005
D81C
1005
D81E
1071
       22
1070
     0
1070
     1
1071
        3
1040
9.236999999990758
1040
5.5200999999945
1040
10.06399999998996
1040
3.670999999996297
1040
8.409999999991555
1040
3.670999999996297
1071
        3
1005
D829
1005
D82B
1005
D82A
1070
     0
1070
     1
1040
0.0
1040
0.15
1070
     0
1070
     2
1040
0.7853981633974483
1040
49.29960901727088
1040
-10.17736998311392
1040
-0.3367596045400932
1040
0.3367596045400932
1070
     0
1040
2.356194490192345
1040
49.29960901727088
1040
-10.17736998311392
1040
-0.3367596045400932
1040
-0.3367596045400932
1070
     0
1040
0.0110235143455945
1071
        2
1040
3.614004224891801
1040
2.996669441146025
1040
0.0
1040
3.614004224891801
1040
2.996669441146025
1040
0.0
1002
}
  0
INSERT
  5
D84F
330
D80B
100
AcDbEntity
  8
0
100
AcDbBlockReference
  2
*X145
 10
0.0
 20
0.0
 30
0.0
1001
ACAD
1000
HATCH
1002
{
1070
    19
1000
ANSI37
1040
0.15
1040
0.0
1000
ASC_BOUNDS
1070
     1
1070
     2
1070
    10
1005
D80F
1005
D810
1005
D831
1005
D82F
1005
D830
1005
D823
1005
D828
1005
D82C
1005
D812
1005
D811
1000
ASC_SEEDPOINT
1011
14.73245321214324
1021
2.798246178283421
1031
0.0
1000
R14_HATCH_DATA
1000
D84F
1011
1.0
1021
0.0
1031
0.0
1011
0.0
1021
1.0
1031
0.0
1011
0.0
1021
0.0
1031
1.0
1040
0.0
1010
0.0
1020
0.0
1030
1.0
1000
ANSI37
1070
     0
1070
     1
1071
        1
1071
        7
1070
     0
1070
     1
1071
       10
1040
16.46099999998353
1040
5.432899999994561
1040
18.59199999998134
1040
-0.2368999999997641
1040
22.38199999997767
1040
8.763099999991255
1040
20.89099999997916
1040
8.763099999991255
1040
18.59799999998143
1040
3.315799999996671
1040
16.46099999998353
1040
8.999899999990987
1040
14.32399999998563
1040
3.315799999996671
1040
12.02999999998792
1040
8.763099999991255
1040
10.53899999998941
1040
8.763099999991255
1040
14.32899999998563
1040
-0.2368999999997641
1071
       10
1005
D80F
1005
D810
1005
D831
1005
D82F
1005
D830
1005
D823
1005
D828
1005
D82C
1005
D812
1005
D811
1070
     0
1070
     1
1040
0.0
1040
0.15
1070
     0
1070
     2
1040
0.7853981633974483
1040
49.29960901727088
1040
-10.17736998311392
1040
-0.3367596045400932
1040
0.3367596045400932
1070
     0
1040
2.356194490192345
1040
49.29960901727088
1040
-10.17736998311392
1040
-0.3367596045400932
1040
-0.3367596045400932
1070
     0
1040
0.0110235143455945
1071
        1
1040
14.73245321214324
1040
2.798246178283421
1040
0.0
1002
}
  0
INSERT
  5
D850
330
D80B
100
AcDbEntity
  8
0
100
AcDbBlockReference
  2
*X146
 10
0.0
 20
0.0
 30
0.0
1001
ACAD
1000
HATCH
1002
{
1070
    19
1000
ANSI37
1040
0.15
1040
0.0
1000
ASC_BOUNDS
1070
     2
1070
     2
1070
    13
1005
D813
1005
D820
1005
D821
1005
D81F
1005
D822
1005
D849
1005
D84D
1005
D848
1005
D847
1005
D84A
1005
D84C
1005
D84B
1005
D814
1070
     2
1070
     3
1005
D82D
1005
D832
1005
D82E
1000
ASC_SEEDPOINT
1011
21.97929957367762
1021
3.294304244259308
1031
0.0
1000
R14_HATCH_DATA
1000
D850
1011
1.0
1021
0.0
1031
0.0
1011
0.0
1021
1.0
1031
0.0
1011
0.0
1021
0.0
1031
1.0
1040
0.0
1010
0.0
1020
0.0
1030
1.0
1000
ANSI37
1070
     0
1070
     1
1071
        2
1071
        7
1070
     1
1070
     1
1071
       15
1040
23.56599999997638
1040
8.999899999990987
1040
0.0
1040
19.53899999998043
1040
-0.0001000000000317
1040
0.0
1040
19.53899999998043
1040
0.0
1040
0.0
1040
21.09599999997886
1040
0.0
1040
0.0
1040
21.09599999997886
1040
-0.0001000000000317
1040
0.0
1040
22.15599999997789
1040
2.368399999997621
1040
0.0
1040
24.97599999997499
1040
2.368399999997621
1040
0.0
1040
26.02015566812236
1040
0.0330999999912365
1040
0.0
1040
28.40199999996923
1040
0.0330999999912365
1040
0.414213562373095
1040
30.74199999996923
1040
2.373099999991211
1040
0.0
1040
30.74199999996927
1040
8.763099999991255
1040
0.0
1040
29.30199999996933
1040
8.763099999991255
1040
0.0
1040
29.30199999996933
1040
2.283099999991236
1040
-0.414213562373095
1040
28.40199999996923
1040
1.383099999991237
1040
0.0
1040
26.97358892824991
1040
1.383099999991202
1040
0.0
1071
       13
1005
D813
1005
D820
1005
D821
1005
D81F
1005
D822
1005
D849
1005
D84D
1005
D848
1005
D847
1005
D84A
1005
D84C
1005
D84B
1005
D814
1071
       22
1070
     0
1070
     1
1071
        3
1040
22.7389999999773
1040
3.670999999996297
1040
23.56599999997638
1040
5.5200999999945
1040
24.39299999997559
1040
3.670999999996297
1071
        3
1005
D82D
1005
D832
1005
D82E
1070
     0
1070
     1
1040
0.0
1040
0.15
1070
     0
1070
     2
1040
0.7853981633974483
1040
49.29960901727088
1040
-10.17736998311392
1040
-0.3367596045400932
1040
0.3367596045400932
1070
     0
1040
2.356194490192345
1040
49.29960901727088
1040
-10.17736998311392
1040
-0.3367596045400932
1040
-0.3367596045400932
1070
     0
1040
0.0110235143455945
1071
        2
1040
21.97929957367762
1040
3.294304244259308
1040
0.0
1040
21.97929957367762
1040
3.294304244259308
1040
0.0
1002
}
  0
INSERT
  5
D851
330
D80B
100
AcDbEntity
  8
0
100
AcDbBlockReference
  2
*X147
 10
0.0
 20
0.0
 30
0.0
1001
ACAD
1000
HATCH
1002
{
1070
    19
1000
ANSI37
1040
0.15
1040
0.0
1000
R14_HATCH_DATA
1000
D851
1011
1.0
1021
0.0
1031
0.0
1011
0.0
1021
1.0
1031
0.0
1011
0.0
1021
0.0
1031
1.0
1040
0.0
1010
0.0
1020
0.0
1030
1.0
1000
ANSI37
1070
     0
1070
     1
1071
        1
1071
        7
1070
     1
1070
     1
1071
       12
1040
31.64199999996833
1040
2.481619422925121
1040
0.2679491924310942
1040
32.94699999997067
1040
0.2212931190493919
1040
0.2679491924301353
1040
36.36699999995983
1040
0.2212931190459813
1040
0.2679491924321411
1040
37.67199999996831
1040
2.481619422928361
1040
0.0
1040
37.67199999996831
1040
8.763099999991255
1040
0.0
1040
36.23199999996837
1040
8.763099999991255
1040
0.0
1040
36.23199999996837
1040
2.481619422925064
1040
-0.2679491924310291
1040
35.64699999996708
1040
1.468369700498386
1040
-0.267949192430519
1040
33.66699999997093
1040
1.468369700497703
1040
-0.267949192431809
1040
33.08199999996839
1040
2.481619422926997
1040
0.0
1040
33.08199999996839
1040
8.763099999991255
1040
0.0
1040
31.64199999996833
1040
8.763099999991255
1040
0.0
1071
        0
1070
     0
1070
     1
1040
0.0
1040
0.15
1070
     0
1070
     2
1040
0.7853981633974483
1040
49.29960901727088
1040
-10.17736998311392
1040
-0.3367596045400932
1040
0.3367596045400932
1070
     0
1040
2.356194490192345
1040
49.29960901727088
1040
-10.17736998311392
1040
-0.3367596045400932
1040
-0.3367596045400932
1070
     0
1040
0.0110235143455945
1071
        1
1040
32.30357378967278
1040
3.988785755459219
1040
0.0
1002
}
  0
INSERT
  5
D852
330
D80B
100
AcDbEntity
  8
0
100
AcDbBlockReference
  2
*X148
 10
0.0
 20
0.0
 30
0.0
1001
ACAD
1000
HATCH
1002
{
1070
    19
1000
ANSI37
1040
0.15
1040
0.0
1000
ASC_BOUNDS
1070
     1
1070
     2
1070
     8
1005
D833
1005
D836
1005
D83A
1005
D839
1005
D838
1005
D835
1005
D837
1005
D834
1000
ASC_SEEDPOINT
1011
39.74896370716704
1021
4.484843821435049
1031
0.0
1000
R14_HATCH_DATA
1000
D852
1011
1.0
1021
0.0
1031
0.0
1011
0.0
1021
1.0
1031
0.0
1011
0.0
1021
0.0
1031
1.0
1040
0.0
1010
0.0
1020
0.0
1030
1.0
1000
ANSI37
1070
     0
1070
     1
1071
        1
1071
        7
1070
     0
1070
     1
1071
        9
1040
40.02599999995994
1040
5.341799999994635
1040
44.99999999995498
1040
-0.2368999999997641
1040
44.99999999995498
1040
8.763099999991255
1040
43.57899999995641
1040
8.763099999991255
1040
43.57899999995641
1040
3.421199999996588
1040
38.60499999996136
1040
8.999899999990987
1040
38.60499999996136
1040
8.999999999991019
1040
38.60499999996136
1040
0.0
1040
40.02599999995994
1040
0.0
1071
        8
1005
D833
1005
D836
1005
D83A
1005
D839
1005
D838
1005
D835
1005
D837
1005
D834
1070
     0
1070
     1
1040
0.0
1040
0.15
1070
     0
1070
     2
1040
0.7853981633974483
1040
49.29960901727088
1040
-10.17736998311392
1040
-0.3367596045400932
1040
0.3367596045400932
1070
     0
1040
2.356194490192345
1040
49.29960901727088
1040
-10.17736998311392
1040
-0.3367596045400932
1040
-0.3367596045400932
1070
     0
1040
0.0110235143455945
1071
        1
1040
39.74896370716704
1040
4.484843821435049
1040
0.0
1002
}
  0
INSERT
  5
D853
330
D80B
100
AcDbEntity
  8
0
100
AcDbBlockReference
  2
*X149
 10
0.0
 20
0.0
 30
0.0
1001
ACAD
1000
HATCH
1002
{
1070
    19
1000
ANSI37
1040
0.15
1040
0.0
1000
ASC_BOUNDS
1070
     1
1070
     2
1070
     4
1005
D817
1005
D826
1005
D818
1005
D81A
1000
ASC_SEEDPOINT
1011
1.079051535452663
1021
4.148538732891836
1031
0.0
1000
R14_HATCH_DATA
1000
D853
1011
1.0
1021
0.0
1031
0.0
1011
0.0
1021
1.0
1031
0.0
1011
0.0
1021
0.0
1031
1.0
1040
0.0
1010
0.0
1020
0.0
1030
1.0
1000
ANSI37
1070
     0
1070
     1
1071
        1
1071
        7
1070
     0
1070
     1
1071
        4
1040
1.420999999998571
1040
0.0
1040
1.420999999998571
1040
8.763099999991255
1040
0.0
1040
8.763099999991255
1040
0.0
1040
0.0
1071
        4
1005
D817
1005
D826
1005
D818
1005
D81A
1070
     0
1070
     1
1040
0.0
1040
0.15
1070
     0
1070
     2
1040
0.7853981633974483
1040
49.29960901727088
1040
-10.17736998311392
1040
-0.3367596045400932
1040
0.3367596045400932
1070
     0
1040
2.356194490192345
1040
49.29960901727088
1040
-10.17736998311392
1040
-0.3367596045400932
1040
-0.3367596045400932
1070
     0
1040
0.0053004257112761
1071
        1
1040
1.079051535452663
1040
4.148538732891836
1040
0.0
1002
}
  0
ENDBLK
  5
DF1E
330
D80B
100
AcDbEntity
  8
0
100
AcDbBlockEnd
  0
BLOCK
  5
E372
330
E1E4
100
AcDbEntity
  8
0
100
AcDbBlockBegin
  2
*X144
 70
     1
 10
0.0
 20
0.0
 30
0.0
  3
*X144
  1

  0
LINE
  5
E1E5
330
E1E4
100
AcDbEntity
  8
0
  6
CONTINUOUS
100
AcDbLine
 10
3.418023043697893
 20
7.251849696850613
 30
0.0
 11
4.929273346838536
 21
8.763099999991255
 31
0.0
  0
LINE
  5
E1E6
330
E1E4
100
AcDbEntity
  8
0
  6
CONTINUOUS
100
AcDbLine
 10
1.483656411257782
 20
4.643963855330318
 30
0.0
 11
5.60279255591872
 21
8.763099999991255
 31
0.0
  0
LINE
  5
E1E7
330
E1E4
100
AcDbEntity
  8
0
  6
CONTINUOUS
100
AcDbLine
 10
1.755053947328235
 20
4.241842182320584
 30
0.0
 11
6.276311764998907
 21
8.763099999991255
 31
0.0
  0
LINE
  5
E1E8
330
E1E4
100
AcDbEntity
  8
0
  6
CONTINUOUS
100
AcDbLine
 10
2.026451483398688
 20
3.839720509310849
 30
0.0
 11
4.441040904851878
 21
6.254309930764039
 31
0.0
  0
LINE
  5
E1E9
330
E1E4
100
AcDbEntity
  8
0
  6
CONTINUOUS
100
AcDbLine
 10
2.297849019469139
 20
3.437598836301114
 30
0.0
 11
3.321765168359338
 21
4.461514985191313
 31
0.0
  0
LINE
  5
E1EA
330
E1E4
100
AcDbEntity
  8
0
  6
CONTINUOUS
100
AcDbLine
 10
2.569246555539591
 20
3.03547716329138
 30
0.0
 11
3.593163397972743
 21
4.059394005724531
 31
0.0
  0
LINE
  5
E1EB
330
E1E4
100
AcDbEntity
  8
0
  6
CONTINUOUS
100
AcDbLine
 10
2.840644091610043
 20
2.633355490281646
 30
0.0
 11
3.864561627586149
 21
3.657273026257751
 31
0.0
  0
LINE
  5
E1EC
330
E1E4
100
AcDbEntity
  8
0
  6
CONTINUOUS
100
AcDbLine
 10
3.112041627680496
 20
2.231233817271911
 30
0.0
 11
4.135959857199554
 21
3.25515204679097
 31
0.0
  0
LINE
  5
E1ED
330
E1E4
100
AcDbEntity
  8
0
  6
CONTINUOUS
100
AcDbLine
 10
3.383439163750948
 20
1.829112144262177
 30
0.0
 11
4.40735808681296
 21
2.853031067324189
 31
0.0
  0
LINE
  5
E1EE
330
E1E4
100
AcDbEntity
  8
0
  6
CONTINUOUS
100
AcDbLine
 10
3.654836699821399
 20
1.426990471252442
 30
0.0
 11
4.678756316426365
 21
2.450910087857407
 31
0.0
  0
LINE
  5
E1EF
330
E1E4
100
AcDbEntity
  8
0
  6
CONTINUOUS
100
AcDbLine
 10
3.926234235891853
 20
1.024868798242709
 30
0.0
 11
4.95015454603977
 21
2.048789108390626
 31
0.0
  0
LINE
  5
E1F0
330
E1E4
100
AcDbEntity
  8
0
  6
CONTINUOUS
100
AcDbLine
 10
4.197631771962304
 20
0.6227471252329737
 30
0.0
 11
5.221552775653176
 21
1.646668128923846
 31
0.0
  0
LINE
  5
E1F1
330
E1E4
100
AcDbEntity
  8
0
  6
CONTINUOUS
100
AcDbLine
 10
8.715877546767851
 20
7.835069736359266
 30
0.0
 11
9.435953450375058
 21
8.555145639966472
 31
0.0
  0
LINE
  5
E1F2
330
E1E4
100
AcDbEntity
  8
0
  6
CONTINUOUS
100
AcDbLine
 10
8.170620868422267
 20
6.616293848933497
 30
0.0
 11
9.644120833743461
 21
8.08979381425469
 31
0.0
  0
LINE
  5
E1F3
330
E1E4
100
AcDbEntity
  8
0
  6
CONTINUOUS
100
AcDbLine
 10
7.625364190076684
 20
5.397517961507727
 30
0.0
 11
9.852288217111864
 21
7.624441988542907
 31
0.0
  0
LINE
  5
E1F4
330
E1E4
100
AcDbEntity
  8
0
  6
CONTINUOUS
100
AcDbLine
 10
7.080107511731101
 20
4.178742074081957
 30
0.0
 11
10.06045560048027
 21
7.159090162831124
 31
0.0
  0
LINE
  5
E1F5
330
E1E4
100
AcDbEntity
  8
0
  6
CONTINUOUS
100
AcDbLine
 10
6.534850833385518
 20
2.959966186656187
 30
0.0
 11
10.26862298384867
 21
6.693738337119342
 31
0.0
  0
LINE
  5
E1F6
330
E1E4
100
AcDbEntity
  8
0
  6
CONTINUOUS
100
AcDbLine
 10
4.469029308032756
 20
0.2206254522232385
 30
0.0
 11
5.492951005266582
 21
1.244547149457064
 31
0.0
  0
LINE
  5
E1F7
330
E1E4
100
AcDbEntity
  8
0
  6
CONTINUOUS
100
AcDbLine
 10
5.989594155039935
 20
1.741190299230417
 30
0.0
 11
8.806950407233131
 21
4.558546551423613
 31
0.0
  0
LINE
  5
E1F8
330
E1E4
100
AcDbEntity
  8
0
  6
CONTINUOUS
100
AcDbLine
 10
9.401251593263643
 20
5.152847737454126
 30
0.0
 11
10.47679036721708
 21
6.228386511407559
 31
0.0
  0
LINE
  5
E1F9
330
E1E4
100
AcDbEntity
  8
0
  6
CONTINUOUS
100
AcDbLine
 10
4.921837203428691
 20
-0.0000858614610131
 30
0.0
 11
8.592923064886001
 21
3.670999999996297
 31
0.0
  0
LINE
  5
E1FA
330
E1E4
100
AcDbEntity
  8
0
  6
CONTINUOUS
100
AcDbLine
 10
9.609390446785305
 20
4.6874673818956
 30
0.0
 11
10.68495775058548
 21
5.763034685695775
 31
0.0
  0
LINE
  5
E1FB
330
E1E4
100
AcDbEntity
  8
0
  6
CONTINUOUS
100
AcDbLine
 10
5.595387755019432
 20
-0.0000545189504582
 30
0.0
 11
7.716137258923768
 21
2.120694984953879
 31
0.0
  0
LINE
  5
E1FC
330
E1E4
100
AcDbEntity
  8
0
  6
CONTINUOUS
100
AcDbLine
 10
6.268938306610172
 20
-0.000023176439905
 30
0.0
 11
7.170485805526503
 21
0.9015243224764267
 31
0.0
  0
LINE
  5
E1FD
330
E1E4
100
AcDbEntity
  8
0
  6
CONTINUOUS
100
AcDbLine
 10
7.963842273967511
 20
2.368399999997621
 30
0.0
 11
9.266442273966188
 21
3.670999999996297
 31
0.0
  0
LINE
  5
E1FE
330
E1E4
100
AcDbEntity
  8
0
  6
CONTINUOUS
100
AcDbLine
 10
8.637361483047696
 20
2.368399999997621
 30
0.0
 11
9.939961483046375
 21
3.670999999996297
 31
0.0
  0
LINE
  5
E1FF
330
E1E4
100
AcDbEntity
  8
0
  6
CONTINUOUS
100
AcDbLine
 10
9.817529300306965
 20
4.222087026337075
 30
0.0
 11
10.89312513395388
 21
5.297682859983993
 31
0.0
  0
LINE
  5
E200
330
E1E4
100
AcDbEntity
  8
0
  6
CONTINUOUS
100
AcDbLine
 10
10.02566815382863
 20
3.756706670778549
 30
0.0
 11
11.10129251732229
 21
4.832331034272211
 31
0.0
  0
LINE
  5
E201
330
E1E4
100
AcDbEntity
  8
0
  6
CONTINUOUS
100
AcDbLine
 10
9.310880692127883
 20
2.368399999997621
 30
0.0
 11
11.30945990069069
 21
4.366979208560428
 31
0.0
  0
LINE
  5
E202
330
E1E4
100
AcDbEntity
  8
0
  6
CONTINUOUS
100
AcDbLine
 10
9.98439990120807
 20
2.36839999999762
 30
0.0
 11
11.5176272840591
 21
3.901627382848645
 31
0.0
  0
LINE
  5
E203
330
E1E4
100
AcDbEntity
  8
0
  6
CONTINUOUS
100
AcDbLine
 10
10.65037369446246
 20
2.36085458417182
 30
0.0
 11
11.7257946674275
 21
3.436275557136862
 31
0.0
  0
LINE
  5
E204
330
E1E4
100
AcDbEntity
  8
0
  6
CONTINUOUS
100
AcDbLine
 10
10.85847197087848
 20
1.895433651507656
 30
0.0
 11
11.9339620507959
 21
2.97092373142508
 31
0.0
  0
LINE
  5
E205
330
E1E4
100
AcDbEntity
  8
0
  6
CONTINUOUS
100
AcDbLine
 10
11.0665702472945
 20
1.430012718843491
 30
0.0
 11
12.14212943416431
 21
2.505571905713296
 31
0.0
  0
LINE
  5
E206
330
E1E4
100
AcDbEntity
  8
0
  6
CONTINUOUS
100
AcDbLine
 10
11.27466852371052
 20
0.9645917861793256
 30
0.0
 11
12.35029681753271
 21
2.040220080001513
 31
0.0
  0
LINE
  5
E207
330
E1E4
100
AcDbEntity
  8
0
  6
CONTINUOUS
100
AcDbLine
 10
11.48276680012654
 20
0.4991708535151611
 30
0.0
 11
12.55846420090111
 21
1.57486825428973
 31
0.0
  0
LINE
  5
E208
330
E1E4
100
AcDbEntity
  8
0
  6
CONTINUOUS
100
AcDbLine
 10
11.69086507654257
 20
0.0337499208509957
 30
0.0
 11
12.76663158426952
 21
1.109516428577947
 31
0.0
  0
LINE
  5
E209
330
E1E4
100
AcDbEntity
  8
0
  6
CONTINUOUS
100
AcDbLine
 10
12.33057447873954
 20
-0.0000598860322123
 30
0.0
 11
12.97479896763792
 21
0.6441646028661663
 31
0.0
  0
LINE
  5
E20A
330
E1E4
100
AcDbEntity
  8
0
  6
CONTINUOUS
100
AcDbLine
 10
13.00413694809395
 20
-0.0000166257579952
 30
0.0
 11
13.18296635100632
 21
0.1788127771543824
 31
0.0
  0
LINE
  5
E20B
330
E1E4
100
AcDbEntity
  8
0
  6
CONTINUOUS
100
AcDbLine
 10
4.772852165289667
 20
-0.000092794222212
 30
0.0
 11
4.296495091028902
 21
0.4762642800385528
 31
0.0
  0
LINE
  5
E20C
330
E1E4
100
AcDbEntity
  8
0
  6
CONTINUOUS
100
AcDbLine
 10
5.446340034776103
 20
-0.0000614546284616
 30
0.0
 11
2.898195908335625
 21
2.548082671812017
 31
0.0
  0
LINE
  5
E20D
330
E1E4
100
AcDbEntity
  8
0
  6
CONTINUOUS
100
AcDbLine
 10
6.119827904262539
 20
-0.0000301150347113
 30
0.0
 11
1.499896725642348
 21
4.61990106358548
 31
0.0
  0
LINE
  5
E20E
330
E1E4
100
AcDbEntity
  8
0
  6
CONTINUOUS
100
AcDbLine
 10
6.775136745476159
 20
0.0181802528318542
 30
0.0
 11
5.699826040202669
 21
1.093490958105344
 31
0.0
  0
LINE
  5
E20F
330
E1E4
100
AcDbEntity
  8
0
  6
CONTINUOUS
100
AcDbLine
 10
6.983376846288489
 20
0.4834593610997118
 30
0.0
 11
5.908008617934405
 21
1.558827589453796
 31
0.0
  0
LINE
  5
E210
330
E1E4
100
AcDbEntity
  8
0
  6
CONTINUOUS
100
AcDbLine
 10
5.377063484962296
 20
1.416253513345719
 30
0.0
 11
1.702276957014131
 21
5.091040041293883
 31
0.0
  0
LINE
  5
E211
330
E1E4
100
AcDbEntity
  8
0
  6
CONTINUOUS
100
AcDbLine
 10
3.978745891735324
 20
3.488090315652877
 30
0.0
 11
2.000373521109399
 21
5.466462686278803
 31
0.0
  0
LINE
  5
E212
330
E1E4
100
AcDbEntity
  8
0
  6
CONTINUOUS
100
AcDbLine
 10
7.191616947100819
 20
0.948738469367568
 30
0.0
 11
6.11619119566614
 21
2.024164220802247
 31
0.0
  0
LINE
  5
E213
330
E1E4
100
AcDbEntity
  8
0
  6
CONTINUOUS
100
AcDbLine
 10
7.399857047913149
 20
1.414017577635424
 30
0.0
 11
6.324373773397875
 21
2.489500852150698
 31
0.0
  0
LINE
  5
E214
330
E1E4
100
AcDbEntity
  8
0
  6
CONTINUOUS
100
AcDbLine
 10
7.608097148725479
 20
1.879296685903281
 30
0.0
 11
6.53255635112961
 21
2.95483748349915
 31
0.0
  0
LINE
  5
E215
330
E1E4
100
AcDbEntity
  8
0
  6
CONTINUOUS
100
AcDbLine
 10
7.816337249537808
 20
2.344575794171138
 30
0.0
 11
6.740738928861345
 21
3.420174114847601
 31
0.0
  0
LINE
  5
E216
330
E1E4
100
AcDbEntity
  8
0
  6
CONTINUOUS
100
AcDbLine
 10
3.310241080789734
 20
4.830114335678653
 30
0.0
 11
2.298470085204666
 21
5.84188533126372
 31
0.0
  0
LINE
  5
E217
330
E1E4
100
AcDbEntity
  8
0
  6
CONTINUOUS
100
AcDbLine
 10
3.60832983563551
 20
5.205544789913063
 30
0.0
 11
2.596566649299935
 21
6.217307976248638
 31
0.0
  0
LINE
  5
E218
330
E1E4
100
AcDbEntity
  8
0
  6
CONTINUOUS
100
AcDbLine
 10
3.906418590481286
 20
5.580975244147473
 30
0.0
 11
2.894663213395203
 21
6.592730621233557
 31
0.0
  0
LINE
  5
E219
330
E1E4
100
AcDbEntity
  8
0
  6
CONTINUOUS
100
AcDbLine
 10
4.204507345327062
 20
5.956405698381884
 30
0.0
 11
3.192759777490472
 21
6.968153266218474
 31
0.0
  0
LINE
  5
E21A
330
E1E4
100
AcDbEntity
  8
0
  6
CONTINUOUS
100
AcDbLine
 10
8.466032252791512
 20
2.368399999997621
 30
0.0
 11
6.948921506593081
 21
3.885510746196053
 31
0.0
  0
LINE
  5
E21B
330
E1E4
100
AcDbEntity
  8
0
  6
CONTINUOUS
100
AcDbLine
 10
9.139551461871699
 20
2.36839999999762
 30
0.0
 11
7.157104084324816
 21
4.350847377544504
 31
0.0
  0
LINE
  5
E21C
330
E1E4
100
AcDbEntity
  8
0
  6
CONTINUOUS
100
AcDbLine
 10
4.502596100172839
 20
6.331836152616295
 30
0.0
 11
3.49085634158574
 21
7.343575911203393
 31
0.0
  0
LINE
  5
E21D
330
E1E4
100
AcDbEntity
  8
0
  6
CONTINUOUS
100
AcDbLine
 10
4.800684855018615
 20
6.707266606850705
 30
0.0
 11
3.788952905681008
 21
7.718998556188312
 31
0.0
  0
LINE
  5
E21E
330
E1E4
100
AcDbEntity
  8
0
  6
CONTINUOUS
100
AcDbLine
 10
12.18154012887317
 20
-0.0000694579236642
 30
0.0
 11
11.32140332908496
 21
0.8600673418645499
 31
0.0
  0
LINE
  5
E21F
330
E1E4
100
AcDbEntity
  8
0
  6
CONTINUOUS
100
AcDbLine
 10
12.85501608323566
 20
-0.0000262032059659
 30
0.0
 11
10.77672456435345
 21
2.078265315676246
 31
0.0
  0
LINE
  5
E220
330
E1E4
100
AcDbEntity
  8
0
  6
CONTINUOUS
100
AcDbLine
 10
9.813070670951886
 20
2.36839999999762
 30
0.0
 11
8.51047067095321
 21
3.670999999996297
 31
0.0
  0
LINE
  5
E221
330
E1E4
100
AcDbEntity
  8
0
  6
CONTINUOUS
100
AcDbLine
 10
10.48658988003207
 20
2.36839999999762
 30
0.0
 11
9.183989880033396
 21
3.670999999996297
 31
0.0
  0
LINE
  5
E222
330
E1E4
100
AcDbEntity
  8
0
  6
CONTINUOUS
100
AcDbLine
 10
8.441048632286794
 20
3.740422038662712
 30
0.0
 11
7.365286662056551
 21
4.816184008892956
 31
0.0
  0
LINE
  5
E223
330
E1E4
100
AcDbEntity
  8
0
  6
CONTINUOUS
100
AcDbLine
 10
8.649187485808454
 20
4.205802394221237
 30
0.0
 11
7.573469239788285
 21
5.281520640241407
 31
0.0
  0
LINE
  5
E224
330
E1E4
100
AcDbEntity
  8
0
  6
CONTINUOUS
100
AcDbLine
 10
5.098773609864391
 20
7.082697061085115
 30
0.0
 11
4.087049469776277
 21
8.09442120117323
 31
0.0
  0
LINE
  5
E225
330
E1E4
100
AcDbEntity
  8
0
  6
CONTINUOUS
100
AcDbLine
 10
5.396862364710167
 20
7.458127515319526
 30
0.0
 11
4.385146033871544
 21
8.469843846158149
 31
0.0
  0
LINE
  5
E226
330
E1E4
100
AcDbEntity
  8
0
  6
CONTINUOUS
100
AcDbLine
 10
13.04801363231285
 20
0.4804954567970334
 30
0.0
 11
9.85750908911358
 21
3.670999999996297
 31
0.0
  0
LINE
  5
E227
330
E1E4
100
AcDbEntity
  8
0
  6
CONTINUOUS
100
AcDbLine
 10
8.857326339330116
 20
4.671182749779763
 30
0.0
 11
7.781651817520021
 21
5.746857271589858
 31
0.0
  0
LINE
  5
E228
330
E1E4
100
AcDbEntity
  8
0
  6
CONTINUOUS
100
AcDbLine
 10
5.694951119555943
 20
7.833557969553937
 30
0.0
 11
4.765409089118624
 21
8.763099999991255
 31
0.0
  0
LINE
  5
E229
330
E1E4
100
AcDbEntity
  8
0
  6
CONTINUOUS
100
AcDbLine
 10
12.50286117236978
 20
1.699167125820288
 30
0.0
 11
9.68611877250287
 21
4.515909525687196
 31
0.0
  0
LINE
  5
E22A
330
E1E4
100
AcDbEntity
  8
0
  6
CONTINUOUS
100
AcDbLine
 10
9.065465192851777
 20
5.136563105338288
 30
0.0
 11
7.989834395251757
 21
6.21219390293831
 31
0.0
  0
LINE
  5
E22B
330
E1E4
100
AcDbEntity
  8
0
  6
CONTINUOUS
100
AcDbLine
 10
5.993039874401719
 20
8.208988423788346
 30
0.0
 11
5.43892829819881
 21
8.763099999991255
 31
0.0
  0
LINE
  5
E22C
330
E1E4
100
AcDbEntity
  8
0
  6
CONTINUOUS
100
AcDbLine
 10
11.95770871242671
 20
2.917838794843543
 30
0.0
 11
8.19801697298349
 21
6.677530534286761
 31
0.0
  0
LINE
  5
E22D
330
E1E4
100
AcDbEntity
  8
0
  6
CONTINUOUS
100
AcDbLine
 10
6.291128629247495
 20
8.584418878022756
 30
0.0
 11
6.112447507278997
 21
8.763099999991255
 31
0.0
  0
LINE
  5
E22E
330
E1E4
100
AcDbEntity
  8
0
  6
CONTINUOUS
100
AcDbLine
 10
11.41255625248364
 20
4.136510463866797
 30
0.0
 11
8.406199550715227
 21
7.142867165635211
 31
0.0
  0
LINE
  5
E22F
330
E1E4
100
AcDbEntity
  8
0
  6
CONTINUOUS
100
AcDbLine
 10
10.86740379254057
 20
5.355182132890051
 30
0.0
 11
8.614382128446962
 21
7.608203796983664
 31
0.0
  0
LINE
  5
E230
330
E1E4
100
AcDbEntity
  8
0
  6
CONTINUOUS
100
AcDbLine
 10
10.3222513325975
 20
6.573853801913305
 30
0.0
 11
8.822564706178696
 21
8.073540428332114
 31
0.0
  0
LINE
  5
E231
330
E1E4
100
AcDbEntity
  8
0
  6
CONTINUOUS
100
AcDbLine
 10
9.777098872654436
 20
7.792525470936562
 30
0.0
 11
9.030747283910433
 21
8.538877059680566
 31
0.0
  0
ENDBLK
  5
E373
330
E1E4
100
AcDbEntity
  8
0
100
AcDbBlockEnd
  0
BLOCK
  5
E374
330
E232
100
AcDbEntity
  8
0
100
AcDbBlockBegin
  2
*X145
 70
     1
 10
0.0
 20
0.0
 30
0.0
  3
*X145
  1

  0
LINE
  5
E233
330
E232
100
AcDbEntity
  8
0
  6
CONTINUOUS
100
AcDbLine
 10
10.67292308101235
 20
8.445076852443387
 30
0.0
 11
10.99094622856022
 21
8.763099999991255
 31
0.0
  0
LINE
  5
E234
330
E232
100
AcDbEntity
  8
0
  6
CONTINUOUS
100
AcDbLine
 10
10.87250383178748
 20
7.971138394138331
 30
0.0
 11
11.6644654376404
 21
8.763099999991255
 31
0.0
  0
LINE
  5
E235
330
E232
100
AcDbEntity
  8
0
  6
CONTINUOUS
100
AcDbLine
 10
11.07208458256261
 20
7.497199935833273
 30
0.0
 11
12.12126590876355
 21
8.546381262034211
 31
0.0
  0
LINE
  5
E236
330
E232
100
AcDbEntity
  8
0
  6
CONTINUOUS
100
AcDbLine
 10
11.27166533333774
 20
7.023261477528216
 30
0.0
 11
12.32085164573666
 21
8.072447789927136
 31
0.0
  0
LINE
  5
E237
330
E232
100
AcDbEntity
  8
0
  6
CONTINUOUS
100
AcDbLine
 10
11.47124608411287
 20
6.549323019223158
 30
0.0
 11
12.52043738270977
 21
7.59851431782006
 31
0.0
  0
LINE
  5
E238
330
E232
100
AcDbEntity
  8
0
  6
CONTINUOUS
100
AcDbLine
 10
11.670826834888
 20
6.075384560918101
 30
0.0
 11
12.72002311968288
 21
7.124580845712984
 31
0.0
  0
LINE
  5
E239
330
E232
100
AcDbEntity
  8
0
  6
CONTINUOUS
100
AcDbLine
 10
11.87040758566313
 20
5.601446102613043
 30
0.0
 11
12.91960885665599
 21
6.650647373605907
 31
0.0
  0
LINE
  5
E23A
330
E232
100
AcDbEntity
  8
0
  6
CONTINUOUS
100
AcDbLine
 10
12.06998833643825
 20
5.127507644307986
 30
0.0
 11
13.1191945936291
 21
6.176713901498832
 31
0.0
  0
LINE
  5
E23B
330
E232
100
AcDbEntity
  8
0
  6
CONTINUOUS
100
AcDbLine
 10
12.26956908721338
 20
4.65356918600293
 30
0.0
 11
13.31878033060221
 21
5.702780429391757
 31
0.0
  0
LINE
  5
E23C
330
E232
100
AcDbEntity
  8
0
  6
CONTINUOUS
100
AcDbLine
 10
12.46914983798851
 20
4.179630727697873
 30
0.0
 11
13.51836606757532
 21
5.228846957284683
 31
0.0
  0
LINE
  5
E23D
330
E232
100
AcDbEntity
  8
0
  6
CONTINUOUS
100
AcDbLine
 10
12.66873058876364
 20
3.705692269392816
 30
0.0
 11
13.71795180454843
 21
4.754913485177607
 31
0.0
  0
LINE
  5
E23E
330
E232
100
AcDbEntity
  8
0
  6
CONTINUOUS
100
AcDbLine
 10
12.86831133953877
 20
3.231753811087759
 30
0.0
 11
13.91753754152154
 21
4.280980013070531
 31
0.0
  0
LINE
  5
E23F
330
E232
100
AcDbEntity
  8
0
  6
CONTINUOUS
100
AcDbLine
 10
13.0678920903139
 20
2.757815352782702
 30
0.0
 11
14.11712327849465
 21
3.807046540963456
 31
0.0
  0
LINE
  5
E240
330
E232
100
AcDbEntity
  8
0
  6
CONTINUOUS
100
AcDbLine
 10
13.26747284108903
 20
2.283876894477644
 30
0.0
 11
14.31670901546777
 21
3.333113068856379
 31
0.0
  0
LINE
  5
E241
330
E232
100
AcDbEntity
  8
0
  6
CONTINUOUS
100
AcDbLine
 10
16.36767838827179
 20
8.751678487061342
 30
0.0
 11
16.50332410898388
 21
8.887324207773432
 31
0.0
  0
LINE
  5
E242
330
E232
100
AcDbEntity
  8
0
  6
CONTINUOUS
100
AcDbLine
 10
15.96190732182191
 20
7.67238821153127
 30
0.0
 11
16.68735328004734
 21
8.397834169756699
 31
0.0
  0
LINE
  5
E243
330
E232
100
AcDbEntity
  8
0
  6
CONTINUOUS
100
AcDbLine
 10
15.55613625537202
 20
6.593097936001196
 30
0.0
 11
16.87138245111079
 21
7.908344131739965
 31
0.0
  0
LINE
  5
E244
330
E232
100
AcDbEntity
  8
0
  6
CONTINUOUS
100
AcDbLine
 10
15.15036518892213
 20
5.513807660471122
 30
0.0
 11
17.05541162217424
 21
7.418854093723231
 31
0.0
  0
LINE
  5
E245
330
E232
100
AcDbEntity
  8
0
  6
CONTINUOUS
100
AcDbLine
 10
14.74459412247225
 20
4.434517384941048
 30
0.0
 11
17.2394407932377
 21
6.929364055706499
 31
0.0
  0
LINE
  5
E246
330
E232
100
AcDbEntity
  8
0
  6
CONTINUOUS
100
AcDbLine
 10
14.33882305602236
 20
3.355227109410975
 30
0.0
 11
17.42346996430115
 21
6.439874017689766
 31
0.0
  0
LINE
  5
E247
330
E232
100
AcDbEntity
  8
0
  6
CONTINUOUS
100
AcDbLine
 10
13.46705359186416
 20
1.809938436172586
 30
0.0
 11
16.0819338255367
 21
4.424818669845129
 31
0.0
  0
LINE
  5
E248
330
E232
100
AcDbEntity
  8
0
  6
CONTINUOUS
100
AcDbLine
 10
16.63283254238972
 20
4.975717386698149
 30
0.0
 11
17.60749913536461
 21
5.950383979673033
 31
0.0
  0
LINE
  5
E249
330
E232
100
AcDbEntity
  8
0
  6
CONTINUOUS
100
AcDbLine
 10
13.66663434263929
 20
1.335999977867529
 30
0.0
 11
15.67604797733754
 21
3.345413612565779
 31
0.0
  0
LINE
  5
E24A
330
E232
100
AcDbEntity
  8
0
  6
CONTINUOUS
100
AcDbLine
 10
13.86621509341442
 20
0.8620615195624723
 30
0.0
 11
15.27016212913838
 21
2.26600855528643
 31
0.0
  0
LINE
  5
E24B
330
E232
100
AcDbEntity
  8
0
  6
CONTINUOUS
100
AcDbLine
 10
16.81682257348267
 20
4.486188208710908
 30
0.0
 11
17.79152830642806
 21
5.460893941656299
 31
0.0
  0
LINE
  5
E24C
330
E232
100
AcDbEntity
  8
0
  6
CONTINUOUS
100
AcDbLine
 10
17.00081260457561
 20
3.996659030723667
 30
0.0
 11
17.97555747749151
 21
4.971403903639565
 31
0.0
  0
LINE
  5
E24D
330
E232
100
AcDbEntity
  8
0
  6
CONTINUOUS
100
AcDbLine
 10
20.74362343514722
 20
8.412989070375462
 30
0.0
 11
21.09373436476302
 21
8.763099999991256
 31
0.0
  0
LINE
  5
E24E
330
E232
100
AcDbEntity
  8
0
  6
CONTINUOUS
100
AcDbLine
 10
20.25401257174777
 20
7.249858997895826
 30
0.0
 11
21.7672535738432
 21
8.763099999991255
 31
0.0
  0
LINE
  5
E24F
330
E232
100
AcDbEntity
  8
0
  6
CONTINUOUS
100
AcDbLine
 10
14.06579584418955
 20
0.3881230612574149
 30
0.0
 11
14.86427628093921
 21
1.186603498007082
 31
0.0
  0
LINE
  5
E250
330
E232
100
AcDbEntity
  8
0
  6
CONTINUOUS
100
AcDbLine
 10
14.26537659496467
 20
-0.0858153970476412
 30
0.0
 11
14.45839043274005
 21
0.1071984407277329
 31
0.0
  0
LINE
  5
E251
330
E232
100
AcDbEntity
  8
0
  6
CONTINUOUS
100
AcDbLine
 10
17.18480263566856
 20
3.507129852736426
 30
0.0
 11
18.15958664855496
 21
4.481913865622833
 31
0.0
  0
LINE
  5
E252
330
E232
100
AcDbEntity
  8
0
  6
CONTINUOUS
100
AcDbLine
 10
17.3687926667615
 20
3.017600674749186
 30
0.0
 11
18.34361581961842
 21
3.9924238276061
 31
0.0
  0
LINE
  5
E253
330
E232
100
AcDbEntity
  8
0
  6
CONTINUOUS
100
AcDbLine
 10
19.76440170834832
 20
6.086728925416191
 30
0.0
 11
22.33924590259489
 21
8.661573119662755
 31
0.0
  0
LINE
  5
E254
330
E232
100
AcDbEntity
  8
0
  6
CONTINUOUS
100
AcDbLine
 10
19.27479084494887
 20
4.923598852936555
 30
0.0
 11
21.84929622842713
 21
7.498104236414807
 31
0.0
  0
LINE
  5
E255
330
E232
100
AcDbEntity
  8
0
  6
CONTINUOUS
100
AcDbLine
 10
17.55278269785445
 20
2.528071496761945
 30
0.0
 11
18.52764499068187
 21
3.502933789589366
 31
0.0
  0
LINE
  5
E256
330
E232
100
AcDbEntity
  8
0
  6
CONTINUOUS
100
AcDbLine
 10
18.78517998154942
 20
3.760468780456919
 30
0.0
 11
21.35934655425936
 21
6.33463535316686
 31
0.0
  0
LINE
  5
E257
330
E232
100
AcDbEntity
  8
0
  6
CONTINUOUS
100
AcDbLine
 10
17.73677272894739
 20
2.038542318774704
 30
0.0
 11
20.8693968800916
 21
5.171166469918914
 31
0.0
  0
LINE
  5
E258
330
E232
100
AcDbEntity
  8
0
  6
CONTINUOUS
100
AcDbLine
 10
17.92076276004034
 20
1.549013140787464
 30
0.0
 11
20.37944720592384
 21
4.007697586670968
 31
0.0
  0
LINE
  5
E259
330
E232
100
AcDbEntity
  8
0
  6
CONTINUOUS
100
AcDbLine
 10
18.10475279113329
 20
1.059483962800223
 30
0.0
 11
19.88949753175608
 21
2.84422870342302
 31
0.0
  0
LINE
  5
E25A
330
E232
100
AcDbEntity
  8
0
  6
CONTINUOUS
100
AcDbLine
 10
18.28874282222623
 20
0.5699547848129822
 30
0.0
 11
19.39954785758832
 21
1.680759820175074
 31
0.0
  0
LINE
  5
E25B
330
E232
100
AcDbEntity
  8
0
  6
CONTINUOUS
100
AcDbLine
 10
18.47273285331918
 20
0.0804256068257416
 30
0.0
 11
18.90959818342056
 21
0.517290936927127
 31
0.0
  0
LINE
  5
E25C
330
E232
100
AcDbEntity
  8
0
  6
CONTINUOUS
100
AcDbLine
 10
14.3590401358224
 20
-0.1570118376323384
 30
0.0
 11
14.24903296539946
 21
-0.0470046672093929
 31
0.0
  0
LINE
  5
E25D
330
E232
100
AcDbEntity
  8
0
  6
CONTINUOUS
100
AcDbLine
 10
14.54309291258661
 20
0.332454594683643
 30
0.0
 11
13.75908329123172
 21
1.116464216038529
 31
0.0
  0
LINE
  5
E25E
330
E232
100
AcDbEntity
  8
0
  6
CONTINUOUS
100
AcDbLine
 10
14.72714568935081
 20
0.8219210269996244
 30
0.0
 11
13.26913361706399
 21
2.27993309928645
 31
0.0
  0
LINE
  5
E25F
330
E232
100
AcDbEntity
  8
0
  6
CONTINUOUS
100
AcDbLine
 10
14.91119846611502
 20
1.311387459315606
 30
0.0
 11
12.77918394289625
 21
3.443401982534371
 31
0.0
  0
LINE
  5
E260
330
E232
100
AcDbEntity
  8
0
  6
CONTINUOUS
100
AcDbLine
 10
15.09525124287922
 20
1.800853891631587
 30
0.0
 11
12.28923426872852
 21
4.606870865782293
 31
0.0
  0
LINE
  5
E261
330
E232
100
AcDbEntity
  8
0
  6
CONTINUOUS
100
AcDbLine
 10
15.27930401964343
 20
2.290320323947569
 30
0.0
 11
11.79928459456078
 21
5.770339749030213
 31
0.0
  0
LINE
  5
E262
330
E232
100
AcDbEntity
  8
0
  6
CONTINUOUS
100
AcDbLine
 10
15.46335679640763
 20
2.77978675626355
 30
0.0
 11
14.48885470994921
 21
3.754288842721972
 31
0.0
  0
LINE
  5
E263
330
E232
100
AcDbEntity
  8
0
  6
CONTINUOUS
100
AcDbLine
 10
13.88507249233704
 20
4.358071060334137
 30
0.0
 11
11.30933492039305
 21
6.933808632278135
 31
0.0
  0
LINE
  5
E264
330
E232
100
AcDbEntity
  8
0
  6
CONTINUOUS
100
AcDbLine
 10
18.75840522805855
 20
0.1582575336928151
 30
0.0
 11
18.25383727664818
 21
0.6628254851031863
 31
0.0
  0
LINE
  5
E265
330
E232
100
AcDbEntity
  8
0
  6
CONTINUOUS
100
AcDbLine
 10
15.64740957317184
 20
3.269253188579531
 30
0.0
 11
14.67288388101266
 21
4.243778880738705
 31
0.0
  0
LINE
  5
E266
330
E232
100
AcDbEntity
  8
0
  6
CONTINUOUS
100
AcDbLine
 10
13.39509276772158
 20
5.521569994029786
 30
0.0
 11
10.81938524622531
 21
8.097277515526056
 31
0.0
  0
LINE
  5
E267
330
E232
100
AcDbEntity
  8
0
  6
CONTINUOUS
100
AcDbLine
 10
18.95798597883369
 20
0.6321959919978686
 30
0.0
 11
17.84825644852853
 21
1.741925522303024
 31
0.0
  0
LINE
  5
E268
330
E232
100
AcDbEntity
  8
0
  6
CONTINUOUS
100
AcDbLine
 10
19.15756672960882
 20
1.106134450302922
 30
0.0
 11
17.44267562040888
 21
2.821025559502861
 31
0.0
  0
LINE
  5
E269
330
E232
100
AcDbEntity
  8
0
  6
CONTINUOUS
100
AcDbLine
 10
15.83146234993604
 20
3.758719620895513
 30
0.0
 11
14.85691305207612
 21
4.733268918755439
 31
0.0
  0
LINE
  5
E26A
330
E232
100
AcDbEntity
  8
0
  6
CONTINUOUS
100
AcDbLine
 10
16.01551512670025
 20
4.248186053211494
 30
0.0
 11
15.04094222313957
 21
5.222758956772172
 31
0.0
  0
LINE
  5
E26B
330
E232
100
AcDbEntity
  8
0
  6
CONTINUOUS
100
AcDbLine
 10
12.90511304310612
 20
6.685068927725435
 30
0.0
 11
10.8270819708403
 21
8.763099999991255
 31
0.0
  0
LINE
  5
E26C
330
E232
100
AcDbEntity
  8
0
  6
CONTINUOUS
100
AcDbLine
 10
12.41513331849066
 20
7.848567861421083
 30
0.0
 11
11.50060117992049
 21
8.763099999991255
 31
0.0
  0
LINE
  5
E26D
330
E232
100
AcDbEntity
  8
0
  6
CONTINUOUS
100
AcDbLine
 10
19.35714748038395
 20
1.580072908607975
 30
0.0
 11
17.03709479228923
 21
3.900125596702697
 31
0.0
  0
LINE
  5
E26E
330
E232
100
AcDbEntity
  8
0
  6
CONTINUOUS
100
AcDbLine
 10
19.55672823115909
 20
2.054011366913028
 30
0.0
 11
16.63151396416958
 21
4.979225633902534
 31
0.0
  0
LINE
  5
E26F
330
E232
100
AcDbEntity
  8
0
  6
CONTINUOUS
100
AcDbLine
 10
16.19956790346445
 20
4.737652485527476
 30
0.0
 11
15.22497139420302
 21
5.712248994788904
 31
0.0
  0
LINE
  5
E270
330
E232
100
AcDbEntity
  8
0
  6
CONTINUOUS
100
AcDbLine
 10
16.38362068022866
 20
5.227118917843457
 30
0.0
 11
15.40900056526648
 21
6.201739032805637
 31
0.0
  0
LINE
  5
E271
330
E232
100
AcDbEntity
  8
0
  6
CONTINUOUS
100
AcDbLine
 10
19.75630898193422
 20
2.527949825218081
 30
0.0
 11
18.70774536448286
 21
3.576513442669441
 31
0.0
  0
LINE
  5
E272
330
E232
100
AcDbEntity
  8
0
  6
CONTINUOUS
100
AcDbLine
 10
19.95588973270936
 20
3.001888283523134
 30
0.0
 11
18.90726987211446
 21
4.050508144118028
 31
0.0
  0
LINE
  5
E273
330
E232
100
AcDbEntity
  8
0
  6
CONTINUOUS
100
AcDbLine
 10
20.15547048348449
 20
3.475826741828186
 30
0.0
 11
19.10679437974606
 21
4.524502845566614
 31
0.0
  0
LINE
  5
E274
330
E232
100
AcDbEntity
  8
0
  6
CONTINUOUS
100
AcDbLine
 10
20.35505123425962
 20
3.94976520013324
 30
0.0
 11
19.30631888737766
 21
4.998497547015201
 31
0.0
  0
LINE
  5
E275
330
E232
100
AcDbEntity
  8
0
  6
CONTINUOUS
100
AcDbLine
 10
20.55463198503475
 20
4.423703658438292
 30
0.0
 11
19.50584339500926
 21
5.472492248463787
 31
0.0
  0
LINE
  5
E276
330
E232
100
AcDbEntity
  8
0
  6
CONTINUOUS
100
AcDbLine
 10
18.37481191085755
 20
3.909446896294752
 30
0.0
 11
15.59302973632993
 21
6.691229070822371
 31
0.0
  0
LINE
  5
E277
330
E232
100
AcDbEntity
  8
0
  6
CONTINUOUS
100
AcDbLine
 10
17.96904084440766
 20
4.988737171824825
 30
0.0
 11
15.77705890739338
 21
7.180719108839104
 31
0.0
  0
LINE
  5
E278
330
E232
100
AcDbEntity
  8
0
  6
CONTINUOUS
100
AcDbLine
 10
17.56326977795777
 20
6.068027447354899
 30
0.0
 11
15.96108807845684
 21
7.670209146855838
 31
0.0
  0
LINE
  5
E279
330
E232
100
AcDbEntity
  8
0
  6
CONTINUOUS
100
AcDbLine
 10
17.15749871150789
 20
7.147317722884972
 30
0.0
 11
16.14511724952029
 21
8.15969918487257
 31
0.0
  0
LINE
  5
E27A
330
E232
100
AcDbEntity
  8
0
  6
CONTINUOUS
100
AcDbLine
 10
16.751727645058
 20
8.226607998415046
 30
0.0
 11
16.32914642058374
 21
8.649189222889303
 31
0.0
  0
LINE
  5
E27B
330
E232
100
AcDbEntity
  8
0
  6
CONTINUOUS
100
AcDbLine
 10
20.75421273580989
 20
4.897642116743345
 30
0.0
 11
19.70536790264086
 21
5.946486949912374
 31
0.0
  0
LINE
  5
E27C
330
E232
100
AcDbEntity
  8
0
  6
CONTINUOUS
100
AcDbLine
 10
20.95379348658502
 20
5.371580575048398
 30
0.0
 11
19.90489241027246
 21
6.42048165136096
 31
0.0
  0
LINE
  5
E27D
330
E232
100
AcDbEntity
  8
0
  6
CONTINUOUS
100
AcDbLine
 10
21.15337423736015
 20
5.845519033353452
 30
0.0
 11
20.10441691790406
 21
6.894476352809547
 31
0.0
  0
LINE
  5
E27E
330
E232
100
AcDbEntity
  8
0
  6
CONTINUOUS
100
AcDbLine
 10
21.35295498813529
 20
6.319457491658505
 30
0.0
 11
20.30394142553566
 21
7.368471054258134
 31
0.0
  0
LINE
  5
E27F
330
E232
100
AcDbEntity
  8
0
  6
CONTINUOUS
100
AcDbLine
 10
21.55253573891042
 20
6.793395949963558
 30
0.0
 11
20.50346593316726
 21
7.842465755706721
 31
0.0
  0
LINE
  5
E280
330
E232
100
AcDbEntity
  8
0
  6
CONTINUOUS
100
AcDbLine
 10
21.75211648968556
 20
7.267334408268612
 30
0.0
 11
20.70299044079886
 21
8.316460457155308
 31
0.0
  0
LINE
  5
E281
330
E232
100
AcDbEntity
  8
0
  6
CONTINUOUS
100
AcDbLine
 10
21.95169724046069
 20
7.741272866573663
 30
0.0
 11
20.9298701070431
 21
8.763099999991256
 31
0.0
  0
LINE
  5
E282
330
E232
100
AcDbEntity
  8
0
  6
CONTINUOUS
100
AcDbLine
 10
22.15127799123582
 20
8.215211324878716
 30
0.0
 11
21.60338931612328
 21
8.763099999991256
 31
0.0
  0
LINE
  5
E283
330
E232
100
AcDbEntity
  8
0
  6
CONTINUOUS
100
AcDbLine
 10
22.35085874201096
 20
8.689149783183769
 30
0.0
 11
22.27690852520347
 21
8.763099999991255
 31
0.0
  0
ENDBLK
  5
E375
330
E232
100
AcDbEntity
  8
0
100
AcDbBlockEnd
  0
BLOCK
  5
E376
330
E284
100
AcDbEntity
  8
0
100
AcDbBlockBegin
  2
*X146
 70
     1
 10
0.0
 20
0.0
 30
0.0
  3
*X146
  1

  0
LINE
  5
E285
330
E284
100
AcDbEntity
  8
0
  6
CONTINUOUS
100
AcDbLine
 10
23.19462913593892
 20
8.169917934846424
 30
0.0
 11
23.70775465517246
 21
8.683043454079957
 31
0.0
  0
LINE
  5
E286
330
E284
100
AcDbEntity
  8
0
  6
CONTINUOUS
100
AcDbLine
 10
22.64923161835078
 20
6.951001208178088
 30
0.0
 11
23.9159364069932
 21
8.217705996820516
 31
0.0
  0
LINE
  5
E287
330
E284
100
AcDbEntity
  8
0
  6
CONTINUOUS
100
AcDbLine
 10
22.10383410076263
 20
5.732084481509751
 30
0.0
 11
24.12411815881395
 21
7.752368539561078
 31
0.0
  0
LINE
  5
E288
330
E284
100
AcDbEntity
  8
0
  6
CONTINUOUS
100
AcDbLine
 10
21.55843658317447
 20
4.513167754841414
 30
0.0
 11
24.3322999106347
 21
7.287031082301639
 31
0.0
  0
LINE
  5
E289
330
E284
100
AcDbEntity
  8
0
  6
CONTINUOUS
100
AcDbLine
 10
21.01303906558632
 20
3.294251028173077
 30
0.0
 11
24.54048166245544
 21
6.821693625042199
 31
0.0
  0
LINE
  5
E28A
330
E284
100
AcDbEntity
  8
0
  6
CONTINUOUS
100
AcDbLine
 10
20.46764154799817
 20
2.075334301504738
 30
0.0
 11
23.28571549467848
 21
4.89340824818505
 31
0.0
  0
LINE
  5
E28B
330
E284
100
AcDbEntity
  8
0
  6
CONTINUOUS
100
AcDbLine
 10
19.92224403041002
 20
0.8564175748364002
 30
0.0
 11
22.74075865492779
 21
3.674932199354171
 31
0.0
  0
LINE
  5
E28C
330
E284
100
AcDbEntity
  8
0
  6
CONTINUOUS
100
AcDbLine
 10
23.67305085490148
 20
5.280743608408048
 30
0.0
 11
24.74866341427619
 21
6.356356167782759
 31
0.0
  0
LINE
  5
E28D
330
E284
100
AcDbEntity
  8
0
  6
CONTINUOUS
100
AcDbLine
 10
23.88118970842314
 20
4.815363252849522
 30
0.0
 11
24.95684516609694
 21
5.89101871052332
 31
0.0
  0
LINE
  5
E28E
330
E284
100
AcDbEntity
  8
0
  6
CONTINUOUS
100
AcDbLine
 10
19.73925852647308
 20
-0.0000871381807288
 30
0.0
 11
23.4103456646501
 21
3.670999999996297
 31
0.0
  0
LINE
  5
E28F
330
E284
100
AcDbEntity
  8
0
  6
CONTINUOUS
100
AcDbLine
 10
24.0893285619448
 20
4.349982897290997
 30
0.0
 11
25.16502691791769
 21
5.42568125326388
 31
0.0
  0
LINE
  5
E290
330
E284
100
AcDbEntity
  8
0
  6
CONTINUOUS
100
AcDbLine
 10
20.41282099582748
 20
-0.0000438779065108
 30
0.0
 11
21.64944178675636
 21
1.236576913022366
 31
0.0
  0
LINE
  5
E291
330
E284
100
AcDbEntity
  8
0
  6
CONTINUOUS
100
AcDbLine
 10
22.78126487373161
 20
2.36839999999762
 30
0.0
 11
24.08386487373029
 21
3.670999999996297
 31
0.0
  0
LINE
  5
E292
330
E284
100
AcDbEntity
  8
0
  6
CONTINUOUS
100
AcDbLine
 10
24.29746741546646
 20
3.884602541732471
 30
0.0
 11
25.37320866973843
 21
4.960343796004441
 31
0.0
  0
LINE
  5
E293
330
E284
100
AcDbEntity
  8
0
  6
CONTINUOUS
100
AcDbLine
 10
21.08638346518189
 20
-0.0000006176322938
 30
0.0
 11
21.10379033335899
 21
0.0174062505448083
 31
0.0
  0
LINE
  5
E294
330
E284
100
AcDbEntity
  8
0
  6
CONTINUOUS
100
AcDbLine
 10
23.4547840828118
 20
2.36839999999762
 30
0.0
 11
25.58139042155918
 21
4.495006338745002
 31
0.0
  0
LINE
  5
E295
330
E284
100
AcDbEntity
  8
0
  6
CONTINUOUS
100
AcDbLine
 10
29.30199999996933
 20
8.215615917155148
 30
0.0
 11
29.84948408280543
 21
8.763099999991255
 31
0.0
  0
LINE
  5
E296
330
E284
100
AcDbEntity
  8
0
  6
CONTINUOUS
100
AcDbLine
 10
24.12830329189199
 20
2.36839999999762
 30
0.0
 11
25.78957217337993
 21
4.029668881485562
 31
0.0
  0
LINE
  5
E297
330
E284
100
AcDbEntity
  8
0
  6
CONTINUOUS
100
AcDbLine
 10
29.30199999996933
 20
7.54209670807496
 30
0.0
 11
30.52300329188562
 21
8.763099999991255
 31
0.0
  0
LINE
  5
E298
330
E284
100
AcDbEntity
  8
0
  6
CONTINUOUS
100
AcDbLine
 10
24.80182250097217
 20
2.36839999999762
 30
0.0
 11
25.99775392520067
 21
3.564331424226122
 31
0.0
  0
LINE
  5
E299
330
E284
100
AcDbEntity
  8
0
  6
CONTINUOUS
100
AcDbLine
 10
29.30199999996933
 20
6.868577498994774
 30
0.0
 11
30.74199999996926
 21
8.308577498994712
 31
0.0
  0
LINE
  5
E29A
330
E284
100
AcDbEntity
  8
0
  6
CONTINUOUS
100
AcDbLine
 10
25.13028238392013
 20
2.023340673865392
 30
0.0
 11
26.20593567702142
 21
3.098993966966683
 31
0.0
  0
LINE
  5
E29B
330
E284
100
AcDbEntity
  8
0
  6
CONTINUOUS
100
AcDbLine
 10
25.33838066033617
 20
1.557919741201244
 30
0.0
 11
26.41411742884217
 21
2.633656509707244
 31
0.0
  0
LINE
  5
E29C
330
E284
100
AcDbEntity
  8
0
  6
CONTINUOUS
100
AcDbLine
 10
25.54647893675221
 20
1.092498808537098
 30
0.0
 11
26.62229918066291
 21
2.168319052447804
 31
0.0
  0
LINE
  5
E29D
330
E284
100
AcDbEntity
  8
0
  6
CONTINUOUS
100
AcDbLine
 10
25.75457721316825
 20
0.62707787587295
 30
0.0
 11
26.83048093248366
 21
1.702981595188365
 31
0.0
  0
LINE
  5
E29E
330
E284
100
AcDbEntity
  8
0
  6
CONTINUOUS
100
AcDbLine
 10
29.30199999996933
 20
6.195058289914587
 30
0.0
 11
30.74199999996926
 21
7.635058289914522
 31
0.0
  0
LINE
  5
E29F
330
E284
100
AcDbEntity
  8
0
  6
CONTINUOUS
100
AcDbLine
 10
29.30199999996933
 20
5.521539080834401
 30
0.0
 11
30.74199999996926
 21
6.961539080834331
 31
0.0
  0
LINE
  5
E2A0
330
E284
100
AcDbEntity
  8
0
  6
CONTINUOUS
100
AcDbLine
 10
29.30199999996933
 20
4.848019871754214
 30
0.0
 11
30.74199999996925
 21
6.288019871754143
 31
0.0
  0
LINE
  5
E2A1
330
E284
100
AcDbEntity
  8
0
  6
CONTINUOUS
100
AcDbLine
 10
29.30199999996933
 20
4.174500662674028
 30
0.0
 11
30.74199999996925
 21
5.614500662673953
 31
0.0
  0
LINE
  5
E2A2
330
E284
100
AcDbEntity
  8
0
  6
CONTINUOUS
100
AcDbLine
 10
25.96267548958429
 20
0.1616569432088024
 30
0.0
 11
27.18411854636669
 21
1.383099999991207
 31
0.0
  0
LINE
  5
E2A3
330
E284
100
AcDbEntity
  8
0
  6
CONTINUOUS
100
AcDbLine
 10
29.30199999996933
 20
3.500981453593841
 30
0.0
 11
30.74199999996925
 21
4.940981453593762
 31
0.0
  0
LINE
  5
E2A4
330
E284
100
AcDbEntity
  8
0
  6
CONTINUOUS
100
AcDbLine
 10
26.50763775544691
 20
0.0330999999912356
 30
0.0
 11
27.85763775544689
 21
1.383099999991223
 31
0.0
  0
LINE
  5
E2A5
330
E284
100
AcDbEntity
  8
0
  6
CONTINUOUS
100
AcDbLine
 10
29.30199999996933
 20
2.827462244513656
 30
0.0
 11
30.74199999996925
 21
4.267462244513574
 31
0.0
  0
LINE
  5
E2A6
330
E284
100
AcDbEntity
  8
0
  6
CONTINUOUS
100
AcDbLine
 10
27.18115696452709
 20
0.0330999999912356
 30
0.0
 11
28.55073879889363
 21
1.402681834357775
 31
0.0
  0
LINE
  5
E2A7
330
E284
100
AcDbEntity
  8
0
  6
CONTINUOUS
100
AcDbLine
 10
29.28241816560272
 20
2.134361201066866
 30
0.0
 11
30.74199999996924
 21
3.593943035433383
 31
0.0
  0
LINE
  5
E2A8
330
E284
100
AcDbEntity
  8
0
  6
CONTINUOUS
100
AcDbLine
 10
27.85467617360728
 20
0.0330999999912356
 30
0.0
 11
30.74199999996924
 21
2.920423826353195
 31
0.0
  0
LINE
  5
E2A9
330
E284
100
AcDbEntity
  8
0
  6
CONTINUOUS
100
AcDbLine
 10
28.53897559587887
 20
0.0438802131826428
 30
0.0
 11
30.73121978677781
 21
2.236124404081585
 31
0.0
  0
LINE
  5
E2AA
330
E284
100
AcDbEntity
  8
0
  6
CONTINUOUS
100
AcDbLine
 10
29.45140055588722
 20
0.2827859641107988
 30
0.0
 11
30.49231403584965
 21
1.323699444073236
 31
0.0
  0
LINE
  5
E2AB
330
E284
100
AcDbEntity
  8
0
  6
CONTINUOUS
100
AcDbLine
 10
19.59027867740337
 20
-0.0000967065718083
 30
0.0
 11
19.55485265190471
 21
0.035329318926844
 31
0.0
  0
LINE
  5
E2AC
330
E284
100
AcDbEntity
  8
0
  6
CONTINUOUS
100
AcDbLine
 10
20.26375463176586
 20
-0.0000534518541091
 30
0.0
 11
19.76305575737534
 21
0.5006454225364014
 31
0.0
  0
LINE
  5
E2AD
330
E284
100
AcDbEntity
  8
0
  6
CONTINUOUS
100
AcDbLine
 10
20.93723058612834
 20
-0.0000101971364099
 30
0.0
 11
19.97125886284597
 21
0.965961526145958
 31
0.0
  0
LINE
  5
E2AE
330
E284
100
AcDbEntity
  8
0
  6
CONTINUOUS
100
AcDbLine
 10
21.25514828313686
 20
0.355591314935257
 30
0.0
 11
20.1794619683166
 21
1.431277629755512
 31
0.0
  0
LINE
  5
E2AF
330
E284
100
AcDbEntity
  8
0
  6
CONTINUOUS
100
AcDbLine
 10
21.46338838394921
 20
0.8208704232030986
 30
0.0
 11
20.38766507378723
 21
1.896593733365069
 31
0.0
  0
LINE
  5
E2B0
330
E284
100
AcDbEntity
  8
0
  6
CONTINUOUS
100
AcDbLine
 10
21.67162848476155
 20
1.28614953147094
 30
0.0
 11
20.59586817925786
 21
2.361909836974626
 31
0.0
  0
LINE
  5
E2B1
330
E284
100
AcDbEntity
  8
0
  6
CONTINUOUS
100
AcDbLine
 10
21.8798685855739
 20
1.751428639738782
 30
0.0
 11
20.80407128472849
 21
2.827225940584183
 31
0.0
  0
LINE
  5
E2B2
330
E284
100
AcDbEntity
  8
0
  6
CONTINUOUS
100
AcDbLine
 10
22.08810868638624
 20
2.216707748006623
 30
0.0
 11
21.01227439019912
 21
3.292542044193739
 31
0.0
  0
LINE
  5
E2B3
330
E284
100
AcDbEntity
  8
0
  6
CONTINUOUS
100
AcDbLine
 10
22.60993564347543
 20
2.36839999999762
 30
0.0
 11
21.22047749566975
 21
3.757858147803296
 31
0.0
  0
LINE
  5
E2B4
330
E284
100
AcDbEntity
  8
0
  6
CONTINUOUS
100
AcDbLine
 10
23.28345485255561
 20
2.36839999999762
 30
0.0
 11
21.42868060114038
 21
4.223174251412853
 31
0.0
  0
LINE
  5
E2B5
330
E284
100
AcDbEntity
  8
0
  6
CONTINUOUS
100
AcDbLine
 10
26.29227406164219
 20
0.0330999999912356
 30
0.0
 11
25.80009199592872
 21
0.5252820657046957
 31
0.0
  0
LINE
  5
E2B6
330
E284
100
AcDbEntity
  8
0
  6
CONTINUOUS
100
AcDbLine
 10
23.9569740616358
 20
2.36839999999762
 30
0.0
 11
21.63688370661101
 21
4.688490355022409
 31
0.0
  0
LINE
  5
E2B7
330
E284
100
AcDbEntity
  8
0
  6
CONTINUOUS
100
AcDbLine
 10
26.96579327072237
 20
0.0330999999912356
 30
0.0
 11
25.2554132311971
 21
1.743480039516508
 31
0.0
  0
LINE
  5
E2B8
330
E284
100
AcDbEntity
  8
0
  6
CONTINUOUS
100
AcDbLine
 10
24.63049327071599
 20
2.36839999999762
 30
0.0
 11
23.32789327071731
 21
3.670999999996297
 31
0.0
  0
LINE
  5
E2B9
330
E284
100
AcDbEntity
  8
0
  6
CONTINUOUS
100
AcDbLine
 10
22.92098674744635
 20
4.077906523267254
 30
0.0
 11
21.84508681208164
 21
5.153806458631966
 31
0.0
  0
LINE
  5
E2BA
330
E284
100
AcDbEntity
  8
0
  6
CONTINUOUS
100
AcDbLine
 10
27.63931247980256
 20
0.0330999999912356
 30
0.0
 11
24.0014124797975
 21
3.670999999996297
 31
0.0
  0
LINE
  5
E2BB
330
E284
100
AcDbEntity
  8
0
  6
CONTINUOUS
100
AcDbLine
 10
23.129125600968
 20
4.5432868788258
 30
0.0
 11
22.05328991755227
 21
5.619122562241522
 31
0.0
  0
LINE
  5
E2BC
330
E284
100
AcDbEntity
  8
0
  6
CONTINUOUS
100
AcDbLine
 10
28.31283168888275
 20
0.0330999999912356
 30
0.0
 11
24.16488385994816
 21
4.181047828925828
 31
0.0
  0
LINE
  5
E2BD
330
E284
100
AcDbEntity
  8
0
  6
CONTINUOUS
100
AcDbLine
 10
23.33726445448964
 20
5.008667234384345
 30
0.0
 11
22.2614930230229
 21
6.084438665851079
 31
0.0
  0
LINE
  5
E2BE
330
E284
100
AcDbEntity
  8
0
  6
CONTINUOUS
100
AcDbLine
 10
28.92085740005492
 20
0.0985934978992438
 30
0.0
 11
27.63635089796295
 21
1.383099999991217
 31
0.0
  0
LINE
  5
E2BF
330
E284
100
AcDbEntity
  8
0
  6
CONTINUOUS
100
AcDbLine
 10
26.43704649509776
 20
2.582404402856405
 30
0.0
 11
23.61992702019732
 21
5.399523877756844
 31
0.0
  0
LINE
  5
E2C0
330
E284
100
AcDbEntity
  8
0
  6
CONTINUOUS
100
AcDbLine
 10
23.54540330801128
 20
5.47404758994289
 30
0.0
 11
22.46969612849353
 21
6.549754769460635
 31
0.0
  0
LINE
  5
E2C1
330
E284
100
AcDbEntity
  8
0
  6
CONTINUOUS
100
AcDbLine
 10
29.42225615078443
 20
0.2707139562499279
 30
0.0
 11
28.30987010704312
 21
1.383099999991234
 31
0.0
  0
LINE
  5
E2C2
330
E284
100
AcDbEntity
  8
0
  6
CONTINUOUS
100
AcDbLine
 10
25.89179548232307
 20
3.801174624711282
 30
0.0
 11
22.67789923396416
 21
7.015070873070191
 31
0.0
  0
LINE
  5
E2C3
330
E284
100
AcDbEntity
  8
0
  6
CONTINUOUS
100
AcDbLine
 10
29.83624534690007
 20
0.5302439692144705
 30
0.0
 11
28.85811781497101
 21
1.508371501143527
 31
0.0
  0
LINE
  5
E2C4
330
E284
100
AcDbEntity
  8
0
  6
CONTINUOUS
100
AcDbLine
 10
25.34654446954838
 20
5.01994484656616
 30
0.0
 11
22.88610233943479
 21
7.480386976679748
 31
0.0
  0
LINE
  5
E2C5
330
E284
100
AcDbEntity
  8
0
  6
CONTINUOUS
100
AcDbLine
 10
30.17865975401872
 20
0.8613487711760022
 30
0.0
 11
29.18888744090175
 21
1.851121084292977
 31
0.0
  0
LINE
  5
E2C6
330
E284
100
AcDbEntity
  8
0
  6
CONTINUOUS
100
AcDbLine
 10
24.80129345677369
 20
6.238715068421037
 30
0.0
 11
23.09430544490542
 21
7.945703080289305
 31
0.0
  0
LINE
  5
E2C7
330
E284
100
AcDbEntity
  8
0
  6
CONTINUOUS
100
AcDbLine
 10
30.45496647202376
 20
1.258561262251155
 30
0.0
 11
29.30199999996933
 21
2.411527734305588
 31
0.0
  0
LINE
  5
E2C8
330
E284
100
AcDbEntity
  8
0
  6
CONTINUOUS
100
AcDbLine
 10
24.256042443999
 20
7.457485290275915
 30
0.0
 11
23.30250855037605
 21
8.411019183898862
 31
0.0
  0
LINE
  5
E2C9
330
E284
100
AcDbEntity
  8
0
  6
CONTINUOUS
100
AcDbLine
 10
30.64868582078271
 20
1.738361122572387
 30
0.0
 11
29.30199999996933
 21
3.085046943385775
 31
0.0
  0
LINE
  5
E2CA
330
E284
100
AcDbEntity
  8
0
  6
CONTINUOUS
100
AcDbLine
 10
23.71079143122431
 20
8.676255512130794
 30
0.0
 11
23.51071165584668
 21
8.876335287508416
 31
0.0
  0
LINE
  5
E2CB
330
E284
100
AcDbEntity
  8
0
  6
CONTINUOUS
100
AcDbLine
 10
30.73802122914428
 20
2.322544923291007
 30
0.0
 11
29.30199999996933
 21
3.758566152465961
 31
0.0
  0
LINE
  5
E2CC
330
E284
100
AcDbEntity
  8
0
  6
CONTINUOUS
100
AcDbLine
 10
30.74199999996924
 20
2.992085361546236
 30
0.0
 11
29.30199999996933
 21
4.432085361546148
 31
0.0
  0
LINE
  5
E2CD
330
E284
100
AcDbEntity
  8
0
  6
CONTINUOUS
100
AcDbLine
 10
30.74199999996924
 20
3.665604570626419
 30
0.0
 11
29.30199999996933
 21
5.105604570626333
 31
0.0
  0
LINE
  5
E2CE
330
E284
100
AcDbEntity
  8
0
  6
CONTINUOUS
100
AcDbLine
 10
30.74199999996925
 20
4.339123779706602
 30
0.0
 11
29.30199999996933
 21
5.77912377970652
 31
0.0
  0
LINE
  5
E2CF
330
E284
100
AcDbEntity
  8
0
  6
CONTINUOUS
100
AcDbLine
 10
30.74199999996925
 20
5.012642988786785
 30
0.0
 11
29.30199999996933
 21
6.452642988786707
 31
0.0
  0
LINE
  5
E2D0
330
E284
100
AcDbEntity
  8
0
  6
CONTINUOUS
100
AcDbLine
 10
30.74199999996925
 20
5.68616219786697
 30
0.0
 11
29.30199999996933
 21
7.126162197866894
 31
0.0
  0
LINE
  5
E2D1
330
E284
100
AcDbEntity
  8
0
  6
CONTINUOUS
100
AcDbLine
 10
30.74199999996925
 20
6.359681406947153
 30
0.0
 11
29.30199999996933
 21
7.799681406947081
 31
0.0
  0
LINE
  5
E2D2
330
E284
100
AcDbEntity
  8
0
  6
CONTINUOUS
100
AcDbLine
 10
30.74199999996926
 20
7.033200616027337
 30
0.0
 11
29.30199999996933
 21
8.473200616027269
 31
0.0
  0
LINE
  5
E2D3
330
E284
100
AcDbEntity
  8
0
  6
CONTINUOUS
100
AcDbLine
 10
30.74199999996926
 20
7.706719825107518
 30
0.0
 11
29.68561982508552
 21
8.763099999991255
 31
0.0
  0
LINE
  5
E2D4
330
E284
100
AcDbEntity
  8
0
  6
CONTINUOUS
100
AcDbLine
 10
30.74199999996926
 20
8.380239034187703
 30
0.0
 11
30.35913903416571
 21
8.763099999991255
 31
0.0
  0
ENDBLK
  5
E377
330
E284
100
AcDbEntity
  8
0
100
AcDbBlockEnd
  0
BLOCK
  5
E378
330
E2D5
100
AcDbEntity
  8
0
100
AcDbBlockBegin
  2
*X147
 70
     1
 10
0.0
 20
0.0
 30
0.0
  3
*X147
  1

  0
LINE
  5
E2D6
330
E2D5
100
AcDbEntity
  8
0
  6
CONTINUOUS
100
AcDbLine
 10
31.64199999996833
 20
8.535058289913598
 30
0.0
 11
31.87004171004599
 21
8.763099999991255
 31
0.0
  0
LINE
  5
E2D7
330
E2D5
100
AcDbEntity
  8
0
  6
CONTINUOUS
100
AcDbLine
 10
31.64199999996833
 20
7.861539080833412
 30
0.0
 11
32.54356091912618
 21
8.763099999991255
 31
0.0
  0
LINE
  5
E2D8
330
E2D5
100
AcDbEntity
  8
0
  6
CONTINUOUS
100
AcDbLine
 10
31.64199999996833
 20
7.188019871753226
 30
0.0
 11
33.08199999996839
 21
8.628019871753281
 31
0.0
  0
LINE
  5
E2D9
330
E2D5
100
AcDbEntity
  8
0
  6
CONTINUOUS
100
AcDbLine
 10
31.64199999996833
 20
6.51450066267304
 30
0.0
 11
33.08199999996839
 21
7.954500662673095
 31
0.0
  0
LINE
  5
E2DA
330
E2D5
100
AcDbEntity
  8
0
  6
CONTINUOUS
100
AcDbLine
 10
31.64199999996833
 20
5.840981453592853
 30
0.0
 11
33.08199999996839
 21
7.280981453592908
 31
0.0
  0
LINE
  5
E2DB
330
E2D5
100
AcDbEntity
  8
0
  6
CONTINUOUS
100
AcDbLine
 10
31.64199999996833
 20
5.167462244512667
 30
0.0
 11
33.08199999996839
 21
6.607462244512721
 31
0.0
  0
LINE
  5
E2DC
330
E2D5
100
AcDbEntity
  8
0
  6
CONTINUOUS
100
AcDbLine
 10
31.64199999996833
 20
4.493943035432481
 30
0.0
 11
33.08199999996839
 21
5.933943035432535
 31
0.0
  0
LINE
  5
E2DD
330
E2D5
100
AcDbEntity
  8
0
  6
CONTINUOUS
100
AcDbLine
 10
31.64199999996833
 20
3.820423826352293
 30
0.0
 11
33.08199999996839
 21
5.260423826352348
 31
0.0
  0
LINE
  5
E2DE
330
E2D5
100
AcDbEntity
  8
0
  6
CONTINUOUS
100
AcDbLine
 10
31.64199999996833
 20
3.146904617272106
 30
0.0
 11
33.08199999996839
 21
4.586904617272161
 31
0.0
  0
LINE
  5
E2DF
330
E2D5
100
AcDbEntity
  8
0
  6
CONTINUOUS
100
AcDbLine
 10
36.23199999996837
 20
8.410423826352325
 30
0.0
 11
36.5846761736073
 21
8.763099999991255
 31
0.0
  0
LINE
  5
E2E0
330
E2D5
100
AcDbEntity
  8
0
  6
CONTINUOUS
100
AcDbLine
 10
36.23199999996837
 20
7.73690461727214
 30
0.0
 11
37.25819538268748
 21
8.763099999991255
 31
0.0
  0
LINE
  5
E2E1
330
E2D5
100
AcDbEntity
  8
0
  6
CONTINUOUS
100
AcDbLine
 10
31.64257403601376
 20
2.473959444237348
 30
0.0
 11
33.08199999996839
 21
3.913385408191974
 31
0.0
  0
LINE
  5
E2E2
330
E2D5
100
AcDbEntity
  8
0
  6
CONTINUOUS
100
AcDbLine
 10
36.23199999996837
 20
7.063385408191953
 30
0.0
 11
37.67199999996831
 21
8.503385408191894
 31
0.0
  0
LINE
  5
E2E3
330
E2D5
100
AcDbEntity
  8
0
  6
CONTINUOUS
100
AcDbLine
 10
31.72013636841932
 20
1.87800256756272
 30
0.0
 11
33.08199999996839
 21
3.239866199111788
 31
0.0
  0
LINE
  5
E2E4
330
E2D5
100
AcDbEntity
  8
0
  6
CONTINUOUS
100
AcDbLine
 10
36.23199999996837
 20
6.389866199111767
 30
0.0
 11
37.67199999996831
 21
7.829866199111708
 31
0.0
  0
LINE
  5
E2E5
330
E2D5
100
AcDbEntity
  8
0
  6
CONTINUOUS
100
AcDbLine
 10
31.89042734314753
 20
1.374774333210744
 30
0.0
 11
33.08199999996839
 21
2.566346990031601
 31
0.0
  0
LINE
  5
E2E6
330
E2D5
100
AcDbEntity
  8
0
  6
CONTINUOUS
100
AcDbLine
 10
36.23199999996837
 20
5.71634699003158
 30
0.0
 11
37.67199999996831
 21
7.156346990031521
 31
0.0
  0
LINE
  5
E2E7
330
E2D5
100
AcDbEntity
  8
0
  6
CONTINUOUS
100
AcDbLine
 10
32.14210568064475
 20
0.952933461627778
 30
0.0
 11
33.18745552475986
 21
1.998283305742888
 31
0.0
  0
LINE
  5
E2E8
330
E2D5
100
AcDbEntity
  8
0
  6
CONTINUOUS
100
AcDbLine
 10
36.23199999996837
 20
5.042827780951393
 30
0.0
 11
37.67199999996831
 21
6.482827780951334
 31
0.0
  0
LINE
  5
E2E9
330
E2D5
100
AcDbEntity
  8
0
  6
CONTINUOUS
100
AcDbLine
 10
32.45820639400955
 20
0.5955149659123915
 30
0.0
 11
33.47242681921943
 21
1.60973539112227
 31
0.0
  0
LINE
  5
E2EA
330
E2D5
100
AcDbEntity
  8
0
  6
CONTINUOUS
100
AcDbLine
 10
36.23199999996837
 20
4.369308571871207
 30
0.0
 11
37.67199999996831
 21
5.809308571871147
 31
0.0
  0
LINE
  5
E2EB
330
E2D5
100
AcDbEntity
  8
0
  6
CONTINUOUS
100
AcDbLine
 10
32.83432456621412
 20
0.2981139290367771
 30
0.0
 11
33.89722476612215
 21
1.361014128944803
 31
0.0
  0
LINE
  5
E2EC
330
E2D5
100
AcDbEntity
  8
0
  6
CONTINUOUS
100
AcDbLine
 10
36.23199999996837
 20
3.69578936279102
 30
0.0
 11
37.67199999996831
 21
5.135789362790962
 31
0.0
  0
LINE
  5
E2ED
330
E2D5
100
AcDbEntity
  8
0
  6
CONTINUOUS
100
AcDbLine
 10
33.2711633111245
 20
0.0614334648669672
 30
0.0
 11
34.43247338014423
 21
1.222743533886696
 31
0.0
  0
LINE
  5
E2EE
330
E2D5
100
AcDbEntity
  8
0
  6
CONTINUOUS
100
AcDbLine
 10
36.23199999996837
 20
3.022270153710834
 30
0.0
 11
37.67199999996831
 21
4.462270153710775
 31
0.0
  0
LINE
  5
E2EF
330
E2D5
100
AcDbEntity
  8
0
  6
CONTINUOUS
100
AcDbLine
 10
33.76515245874577
 20
-0.1180965965919523
 30
0.0
 11
35.1587445516215
 21
1.27549549628378
 31
0.0
  0
LINE
  5
E2F0
330
E2D5
100
AcDbEntity
  8
0
  6
CONTINUOUS
100
AcDbLine
 10
36.21639478609585
 20
2.333145730758136
 30
0.0
 11
37.67199999996831
 21
3.788750944630588
 31
0.0
  0
LINE
  5
E2F1
330
E2D5
100
AcDbEntity
  8
0
  6
CONTINUOUS
100
AcDbLine
 10
34.34060583368432
 20
-0.2161624307335863
 30
0.0
 11
37.67199999996831
 21
3.115231735550401
 31
0.0
  0
LINE
  5
E2F2
330
E2D5
100
AcDbEntity
  8
0
  6
CONTINUOUS
100
AcDbLine
 10
35.01698193613905
 20
-0.2133055373590427
 30
0.0
 11
37.66876712070525
 21
2.438479647207154
 31
0.0
  0
LINE
  5
E2F3
330
E2D5
100
AcDbEntity
  8
0
  6
CONTINUOUS
100
AcDbLine
 10
35.90743367693304
 20
0.0036269943547609
 30
0.0
 11
37.51723902192366
 21
1.613432339345381
 31
0.0
  0
LINE
  5
E2F4
330
E2D5
100
AcDbEntity
  8
0
  6
CONTINUOUS
100
AcDbLine
 10
32.55309425579761
 20
0.5074718966376706
 30
0.0
 11
32.27784730925847
 21
0.7827188431768102
 31
0.0
  0
LINE
  5
E2F5
330
E2D5
100
AcDbEntity
  8
0
  6
CONTINUOUS
100
AcDbLine
 10
33.87496468909684
 20
-0.1408793275813673
 30
0.0
 11
31.67993083278052
 21
2.054154528734943
 31
0.0
  0
LINE
  5
E2F6
330
E2D5
100
AcDbEntity
  8
0
  6
CONTINUOUS
100
AcDbLine
 10
34.64362813207632
 20
-0.2360235614806649
 30
0.0
 11
31.64199999996833
 21
2.765604570627322
 31
0.0
  0
LINE
  5
E2F7
330
E2D5
100
AcDbEntity
  8
0
  6
CONTINUOUS
100
AcDbLine
 10
35.25801106796118
 20
-0.1768872882853429
 30
0.0
 11
31.64199999996833
 21
3.439123779707508
 31
0.0
  0
LINE
  5
E2F8
330
E2D5
100
AcDbEntity
  8
0
  6
CONTINUOUS
100
AcDbLine
 10
35.79065650332146
 20
-0.0360135145654361
 30
0.0
 11
34.54143210838231
 21
1.213210880373721
 31
0.0
  0
LINE
  5
E2F9
330
E2D5
100
AcDbEntity
  8
0
  6
CONTINUOUS
100
AcDbLine
 10
33.08199999996839
 20
2.67264298878764
 30
0.0
 11
31.64199999996833
 21
4.112642988787695
 31
0.0
  0
LINE
  5
E2FA
330
E2D5
100
AcDbEntity
  8
0
  6
CONTINUOUS
100
AcDbLine
 10
36.25975597779143
 20
0.1684062200447833
 30
0.0
 11
35.15395110240023
 21
1.274211095435983
 31
0.0
  0
LINE
  5
E2FB
330
E2D5
100
AcDbEntity
  8
0
  6
CONTINUOUS
100
AcDbLine
 10
33.08199999996839
 20
3.346162197867826
 30
0.0
 11
31.64199999996833
 21
4.786162197867881
 31
0.0
  0
LINE
  5
E2FC
330
E2D5
100
AcDbEntity
  8
0
  6
CONTINUOUS
100
AcDbLine
 10
36.67226329638774
 20
0.4294181105286579
 30
0.0
 11
35.63766478748767
 21
1.464016619428737
 31
0.0
  0
LINE
  5
E2FD
330
E2D5
100
AcDbEntity
  8
0
  6
CONTINUOUS
100
AcDbLine
 10
33.08199999996839
 20
4.019681406948012
 30
0.0
 11
31.64199999996833
 21
5.459681406948068
 31
0.0
  0
LINE
  5
E2FE
330
E2D5
100
AcDbEntity
  8
0
  6
CONTINUOUS
100
AcDbLine
 10
37.01677749710036
 20
0.7584231188962329
 30
0.0
 11
35.99563422741351
 21
1.779566388583076
 31
0.0
  0
LINE
  5
E2FF
330
E2D5
100
AcDbEntity
  8
0
  6
CONTINUOUS
100
AcDbLine
 10
33.08199999996839
 20
4.693200616028199
 30
0.0
 11
31.64199999996833
 21
6.133200616028255
 31
0.0
  0
LINE
  5
E300
330
E2D5
100
AcDbEntity
  8
0
  6
CONTINUOUS
100
AcDbLine
 10
37.29859977568887
 20
1.1501200493879
 30
0.0
 11
36.20680593341555
 21
2.241913891661226
 31
0.0
  0
LINE
  5
E301
330
E2D5
100
AcDbEntity
  8
0
  6
CONTINUOUS
100
AcDbLine
 10
33.08199999996839
 20
5.366719825108386
 30
0.0
 11
31.64199999996833
 21
6.80671982510844
 31
0.0
  0
LINE
  5
E302
330
E2D5
100
AcDbEntity
  8
0
  6
CONTINUOUS
100
AcDbLine
 10
37.5148623517228
 20
1.607376682434161
 30
0.0
 11
36.23199999996837
 21
2.890239034188594
 31
0.0
  0
LINE
  5
E303
330
E2D5
100
AcDbEntity
  8
0
  6
CONTINUOUS
100
AcDbLine
 10
33.08199999996839
 20
6.040239034188573
 30
0.0
 11
31.64199999996833
 21
7.480239034188627
 31
0.0
  0
LINE
  5
E304
330
E2D5
100
AcDbEntity
  8
0
  6
CONTINUOUS
100
AcDbLine
 10
37.64705163358367
 20
2.148706609653477
 30
0.0
 11
36.23199999996837
 21
3.56375824326878
 31
0.0
  0
LINE
  5
E305
330
E2D5
100
AcDbEntity
  8
0
  6
CONTINUOUS
100
AcDbLine
 10
33.08199999996839
 20
6.713758243268758
 30
0.0
 11
31.64199999996833
 21
8.153758243268815
 31
0.0
  0
LINE
  5
E306
330
E2D5
100
AcDbEntity
  8
0
  6
CONTINUOUS
100
AcDbLine
 10
37.67199999996831
 20
2.797277452349026
 30
0.0
 11
36.23199999996837
 21
4.237277452348967
 31
0.0
  0
LINE
  5
E307
330
E2D5
100
AcDbEntity
  8
0
  6
CONTINUOUS
100
AcDbLine
 10
37.67199999996831
 20
3.470796661429213
 30
0.0
 11
36.23199999996837
 21
4.910796661429154
 31
0.0
  0
LINE
  5
E308
330
E2D5
100
AcDbEntity
  8
0
  6
CONTINUOUS
100
AcDbLine
 10
37.67199999996831
 20
4.144315870509399
 30
0.0
 11
36.23199999996837
 21
5.58431587050934
 31
0.0
  0
LINE
  5
E309
330
E2D5
100
AcDbEntity
  8
0
  6
CONTINUOUS
100
AcDbLine
 10
33.08199999996839
 20
7.387277452348945
 30
0.0
 11
31.70617745232608
 21
8.763099999991255
 31
0.0
  0
LINE
  5
E30A
330
E2D5
100
AcDbEntity
  8
0
  6
CONTINUOUS
100
AcDbLine
 10
33.08199999996839
 20
8.060796661429132
 30
0.0
 11
32.37969666140626
 21
8.763099999991255
 31
0.0
  0
LINE
  5
E30B
330
E2D5
100
AcDbEntity
  8
0
  6
CONTINUOUS
100
AcDbLine
 10
33.08199999996839
 20
8.734315870509318
 30
0.0
 11
33.05321587048645
 21
8.763099999991255
 31
0.0
  0
LINE
  5
E30C
330
E2D5
100
AcDbEntity
  8
0
  6
CONTINUOUS
100
AcDbLine
 10
37.67199999996831
 20
4.817835079589585
 30
0.0
 11
36.23199999996837
 21
6.257835079589526
 31
0.0
  0
LINE
  5
E30D
330
E2D5
100
AcDbEntity
  8
0
  6
CONTINUOUS
100
AcDbLine
 10
37.67199999996831
 20
5.491354288669771
 30
0.0
 11
36.23199999996837
 21
6.931354288669713
 31
0.0
  0
LINE
  5
E30E
330
E2D5
100
AcDbEntity
  8
0
  6
CONTINUOUS
100
AcDbLine
 10
37.67199999996831
 20
6.164873497749958
 30
0.0
 11
36.23199999996837
 21
7.6048734977499
 31
0.0
  0
LINE
  5
E30F
330
E2D5
100
AcDbEntity
  8
0
  6
CONTINUOUS
100
AcDbLine
 10
37.67199999996831
 20
6.838392706830144
 30
0.0
 11
36.23199999996837
 21
8.278392706830086
 31
0.0
  0
LINE
  5
E310
330
E2D5
100
AcDbEntity
  8
0
  6
CONTINUOUS
100
AcDbLine
 10
37.67199999996831
 20
7.511911915910332
 30
0.0
 11
36.42081191588738
 21
8.763099999991255
 31
0.0
  0
LINE
  5
E311
330
E2D5
100
AcDbEntity
  8
0
  6
CONTINUOUS
100
AcDbLine
 10
37.67199999996831
 20
8.185431124990519
 30
0.0
 11
37.09433112496757
 21
8.763099999991255
 31
0.0
  0
ENDBLK
  5
E379
330
E2D5
100
AcDbEntity
  8
0
100
AcDbBlockEnd
  0
BLOCK
  5
E37A
330
E312
100
AcDbEntity
  8
0
100
AcDbBlockBegin
  2
*X148
 70
     1
 10
0.0
 20
0.0
 30
0.0
  3
*X148
  1

  0
LINE
  5
E313
330
E312
100
AcDbEntity
  8
0
  6
CONTINUOUS
100
AcDbLine
 10
38.60499999996136
 20
8.762866199104765
 30
0.0
 11
38.71672554182345
 21
8.874591740966855
 31
0.0
  0
LINE
  5
E314
330
E312
100
AcDbEntity
  8
0
  6
CONTINUOUS
100
AcDbLine
 10
38.60499999996136
 20
8.089346990024577
 30
0.0
 11
39.03418785440363
 21
8.518534844466847
 31
0.0
  0
LINE
  5
E315
330
E312
100
AcDbEntity
  8
0
  6
CONTINUOUS
100
AcDbLine
 10
38.60499999996136
 20
7.41582778094439
 30
0.0
 11
39.35165016698382
 21
8.16247794796684
 31
0.0
  0
LINE
  5
E316
330
E312
100
AcDbEntity
  8
0
  6
CONTINUOUS
100
AcDbLine
 10
38.60499999996136
 20
6.742308571864204
 30
0.0
 11
39.66911247956399
 21
7.806421051466834
 31
0.0
  0
LINE
  5
E317
330
E312
100
AcDbEntity
  8
0
  6
CONTINUOUS
100
AcDbLine
 10
38.60499999996136
 20
6.068789362784018
 30
0.0
 11
39.98657479214418
 21
7.450364154966827
 31
0.0
  0
LINE
  5
E318
330
E312
100
AcDbEntity
  8
0
  6
CONTINUOUS
100
AcDbLine
 10
38.60499999996136
 20
5.395270153703832
 30
0.0
 11
40.30403710472435
 21
7.09430725846682
 31
0.0
  0
LINE
  5
E319
330
E312
100
AcDbEntity
  8
0
  6
CONTINUOUS
100
AcDbLine
 10
38.60499999996136
 20
4.721750944623645
 30
0.0
 11
40.62149941730453
 21
6.738250361966813
 31
0.0
  0
LINE
  5
E31A
330
E312
100
AcDbEntity
  8
0
  6
CONTINUOUS
100
AcDbLine
 10
38.60499999996136
 20
4.048231735543458
 30
0.0
 11
40.93896172988471
 21
6.382193465466806
 31
0.0
  0
LINE
  5
E31B
330
E312
100
AcDbEntity
  8
0
  6
CONTINUOUS
100
AcDbLine
 10
38.60499999996136
 20
3.374712526463272
 30
0.0
 11
40.02599999995994
 21
4.795712526461843
 31
0.0
  0
LINE
  5
E31C
330
E312
100
AcDbEntity
  8
0
  6
CONTINUOUS
100
AcDbLine
 10
38.60499999996136
 20
2.701193317383085
 30
0.0
 11
40.02599999995994
 21
4.122193317381657
 31
0.0
  0
LINE
  5
E31D
330
E312
100
AcDbEntity
  8
0
  6
CONTINUOUS
100
AcDbLine
 10
40.28339754687704
 20
5.053110073378947
 30
0.0
 11
41.25642404246489
 21
6.026136568966799
 31
0.0
  0
LINE
  5
E31E
330
E312
100
AcDbEntity
  8
0
  6
CONTINUOUS
100
AcDbLine
 10
40.60085985945722
 20
4.697053176878939
 30
0.0
 11
41.57388635504507
 21
5.670079672466793
 31
0.0
  0
LINE
  5
E31F
330
E312
100
AcDbEntity
  8
0
  6
CONTINUOUS
100
AcDbLine
 10
43.57899999995641
 20
8.348712526458318
 30
0.0
 11
43.99338747348935
 21
8.763099999991255
 31
0.0
  0
LINE
  5
E320
330
E312
100
AcDbEntity
  8
0
  6
CONTINUOUS
100
AcDbLine
 10
43.57899999995641
 20
7.675193317378131
 30
0.0
 11
44.66690668256953
 21
8.763099999991255
 31
0.0
  0
LINE
  5
E321
330
E312
100
AcDbEntity
  8
0
  6
CONTINUOUS
100
AcDbLine
 10
38.60499999996136
 20
2.027674108302898
 30
0.0
 11
40.02599999995994
 21
3.44867410830147
 31
0.0
  0
LINE
  5
E322
330
E312
100
AcDbEntity
  8
0
  6
CONTINUOUS
100
AcDbLine
 10
38.60499999996136
 20
1.354154899222712
 30
0.0
 11
40.02599999995994
 21
2.775154899221284
 31
0.0
  0
LINE
  5
E323
330
E312
100
AcDbEntity
  8
0
  6
CONTINUOUS
100
AcDbLine
 10
38.60499999996136
 20
0.6806356901425255
 30
0.0
 11
40.02599999995994
 21
2.101635690141098
 31
0.0
  0
LINE
  5
E324
330
E312
100
AcDbEntity
  8
0
  6
CONTINUOUS
100
AcDbLine
 10
38.60499999996136
 20
0.0071164810623383
 30
0.0
 11
40.02599999995994
 21
1.428116481060911
 31
0.0
  0
LINE
  5
E325
330
E312
100
AcDbEntity
  8
0
  6
CONTINUOUS
100
AcDbLine
 10
40.9183221720374
 20
4.340996280378933
 30
0.0
 11
41.89134866762525
 21
5.314022775966786
 31
0.0
  0
LINE
  5
E326
330
E312
100
AcDbEntity
  8
0
  6
CONTINUOUS
100
AcDbLine
 10
41.23578448461758
 20
3.984939383878926
 30
0.0
 11
42.20881098020543
 21
4.957965879466778
 31
0.0
  0
LINE
  5
E327
330
E312
100
AcDbEntity
  8
0
  6
CONTINUOUS
100
AcDbLine
 10
41.55324679719776
 20
3.628882487378919
 30
0.0
 11
42.52627329278561
 21
4.601908982966772
 31
0.0
  0
LINE
  5
E328
330
E312
100
AcDbEntity
  8
0
  6
CONTINUOUS
100
AcDbLine
 10
41.87070910977793
 20
3.272825590878912
 30
0.0
 11
42.84373560536579
 21
4.245852086466765
 31
0.0
  0
LINE
  5
E329
330
E312
100
AcDbEntity
  8
0
  6
CONTINUOUS
100
AcDbLine
 10
43.57899999995641
 20
7.001674108297943
 30
0.0
 11
44.99999999995498
 21
8.422674108296516
 31
0.0
  0
LINE
  5
E32A
330
E312
100
AcDbEntity
  8
0
  6
CONTINUOUS
100
AcDbLine
 10
43.57899999995641
 20
6.328154899217758
 30
0.0
 11
44.99999999995498
 21
7.749154899216329
 31
0.0
  0
LINE
  5
E32B
330
E312
100
AcDbEntity
  8
0
  6
CONTINUOUS
100
AcDbLine
 10
43.57899999995641
 20
5.654635690137571
 30
0.0
 11
44.99999999995498
 21
7.075635690136142
 31
0.0
  0
LINE
  5
E32C
330
E312
100
AcDbEntity
  8
0
  6
CONTINUOUS
100
AcDbLine
 10
43.57899999995641
 20
4.981116481057384
 30
0.0
 11
44.99999999995498
 21
6.402116481055955
 31
0.0
  0
LINE
  5
E32D
330
E312
100
AcDbEntity
  8
0
  6
CONTINUOUS
100
AcDbLine
 10
39.27140272797921
 20
-0.0000000000000009
 30
0.0
 11
40.02599999995994
 21
0.7545972719807246
 31
0.0
  0
LINE
  5
E32E
330
E312
100
AcDbEntity
  8
0
  6
CONTINUOUS
100
AcDbLine
 10
39.9449219370594
 20
-0.0000000000000009
 30
0.0
 11
40.02599999995994
 21
0.0810780629005379
 31
0.0
  0
LINE
  5
E32F
330
E312
100
AcDbEntity
  8
0
  6
CONTINUOUS
100
AcDbLine
 10
42.18817142235812
 20
2.916768694378905
 30
0.0
 11
43.16119791794597
 21
3.889795189966758
 31
0.0
  0
LINE
  5
E330
330
E312
100
AcDbEntity
  8
0
  6
CONTINUOUS
100
AcDbLine
 10
42.50563373493829
 20
2.560711797878898
 30
0.0
 11
43.47866023052615
 21
3.533738293466751
 31
0.0
  0
LINE
  5
E331
330
E312
100
AcDbEntity
  8
0
  6
CONTINUOUS
100
AcDbLine
 10
43.57899999995641
 20
4.307597271977198
 30
0.0
 11
44.99999999995498
 21
5.728597271975769
 31
0.0
  0
LINE
  5
E332
330
E312
100
AcDbEntity
  8
0
  6
CONTINUOUS
100
AcDbLine
 10
43.57899999995641
 20
3.634078062897011
 30
0.0
 11
44.99999999995498
 21
5.055078062895582
 31
0.0
  0
LINE
  5
E333
330
E312
100
AcDbEntity
  8
0
  6
CONTINUOUS
100
AcDbLine
 10
42.82309604751848
 20
2.204654901378891
 30
0.0
 11
44.99999999995498
 21
4.381558853815395
 31
0.0
  0
LINE
  5
E334
330
E312
100
AcDbEntity
  8
0
  6
CONTINUOUS
100
AcDbLine
 10
43.14055836009865
 20
1.848598004878885
 30
0.0
 11
44.99999999995498
 21
3.70803964473521
 31
0.0
  0
LINE
  5
E335
330
E312
100
AcDbEntity
  8
0
  6
CONTINUOUS
100
AcDbLine
 10
43.45802067267883
 20
1.492541108378878
 30
0.0
 11
44.99999999995498
 21
3.034520435655023
 31
0.0
  0
LINE
  5
E336
330
E312
100
AcDbEntity
  8
0
  6
CONTINUOUS
100
AcDbLine
 10
43.77548298525902
 20
1.136484211878871
 30
0.0
 11
44.99999999995498
 21
2.361001226574837
 31
0.0
  0
LINE
  5
E337
330
E312
100
AcDbEntity
  8
0
  6
CONTINUOUS
100
AcDbLine
 10
44.09294529783919
 20
0.7804273153788639
 30
0.0
 11
44.99999999995498
 21
1.687482017494649
 31
0.0
  0
LINE
  5
E338
330
E312
100
AcDbEntity
  8
0
  6
CONTINUOUS
100
AcDbLine
 10
44.41040761041938
 20
0.4243704188788566
 30
0.0
 11
44.99999999995498
 21
1.013962808414463
 31
0.0
  0
LINE
  5
E339
330
E312
100
AcDbEntity
  8
0
  6
CONTINUOUS
100
AcDbLine
 10
44.72786992299955
 20
0.0683135223788494
 30
0.0
 11
44.99999999995498
 21
0.340443599334276
 31
0.0
  0
LINE
  5
E33A
330
E312
100
AcDbEntity
  8
0
  6
CONTINUOUS
100
AcDbLine
 10
39.12223903415696
 20
-0.0000000000000009
 30
0.0
 11
38.60499999996136
 21
0.5172390341955961
 31
0.0
  0
LINE
  5
E33B
330
E312
100
AcDbEntity
  8
0
  6
CONTINUOUS
100
AcDbLine
 10
39.79575824323715
 20
-0.0000000000000009
 30
0.0
 11
38.60499999996136
 21
1.190758243275783
 31
0.0
  0
LINE
  5
E33C
330
E312
100
AcDbEntity
  8
0
  6
CONTINUOUS
100
AcDbLine
 10
40.02599999995994
 20
0.443277452357397
 30
0.0
 11
38.60499999996136
 21
1.864277452355969
 31
0.0
  0
LINE
  5
E33D
330
E312
100
AcDbEntity
  8
0
  6
CONTINUOUS
100
AcDbLine
 10
40.02599999995994
 20
1.116796661437583
 30
0.0
 11
38.60499999996136
 21
2.537796661436155
 31
0.0
  0
LINE
  5
E33E
330
E312
100
AcDbEntity
  8
0
  6
CONTINUOUS
100
AcDbLine
 10
40.02599999995994
 20
1.79031587051777
 30
0.0
 11
38.60499999996136
 21
3.211315870516341
 31
0.0
  0
LINE
  5
E33F
330
E312
100
AcDbEntity
  8
0
  6
CONTINUOUS
100
AcDbLine
 10
40.02599999995994
 20
2.463835079597956
 30
0.0
 11
38.60499999996136
 21
3.884835079596527
 31
0.0
  0
LINE
  5
E340
330
E312
100
AcDbEntity
  8
0
  6
CONTINUOUS
100
AcDbLine
 10
40.02599999995994
 20
3.137354288678143
 30
0.0
 11
38.60499999996136
 21
4.558354288676714
 31
0.0
  0
LINE
  5
E341
330
E312
100
AcDbEntity
  8
0
  6
CONTINUOUS
100
AcDbLine
 10
40.02599999995994
 20
3.810873497758329
 30
0.0
 11
38.60499999996136
 21
5.2318734977569
 31
0.0
  0
LINE
  5
E342
330
E312
100
AcDbEntity
  8
0
  6
CONTINUOUS
100
AcDbLine
 10
40.02599999995994
 20
4.484392706838515
 30
0.0
 11
38.60499999996136
 21
5.905392706837086
 31
0.0
  0
LINE
  5
E343
330
E312
100
AcDbEntity
  8
0
  6
CONTINUOUS
100
AcDbLine
 10
44.99999999995498
 20
0.183911915923658
 30
0.0
 11
41.53858364506288
 21
3.64532827081576
 31
0.0
  0
LINE
  5
E344
330
E312
100
AcDbEntity
  8
0
  6
CONTINUOUS
100
AcDbLine
 10
40.02599999995994
 20
5.157911915918703
 30
0.0
 11
38.60499999996136
 21
6.578911915917274
 31
0.0
  0
LINE
  5
E345
330
E312
100
AcDbEntity
  8
0
  6
CONTINUOUS
100
AcDbLine
 10
44.99999999995498
 20
0.8574311250038447
 30
0.0
 11
38.60499999996136
 21
7.25243112499746
 31
0.0
  0
LINE
  5
E346
330
E312
100
AcDbEntity
  8
0
  6
CONTINUOUS
100
AcDbLine
 10
44.99999999995498
 20
1.530950334084031
 30
0.0
 11
38.60499999996136
 21
7.925950334077647
 31
0.0
  0
LINE
  5
E347
330
E312
100
AcDbEntity
  8
0
  6
CONTINUOUS
100
AcDbLine
 10
44.99999999995498
 20
2.204469543164218
 30
0.0
 11
43.57899999995641
 21
3.625469543162789
 31
0.0
  0
LINE
  5
E348
330
E312
100
AcDbEntity
  8
0
  6
CONTINUOUS
100
AcDbLine
 10
41.89876730984767
 20
5.305702233271528
 30
0.0
 11
38.60499999996136
 21
8.599469543157834
 31
0.0
  0
LINE
  5
E349
330
E312
100
AcDbEntity
  8
0
  6
CONTINUOUS
100
AcDbLine
 10
44.99999999995498
 20
2.877988752244405
 30
0.0
 11
43.57899999995641
 21
4.298988752242975
 31
0.0
  0
LINE
  5
E34A
330
E312
100
AcDbEntity
  8
0
  6
CONTINUOUS
100
AcDbLine
 10
44.99999999995498
 20
3.551507961324591
 30
0.0
 11
43.57899999995641
 21
4.972507961323163
 31
0.0
  0
LINE
  5
E34B
330
E312
100
AcDbEntity
  8
0
  6
CONTINUOUS
100
AcDbLine
 10
44.99999999995498
 20
4.225027170404777
 30
0.0
 11
43.57899999995641
 21
5.646027170403348
 31
0.0
  0
LINE
  5
E34C
330
E312
100
AcDbEntity
  8
0
  6
CONTINUOUS
100
AcDbLine
 10
44.99999999995498
 20
4.898546379484964
 30
0.0
 11
43.57899999995641
 21
6.319546379483535
 31
0.0
  0
LINE
  5
E34D
330
E312
100
AcDbEntity
  8
0
  6
CONTINUOUS
100
AcDbLine
 10
44.99999999995498
 20
5.572065588565151
 30
0.0
 11
43.57899999995641
 21
6.993065588563722
 31
0.0
  0
LINE
  5
E34E
330
E312
100
AcDbEntity
  8
0
  6
CONTINUOUS
100
AcDbLine
 10
44.99999999995498
 20
6.245584797645336
 30
0.0
 11
43.57899999995641
 21
7.666584797643908
 31
0.0
  0
LINE
  5
E34F
330
E312
100
AcDbEntity
  8
0
  6
CONTINUOUS
100
AcDbLine
 10
44.99999999995498
 20
6.919104006725522
 30
0.0
 11
43.57899999995641
 21
8.340104006724093
 31
0.0
  0
LINE
  5
E350
330
E312
100
AcDbEntity
  8
0
  6
CONTINUOUS
100
AcDbLine
 10
44.99999999995498
 20
7.592623215805709
 30
0.0
 11
43.82952321576943
 21
8.763099999991255
 31
0.0
  0
LINE
  5
E351
330
E312
100
AcDbEntity
  8
0
  6
CONTINUOUS
100
AcDbLine
 10
44.99999999995498
 20
8.266142424885896
 30
0.0
 11
44.50304242484962
 21
8.763099999991255
 31
0.0
  0
ENDBLK
  5
E37B
330
E312
100
AcDbEntity
  8
0
100
AcDbBlockEnd
  0
BLOCK
  5
E37C
330
E352
100
AcDbEntity
  8
0
100
AcDbBlockBegin
  2
*X149
 70
     1
 10
0.0
 20
0.0
 30
0.0
  3
*X149
  1

  0
LINE
  5
E353
330
E352
100
AcDbEntity
  8
0
  6
CONTINUOUS
100
AcDbLine
 10
0.0
 20
8.548461116714023
 30
0.0
 11
0.2146388832772324
 21
8.763099999991255
 31
0.0
  0
LINE
  5
E354
330
E352
100
AcDbEntity
  8
0
  6
CONTINUOUS
100
AcDbLine
 10
-0.0000000000000002
 20
7.874941907633837
 30
0.0
 11
0.8881580923574184
 21
8.763099999991255
 31
0.0
  0
LINE
  5
E355
330
E352
100
AcDbEntity
  8
0
  6
CONTINUOUS
100
AcDbLine
 10
0.0
 20
7.20142269855365
 30
0.0
 11
1.420999999998572
 21
8.622422698552223
 31
0.0
  0
LINE
  5
E356
330
E352
100
AcDbEntity
  8
0
  6
CONTINUOUS
100
AcDbLine
 10
-0.0000000000000001
 20
6.527903489473465
 30
0.0
 11
1.420999999998571
 21
7.948903489472036
 31
0.0
  0
LINE
  5
E357
330
E352
100
AcDbEntity
  8
0
  6
CONTINUOUS
100
AcDbLine
 10
-0.0000000000000002
 20
5.854384280393278
 30
0.0
 11
1.420999999998571
 21
7.275384280391849
 31
0.0
  0
LINE
  5
E358
330
E352
100
AcDbEntity
  8
0
  6
CONTINUOUS
100
AcDbLine
 10
-0.0000000000000002
 20
5.180865071313091
 30
0.0
 11
1.420999999998571
 21
6.601865071311663
 31
0.0
  0
LINE
  5
E359
330
E352
100
AcDbEntity
  8
0
  6
CONTINUOUS
100
AcDbLine
 10
0.0
 20
4.507345862232905
 30
0.0
 11
1.420999999998571
 21
5.928345862231477
 31
0.0
  0
LINE
  5
E35A
330
E352
100
AcDbEntity
  8
0
  6
CONTINUOUS
100
AcDbLine
 10
-0.0000000000000003
 20
3.833826653152718
 30
0.0
 11
1.420999999998571
 21
5.25482665315129
 31
0.0
  0
LINE
  5
E35B
330
E352
100
AcDbEntity
  8
0
  6
CONTINUOUS
100
AcDbLine
 10
-0.0000000000000002
 20
3.160307444072532
 30
0.0
 11
1.420999999998571
 21
4.581307444071103
 31
0.0
  0
LINE
  5
E35C
330
E352
100
AcDbEntity
  8
0
  6
CONTINUOUS
100
AcDbLine
 10
-0.0000000000000001
 20
2.486788234992345
 30
0.0
 11
1.420999999998571
 21
3.907788234990917
 31
0.0
  0
LINE
  5
E35D
330
E352
100
AcDbEntity
  8
0
  6
CONTINUOUS
100
AcDbLine
 10
-0.0000000000000006
 20
1.813269025912159
 30
0.0
 11
1.420999999998571
 21
3.234269025910731
 31
0.0
  0
LINE
  5
E35E
330
E352
100
AcDbEntity
  8
0
  6
CONTINUOUS
100
AcDbLine
 10
0.0
 20
1.139749816831973
 30
0.0
 11
1.420999999998571
 21
2.560749816830544
 31
0.0
  0
LINE
  5
E35F
330
E352
100
AcDbEntity
  8
0
  6
CONTINUOUS
100
AcDbLine
 10
0.0000000000000002
 20
0.466230607751787
 30
0.0
 11
1.420999999998571
 21
1.887230607750358
 31
0.0
  0
LINE
  5
E360
330
E352
100
AcDbEntity
  8
0
  6
CONTINUOUS
100
AcDbLine
 10
0.2072886013284003
 20
-0.0000000000000009
 30
0.0
 11
1.420999999998571
 21
1.213711398670171
 31
0.0
  0
LINE
  5
E361
330
E352
100
AcDbEntity
  8
0
  6
CONTINUOUS
100
AcDbLine
 10
0.8808078104085864
 20
-0.0000000000000009
 30
0.0
 11
1.420999999998571
 21
0.5401921895899839
 31
0.0
  0
LINE
  5
E362
330
E352
100
AcDbEntity
  8
0
  6
CONTINUOUS
100
AcDbLine
 10
0.0581249075061505
 20
-0.0000000000000009
 30
0.0
 11
-0.0000000000000002
 21
0.0581249075061496
 31
0.0
  0
LINE
  5
E363
330
E352
100
AcDbEntity
  8
0
  6
CONTINUOUS
100
AcDbLine
 10
0.7316441165863372
 20
-0.0000000000000009
 30
0.0
 11
-0.0000000000000002
 21
0.7316441165863363
 31
0.0
  0
LINE
  5
E364
330
E352
100
AcDbEntity
  8
0
  6
CONTINUOUS
100
AcDbLine
 10
1.405163325666523
 20
-0.0000000000000009
 30
0.0
 11
-0.0000000000000002
 21
1.405163325666523
 31
0.0
  0
LINE
  5
E365
330
E352
100
AcDbEntity
  8
0
  6
CONTINUOUS
100
AcDbLine
 10
1.420999999998572
 20
0.6576825347481381
 30
0.0
 11
-0.0000000000000001
 21
2.07868253474671
 31
0.0
  0
LINE
  5
E366
330
E352
100
AcDbEntity
  8
0
  6
CONTINUOUS
100
AcDbLine
 10
1.420999999998571
 20
1.331201743828324
 30
0.0
 11
-0.0000000000000001
 21
2.752201743826896
 31
0.0
  0
LINE
  5
E367
330
E352
100
AcDbEntity
  8
0
  6
CONTINUOUS
100
AcDbLine
 10
1.420999999998571
 20
2.004720952908511
 30
0.0
 11
-0.0000000000000002
 21
3.425720952907082
 31
0.0
  0
LINE
  5
E368
330
E352
100
AcDbEntity
  8
0
  6
CONTINUOUS
100
AcDbLine
 10
1.420999999998571
 20
2.678240161988697
 30
0.0
 11
-0.0000000000000001
 21
4.099240161987269
 31
0.0
  0
LINE
  5
E369
330
E352
100
AcDbEntity
  8
0
  6
CONTINUOUS
100
AcDbLine
 10
1.420999999998572
 20
3.351759371068884
 30
0.0
 11
0.0
 21
4.772759371067455
 31
0.0
  0
LINE
  5
E36A
330
E352
100
AcDbEntity
  8
0
  6
CONTINUOUS
100
AcDbLine
 10
1.420999999998571
 20
4.02527858014907
 30
0.0
 11
-0.0000000000000003
 21
5.446278580147642
 31
0.0
  0
LINE
  5
E36B
330
E352
100
AcDbEntity
  8
0
  6
CONTINUOUS
100
AcDbLine
 10
1.420999999998571
 20
4.698797789229257
 30
0.0
 11
0.0
 21
6.119797789227828
 31
0.0
  0
LINE
  5
E36C
330
E352
100
AcDbEntity
  8
0
  6
CONTINUOUS
100
AcDbLine
 10
1.420999999998571
 20
5.372316998309444
 30
0.0
 11
-0.0000000000000001
 21
6.793316998308015
 31
0.0
  0
LINE
  5
E36D
330
E352
100
AcDbEntity
  8
0
  6
CONTINUOUS
100
AcDbLine
 10
1.420999999998572
 20
6.045836207389629
 30
0.0
 11
-0.0000000000000004
 21
7.466836207388202
 31
0.0
  0
LINE
  5
E36E
330
E352
100
AcDbEntity
  8
0
  6
CONTINUOUS
100
AcDbLine
 10
1.420999999998571
 20
6.719355416469816
 30
0.0
 11
0.0
 21
8.140355416468388
 31
0.0
  0
LINE
  5
E36F
330
E352
100
AcDbEntity
  8
0
  6
CONTINUOUS
100
AcDbLine
 10
1.420999999998571
 20
7.392874625550003
 30
0.0
 11
0.0507746255573185
 21
8.763099999991255
 31
0.0
  0
LINE
  5
E370
330
E352
100
AcDbEntity
  8
0
  6
CONTINUOUS
100
AcDbLine
 10
1.420999999998571
 20
8.06639383463019
 30
0.0
 11
0.7242938346375052
 21
8.763099999991255
 31
0.0
  0
LINE
  5
E371
330
E352
100
AcDbEntity
  8
0
  6
CONTINUOUS
100
AcDbLine
 10
1.420999999998571
 20
8.739913043710375
 30
0.0
 11
1.397813043717691
 21
8.763099999991255
 31
0.0
  0
ENDBLK
  5
E37D
330
E352
100
AcDbEntity
  8
0
100
AcDbBlockEnd
  0
ENDSEC
  0
SECTION
  2
ENTITIES
  0
LINE
  5
BB11
330
19
100
AcDbEntity
  8
01
100
AcDbLine
 10
-562.9879593741935
 20
473.4561159714691
 30
0.0
 11
-562.9879593741937
 21
343.6561159714691
 31
0.0
  0
LINE
  5
BB12
330
19
100
AcDbEntity
  8
01
100
AcDbLine
 10
-562.9879593741935
 20
344.5561159714691
 30
0.0
 11
-560.4879593741935
 21
344.5561159714691
 31
0.0
  0
LINE
  5
BB16
330
19
100
AcDbEntity
  8
01
100
AcDbLine
 10
-495.4879593741935
 20
444.5561159714691
 30
0.0
 11
-495.4879593741936
 21
390.7061159714692
 31
0.0
  0
LINE
  5
BB19
330
19
100
AcDbEntity
  8
01
100
AcDbLine
 10
-561.7879593741934
 20
445.5561159714692
 30
0.0
 11
-496.4879593741936
 21
445.5561159714692
 31
0.0
  0
LINE
  5
BB1E
330
19
100
AcDbEntity
  8
01
100
AcDbLine
 10
-560.4879593741935
 20
344.5561159714691
 30
0.0
 11
-560.4879593741935
 21
361.0590596966215
 31
0.0
  0
LINE
  5
BB20
330
19
100
AcDbEntity
  8
01
100
AcDbLine
 10
-498.4879593741935
 20
390.7061159714692
 30
0.0
 11
-495.4879593741936
 21
390.7061159714692
 31
0.0
  0
LINE
  5
BB21
330
19
100
AcDbEntity
  8
01
100
AcDbLine
 10
-498.4879593741935
 20
384.4061159714691
 30
0.0
 11
-495.4879593741936
 21
384.4061159714691
 31
0.0
  0
ARC
  5
BB22
330
19
100
AcDbEntity
  8
01
100
AcDbCircle
 10
-528.4879593741935
 20
387.5561159714692
 30
0.0
 40
3.15
100
AcDbArc
 50
270.0
 51
90.0
  0
LINE
  5
BB23
330
19
100
AcDbEntity
  8
01
100
AcDbLine
 10
-528.4879593741935
 20
390.7061159714692
 30
0.0
 11
-530.9879593741935
 21
390.7061159714692
 31
0.0
  0
LINE
  5
BB24
330
19
100
AcDbEntity
  8
01
100
AcDbLine
 10
-528.4879593741935
 20
384.4061159714691
 30
0.0
 11
-530.9879593741935
 21
384.4061159714691
 31
0.0
  0
ARC
  5
BB25
330
19
100
AcDbEntity
  8
01
100
AcDbCircle
 10
-530.9879593741935
 20
387.5561159714692
 30
0.0
 40
3.15
100
AcDbArc
 50
90.0
 51
270.0
  0
LINE
  5
BB26
330
19
100
AcDbEntity
  8
01
100
AcDbLine
 10
-564.4879593741935
 20
473.4561159714692
 30
0.0
 11
-564.4879593741935
 21
343.6561159714691
 31
0.0
  0
LINE
  5
BB55
330
19
100
AcDbEntity
  8
01
100
AcDbLine
 10
-495.4879593741935
 20
384.4061159714691
 30
0.0
 11
-495.4879593741935
 21
372.7561159714692
 31
0.0
  0
ARC
  5
BB59
330
19
100
AcDbEntity
  8
01
100
AcDbCircle
 10
-513.0379593741934
 20
414.9061159714692
 30
0.0
 40
0.25
100
AcDbArc
 50
10.06906269889152
 51
190.0690626988915
  0
ARC
  5
BB5A
330
19
100
AcDbEntity
  8
01
100
AcDbCircle
 10
-513.5379593741934
 20
414.9061159714692
 30
0.0
 40
0.25
100
AcDbArc
 50
0.0
 51
182.6754266560266
  0
ARC
  5
BB67
330
19
100
AcDbEntity
  8
01
100
AcDbCircle
 10
-505.8379593741936
 20
414.9061159714692
 30
0.0
 40
0.25
100
AcDbArc
 50
10.5873213182363
 51
190.5873213182363
  0
LINE
  5
BB69
330
19
100
AcDbEntity
  8
01
100
AcDbLine
 10
-505.5922153665159
 20
414.9520494308482
 30
0.0
 11
-504.6583960283141
 21
409.9561159714692
 31
0.0
  0
LINE
  5
BB6A
330
19
100
AcDbEntity
  8
01
100
AcDbLine
 10
-506.0837033818711
 20
414.8601825120902
 30
0.0
 11
-505.1670554303532
 21
409.9561159714692
 31
0.0
  0
LINE
  5
BB6B
330
19
100
AcDbEntity
  8
01
100
AcDbLine
 10
-506.0837033818711
 20
414.9520494308482
 30
0.0
 11
-507.0175227200729
 21
409.9561159714693
 31
0.0
  0
LINE
  5
BB6C
330
19
100
AcDbEntity
  8
01
100
AcDbLine
 10
-505.8379593741936
 20
413.5454520710147
 30
0.0
 11
-506.5088633180339
 21
409.9561159714693
 31
0.0
  0
ARC
  5
BB6D
330
19
100
AcDbEntity
  8
01
100
AcDbCircle
 10
-509.8379593741936
 20
414.9061159714692
 30
0.0
 40
0.25
100
AcDbArc
 50
10.5873213182363
 51
190.5873213182363
  0
LINE
  5
BB6F
330
19
100
AcDbEntity
  8
01
100
AcDbLine
 10
-509.5922153665159
 20
414.9520494308482
 30
0.0
 11
-508.6583960283142
 21
409.9561159714692
 31
0.0
  0
LINE
  5
BB70
330
19
100
AcDbEntity
  8
01
100
AcDbLine
 10
-510.0837033818711
 20
414.8601825120902
 30
0.0
 11
-509.1670554303533
 21
409.9561159714692
 31
0.0
  0
LINE
  5
BB72
330
19
100
AcDbEntity
  8
01
100
AcDbLine
 10
-512.791809942424
 20
414.9498247490731
 30
0.0
 11
-511.9050766080832
 21
409.9561159714693
 31
0.0
  0
LINE
  5
BB73
330
19
100
AcDbEntity
  8
01
100
AcDbLine
 10
-513.2841088059628
 20
414.8624071938653
 30
0.0
 11
-512.41289821507
 21
409.9561159714693
 31
0.0
  0
LINE
  5
BB74
330
19
100
AcDbEntity
  8
01
100
AcDbLine
 10
-513.288231877599
 20
414.9177854806558
 30
0.0
 11
-513.0563781622164
 21
409.9561159714693
 31
0.0
  0
LINE
  5
BB75
330
19
100
AcDbEntity
  8
01
100
AcDbLine
 10
-513.7876868707879
 20
414.8944464622825
 30
0.0
 11
-513.5569237637405
 21
409.9561159714693
 31
0.0
  0
LINE
  5
BB78
330
19
100
AcDbEntity
  8
01
100
AcDbLine
 10
-564.4879593741935
 20
343.6561159714691
 30
0.0
 11
-562.9879593741935
 21
343.6561159714691
 31
0.0
  0
LINE
  5
BB79
330
19
100
AcDbEntity
  8
01
100
AcDbLine
 10
-562.9879593741935
 20
472.5561159714692
 30
0.0
 11
-560.4879593741935
 21
472.5561159714692
 31
0.0
  0
LINE
  5
BB7A
330
19
100
AcDbEntity
  8
01
100
AcDbLine
 10
-564.4879593741935
 20
473.4561159714692
 30
0.0
 11
-562.9879593741935
 21
473.4561159714692
 31
0.0
  0
LINE
  5
BB7B
330
19
100
AcDbEntity
  8
01
100
AcDbLine
 10
-562.9879593741936
 20
448.5561159714691
 30
0.0
 11
-561.7879593741934
 21
448.5561159714691
 31
0.0
  0
LINE
  5
BB7E
330
19
100
AcDbEntity
  8
01
100
AcDbLine
 10
-669.1381403252979
 20
473.4561159714691
 30
0.0
 11
-644.3381403252979
 21
473.4561159714691
 31
0.0
  0
LINE
  5
BB7F
330
19
100
AcDbEntity
  8
01
100
AcDbLine
 10
-669.1381403252979
 20
343.6561159714691
 30
0.0
 11
-644.3381403252979
 21
343.6561159714691
 31
0.0
  0
LINE
  5
BB81
330
19
100
AcDbEntity
  8
01
100
AcDbLine
 10
-669.1381403252979
 20
473.4561159714691
 30
0.0
 11
-669.1381403252979
 21
343.6561159714691
 31
0.0
  0
LINE
  5
BB82
330
19
100
AcDbEntity
  8
01
100
AcDbLine
 10
-644.3381403252979
 20
473.4561159714691
 30
0.0
 11
-644.3381403252979
 21
343.6561159714691
 31
0.0
  0
CIRCLE
  5
BB8D
330
19
100
AcDbEntity
  8
01
100
AcDbCircle
 10
-656.7381403252979
 20
351.5561159714692
 30
0.0
 40
2.75
  0
CIRCLE
  5
BB8E
330
19
100
AcDbEntity
  8
01
100
AcDbCircle
 10
-656.7381403252979
 20
351.5561159714692
 30
0.0
 40
4.25
  0
CIRCLE
  5
BB8F
330
19
100
AcDbEntity
  8
01
100
AcDbCircle
 10
-656.7381403252979
 20
465.5561159714691
 30
0.0
 40
2.75
  0
CIRCLE
  5
BB90
330
19
100
AcDbEntity
  8
01
100
AcDbCircle
 10
-656.7381403252979
 20
465.5561159714691
 30
0.0
 40
4.25
  0
LINE
  5
BBD3
330
19
100
AcDbEntity
  8
01
100
AcDbLine
 10
-495.4879593741936
 20
372.5561159714692
 30
0.0
 11
-495.4879593741936
 21
384.4061159714691
 31
0.0
  0
LINE
  5
BBD6
330
19
100
AcDbEntity
  8
01
100
AcDbLine
 10
-546.5879593741935
 20
445.5561159714691
 30
0.0
 11
-531.8879593741934
 21
445.5561159714691
 31
0.0
  0
ARC
  5
BBDC
330
19
100
AcDbEntity
  8
01
100
AcDbCircle
 10
-496.4879593741936
 20
444.5561159714691
 30
0.0
 40
1.0
100
AcDbArc
 50
0.0
 51
90.0
  0
ARC
  5
BBDD
330
19
100
AcDbEntity
  8
01
100
AcDbCircle
 10
-496.4879593741936
 20
372.5561159714692
 30
0.0
 40
1.0
100
AcDbArc
 50
270.0
 51
0.0
  0
LINE
  5
BC5B
330
19
100
AcDbEntity
  8
01
100
AcDbLine
 10
-561.7879593741934
 20
454.2561159714693
 30
0.0
 11
-561.7879593741936
 21
362.8561159714693
 31
0.0
  0
LINE
  5
BC5D
330
19
100
AcDbEntity
  8
01
100
AcDbLine
 10
-561.6879593741935
 20
344.5561159714691
 30
0.0
 11
-561.6879593741935
 21
361.1561159714691
 31
0.0
  0
LINE
  5
BC5E
330
19
100
AcDbEntity
  8
01
100
AcDbLine
 10
-561.6879593741935
 20
361.1561159714691
 30
0.0
 11
-562.6364875116174
 21
362.1046441088931
 31
0.0
  0
LINE
  5
BC5F
330
19
100
AcDbEntity
  8
01
100
AcDbLine
 10
-560.8394312367697
 20
361.9075878340454
 30
0.0
 11
-561.7879593741935
 21
362.8561159714692
 31
0.0
  0
ARC
  5
BC60
330
19
100
AcDbEntity
  8
01
100
AcDbCircle
 10
-561.6879593741935
 20
361.0590596966215
 30
0.0
 40
1.2
100
AcDbArc
 50
0.0
 51
45.0000000000023
  0
ARC
  5
BC61
330
19
100
AcDbEntity
  8
01
100
AcDbCircle
 10
-561.7879593741934
 20
362.953172246317
 30
0.0
 40
1.2
100
AcDbArc
 50
180.0
 51
225.0
  0
LINE
  5
BC62
330
19
100
AcDbEntity
  8
01
100
AcDbLine
 10
-560.4879593741935
 20
472.5561159714692
 30
0.0
 11
-560.4879593741935
 21
456.0531722463169
 31
0.0
  0
LINE
  5
BC63
330
19
100
AcDbEntity
  8
01
100
AcDbLine
 10
-561.6879593741935
 20
472.5561159714692
 30
0.0
 11
-561.6879593741935
 21
455.9561159714691
 31
0.0
  0
LINE
  5
BC64
330
19
100
AcDbEntity
  8
01
100
AcDbLine
 10
-561.6879593741935
 20
455.9561159714691
 30
0.0
 11
-562.6364875116174
 21
455.0075878340453
 31
0.0
  0
LINE
  5
BC65
330
19
100
AcDbEntity
  8
01
100
AcDbLine
 10
-560.8394312367697
 20
455.204644108893
 30
0.0
 11
-561.7879593741935
 21
454.2561159714692
 31
0.0
  0
ARC
  5
BC66
330
19
100
AcDbEntity
  8
01
100
AcDbCircle
 10
-561.6879593741935
 20
456.0531722463169
 30
0.0
 40
1.2
100
AcDbArc
 50
314.9999999999977
 51
0.0
  0
ARC
  5
BC67
330
19
100
AcDbEntity
  8
01
100
AcDbCircle
 10
-561.7879593741934
 20
454.1590596966214
 30
0.0
 40
1.2
100
AcDbArc
 50
135.0
 51
180.0
  0
CIRCLE
  5
BCA4
330
19
100
AcDbEntity
  8
01
100
AcDbCircle
 10
-513.4879593741935
 20
437.5561159714692
 30
0.0
 40
4.75
  0
LINE
  5
BCBA
330
19
100
AcDbEntity
  8
01
100
AcDbLine
 10
-505.4879593741935
 20
371.5561159714692
 30
0.0
 11
-497.0879593741936
 21
371.5561159714692
 31
0.0
  0
LINE
  5
BCD6
330
19
100
AcDbEntity
  8
01
100
AcDbLine
 10
-503.1879593741936
 20
417.6561159714692
 30
0.0
 11
-503.1879593741936
 21
409.9561159714692
 31
0.0
  0
LINE
  5
BCE0
330
19
100
AcDbEntity
  8
01
100
AcDbLine
 10
-517.5879593741935
 20
417.6561159714692
 30
0.0
 11
-517.5879593741935
 21
412.3061159714692
 31
0.0
  0
LINE
  5
BCE1
330
19
100
AcDbEntity
  8
01
100
AcDbLine
 10
-517.5879593741934
 20
412.3061159714692
 30
0.0
 11
-517.5879593741935
 21
409.9561159714692
 31
0.0
  0
LINE
  5
BCE2
330
19
100
AcDbEntity
  8
01
100
AcDbLine
 10
-517.5879593741935
 20
417.6561159714692
 30
0.0
 11
-517.4879593741941
 21
417.6561159714692
 31
0.0
  0
LINE
  5
BCE3
330
19
100
AcDbEntity
  8
01
100
AcDbLine
 10
-517.5879593741935
 20
409.9561159714692
 30
0.0
 11
-517.4879593741941
 21
409.9561159714692
 31
0.0
  0
LINE
  5
BCE5
330
19
100
AcDbEntity
  8
01
100
AcDbLine
 10
-510.0861344140435
 20
414.9362680791145
 30
0.0
 11
-510.4056856046919
 21
412.3061159714692
 31
0.0
  0
LINE
  5
BCE6
330
19
100
AcDbEntity
  8
01
100
AcDbLine
 10
-509.7855205412429
 20
413.2649043147289
 30
0.0
 11
-509.911320151999
 21
412.2294767492748
 31
0.0
  0
LINE
  5
BCE9
330
19
100
AcDbEntity
  8
01
100
AcDbLine
 10
-513.7879593741941
 20
417.6561159714692
 30
0.0
 11
-503.1879593741936
 21
417.6561159714692
 31
0.0
  0
LINE
  5
BCEA
330
19
100
AcDbEntity
  8
01
100
AcDbLine
 10
-509.4879593741935
 20
409.9561159714692
 30
0.0
 11
-503.1879593741936
 21
409.9561159714692
 31
0.0
  0
LINE
  5
BCEB
330
19
100
AcDbEntity
  8
01
100
AcDbLine
 10
-516.4879593741941
 20
409.9561159714692
 30
0.0
 11
-509.4879593741935
 21
409.9561159714692
 31
0.0
  0
LINE
  5
BCEC
330
19
100
AcDbEntity
  8
01
100
AcDbLine
 10
-517.4879593741941
 20
409.9561159714692
 30
0.0
 11
-516.4879593741941
 21
409.9561159714692
 31
0.0
  0
LINE
  5
BCED
330
19
100
AcDbEntity
  8
01
100
AcDbLine
 10
-517.4879593741941
 20
417.6561159714692
 30
0.0
 11
-513.7879593741941
 21
417.6561159714692
 31
0.0
  0
LINE
  5
C0BA
330
19
100
AcDbEntity
  8
01
100
AcDbLine
 10
-495.4879593741907
 20
444.5561159714691
 30
0.0
 11
-495.4879593741908
 21
391.2061159714692
 31
0.0
  0
LINE
  5
C0BD
330
19
100
AcDbEntity
  8
01
100
AcDbLine
 10
-517.5879593741909
 20
417.6561159714691
 30
0.0
 11
-503.1879593741909
 21
417.6561159714691
 31
0.0
  0
LINE
  5
C0BE
330
19
100
AcDbEntity
  8
01
100
AcDbLine
 10
-503.1879593741909
 20
417.6561159714691
 30
0.0
 11
-503.1879593741909
 21
409.9561159714692
 31
0.0
  0
LINE
  5
C0BF
330
19
100
AcDbEntity
  8
01
100
AcDbLine
 10
-517.5879593741909
 20
417.6561159714691
 30
0.0
 11
-517.5879593741909
 21
409.9561159714692
 31
0.0
  0
ARC
  5
C0C0
330
19
100
AcDbEntity
  8
01
100
AcDbCircle
 10
-498.4879593741907
 20
387.5561159714692
 30
0.0
 40
3.15
100
AcDbArc
 50
90.0
 51
270.0
  0
LINE
  5
C0C1
330
19
100
AcDbEntity
  8
01
100
AcDbLine
 10
-498.4879593741907
 20
390.7061159714692
 30
0.0
 11
-495.9879593741908
 21
390.7061159714692
 31
0.0
  0
LINE
  5
C0C2
330
19
100
AcDbEntity
  8
01
100
AcDbLine
 10
-498.4879593741907
 20
384.4061159714692
 30
0.0
 11
-495.9879593741907
 21
384.4061159714692
 31
0.0
  0
ARC
  5
C0C3
330
19
100
AcDbEntity
  8
01
100
AcDbCircle
 10
-528.4879593741907
 20
387.5561159714692
 30
0.0
 40
3.15
100
AcDbArc
 50
270.0
 51
90.0
  0
LINE
  5
C0C4
330
19
100
AcDbEntity
  8
01
100
AcDbLine
 10
-528.4879593741907
 20
390.7061159714692
 30
0.0
 11
-530.9879593741907
 21
390.7061159714692
 31
0.0
  0
LINE
  5
C0C5
330
19
100
AcDbEntity
  8
01
100
AcDbLine
 10
-528.4879593741907
 20
384.4061159714692
 30
0.0
 11
-530.9879593741907
 21
384.4061159714692
 31
0.0
  0
ARC
  5
C0C6
330
19
100
AcDbEntity
  8
01
100
AcDbCircle
 10
-530.9879593741907
 20
387.5561159714692
 30
0.0
 40
3.15
100
AcDbArc
 50
90.0
 51
270.0
  0
LINE
  5
C0D1
330
19
100
AcDbEntity
  8
01
100
AcDbLine
 10
-561.7879593741934
 20
371.5561159714689
 30
0.0
 11
-496.4879593741936
 21
371.5561159714692
 31
0.0
  0
CIRCLE
  5
C0D4
330
19
100
AcDbEntity
  8
01
100
AcDbCircle
 10
-513.4879593741907
 20
437.5561159714692
 30
0.0
 40
5.0
  0
LINE
  5
C103
330
19
100
AcDbEntity
  8
01
100
AcDbLine
 10
-513.4879593741907
 20
445.5561159714691
 30
0.0
 11
-496.4879593741936
 21
445.5561159714691
 31
0.0
  0
LINE
  5
C106
330
19
100
AcDbEntity
  8
01
100
AcDbLine
 10
-524.8879593741908
 20
445.5561159714692
 30
0.0
 11
-513.4879593741907
 21
445.5561159714692
 31
0.0
  0
ARC
  5
C113
330
19
100
AcDbEntity
  8
01
100
AcDbCircle
 10
-495.9879593741908
 20
391.2061159714692
 30
0.0
 40
0.5
100
AcDbArc
 50
270.0
 51
0.0
  0
ARC
  5
C114
330
19
100
AcDbEntity
  8
01
100
AcDbCircle
 10
-495.9879593741907
 20
383.9061159714692
 30
0.0
 40
0.5
100
AcDbArc
 50
0.0
 51
90.0
  0
LINE
  5
C14E
330
19
100
AcDbEntity
  8
01
100
AcDbLine
 10
-517.5879593741909
 20
409.9561159714692
 30
0.0
 11
-503.1879593741909
 21
409.9561159714692
 31
0.0
  0
LINE
  5
C36A
330
19
100
AcDbEntity
  8
01
100
AcDbLine
 10
-517.0379593741936
 20
391.1061159714692
 30
0.0
 11
-515.6655243018047
 21
391.1061159714692
 31
0.0
  0
LINE
  5
C36B
330
19
100
AcDbEntity
  8
01
100
AcDbLine
 10
-517.0379593741936
 20
384.0061159714957
 30
0.0
 11
-515.6655243018313
 21
384.0061159714957
 31
0.0
  0
LINE
  5
C36C
330
19
100
AcDbEntity
  8
01
100
AcDbLine
 10
-517.0379593741936
 20
384.0061159714957
 30
0.0
 11
-517.0379593741936
 21
385.378551043858
 31
0.0
  0
LINE
  5
C36D
330
19
100
AcDbEntity
  8
01
100
AcDbLine
 10
-509.93795937422
 20
384.0061159714957
 30
0.0
 11
-509.93795937422
 21
385.3785510438316
 31
0.0
  0
LINE
  5
C36E
330
19
100
AcDbEntity
  8
01
100
AcDbLine
 10
-511.3103944465828
 20
391.1061159714693
 30
0.0
 11
-509.93795937422
 21
391.1061159714693
 31
0.0
  0
LINE
  5
C36F
330
19
100
AcDbEntity
  8
01
100
AcDbLine
 10
-517.0379593741934
 20
389.7336808990804
 30
0.0
 11
-517.0379593741936
 21
391.1061159714693
 31
0.0
  0
LINE
  5
C370
330
19
100
AcDbEntity
  8
01
100
AcDbLine
 10
-511.3103944465561
 20
384.0061159714957
 30
0.0
 11
-509.93795937422
 21
384.0061159714957
 31
0.0
  0
LINE
  5
C371
330
19
100
AcDbEntity
  8
01
100
AcDbLine
 10
-509.93795937422
 20
389.7336808991066
 30
0.0
 11
-509.93795937422
 21
391.1061159714693
 31
0.0
  0
CIRCLE
  5
C37A
330
19
100
AcDbEntity
  8
01
100
AcDbCircle
 10
-513.4879593741907
 20
387.5561159714692
 30
0.0
 40
7.45
  0
LINE
  5
C382
330
19
100
AcDbEntity
  8
01
100
AcDbLine
 10
-519.2155243018303
 20
387.556115971495
 30
0.0
 11
-517.0379593741936
 21
385.3785510438581
 31
0.0
  0
LINE
  5
C383
330
19
100
AcDbEntity
  8
01
100
AcDbLine
 10
-513.4879593742195
 20
393.283680899106
 30
0.0
 11
-511.3103944465828
 21
391.1061159714693
 31
0.0
  0
LINE
  5
C384
330
19
100
AcDbEntity
  8
01
100
AcDbLine
 10
-519.2155243018046
 20
387.5561159714692
 30
0.0
 11
-517.0379593741936
 21
389.7336808990804
 31
0.0
  0
LINE
  5
C385
330
19
100
AcDbEntity
  8
01
100
AcDbLine
 10
-513.4879593741935
 20
381.8285510438581
 30
0.0
 11
-511.3103944465561
 21
384.0061159714957
 31
0.0
  0
LINE
  5
C386
330
19
100
AcDbEntity
  8
01
100
AcDbLine
 10
-509.93795937422
 20
389.7336808991066
 30
0.0
 11
-507.7603944465823
 21
387.5561159714689
 31
0.0
  0
LINE
  5
C387
330
19
100
AcDbEntity
  8
01
100
AcDbLine
 10
-515.6655243018312
 20
384.0061159714957
 30
0.0
 11
-513.4879593741935
 21
381.8285510438581
 31
0.0
  0
LINE
  5
C388
330
19
100
AcDbEntity
  8
01
100
AcDbLine
 10
-509.93795937422
 20
385.3785510438316
 30
0.0
 11
-507.7603944465826
 21
387.5561159714692
 31
0.0
  0
LINE
  5
C389
330
19
100
AcDbEntity
  8
01
100
AcDbLine
 10
-515.6655243018047
 20
391.1061159714692
 30
0.0
 11
-513.4879593741935
 21
393.2836808990803
 31
0.0
  0
LINE
  5
C39E
330
19
100
AcDbEntity
  8
01
100
AcDbLine
 10
-514.9879593741941
 20
394.8535470262987
 30
0.0
 11
-514.9879593741939
 21
394.0061159714692
 31
0.0
  0
LINE
  5
C39F
330
19
100
AcDbEntity
  8
01
100
AcDbLine
 10
-511.9879593741941
 20
394.8535470263001
 30
0.0
 11
-511.987959374194
 21
394.0061159714692
 31
0.0
  0
LINE
  5
C3A0
330
19
100
AcDbEntity
  8
01
100
AcDbLine
 10
-520.7853904290207
 20
386.0561159714683
 30
0.0
 11
-519.9379593741908
 21
386.0561159714683
 31
0.0
  0
LINE
  5
C3A1
330
19
100
AcDbEntity
  8
01
100
AcDbLine
 10
-520.7853904290212
 20
389.0561159714683
 30
0.0
 11
-519.9379593741908
 21
389.0561159714683
 31
0.0
  0
LINE
  5
C3A2
330
19
100
AcDbEntity
  8
01
100
AcDbLine
 10
-511.9879593741944
 20
380.2586849166383
 30
0.0
 11
-511.9879593741941
 21
381.1061159714693
 31
0.0
  0
LINE
  5
C3A3
330
19
100
AcDbEntity
  8
01
100
AcDbLine
 10
-514.9879593741944
 20
380.2586849166398
 30
0.0
 11
-514.9879593741941
 21
381.1061159714693
 31
0.0
  0
LINE
  5
C3A4
330
19
100
AcDbEntity
  8
01
100
AcDbLine
 10
-506.1905283193603
 20
389.0561159714682
 30
0.0
 11
-507.0379593741908
 21
389.0561159714682
 31
0.0
  0
LINE
  5
C3A5
330
19
100
AcDbEntity
  8
01
100
AcDbLine
 10
-506.1905283193607
 20
386.0561159714682
 30
0.0
 11
-507.0379593741908
 21
386.0561159714682
 31
0.0
  0
LINE
  5
C3AF
330
19
100
AcDbEntity
  8
01
100
AcDbLine
 10
-514.9879593741939
 20
394.0061159714692
 30
0.0
 11
-511.987959374194
 21
394.0061159714692
 31
0.0
  0
LINE
  5
C3B0
330
19
100
AcDbEntity
  8
01
100
AcDbLine
 10
-514.9879593741939
 20
381.1061159714693
 30
0.0
 11
-511.987959374194
 21
381.1061159714693
 31
0.0
  0
LINE
  5
C3B1
330
19
100
AcDbEntity
  8
01
100
AcDbLine
 10
-519.9379593741908
 20
386.0561159714659
 30
0.0
 11
-519.9379593741908
 21
389.0561159714659
 31
0.0
  0
LINE
  5
C3B2
330
19
100
AcDbEntity
  8
01
100
AcDbLine
 10
-507.0379593741908
 20
386.0561159714659
 30
0.0
 11
-507.0379593741908
 21
389.0561159714659
 31
0.0
  0
LINE
  5
C3EE
330
19
100
AcDbEntity
  8
01
100
AcDbLine
 10
-509.4879593741935
 20
411.8061159714692
 30
0.0
 11
-509.4879593741935
 21
409.9561159714693
 31
0.0
  0
LINE
  5
C3F2
330
19
100
AcDbEntity
  8
01
100
AcDbLine
 10
-512.7379593741935
 20
411.7867235517965
 30
0.0
 11
-512.7379593741935
 21
409.9561159714692
 31
0.0
  0
LINE
  5
C3F4
330
19
100
AcDbEntity
  8
01
100
AcDbLine
 10
-512.3223663277092
 20
412.3061159714691
 30
0.0
 11
-509.9879593741935
 21
412.3061159714692
 31
0.0
  0
LINE
  5
C3F6
330
19
100
AcDbEntity
  8
01
100
AcDbLine
 10
-509.4879593741935
 20
411.8061159714692
 30
0.0
 11
-509.9879593741935
 21
412.3061159714692
 31
0.0
  0
LINE
  5
C3F7
330
19
100
AcDbEntity
  8
01
100
AcDbLine
 10
-509.9879593741935
 20
412.3061159714692
 30
0.0
 11
-509.9879593741935
 21
409.9561159714692
 31
0.0
  0
LINE
  5
C413
330
19
100
AcDbEntity
  8
01
100
AcDbLine
 10
-512.7879593741941
 20
411.5561159714692
 30
0.0
 11
-512.7379593741933
 21
411.5561159714692
 31
0.0
  0
LINE
  5
C431
330
19
100
AcDbEntity
  8
01
100
AcDbLine
 10
-548.2879593741934
 20
403.0561159714692
 30
0.0
 11
-548.2879593741934
 21
401.0561159714692
 31
0.0
  0
LINE
  5
C434
330
19
100
AcDbEntity
  8
01
100
AcDbLine
 10
-514.4879593741941
 20
417.6561159714692
 30
0.0
 11
-514.4879593741941
 21
409.9561159714692
 31
0.0
  0
LINE
  5
C43B
330
19
100
AcDbEntity
  8
01
100
AcDbLine
 10
-513.7879593741941
 20
417.6561159714692
 30
0.0
 11
-513.7879593741941
 21
409.9561159714692
 31
0.0
  0
LINE
  5
C43E
330
19
100
AcDbEntity
  8
01
100
AcDbLine
 10
-512.7879593741941
 20
412.0506099081225
 30
0.0
 11
-512.7879593741942
 21
409.9561159714692
 31
0.0
  0
ELLIPSE
  5
C440
330
19
100
AcDbEntity
  8
01
100
AcDbEllipse
 10
-513.4879593741941
 20
412.0561159714692
 30
0.0
 11
6.263193629924982E-17
 21
1.022857142857134
 31
0.0
210
0.0
220
0.0
230
1.0
 40
0.6806933540378481
 41
4.712388980384668
 42
5.853581184436872
  0
LINE
  5
C44F
330
19
100
AcDbEntity
  8
01
100
AcDbLine
 10
-513.7028516676123
 20
413.0789731143263
 30
0.0
 11
-513.7879593741941
 21
413.0789731143263
 31
0.0
  0
LINE
  5
C453
330
19
100
AcDbEntity
  8
01
100
AcDbLine
 10
-514.4879593741941
 20
417.5561159714692
 30
0.0
 11
-516.4879593741941
 21
417.5561159714692
 31
0.0
  0
LINE
  5
C454
330
19
100
AcDbEntity
  8
01
100
AcDbLine
 10
-514.4879593741941
 20
410.0561159714692
 30
0.0
 11
-516.4879593741941
 21
410.0561159714692
 31
0.0
  0
LINE
  5
C459
330
19
100
AcDbEntity
  8
01
100
AcDbLine
 10
-516.4879593741941
 20
417.6561159714693
 30
0.0
 11
-516.4879593741941
 21
409.9561159714692
 31
0.0
  0
LINE
  5
C45C
330
19
100
AcDbEntity
  8
01
100
AcDbLine
 10
-517.4879593741941
 20
417.2561159714692
 30
0.0
 11
-516.4879593741941
 21
417.2561159714692
 31
0.0
  0
LINE
  5
C45F
330
19
100
AcDbEntity
  8
01
100
AcDbLine
 10
-517.4879593741941
 20
410.3561159714692
 30
0.0
 11
-516.4879593741941
 21
410.3561159714692
 31
0.0
  0
LINE
  5
C462
330
19
100
AcDbEntity
  8
01
100
AcDbLine
 10
-516.4879593741941
 20
417.6561159714692
 30
0.0
 11
-516.4879593741941
 21
409.9561159714692
 31
0.0
  0
LINE
  5
C463
330
19
100
AcDbEntity
  8
01
100
AcDbLine
 10
-517.4879593741941
 20
417.6561159714692
 30
0.0
 11
-517.4879593741941
 21
409.9561159714692
 31
0.0
  0
ARC
  5
C482
330
19
100
AcDbEntity
  8
01
100
AcDbCircle
 10
-561.3879593741935
 20
509.9707955451684
 30
0.0
 40
1.6
100
AcDbArc
 50
115.944479771993
 51
180.0
  0
ARC
  5
C483
330
19
100
AcDbEntity
  8
01
100
AcDbCircle
 10
-561.3879593741935
 20
502.8482944591684
 30
0.0
 40
1.6
100
AcDbArc
 50
180.0
 51
244.055520228007
  0
ARC
  5
C484
330
19
100
AcDbEntity
  8
01
100
AcDbCircle
 10
-562.0879593741934
 20
501.5707955451684
 30
0.0
 40
1.6
100
AcDbArc
 50
0.0
 51
64.05552022800694
  0
ARC
  5
C485
330
19
100
AcDbEntity
  8
01
100
AcDbCircle
 10
-562.0879593741934
 20
511.2482944591684
 30
0.0
 40
1.6
100
AcDbArc
 50
295.944479771993
 51
0.0
  0
LINE
  5
C486
330
19
100
AcDbEntity
  8
01
100
AcDbLine
 10
-560.4879593741935
 20
511.2482944591684
 30
0.0
 11
-560.4879593741932
 21
518.6095450021684
 31
0.0
  0
LINE
  5
C487
330
19
100
AcDbEntity
  8
01
100
AcDbLine
 10
-561.3879593741935
 20
503.0095450021684
 30
0.0
 11
-561.3879593741935
 21
509.8095450021684
 31
0.0
  0
LINE
  5
C488
330
19
100
AcDbEntity
  8
01
100
AcDbLine
 10
-560.4879593741935
 20
494.4095450021683
 30
0.0
 11
-560.4879593741935
 21
501.5707955451684
 31
0.0
  0
LINE
  5
C48B
330
19
100
AcDbEntity
  8
01
100
AcDbLine
 10
-562.0879593741934
 20
511.4095450021684
 30
0.0
 11
-562.0879593741931
 21
518.6095450021684
 31
0.0
  0
LINE
  5
C48D
330
19
100
AcDbEntity
  8
01
100
AcDbLine
 10
-562.0879593741934
 20
501.4095450021684
 30
0.0
 11
-562.0879593741934
 21
494.3095450021684
 31
0.0
  0
ARC
  5
C48F
330
19
100
AcDbEntity
  8
01
100
AcDbCircle
 10
-497.0879593741936
 20
514.3095450021684
 30
0.0
 40
1.6
100
AcDbArc
 50
0.0
 51
90.0
  0
LINE
  5
C490
330
19
100
AcDbEntity
  8
01
100
AcDbLine
 10
-562.9879593741932
 20
518.8095450021684
 30
0.0
 11
-562.9879593741936
 21
494.0095450021685
 31
0.0
  0
LINE
  5
C491
330
19
100
AcDbEntity
  8
01
100
AcDbLine
 10
-497.0879593741936
 20
515.9095450021684
 30
0.0
 11
-560.4879593741935
 21
515.9095450021684
 31
0.0
  0
LINE
  5
C492
330
19
100
AcDbEntity
  8
01
100
AcDbLine
 10
-497.0879593741936
 20
498.7095450021684
 30
0.0
 11
-497.0879593741936
 21
515.9095450021684
 31
0.0
  0
LINE
  5
C493
330
19
100
AcDbEntity
  8
01
100
AcDbLine
 10
-495.4879593741935
 20
497.1095450021684
 30
0.0
 11
-495.4879593741935
 21
514.3095450021684
 31
0.0
  0
LINE
  5
C499
330
19
100
AcDbEntity
  8
01
100
AcDbLine
 10
-562.9879593741932
 20
518.6095450021684
 30
0.0
 11
-560.4879593741932
 21
518.6095450021684
 31
0.0
  0
LINE
  5
C49A
330
19
100
AcDbEntity
  8
01
100
AcDbLine
 10
-560.4879593741935
 20
494.4095450021683
 30
0.0
 11
-562.0879593741934
 21
494.4095450021683
 31
0.0
  0
LINE
  5
C49B
330
19
100
AcDbEntity
  8
01
100
AcDbLine
 10
-562.0879593741936
 20
494.3095450021685
 30
0.0
 11
-562.9879593741935
 21
494.3095450021685
 31
0.0
  0
ARC
  5
C49C
330
19
100
AcDbEntity
  8
01
100
AcDbCircle
 10
-565.7873644467945
 20
500.7095450021691
 30
0.0
 40
0.3000000000000051
100
AcDbArc
 50
232.8678058729731
 51
270.0
  0
LINE
  5
C49D
330
19
100
AcDbEntity
  8
01
100
AcDbLine
 10
-564.9879593741932
 20
500.4095450021691
 30
0.0
 11
-565.7873644467945
 21
500.4095450021691
 31
0.0
  0
LINE
  5
C49E
330
19
100
AcDbEntity
  8
01
100
AcDbLine
 10
-575.3879593741935
 20
510.0825338683733
 30
0.0
 11
-575.3879593741935
 21
509.9119118128242
 31
0.0
  0
ARC
  5
C49F
330
19
100
AcDbEntity
  8
01
100
AcDbCircle
 10
-575.0879593741936
 20
509.9119118128242
 30
0.0
 40
0.3
100
AcDbArc
 50
180.0
 51
217.7405295629802
  0
ARC
  5
C4A0
330
19
100
AcDbEntity
  8
01
100
AcDbCircle
 10
-535.7856587749093
 20
540.332614756765
 30
0.0
 40
50.00000000000002
100
AcDbArc
 50
217.7405295629802
 51
232.8678058729731
  0
LINE
  5
C4A1
330
19
100
AcDbEntity
  8
01
100
AcDbLine
 10
-575.5879593741936
 20
511.2095450021686
 30
0.0
 11
-575.5879593741936
 21
511.9095450021684
 31
0.0
  0
ARC
  5
C4A2
330
19
100
AcDbEntity
  8
01
100
AcDbCircle
 10
-575.0879593741936
 20
511.9095450021684
 30
0.0
 40
0.5000000000000142
100
AcDbArc
 50
90.0
 51
180.0
  0
LINE
  5
C4A3
330
19
100
AcDbEntity
  8
01
100
AcDbLine
 10
-564.9879593741932
 20
512.4095450021684
 30
0.0
 11
-575.0879593741936
 21
512.4095450021684
 31
0.0
  0
LINE
  5
C4A4
330
19
100
AcDbEntity
  8
01
100
AcDbLine
 10
-575.5879593741936
 20
510.8308653457282
 30
0.0
 11
-575.5879593741936
 21
511.2095450021686
 31
0.0
  0
SPLINE
  5
C4A5
330
19
100
AcDbEntity
  8
01
100
AcDbSpline
210
0.0
220
0.0
230
1.0
 70
     8
 71
     3
 72
     8
 73
     4
 74
     0
 42
0.0000000001
 43
0.0000000001
 40
0.0
 40
0.0
 40
0.0
 40
0.0
 40
1.0
 40
1.0
 40
1.0
 40
1.0
 10
-575.5622268329287
 20
510.5542149162791
 30
0.0
 10
-575.5796947190399
 20
510.6473011121595
 30
0.0
 10
-575.5879593741936
 20
510.7405671230511
 30
0.0
 10
-575.5879593741936
 20
510.8308653457286
 30
0.0
  0
ARC
  5
C4A6
330
19
100
AcDbEntity
  8
01
100
AcDbCircle
 10
-574.0879593741936
 20
510.8308653457282
 30
0.0
 40
1.499999999999998
100
AcDbArc
 50
190.6281129876048
 51
224.9999999999968
  0
LINE
  5
C4A7
330
19
100
AcDbEntity
  8
01
100
AcDbLine
 10
-564.4879593741935
 20
513.2595450021686
 30
0.0
 11
-564.9879593741932
 21
513.2595450021686
 31
0.0
  0
LINE
  5
C4A8
330
19
100
AcDbEntity
  8
01
100
AcDbLine
 10
-564.9879593741932
 20
499.5595450021685
 30
0.0
 11
-564.4879593741935
 21
499.5595450021685
 31
0.0
  0
LINE
  5
C4A9
330
19
100
AcDbEntity
  8
01
100
AcDbLine
 10
-564.9879593741932
 20
499.5595450021685
 30
0.0
 11
-564.9879593741932
 21
513.2595450021686
 31
0.0
  0
LINE
  5
C4AA
330
19
100
AcDbEntity
  8
01
100
AcDbLine
 10
-564.4879593741935
 20
518.8095450021684
 30
0.0
 11
-562.9879593741932
 21
518.8095450021684
 31
0.0
  0
LINE
  5
C4AB
330
19
100
AcDbEntity
  8
01
100
AcDbLine
 10
-564.4879593741935
 20
494.0095450021685
 30
0.0
 11
-562.9879593741936
 21
494.0095450021685
 31
0.0
  0
LINE
  5
C4AC
330
19
100
AcDbEntity
  8
01
100
AcDbLine
 10
-564.4879593741935
 20
494.0095450021685
 30
0.0
 11
-564.4879593741935
 21
518.8095450021684
 31
0.0
  0
LINE
  5
C4B0
330
19
100
AcDbEntity
  8
01
100
AcDbLine
 10
-495.4879593741935
 20
498.7095450021684
 30
0.0
 11
-560.4879593741935
 21
498.7095450021684
 31
0.0
  0
LINE
  5
C4B1
330
19
100
AcDbEntity
  8
01
100
AcDbLine
 10
-495.4879593741935
 20
497.1095450021684
 30
0.0
 11
-545.8879593741935
 21
497.1095450021684
 31
0.0
  0
LINE
  5
C4B2
330
19
100
AcDbEntity
  8
01
100
AcDbLine
 10
-543.0507010739905
 20
497.1095450021684
 30
0.0
 11
-560.4879593741936
 21
497.1095450021684
 31
0.0
  0
LINE
  5
C4B4
330
19
100
AcDbEntity
  8
01
100
AcDbLine
 10
-565.9344059836005
 20
500.5559916115751
 30
0.0
 11
-575.1486195459736
 21
509.7702051739482
 31
0.0
  0
ARC
  5
C4B5
330
19
100
AcDbEntity
  8
01
100
AcDbCircle
 10
-565.5808525930072
 20
500.9095450021684
 30
0.0
 40
0.5
100
AcDbArc
 50
225.0000000000096
 51
270.0
  0
LINE
  5
C4B6
330
19
100
AcDbEntity
  8
01
100
AcDbLine
 10
-564.9879593741932
 20
500.4095450021684
 30
0.0
 11
-565.5808525930072
 21
500.4095450021684
 31
0.0
  0
LINE
  5
C4F7
330
19
100
AcDbEntity
  8
01
100
AcDbLine
 10
-536.7879593741908
 20
403.1061159714824
 30
0.0
 11
-536.7879593741908
 21
403.0561159714824
 31
0.0
  0
LINE
  5
C4F8
330
19
100
AcDbEntity
  8
01
100
AcDbLine
 10
-552.4879593741906
 20
403.1061159714824
 30
0.0
 11
-552.4879593741906
 21
401.0661410972692
 31
0.0
  0
LINE
  5
C4F9
330
19
100
AcDbEntity
  8
01
100
AcDbLine
 10
-552.4879593741906
 20
403.1061159714824
 30
0.0
 11
-552.2879593741908
 21
403.1061159714824
 31
0.0
  0
LINE
  5
C4FA
330
19
100
AcDbEntity
  8
01
100
AcDbLine
 10
-552.4879593741906
 20
401.0061159714824
 30
0.0
 11
-536.7879593741908
 21
401.0061159714824
 31
0.0
  0
LINE
  5
C4FB
330
19
100
AcDbEntity
  8
01
100
AcDbLine
 10
-536.7879593741908
 20
403.0561159714824
 30
0.0
 11
-536.7879593741908
 21
401.0561159714824
 31
0.0
  0
LINE
  5
C4FC
330
19
100
AcDbEntity
  8
01
100
AcDbLine
 10
-536.7879593741908
 20
401.0561159714824
 30
0.0
 11
-536.7879593741908
 21
401.0061159714824
 31
0.0
  0
LINE
  5
C4FD
330
19
100
AcDbEntity
  8
01
100
AcDbLine
 10
-552.2879593741908
 20
403.1061159714824
 30
0.0
 11
-536.7879593741908
 21
403.1061159714824
 31
0.0
  0
LINE
  5
C4FE
330
19
100
AcDbEntity
  8
01
100
AcDbLine
 10
-552.4879593741906
 20
401.0661410972692
 30
0.0
 11
-552.4879593741906
 21
401.0061159714824
 31
0.0
  0
LINE
  5
C558
330
19
100
AcDbEntity
  8
1CENTER
100
AcDbLine
 10
-650.8631149173916
 20
351.5561159714691
 30
0.0
 11
-662.6131657332041
 21
351.5561159714691
 31
0.0
  0
LINE
  5
C559
330
19
100
AcDbEntity
  8
1CENTER
100
AcDbLine
 10
-656.7381403252979
 20
357.4311413793753
 30
0.0
 11
-656.7381403252979
 21
345.6810905635628
 31
0.0
  0
LINE
  5
C55A
330
19
100
AcDbEntity
  8
1CENTER
100
AcDbLine
 10
-650.8631149173916
 20
465.5561159714691
 30
0.0
 11
-662.6131657332041
 21
465.5561159714691
 31
0.0
  0
LINE
  5
C55B
330
19
100
AcDbEntity
  8
1CENTER
100
AcDbLine
 10
-656.7381403252979
 20
471.4311413793753
 30
0.0
 11
-656.7381403252979
 21
459.6810905635628
 31
0.0
  0
LINE
  5
C730
330
19
100
AcDbEntity
  8
1CENTER
100
AcDbLine
 10
-497.7994271565876
 20
387.5561159714692
 30
0.0
 11
-532.4331660256822
 21
387.5561159714692
 31
0.0
  0
LINE
  5
C731
330
19
100
AcDbEntity
  8
1CENTER
100
AcDbLine
 10
-513.4879593741907
 20
396.7304920194561
 30
0.0
 11
-513.4879593741907
 21
377.9996016897399
 31
0.0
  0
LINE
  5
CC67
330
19
100
AcDbEntity
  8
01
100
AcDbLine
 10
-517.0942039582449
 20
437.5561159714692
 30
0.0
 11
-513.4879593741935
 21
441.1623605555205
 31
0.0
  0
LINE
  5
CC68
330
19
100
AcDbEntity
  8
01
100
AcDbLine
 10
-509.881714790142
 20
437.5561159714692
 30
0.0
 11
-513.4879593741935
 21
441.1623605555205
 31
0.0
  0
LINE
  5
CC69
330
19
100
AcDbEntity
  8
01
100
AcDbLine
 10
-517.0942039582449
 20
437.5561159714692
 30
0.0
 11
-513.4879593741935
 21
433.9498713874178
 31
0.0
  0
LINE
  5
CC6A
330
19
100
AcDbEntity
  8
01
100
AcDbLine
 10
-509.881714790142
 20
437.5561159714692
 30
0.0
 11
-513.4879593741935
 21
433.9498713874178
 31
0.0
  0
TEXT
  5
CCBE
330
19
100
AcDbEntity
  8
1TEXT
100
AcDbText
 10
-690.9230606455942
 20
505.4523249806444
 30
0.0
 40
10.0
  1
LJK
100
AcDbText
  0
LINE
  5
D599
330
19
100
AcDbEntity
  8
01
100
AcDbLine
 10
-575.487959374193
 20
418.5877862384853
 30
0.0
 11
-575.487959374193
 21
400.5244457044793
 31
0.0
  0
LINE
  5
D59A
330
19
100
AcDbEntity
  8
01
100
AcDbLine
 10
-571.1950661553797
 20
419.5561159714823
 30
0.0
 11
-564.487959374193
 21
419.5561159714823
 31
0.0
  0
LINE
  5
D59B
330
19
100
AcDbEntity
  8
01
100
AcDbLine
 10
-571.1950661553797
 20
399.5561159714823
 30
0.0
 11
-564.487959374193
 21
399.5561159714823
 31
0.0
  0
LINE
  5
D59C
330
19
100
AcDbEntity
  8
01
100
AcDbLine
 10
-565.6950661553794
 20
414.8061159714822
 30
0.0
 11
-565.6950661553797
 21
404.3061159714823
 31
0.0
  0
ARC
  5
D59D
330
19
100
AcDbEntity
  8
01
100
AcDbCircle
 10
-571.1950661553797
 20
409.5561159714822
 30
0.0
 40
10.00000000000009
100
AcDbArc
 50
53.13010235415046
 51
115.4224671781195
  0
ARC
  5
D59E
330
19
100
AcDbEntity
  8
01
100
AcDbCircle
 10
-571.1950661553797
 20
409.5561159714824
 30
0.0
 40
10.00000000000009
100
AcDbArc
 50
244.5775328218805
 51
306.8698976458418
  0
LINE
  5
D59F
330
19
100
AcDbEntity
  8
01
100
AcDbLine
 10
-565.1950661553794
 20
417.5561159714823
 30
0.0
 11
-565.1950661553794
 21
401.5561159714823
 31
0.0
  0
LINE
  5
D5A0
330
19
100
AcDbEntity
  8
01
100
AcDbLine
 10
-575.487959374193
 20
414.8061159714823
 30
0.0
 11
-565.6950661553794
 21
414.8061159714823
 31
0.0
  0
LINE
  5
D5A1
330
19
100
AcDbEntity
  8
01
100
AcDbLine
 10
-575.487959374193
 20
404.3061159714823
 30
0.0
 11
-565.6950661553794
 21
404.3061159714823
 31
0.0
  0
LINE
  5
D5B8
330
19
100
AcDbEntity
  8
01
100
AcDbLine
 10
-663.7381403252979
 20
417.7147004075094
 30
0.0
 11
-663.7381403252979
 21
401.3975315354288
 31
0.0
  0
LINE
  5
D5B9
330
19
100
AcDbEntity
  8
01
100
AcDbLine
 10
-649.7381403252979
 20
417.7147004075094
 30
0.0
 11
-649.7381403252979
 21
401.3975315354288
 31
0.0
  0
ARC
  5
D5BA
330
19
100
AcDbEntity
  8
01
100
AcDbCircle
 10
-656.7381403252979
 20
409.5561159714692
 30
0.0
 40
10.75
100
AcDbArc
 50
49.37067121667359
 51
130.6293287833264
  0
ARC
  5
D5BB
330
19
100
AcDbEntity
  8
01
100
AcDbCircle
 10
-656.7381403252979
 20
409.5561159714692
 30
0.0
 40
10.75
100
AcDbArc
 50
229.3706712166736
 51
310.6293287833264
  0
LINE
  5
D5BC
330
19
100
AcDbEntity
  8
01
100
AcDbLine
 10
-663.5881403252979
 20
417.7108691866192
 30
0.0
 11
-663.5881403252979
 21
401.401362756319
 31
0.0
  0
LINE
  5
D5BD
330
19
100
AcDbEntity
  8
01
100
AcDbLine
 10
-649.8881403252979
 20
417.7108691866192
 30
0.0
 11
-649.8881403252979
 21
401.401362756319
 31
0.0
  0
ARC
  5
D5BE
330
19
100
AcDbEntity
  8
01
100
AcDbCircle
 10
-656.7381403252979
 20
409.5561159714692
 30
0.0
 40
10.15
100
AcDbArc
 50
231.9925780701377
 51
308.0074219298623
  0
LINE
  5
D5BF
330
19
100
AcDbEntity
  8
01
100
AcDbLine
 10
-662.9881403252979
 20
417.5536155807221
 30
0.0
 11
-662.9881403252979
 21
401.5586163622163
 31
0.0
  0
LINE
  5
D5C0
330
19
100
AcDbEntity
  8
01
100
AcDbLine
 10
-650.4881403252979
 20
417.5536155807221
 30
0.0
 11
-650.4881403252979
 21
401.5586163622163
 31
0.0
  0
ARC
  5
D5C1
330
19
100
AcDbEntity
  8
01
100
AcDbCircle
 10
-656.7381403252979
 20
409.5561159714692
 30
0.0
 40
10.15
100
AcDbArc
 50
51.99257807014197
 51
128.007421929858
  0
ARC
  5
D5C2
330
19
100
AcDbEntity
  8
01
100
AcDbCircle
 10
-656.7381403252979
 20
409.5561159714692
 30
0.0
 40
10.0
100
AcDbArc
 50
56.25101140411616
 51
123.7489885958838
  0
LINE
  5
D5C3
330
19
100
AcDbEntity
  8
01
100
AcDbLine
 10
-662.7381403252979
 20
417.0394307450171
 30
0.0
 11
-662.7381403252979
 21
402.0728011979213
 31
0.0
  0
LINE
  5
D5C4
330
19
100
AcDbEntity
  8
01
100
AcDbLine
 10
-650.7381403252979
 20
417.0394307450171
 30
0.0
 11
-650.7381403252979
 21
402.0728011979213
 31
0.0
  0
ARC
  5
D5C5
330
19
100
AcDbEntity
  8
01
100
AcDbCircle
 10
-656.7381403252979
 20
409.5561159714692
 30
0.0
 40
10.0
100
AcDbArc
 50
236.251011404112
 51
303.7489885958879
  0
LINE
  5
D5C6
330
19
100
AcDbEntity
  8
01
100
AcDbLine
 10
-661.2381403252979
 20
414.5561159714692
 30
0.0
 11
-661.2381403252979
 21
404.5561159714692
 31
0.0
  0
ARC
  5
D5C7
330
19
100
AcDbEntity
  8
01
100
AcDbCircle
 10
-661.7381403252979
 20
417.0394307450169
 30
0.0
 40
1.0
100
AcDbArc
 50
123.7489885958838
 51
180.0
  0
ARC
  5
D5C8
330
19
100
AcDbEntity
  8
01
100
AcDbCircle
 10
-651.7381403252979
 20
417.0394307450171
 30
0.0
 40
1.0
100
AcDbArc
 50
0.0
 51
56.25101140411616
  0
ARC
  5
D5C9
330
19
100
AcDbEntity
  8
01
100
AcDbCircle
 10
-661.7381403252979
 20
402.0728011979213
 30
0.0
 40
1.0
100
AcDbArc
 50
180.0
 51
236.251011404112
  0
ARC
  5
D5CA
330
19
100
AcDbEntity
  8
01
100
AcDbCircle
 10
-651.7381403252979
 20
402.0728011979213
 30
0.0
 40
1.0
100
AcDbArc
 50
303.7489885958879
 51
0.0
  0
ARC
  5
D5CB
330
19
100
AcDbEntity
  8
01
100
AcDbCircle
 10
-656.7381403252979
 20
409.5561159714692
 30
0.0
 40
10.65
100
AcDbArc
 50
228.9074698669338
 51
311.0925301330662
  0
ARC
  5
D5CC
330
19
100
AcDbEntity
  8
01
100
AcDbCircle
 10
-656.7381403252979
 20
409.5561159714692
 30
0.0
 40
10.65
100
AcDbArc
 50
48.90746986693383
 51
131.0925301330662
  0
LINE
  5
D5CD
330
19
100
AcDbEntity
  8
01
100
AcDbLine
 10
-651.2381403252979
 20
414.8061159714692
 30
0.0
 11
-651.2381403252979
 21
404.3061159714692
 31
0.0
  0
LINE
  5
D5CE
330
19
100
AcDbEntity
  8
01
100
AcDbLine
 10
-660.7381403252979
 20
418.7212673613808
 30
0.0
 11
-660.7381403252979
 21
414.8061159714691
 31
0.0
  0
LINE
  5
D5CF
330
19
100
AcDbEntity
  8
01
100
AcDbLine
 10
-662.2381403252979
 20
414.8061159714691
 30
0.0
 11
-662.2381403252979
 21
404.3061159714693
 31
0.0
  0
LINE
  5
D5D0
330
19
100
AcDbEntity
  8
01
100
AcDbLine
 10
-660.7381403252979
 20
404.3061159714693
 30
0.0
 11
-660.7381403252979
 21
400.3909645815575
 31
0.0
  0
LINE
  5
D5D1
330
19
100
AcDbEntity
  8
01
100
AcDbLine
 10
-662.2381403252979
 20
414.8061159714692
 30
0.0
 11
-651.2381403252979
 21
414.8061159714692
 31
0.0
  0
LINE
  5
D5D2
330
19
100
AcDbEntity
  8
01
100
AcDbLine
 10
-662.2381403252979
 20
414.5561159714692
 30
0.0
 11
-651.2381403252979
 21
414.5561159714691
 31
0.0
  0
LINE
  5
D5D3
330
19
100
AcDbEntity
  8
01
100
AcDbLine
 10
-662.2381403252979
 20
404.3061159714692
 30
0.0
 11
-651.2381403252979
 21
404.3061159714692
 31
0.0
  0
LINE
  5
D5D4
330
19
100
AcDbEntity
  8
01
100
AcDbLine
 10
-662.2381403252979
 20
404.5561159714692
 30
0.0
 11
-651.2381403252979
 21
404.5561159714693
 31
0.0
  0
LINE
  5
D5D5
330
19
100
AcDbEntity
  8
1DIM
100
AcDbLine
 10
-513.4879593741907
 20
387.5561159714692
 30
0.0
 11
-464.2636542888679
 21
371.5621697158702
 31
0.0
  0
TEXT
  5
D5F3
330
19
100
AcDbEntity
  8
1TEXT
100
AcDbText
 10
-461.8721056037876
 20
376.5309995680296
 30
0.0
 40
4.0
  1
（ストローク）
100
AcDbText
  0
CIRCLE
  5
E05E
330
19
100
AcDbEntity
  8
01
  6
BYBLOCK
100
AcDbCircle
 10
-500.9879593741935
 20
434.5561159714692
 30
0.0
 40
3.0
  0
LINE
  5
E05F
330
19
100
AcDbEntity
  8
01
  6
BYBLOCK
100
AcDbLine
 10
-501.5004593741935
 20
436.6061159714692
 30
0.0
 11
-500.4754593741935
 21
436.6061159714692
 31
0.0
  0
LINE
  5
E060
330
19
100
AcDbEntity
  8
01
  6
BYBLOCK
100
AcDbLine
 10
-498.9379593741935
 20
435.0686159714692
 30
0.0
 11
-498.9379593741935
 21
434.0436159714692
 31
0.0
  0
LINE
  5
E061
330
19
100
AcDbEntity
  8
01
  6
BYBLOCK
100
AcDbLine
 10
-501.5004593741935
 20
432.5061159714692
 30
0.0
 11
-500.4754593741935
 21
432.5061159714692
 31
0.0
  0
LINE
  5
E062
330
19
100
AcDbEntity
  8
01
  6
BYBLOCK
100
AcDbLine
 10
-503.0379593741935
 20
435.0686159714692
 30
0.0
 11
-503.0379593741935
 21
434.0436159714692
 31
0.0
  0
LINE
  5
E063
330
19
100
AcDbEntity
  8
01
  6
BYBLOCK
100
AcDbLine
 10
-500.4754593741935
 20
436.6061159714692
 30
0.0
 11
-500.4754593741935
 21
435.5811159714692
 31
0.0
  0
LINE
  5
E064
330
19
100
AcDbEntity
  8
01
  6
BYBLOCK
100
AcDbLine
 10
-501.5004593741935
 20
436.6061159714692
 30
0.0
 11
-501.5004593741935
 21
435.5811159714692
 31
0.0
  0
LINE
  5
E065
330
19
100
AcDbEntity
  8
01
  6
BYBLOCK
100
AcDbLine
 10
-500.4754593741935
 20
433.5311159714692
 30
0.0
 11
-500.4754593741935
 21
432.5061159714692
 31
0.0
  0
LINE
  5
E066
330
19
100
AcDbEntity
  8
01
  6
BYBLOCK
100
AcDbLine
 10
-501.5004593741935
 20
433.5311159714692
 30
0.0
 11
-501.5004593741935
 21
432.5061159714692
 31
0.0
  0
LINE
  5
E067
330
19
100
AcDbEntity
  8
01
  6
BYBLOCK
100
AcDbLine
 10
-503.0379593741935
 20
435.0686159714692
 30
0.0
 11
-502.0129593741934
 21
435.0686159714692
 31
0.0
  0
LINE
  5
E068
330
19
100
AcDbEntity
  8
01
  6
BYBLOCK
100
AcDbLine
 10
-503.0379593741935
 20
434.0436159714692
 30
0.0
 11
-502.0129593741934
 21
434.0436159714692
 31
0.0
  0
LINE
  5
E069
330
19
100
AcDbEntity
  8
01
  6
BYBLOCK
100
AcDbLine
 10
-499.9629593741935
 20
435.0686159714692
 30
0.0
 11
-498.9379593741935
 21
435.0686159714692
 31
0.0
  0
LINE
  5
E06A
330
19
100
AcDbEntity
  8
01
  6
BYBLOCK
100
AcDbLine
 10
-499.9629593741935
 20
434.0436159714692
 30
0.0
 11
-498.9379593741935
 21
434.0436159714692
 31
0.0
  0
ARC
  5
E06B
330
19
100
AcDbEntity
  8
01
  6
BYBLOCK
100
AcDbCircle
 10
-499.9629593741935
 20
435.5811159714692
 30
0.0
 40
0.5125
100
AcDbArc
 50
180.0
 51
270.0
  0
ARC
  5
E06C
330
19
100
AcDbEntity
  8
01
  6
BYBLOCK
100
AcDbCircle
 10
-502.0129593741934
 20
435.5811159714692
 30
0.0
 40
0.5125
100
AcDbArc
 50
270.0
 51
0.0
  0
ARC
  5
E06D
330
19
100
AcDbEntity
  8
01
  6
BYBLOCK
100
AcDbCircle
 10
-502.0129593741934
 20
433.5311159714692
 30
0.0
 40
0.5125
100
AcDbArc
 50
0.0
 51
90.0
  0
ARC
  5
E06E
330
19
100
AcDbEntity
  8
01
  6
BYBLOCK
100
AcDbCircle
 10
-499.9629593741935
 20
433.5311159714692
 30
0.0
 40
0.5125
100
AcDbArc
 50
90.0
 51
180.0
  0
CIRCLE
  5
E06F
330
19
100
AcDbEntity
  8
01
  6
BYBLOCK
100
AcDbCircle
 10
-552.9879593742869
 20
382.0561159715629
 30
0.0
 40
3.0
  0
LINE
  5
E070
330
19
100
AcDbEntity
  8
01
  6
BYBLOCK
100
AcDbLine
 10
-553.500459374287
 20
384.1061159715629
 30
0.0
 11
-552.475459374287
 21
384.1061159715629
 31
0.0
  0
LINE
  5
E071
330
19
100
AcDbEntity
  8
01
  6
BYBLOCK
100
AcDbLine
 10
-550.937959374287
 20
382.5686159715628
 30
0.0
 11
-550.937959374287
 21
381.5436159715629
 31
0.0
  0
LINE
  5
E072
330
19
100
AcDbEntity
  8
01
  6
BYBLOCK
100
AcDbLine
 10
-553.500459374287
 20
380.0061159715628
 30
0.0
 11
-552.475459374287
 21
380.0061159715628
 31
0.0
  0
LINE
  5
E073
330
19
100
AcDbEntity
  8
01
  6
BYBLOCK
100
AcDbLine
 10
-555.037959374287
 20
382.5686159715628
 30
0.0
 11
-555.037959374287
 21
381.5436159715629
 31
0.0
  0
LINE
  5
E074
330
19
100
AcDbEntity
  8
01
  6
BYBLOCK
100
AcDbLine
 10
-552.475459374287
 20
384.1061159715629
 30
0.0
 11
-552.475459374287
 21
383.0811159715629
 31
0.0
  0
LINE
  5
E075
330
19
100
AcDbEntity
  8
01
  6
BYBLOCK
100
AcDbLine
 10
-553.500459374287
 20
384.1061159715629
 30
0.0
 11
-553.500459374287
 21
383.0811159715629
 31
0.0
  0
LINE
  5
E076
330
19
100
AcDbEntity
  8
01
  6
BYBLOCK
100
AcDbLine
 10
-552.475459374287
 20
381.0311159715629
 30
0.0
 11
-552.475459374287
 21
380.0061159715628
 31
0.0
  0
LINE
  5
E077
330
19
100
AcDbEntity
  8
01
  6
BYBLOCK
100
AcDbLine
 10
-553.500459374287
 20
381.0311159715629
 30
0.0
 11
-553.500459374287
 21
380.0061159715628
 31
0.0
  0
LINE
  5
E078
330
19
100
AcDbEntity
  8
01
  6
BYBLOCK
100
AcDbLine
 10
-555.037959374287
 20
382.5686159715628
 30
0.0
 11
-554.012959374287
 21
382.5686159715628
 31
0.0
  0
LINE
  5
E079
330
19
100
AcDbEntity
  8
01
  6
BYBLOCK
100
AcDbLine
 10
-555.037959374287
 20
381.5436159715629
 30
0.0
 11
-554.012959374287
 21
381.5436159715629
 31
0.0
  0
LINE
  5
E07A
330
19
100
AcDbEntity
  8
01
  6
BYBLOCK
100
AcDbLine
 10
-551.9629593742869
 20
382.5686159715628
 30
0.0
 11
-550.937959374287
 21
382.5686159715628
 31
0.0
  0
LINE
  5
E07B
330
19
100
AcDbEntity
  8
01
  6
BYBLOCK
100
AcDbLine
 10
-551.9629593742869
 20
381.5436159715629
 30
0.0
 11
-550.937959374287
 21
381.5436159715629
 31
0.0
  0
ARC
  5
E07C
330
19
100
AcDbEntity
  8
01
  6
BYBLOCK
100
AcDbCircle
 10
-551.9629593742869
 20
383.0811159715629
 30
0.0
 40
0.5125
100
AcDbArc
 50
180.0
 51
270.0
  0
ARC
  5
E07D
330
19
100
AcDbEntity
  8
01
  6
BYBLOCK
100
AcDbCircle
 10
-554.012959374287
 20
383.0811159715629
 30
0.0
 40
0.5125
100
AcDbArc
 50
270.0
 51
0.0
  0
ARC
  5
E07E
330
19
100
AcDbEntity
  8
01
  6
BYBLOCK
100
AcDbCircle
 10
-554.012959374287
 20
381.0311159715629
 30
0.0
 40
0.5125
100
AcDbArc
 50
0.0
 51
90.0
  0
ARC
  5
E07F
330
19
100
AcDbEntity
  8
01
  6
BYBLOCK
100
AcDbCircle
 10
-551.9629593742869
 20
381.0311159715629
 30
0.0
 40
0.5125
100
AcDbArc
 50
90.0
 51
180.0
  0
CIRCLE
  5
E080
330
19
100
AcDbEntity
  8
01
  6
BYBLOCK
100
AcDbCircle
 10
-530.4879593741937
 20
428.5561159714691
 30
0.0
 40
3.0
  0
LINE
  5
E081
330
19
100
AcDbEntity
  8
01
  6
BYBLOCK
100
AcDbLine
 10
-531.0004593741936
 20
430.6061159714691
 30
0.0
 11
-529.9754593741937
 21
430.6061159714691
 31
0.0
  0
LINE
  5
E082
330
19
100
AcDbEntity
  8
01
  6
BYBLOCK
100
AcDbLine
 10
-528.4379593741936
 20
429.0686159714691
 30
0.0
 11
-528.4379593741936
 21
428.0436159714691
 31
0.0
  0
LINE
  5
E083
330
19
100
AcDbEntity
  8
01
  6
BYBLOCK
100
AcDbLine
 10
-531.0004593741936
 20
426.5061159714691
 30
0.0
 11
-529.9754593741937
 21
426.5061159714691
 31
0.0
  0
LINE
  5
E084
330
19
100
AcDbEntity
  8
01
  6
BYBLOCK
100
AcDbLine
 10
-532.5379593741937
 20
429.0686159714691
 30
0.0
 11
-532.5379593741937
 21
428.0436159714691
 31
0.0
  0
LINE
  5
E085
330
19
100
AcDbEntity
  8
01
  6
BYBLOCK
100
AcDbLine
 10
-529.9754593741937
 20
430.6061159714691
 30
0.0
 11
-529.9754593741937
 21
429.5811159714691
 31
0.0
  0
LINE
  5
E086
330
19
100
AcDbEntity
  8
01
  6
BYBLOCK
100
AcDbLine
 10
-531.0004593741936
 20
430.6061159714691
 30
0.0
 11
-531.0004593741936
 21
429.5811159714691
 31
0.0
  0
LINE
  5
E087
330
19
100
AcDbEntity
  8
01
  6
BYBLOCK
100
AcDbLine
 10
-529.9754593741937
 20
427.5311159714691
 30
0.0
 11
-529.9754593741937
 21
426.5061159714691
 31
0.0
  0
LINE
  5
E088
330
19
100
AcDbEntity
  8
01
  6
BYBLOCK
100
AcDbLine
 10
-531.0004593741936
 20
427.5311159714691
 30
0.0
 11
-531.0004593741936
 21
426.5061159714691
 31
0.0
  0
LINE
  5
E089
330
19
100
AcDbEntity
  8
01
  6
BYBLOCK
100
AcDbLine
 10
-532.5379593741937
 20
429.0686159714691
 30
0.0
 11
-531.5129593741938
 21
429.0686159714691
 31
0.0
  0
LINE
  5
E08A
330
19
100
AcDbEntity
  8
01
  6
BYBLOCK
100
AcDbLine
 10
-532.5379593741937
 20
428.0436159714691
 30
0.0
 11
-531.5129593741938
 21
428.0436159714691
 31
0.0
  0
LINE
  5
E08B
330
19
100
AcDbEntity
  8
01
  6
BYBLOCK
100
AcDbLine
 10
-529.4629593741938
 20
429.0686159714691
 30
0.0
 11
-528.4379593741936
 21
429.0686159714691
 31
0.0
  0
LINE
  5
E08C
330
19
100
AcDbEntity
  8
01
  6
BYBLOCK
100
AcDbLine
 10
-529.4629593741938
 20
428.0436159714691
 30
0.0
 11
-528.4379593741936
 21
428.0436159714691
 31
0.0
  0
ARC
  5
E08D
330
19
100
AcDbEntity
  8
01
  6
BYBLOCK
100
AcDbCircle
 10
-529.4629593741938
 20
429.5811159714691
 30
0.0
 40
0.5125
100
AcDbArc
 50
180.0
 51
270.0
  0
ARC
  5
E08E
330
19
100
AcDbEntity
  8
01
  6
BYBLOCK
100
AcDbCircle
 10
-531.5129593741938
 20
429.5811159714691
 30
0.0
 40
0.5125
100
AcDbArc
 50
270.0
 51
0.0
  0
ARC
  5
E08F
330
19
100
AcDbEntity
  8
01
  6
BYBLOCK
100
AcDbCircle
 10
-531.5129593741938
 20
427.5311159714691
 30
0.0
 40
0.5125
100
AcDbArc
 50
0.0
 51
90.0
  0
ARC
  5
E090
330
19
100
AcDbEntity
  8
01
  6
BYBLOCK
100
AcDbCircle
 10
-529.4629593741938
 20
427.5311159714691
 30
0.0
 40
0.5125
100
AcDbArc
 50
90.0
 51
180.0
  0
CIRCLE
  5
E091
330
19
100
AcDbEntity
  8
01
  6
BYBLOCK
100
AcDbCircle
 10
-500.9879593741935
 20
377.5561159714692
 30
0.0
 40
3.0
  0
LINE
  5
E092
330
19
100
AcDbEntity
  8
01
  6
BYBLOCK
100
AcDbLine
 10
-501.5004593741935
 20
379.6061159714692
 30
0.0
 11
-500.4754593741935
 21
379.6061159714692
 31
0.0
  0
LINE
  5
E093
330
19
100
AcDbEntity
  8
01
  6
BYBLOCK
100
AcDbLine
 10
-498.9379593741935
 20
378.0686159714692
 30
0.0
 11
-498.9379593741935
 21
377.0436159714692
 31
0.0
  0
LINE
  5
E094
330
19
100
AcDbEntity
  8
01
  6
BYBLOCK
100
AcDbLine
 10
-501.5004593741935
 20
375.5061159714692
 30
0.0
 11
-500.4754593741935
 21
375.5061159714692
 31
0.0
  0
LINE
  5
E095
330
19
100
AcDbEntity
  8
01
  6
BYBLOCK
100
AcDbLine
 10
-503.0379593741935
 20
378.0686159714692
 30
0.0
 11
-503.0379593741935
 21
377.0436159714692
 31
0.0
  0
LINE
  5
E096
330
19
100
AcDbEntity
  8
01
  6
BYBLOCK
100
AcDbLine
 10
-500.4754593741935
 20
379.6061159714692
 30
0.0
 11
-500.4754593741935
 21
378.5811159714692
 31
0.0
  0
LINE
  5
E097
330
19
100
AcDbEntity
  8
01
  6
BYBLOCK
100
AcDbLine
 10
-501.5004593741935
 20
379.6061159714692
 30
0.0
 11
-501.5004593741935
 21
378.5811159714692
 31
0.0
  0
LINE
  5
E098
330
19
100
AcDbEntity
  8
01
  6
BYBLOCK
100
AcDbLine
 10
-500.4754593741935
 20
376.5311159714691
 30
0.0
 11
-500.4754593741935
 21
375.5061159714692
 31
0.0
  0
LINE
  5
E099
330
19
100
AcDbEntity
  8
01
  6
BYBLOCK
100
AcDbLine
 10
-501.5004593741935
 20
376.5311159714691
 30
0.0
 11
-501.5004593741935
 21
375.5061159714692
 31
0.0
  0
LINE
  5
E09A
330
19
100
AcDbEntity
  8
01
  6
BYBLOCK
100
AcDbLine
 10
-503.0379593741935
 20
378.0686159714692
 30
0.0
 11
-502.0129593741934
 21
378.0686159714692
 31
0.0
  0
LINE
  5
E09B
330
19
100
AcDbEntity
  8
01
  6
BYBLOCK
100
AcDbLine
 10
-503.0379593741935
 20
377.0436159714692
 30
0.0
 11
-502.0129593741934
 21
377.0436159714692
 31
0.0
  0
LINE
  5
E09C
330
19
100
AcDbEntity
  8
01
  6
BYBLOCK
100
AcDbLine
 10
-499.9629593741935
 20
378.0686159714692
 30
0.0
 11
-498.9379593741935
 21
378.0686159714692
 31
0.0
  0
LINE
  5
E09D
330
19
100
AcDbEntity
  8
01
  6
BYBLOCK
100
AcDbLine
 10
-499.9629593741935
 20
377.0436159714692
 30
0.0
 11
-498.9379593741935
 21
377.0436159714692
 31
0.0
  0
ARC
  5
E09E
330
19
100
AcDbEntity
  8
01
  6
BYBLOCK
100
AcDbCircle
 10
-499.9629593741935
 20
378.5811159714692
 30
0.0
 40
0.5125
100
AcDbArc
 50
180.0
 51
270.0
  0
ARC
  5
E09F
330
19
100
AcDbEntity
  8
01
  6
BYBLOCK
100
AcDbCircle
 10
-502.0129593741934
 20
378.5811159714692
 30
0.0
 40
0.5125
100
AcDbArc
 50
270.0
 51
0.0
  0
ARC
  5
E0A0
330
19
100
AcDbEntity
  8
01
  6
BYBLOCK
100
AcDbCircle
 10
-502.0129593741934
 20
376.5311159714691
 30
0.0
 40
0.5125
100
AcDbArc
 50
0.0
 51
90.0
  0
ARC
  5
E0A1
330
19
100
AcDbEntity
  8
01
  6
BYBLOCK
100
AcDbCircle
 10
-499.9629593741935
 20
376.5311159714691
 30
0.0
 40
0.5125
100
AcDbArc
 50
90.0
 51
180.0
  0
LINE
  5
E0A2
330
19
100
AcDbEntity
  8
1DIM
100
AcDbLine
 10
-497.0879593741936
 20
515.9095450021684
 30
0.0
 11
-476.8275686144809
 21
515.9095450021684
 31
0.0
1001
ACAD
1000
DSTYLE
1002
{
1070
    79
1070
     2
1070
   179
1070
     2
1070
   271
1070
     0
1070
   272
1070
     2
1070
   341
1005
0
1002
}
  0
LINE
  5
E0A3
330
19
100
AcDbEntity
  8
1DIM
100
AcDbLine
 10
-495.4879593741935
 20
497.1095450021684
 30
0.0
 11
-476.8275686144809
 21
497.1095450021684
 31
0.0
1001
ACAD
1000
DSTYLE
1002
{
1070
    79
1070
     2
1070
   179
1070
     2
1070
   271
1070
     0
1070
   272
1070
     2
1070
   341
1005
0
1002
}
  0
LINE
  5
E0A4
330
19
100
AcDbEntity
  8
1DIM
100
AcDbLine
 10
-477.8275686144809
 20
513.9095450021684
 30
0.0
 11
-477.8275686144809
 21
499.1095450021684
 31
0.0
1001
ACAD
1000
DSTYLE
1002
{
1070
    79
1070
     2
1070
   179
1070
     2
1070
   271
1070
     0
1070
   272
1070
     2
1070
   341
1005
0
1002
}
  0
LINE
  5
E0A8
330
19
100
AcDbEntity
  8
1DIM
100
AcDbLine
 10
-575.0879593741936
 20
512.4095450021684
 30
0.0
 11
-582.5339165527573
 21
512.4095450021684
 31
0.0
1001
ACAD
1000
DSTYLE
1002
{
1070
    40
1040
1.0
1002
}
  0
LINE
  5
E0A9
330
19
100
AcDbEntity
  8
1DIM
100
AcDbLine
 10
-565.7873644467945
 20
500.4095450021691
 30
0.0
 11
-582.5339165527573
 21
500.4095450021691
 31
0.0
1001
ACAD
1000
DSTYLE
1002
{
1070
    40
1040
1.0
1002
}
  0
LINE
  5
E0AA
330
19
100
AcDbEntity
  8
1DIM
100
AcDbLine
 10
-581.5339165527573
 20
510.4095450021684
 30
0.0
 11
-581.5339165527573
 21
502.4095450021691
 31
0.0
1001
ACAD
1000
DSTYLE
1002
{
1070
    40
1040
1.0
1002
}
  0
LINE
  5
E0AE
330
19
100
AcDbEntity
  8
1DIM
100
AcDbLine
 10
-669.1381403252979
 20
473.4561159714692
 30
0.0
 11
-669.1381403252979
 21
487.5320225318713
 31
0.0
1001
ACAD
1000
DSTYLE
1002
{
1070
    79
1070
     2
1070
   179
1070
     2
1070
   271
1070
     0
1070
   272
1070
     2
1070
   341
1005
0
1002
}
  0
LINE
  5
E0AF
330
19
100
AcDbEntity
  8
1DIM
100
AcDbLine
 10
-644.3381403252979
 20
473.4561159714691
 30
0.0
 11
-644.3381403252979
 21
487.5320225318713
 31
0.0
1001
ACAD
1000
DSTYLE
1002
{
1070
    79
1070
     2
1070
   179
1070
     2
1070
   271
1070
     0
1070
   272
1070
     2
1070
   341
1005
0
1002
}
  0
LINE
  5
E0B0
330
19
100
AcDbEntity
  8
1DIM
100
AcDbLine
 10
-667.1381403252979
 20
486.5320225318713
 30
0.0
 11
-646.3381403252979
 21
486.5320225318713
 31
0.0
1001
ACAD
1000
DSTYLE
1002
{
1070
    79
1070
     2
1070
   179
1070
     2
1070
   271
1070
     0
1070
   272
1070
     2
1070
   341
1005
0
1002
}
  0
LINE
  5
E0B4
330
19
100
AcDbEntity
  8
1DIM
100
AcDbLine
 10
-669.1381403252979
 20
473.4561159714692
 30
0.0
 11
-688.0454374284868
 21
473.4561159714692
 31
0.0
1001
ACAD
1000
DSTYLE
1002
{
1070
    79
1070
     2
1070
   179
1070
     2
1070
   271
1070
     0
1070
   272
1070
     2
1070
   341
1005
0
1002
}
  0
LINE
  5
E0B5
330
19
100
AcDbEntity
  8
1DIM
100
AcDbLine
 10
-669.1381403252979
 20
343.6561159714691
 30
0.0
 11
-688.0454374284868
 21
343.6561159714691
 31
0.0
1001
ACAD
1000
DSTYLE
1002
{
1070
    79
1070
     2
1070
   179
1070
     2
1070
   271
1070
     0
1070
   272
1070
     2
1070
   341
1005
0
1002
}
  0
LINE
  5
E0B6
330
19
100
AcDbEntity
  8
1DIM
100
AcDbLine
 10
-687.0454374284868
 20
471.4561159714692
 30
0.0
 11
-687.0454374284868
 21
345.6561159714691
 31
0.0
1001
ACAD
1000
DSTYLE
1002
{
1070
    79
1070
     2
1070
   179
1070
     2
1070
   271
1070
     0
1070
   272
1070
     2
1070
   341
1005
0
1002
}
  0
LINE
  5
E0BA
330
19
100
AcDbEntity
  8
1DIM
100
AcDbLine
 10
-661.4881403252979
 20
465.5561159714691
 30
0.0
 11
-679.8197343964016
 21
465.5561159714691
 31
0.0
1001
ACAD
1000
DSTYLE
1002
{
1070
    79
1070
     2
1070
   179
1070
     2
1070
   272
1070
     2
1070
   341
1005
0
1002
}
  0
LINE
  5
E0BB
330
19
100
AcDbEntity
  8
1DIM
100
AcDbLine
 10
-661.4881403252979
 20
351.5561159714691
 30
0.0
 11
-679.8197343964016
 21
351.5561159714691
 31
0.0
1001
ACAD
1000
DSTYLE
1002
{
1070
    79
1070
     2
1070
   179
1070
     2
1070
   272
1070
     2
1070
   341
1005
0
1002
}
  0
LINE
  5
E0BC
330
19
100
AcDbEntity
  8
1DIM
100
AcDbLine
 10
-678.8197343964016
 20
463.5561159714691
 30
0.0
 11
-678.8197343964016
 21
353.5561159714691
 31
0.0
1001
ACAD
1000
DSTYLE
1002
{
1070
    79
1070
     2
1070
   179
1070
     2
1070
   272
1070
     2
1070
   341
1005
0
1002
}
  0
LINE
  5
E0C0
330
19
100
AcDbEntity
  8
1DIM
100
AcDbLine
 10
-560.4879593741902
 20
472.5561159714691
 30
0.0
 11
-560.4879593741902
 21
482.7632729640638
 31
0.0
1001
ACAD
1000
DSTYLE
1002
{
1070
    79
1070
     2
1070
   179
1070
     2
1070
   271
1070
     1
1070
   272
1070
     2
1070
   341
1005
0
1002
}
  0
LINE
  5
E0C1
330
19
100
AcDbEntity
  8
1DIM
100
AcDbLine
 10
-564.4879593741903
 20
473.4561159714692
 30
0.0
 11
-564.4879593741903
 21
482.7632729640638
 31
0.0
1001
ACAD
1000
DSTYLE
1002
{
1070
    79
1070
     2
1070
   179
1070
     2
1070
   271
1070
     1
1070
   272
1070
     2
1070
   341
1005
0
1002
}
  0
LINE
  5
E0C2
330
19
100
AcDbEntity
  8
1DIM
100
AcDbLine
 10
-558.4879593741902
 20
481.7632729640638
 30
0.0
 11
-556.4879593741902
 21
481.7632729640638
 31
0.0
1001
ACAD
1000
DSTYLE
1002
{
1070
    79
1070
     2
1070
   179
1070
     2
1070
   271
1070
     1
1070
   272
1070
     2
1070
   341
1005
0
1002
}
  0
LINE
  5
E0C3
330
19
100
AcDbEntity
  8
1DIM
100
AcDbLine
 10
-566.4879593741903
 20
481.7632729640638
 30
0.0
 11
-572.3879593741902
 21
481.7632729640638
 31
0.0
1001
ACAD
1000
DSTYLE
1002
{
1070
    79
1070
     2
1070
   179
1070
     2
1070
   271
1070
     1
1070
   272
1070
     2
1070
   341
1005
0
1002
}
  0
LINE
  5
E0C4
330
19
100
AcDbEntity
  8
1DIM
100
AcDbLine
 10
-560.4879593741902
 20
481.7632729640638
 30
0.0
 11
-564.4879593741903
 21
481.7632729640638
 31
0.0
1001
ACAD
1000
DSTYLE
1002
{
1070
    79
1070
     2
1070
   179
1070
     2
1070
   271
1070
     1
1070
   272
1070
     2
1070
   341
1005
0
1002
}
  0
LINE
  5
E0C8
330
19
100
AcDbEntity
  8
1DIM
100
AcDbLine
 10
-506.1711220588842
 20
437.5561159711803
 30
0.0
 11
-481.9346444529602
 21
437.5561159711803
 31
0.0
1001
ACAD
1000
DSTYLE
1002
{
1070
    79
1070
     2
1070
   179
1070
     2
1070
   272
1070
     2
1070
   341
1005
0
1002
}
  0
LINE
  5
E0C9
330
19
100
AcDbEntity
  8
1DIM
100
AcDbLine
 10
-497.7994271565871
 20
387.5561159714691
 30
0.0
 11
-481.9346444529602
 21
387.5561159714691
 31
0.0
1001
ACAD
1000
DSTYLE
1002
{
1070
    79
1070
     2
1070
   179
1070
     2
1070
   272
1070
     2
1070
   341
1005
0
1002
}
  0
LINE
  5
E0CA
330
19
100
AcDbEntity
  8
1DIM
100
AcDbLine
 10
-482.9346444529602
 20
435.5561159711803
 30
0.0
 11
-482.9346444529602
 21
389.5561159714691
 31
0.0
1001
ACAD
1000
DSTYLE
1002
{
1070
    79
1070
     2
1070
   179
1070
     2
1070
   272
1070
     2
1070
   341
1005
0
1002
}
  0
LINE
  5
E0CE
330
19
100
AcDbEntity
  8
1DIM
100
AcDbLine
 10
-497.7994271565871
 20
387.5561159714691
 30
0.0
 11
-475.573763570832
 21
387.5561159714691
 31
0.0
1001
ACAD
1000
DSTYLE
1002
{
1070
    79
1070
     2
1070
   179
1070
     2
1070
   272
1070
     2
1070
   341
1005
0
1002
}
  0
LINE
  5
E0CF
330
19
100
AcDbEntity
  8
1DIM
100
AcDbLine
 10
-497.0879593741911
 20
445.5561159714691
 30
0.0
 11
-475.573763570832
 21
445.5561159714691
 31
0.0
1001
ACAD
1000
DSTYLE
1002
{
1070
    79
1070
     2
1070
   179
1070
     2
1070
   272
1070
     2
1070
   341
1005
0
1002
}
  0
LINE
  5
E0D0
330
19
100
AcDbEntity
  8
1DIM
100
AcDbLine
 10
-476.573763570832
 20
389.5561159714691
 30
0.0
 11
-476.573763570832
 21
443.5561159714691
 31
0.0
1001
ACAD
1000
DSTYLE
1002
{
1070
    79
1070
     2
1070
   179
1070
     2
1070
   272
1070
     2
1070
   341
1005
0
1002
}
  0
LINE
  5
E0D4
330
19
100
AcDbEntity
  8
1DIM
100
AcDbLine
 10
-497.7994271565871
 20
387.5561159714691
 30
0.0
 11
-475.5737635708319
 21
387.5561159714691
 31
0.0
1001
ACAD
1000
DSTYLE
1002
{
1070
    79
1070
     2
1070
   179
1070
     2
1070
   272
1070
     2
1070
   341
1005
0
1002
}
  0
LINE
  5
E0D5
330
19
100
AcDbEntity
  8
1DIM
100
AcDbLine
 10
-497.0879593741902
 20
371.5561159714691
 30
0.0
 11
-475.573763570832
 21
371.5561159714691
 31
0.0
1001
ACAD
1000
DSTYLE
1002
{
1070
    79
1070
     2
1070
   179
1070
     2
1070
   272
1070
     2
1070
   341
1005
0
1002
}
  0
LINE
  5
E0D6
330
19
100
AcDbEntity
  8
1DIM
100
AcDbLine
 10
-476.5737635708319
 20
385.5561159714691
 30
0.0
 11
-476.573763570832
 21
373.5561159714691
 31
0.0
1001
ACAD
1000
DSTYLE
1002
{
1070
    79
1070
     2
1070
   179
1070
     2
1070
   272
1070
     2
1070
   341
1005
0
1002
}
  0
LINE
  5
E0DA
330
19
100
AcDbEntity
  8
1DIM
100
AcDbLine
 10
-497.0879593741902
 20
371.5561159714691
 30
0.0
 11
-469.1143569475754
 21
371.5561159714691
 31
0.0
1001
ACAD
1000
DSTYLE
1002
{
1070
    79
1070
     2
1070
   179
1070
     2
1070
   272
1070
     2
1070
   341
1005
0
1002
}
  0
LINE
  5
E0DB
330
19
100
AcDbEntity
  8
1DIM
100
AcDbLine
 10
-497.0879593741911
 20
445.5561159714691
 30
0.0
 11
-469.1143569475753
 21
445.5561159714691
 31
0.0
1001
ACAD
1000
DSTYLE
1002
{
1070
    79
1070
     2
1070
   179
1070
     2
1070
   272
1070
     2
1070
   341
1005
0
1002
}
  0
LINE
  5
E0DC
330
19
100
AcDbEntity
  8
1DIM
100
AcDbLine
 10
-470.1143569475754
 20
373.5561159714691
 30
0.0
 11
-470.1143569475753
 21
443.5561159714691
 31
0.0
1001
ACAD
1000
DSTYLE
1002
{
1070
    79
1070
     2
1070
   179
1070
     2
1070
   272
1070
     2
1070
   341
1005
0
1002
}
  0
LINE
  5
E0E0
330
19
100
AcDbEntity
  8
1DIM
100
AcDbLine
 10
-497.0879593741902
 20
371.5561159714691
 30
0.0
 11
-469.1143569475753
 21
371.5561159714691
 31
0.0
1001
ACAD
1000
DSTYLE
1002
{
1070
    79
1070
     2
1070
   179
1070
     2
1070
   271
1070
     0
1070
   272
1070
     2
1070
   341
1005
0
1002
}
  0
LINE
  5
E0E1
330
19
100
AcDbEntity
  8
1DIM
100
AcDbLine
 10
-562.9879593741903
 20
343.6561159714691
 30
0.0
 11
-469.1143569475753
 21
343.6561159714691
 31
0.0
1001
ACAD
1000
DSTYLE
1002
{
1070
    79
1070
     2
1070
   179
1070
     2
1070
   271
1070
     0
1070
   272
1070
     2
1070
   341
1005
0
1002
}
  0
LINE
  5
E0E2
330
19
100
AcDbEntity
  8
1DIM
100
AcDbLine
 10
-470.1143569475753
 20
369.5561159714691
 30
0.0
 11
-470.1143569475753
 21
345.6561159714691
 31
0.0
1001
ACAD
1000
DSTYLE
1002
{
1070
    79
1070
     2
1070
   179
1070
     2
1070
   271
1070
     0
1070
   272
1070
     2
1070
   341
1005
0
1002
}
  0
LINE
  5
E0E6
330
19
100
AcDbEntity
  8
1DIM
100
AcDbLine
 10
-564.4879593741903
 20
343.6561159714691
 30
0.0
 11
-564.4879593741903
 21
333.3955775550177
 31
0.0
1001
ACAD
1000
DSTYLE
1002
{
1070
    79
1070
     2
1070
   179
1070
     2
1070
   272
1070
     2
1070
   341
1005
0
1002
}
  0
LINE
  5
E0E7
330
19
100
AcDbEntity
  8
1DIM
100
AcDbLine
 10
-513.4879593741903
 20
377.9996016897398
 30
0.0
 11
-513.4879593741903
 21
333.3955775550177
 31
0.0
1001
ACAD
1000
DSTYLE
1002
{
1070
    79
1070
     2
1070
   179
1070
     2
1070
   272
1070
     2
1070
   341
1005
0
1002
}
  0
LINE
  5
E0E8
330
19
100
AcDbEntity
  8
1DIM
100
AcDbLine
 10
-562.4879593741903
 20
334.3955775550177
 30
0.0
 11
-515.4879593741903
 21
334.3955775550177
 31
0.0
1001
ACAD
1000
DSTYLE
1002
{
1070
    79
1070
     2
1070
   179
1070
     2
1070
   272
1070
     2
1070
   341
1005
0
1002
}
  0
LINE
  5
E0EC
330
19
100
AcDbEntity
  8
1DIM
100
AcDbLine
 10
-564.4879593741903
 20
343.6561159714691
 30
0.0
 11
-564.4879593741903
 21
327.3271135699544
 31
0.0
1001
ACAD
1000
DSTYLE
1002
{
1070
    79
1070
     2
1070
   179
1070
     2
1070
   272
1070
     2
1070
   341
1005
0
1002
}
  0
LINE
  5
E0ED
330
19
100
AcDbEntity
  8
1DIM
100
AcDbLine
 10
-495.4879593741902
 20
373.156115971469
 30
0.0
 11
-495.4879593741902
 21
327.3271135699544
 31
0.0
1001
ACAD
1000
DSTYLE
1002
{
1070
    79
1070
     2
1070
   179
1070
     2
1070
   272
1070
     2
1070
   341
1005
0
1002
}
  0
LINE
  5
E0EE
330
19
100
AcDbEntity
  8
1DIM
100
AcDbLine
 10
-562.4879593741903
 20
328.3271135699544
 30
0.0
 11
-497.4879593741902
 21
328.3271135699544
 31
0.0
1001
ACAD
1000
DSTYLE
1002
{
1070
    79
1070
     2
1070
   179
1070
     2
1070
   272
1070
     2
1070
   341
1005
0
1002
}
  0
LINE
  5
E0F2
330
19
100
AcDbEntity
  8
1DIM
100
AcDbLine
 10
-509.9379593750236
 20
384.0061159714692
 30
0.0
 11
-509.9379593750236
 21
359.8211087715007
 31
0.0
1001
ACAD
1000
DSTYLE
1002
{
1070
     3
1000
□<>
1070
    79
1070
     2
1070
   179
1070
     2
1070
   272
1070
     2
1070
   341
1005
0
1002
}
  0
LINE
  5
E0F3
330
19
100
AcDbEntity
  8
1DIM
100
AcDbLine
 10
-517.0379593750231
 20
384.0061159714692
 30
0.0
 11
-517.0379593750231
 21
359.8211087715007
 31
0.0
1001
ACAD
1000
DSTYLE
1002
{
1070
     3
1000
□<>
1070
    79
1070
     2
1070
   179
1070
     2
1070
   272
1070
     2
1070
   341
1005
0
1002
}
  0
LINE
  5
E0F4
330
19
100
AcDbEntity
  8
1DIM
100
AcDbLine
 10
-515.0379593750231
 20
360.8211087715007
 30
0.0
 11
-511.9379593750236
 21
360.8211087715007
 31
0.0
1001
ACAD
1000
DSTYLE
1002
{
1070
     3
1000
□<>
1070
    79
1070
     2
1070
   179
1070
     2
1070
   272
1070
     2
1070
   341
1005
0
1002
}
  0
LINE
  5
E0F5
330
19
100
AcDbEntity
  8
1DIM
100
AcDbLine
 10
-509.9379593750236
 20
360.8211087715007
 30
0.0
 11
-495.4712927075236
 21
360.8211087715007
 31
0.0
1001
ACAD
1000
DSTYLE
1002
{
1070
     3
1000
□<>
1070
    79
1070
     2
1070
   179
1070
     2
1070
   272
1070
     2
1070
   341
1005
0
1002
}
  0
LINE
  5
E0F9
330
19
100
AcDbEntity
  8
1DIM
100
AcDbLine
 10
-519.2155243021903
 20
387.5561159714691
 30
0.0
 11
-544.7838536156731
 21
361.9877866579862
 31
0.0
1001
ACAD
1000
DSTYLE
1002
{
1070
     3
1000
□<>
1070
    79
1070
     2
1070
   179
1070
     2
1070
   272
1070
     2
1070
   341
1005
0
1002
}
  0
LINE
  5
E0FA
330
19
100
AcDbEntity
  8
1DIM
100
AcDbLine
 10
-513.4879593741903
 20
381.828551043469
 30
0.0
 11
-539.0562886876731
 21
356.2602217299861
 31
0.0
1001
ACAD
1000
DSTYLE
1002
{
1070
     3
1000
□<>
1070
    79
1070
     2
1070
   179
1070
     2
1070
   272
1070
     2
1070
   341
1005
0
1002
}
  0
LINE
  5
E0FB
330
19
100
AcDbEntity
  8
1DIM
100
AcDbLine
 10
-542.6625332721135
 20
361.2806798767996
 30
0.0
 11
-539.7633954688597
 21
358.3815420735458
 31
0.0
1001
ACAD
1000
DSTYLE
1002
{
1070
     3
1000
□<>
1070
    79
1070
     2
1070
   179
1070
     2
1070
   272
1070
     2
1070
   341
1005
0
1002
}
  0
LINE
  5
E0FF
330
19
100
AcDbEntity
  8
1DIM
100
AcDbLine
 10
-528.4879593741904
 20
387.5561159709967
 30
0.0
 11
-528.4879593741904
 21
352.1542223487265
 31
0.0
1001
ACAD
1000
DSTYLE
1002
{
1070
    79
1070
     2
1070
   179
1070
     2
1070
   272
1070
     2
1070
   341
1005
0
1002
}
  0
LINE
  5
E100
330
19
100
AcDbEntity
  8
1DIM
100
AcDbLine
 10
-498.4879593736902
 20
387.5561159709967
 30
0.0
 11
-498.4879593736902
 21
352.1542223487265
 31
0.0
1001
ACAD
1000
DSTYLE
1002
{
1070
    79
1070
     2
1070
   179
1070
     2
1070
   272
1070
     2
1070
   341
1005
0
1002
}
  0
LINE
  5
E101
330
19
100
AcDbEntity
  8
1DIM
100
AcDbLine
 10
-526.4879593741904
 20
353.1542223487265
 30
0.0
 11
-500.4879593736902
 21
353.1542223487265
 31
0.0
1001
ACAD
1000
DSTYLE
1002
{
1070
    79
1070
     2
1070
   179
1070
     2
1070
   272
1070
     2
1070
   341
1005
0
1002
}
  0
LINE
  5
E105
330
19
100
AcDbEntity
  8
1DIM
100
AcDbLine
 10
-530.4879593741903
 20
387.5561159714691
 30
0.0
 11
-530.4879593741903
 21
346.3898433295064
 31
0.0
1001
ACAD
1000
DSTYLE
1002
{
1070
    79
1070
     2
1070
   179
1070
     2
1070
   272
1070
     2
1070
   341
1005
0
1002
}
  0
LINE
  5
E106
330
19
100
AcDbEntity
  8
1DIM
100
AcDbLine
 10
-496.4879593741902
 20
387.5561159714691
 30
0.0
 11
-496.4879593741902
 21
346.3898433295064
 31
0.0
1001
ACAD
1000
DSTYLE
1002
{
1070
    79
1070
     2
1070
   179
1070
     2
1070
   272
1070
     2
1070
   341
1005
0
1002
}
  0
LINE
  5
E107
330
19
100
AcDbEntity
  8
1DIM
100
AcDbLine
 10
-528.4879593741903
 20
347.3898433295064
 30
0.0
 11
-498.4879593741902
 21
347.3898433295064
 31
0.0
1001
ACAD
1000
DSTYLE
1002
{
1070
    79
1070
     2
1070
   179
1070
     2
1070
   272
1070
     2
1070
   341
1005
0
1002
}
  0
LINE
  5
E10B
330
19
100
AcDbEntity
  8
1DIM
100
AcDbLine
 10
-495.4879593741903
 20
384.4061159709967
 30
0.0
 11
-486.6420894685871
 21
384.4061159709967
 31
0.0
1001
ACAD
1000
DSTYLE
1002
{
1070
    79
1070
     2
1070
   179
1070
     2
1070
   272
1070
     2
1070
   341
1005
0
1002
}
  0
LINE
  5
E10C
330
19
100
AcDbEntity
  8
1DIM
100
AcDbLine
 10
-495.4879593741902
 20
390.7061159709967
 30
0.0
 11
-486.6420894685871
 21
390.7061159709967
 31
0.0
1001
ACAD
1000
DSTYLE
1002
{
1070
    79
1070
     2
1070
   179
1070
     2
1070
   272
1070
     2
1070
   341
1005
0
1002
}
  0
LINE
  5
E10D
330
19
100
AcDbEntity
  8
1DIM
100
AcDbLine
 10
-487.6420894685871
 20
386.4061159709967
 30
0.0
 11
-487.6420894685871
 21
388.7061159709967
 31
0.0
1001
ACAD
1000
DSTYLE
1002
{
1070
    79
1070
     2
1070
   179
1070
     2
1070
   272
1070
     2
1070
   341
1005
0
1002
}
  0
LINE
  5
E10E
330
19
100
AcDbEntity
  8
1DIM
100
AcDbLine
 10
-487.6420894685871
 20
390.7061159709967
 30
0.0
 11
-487.6420894685871
 21
401.2727826376633
 31
0.0
1001
ACAD
1000
DSTYLE
1002
{
1070
    79
1070
     2
1070
   179
1070
     2
1070
   272
1070
     2
1070
   341
1005
0
1002
}
  0
LINE
  5
E112
330
19
100
AcDbEntity
  8
1DIM
100
AcDbLine
 10
-513.4879593741933
 20
441.1623605555205
 30
0.0
 11
-498.267796353514
 21
456.3825235762001
 31
0.0
1001
ACAD
1000
DSTYLE
1002
{
1070
     3
1000
□<>
1070
    79
1070
     2
1070
   179
1070
     2
1070
   271
1070
     1
1070
   272
1070
     2
1070
   341
1005
0
1002
}
  0
LINE
  5
E113
330
19
100
AcDbEntity
  8
1DIM
100
AcDbLine
 10
-509.881714790142
 20
437.5561159714691
 30
0.0
 11
-494.6615517694626
 21
452.7762789921487
 31
0.0
1001
ACAD
1000
DSTYLE
1002
{
1070
     3
1000
□<>
1070
    79
1070
     2
1070
   179
1070
     2
1070
   271
1070
     1
1070
   272
1070
     2
1070
   341
1005
0
1002
}
  0
LINE
  5
E114
330
19
100
AcDbEntity
  8
1DIM
100
AcDbLine
 10
-493.954444988276
 20
450.6549586485891
 30
0.0
 11
-492.5402314259029
 21
449.240745086216
 31
0.0
1001
ACAD
1000
DSTYLE
1002
{
1070
     3
1000
□<>
1070
    79
1070
     2
1070
   179
1070
     2
1070
   271
1070
     1
1070
   272
1070
     2
1070
   341
1005
0
1002
}
  0
LINE
  5
E115
330
19
100
AcDbEntity
  8
1DIM
100
AcDbLine
 10
-500.3891166970736
 20
457.0896303573866
 30
0.0
 11
-510.2650414076459
 21
466.9655550679587
 31
0.0
1001
ACAD
1000
DSTYLE
1002
{
1070
     3
1000
□<>
1070
    79
1070
     2
1070
   179
1070
     2
1070
   271
1070
     1
1070
   272
1070
     2
1070
   341
1005
0
1002
}
  0
LINE
  5
E116
330
19
100
AcDbEntity
  8
1DIM
100
AcDbLine
 10
-495.3686585506491
 20
452.0691722109622
 30
0.0
 11
-498.9749031347005
 21
455.6754167950136
 31
0.0
1001
ACAD
1000
DSTYLE
1002
{
1070
     3
1000
□<>
1070
    79
1070
     2
1070
   179
1070
     2
1070
   271
1070
     1
1070
   272
1070
     2
1070
   341
1005
0
1002
}
  0
LINE
  5
E11A
330
19
100
AcDbEntity
  8
1DIM
100
AcDbLine
 10
-564.4879593741903
 20
473.456115971469
 30
0.0
 11
-586.2246428355112
 21
473.456115971469
 31
0.0
1001
ACAD
1000
DSTYLE
1002
{
1070
    40
1040
1.0
1070
    79
1070
     2
1070
   179
1070
     2
1070
   272
1070
     2
1070
   341
1005
0
1002
}
  0
LINE
  5
E11B
330
19
100
AcDbEntity
  8
1DIM
100
AcDbLine
 10
-575.8879593741902
 20
409.4561159714689
 30
0.0
 11
-586.2246428355112
 21
409.4561159714689
 31
0.0
1001
ACAD
1000
DSTYLE
1002
{
1070
    40
1040
1.0
1070
    79
1070
     2
1070
   179
1070
     2
1070
   272
1070
     2
1070
   341
1005
0
1002
}
  0
LINE
  5
E11C
330
19
100
AcDbEntity
  8
1DIM
100
AcDbLine
 10
-585.2246428355112
 20
471.456115971469
 30
0.0
 11
-585.2246428355112
 21
411.4561159714689
 31
0.0
1001
ACAD
1000
DSTYLE
1002
{
1070
    40
1040
1.0
1070
    79
1070
     2
1070
   179
1070
     2
1070
   272
1070
     2
1070
   341
1005
0
1002
}
  0
LINE
  5
E120
330
19
100
AcDbEntity
  8
1DIM
100
AcDbLine
 10
-575.8879593741902
 20
409.4561159714689
 30
0.0
 11
-586.2246428355112
 21
409.4561159714689
 31
0.0
1001
ACAD
1000
DSTYLE
1002
{
1070
    79
1070
     2
1070
   179
1070
     2
1070
   271
1070
     0
1070
   272
1070
     2
1070
   341
1005
0
1002
}
  0
LINE
  5
E121
330
19
100
AcDbEntity
  8
1DIM
100
AcDbLine
 10
-564.4879593741903
 20
343.6561159714691
 30
0.0
 11
-586.2246428355112
 21
343.6561159714691
 31
0.0
1001
ACAD
1000
DSTYLE
1002
{
1070
    79
1070
     2
1070
   179
1070
     2
1070
   271
1070
     0
1070
   272
1070
     2
1070
   341
1005
0
1002
}
  0
LINE
  5
E122
330
19
100
AcDbEntity
  8
1DIM
100
AcDbLine
 10
-585.2246428355112
 20
407.4561159714689
 30
0.0
 11
-585.2246428355112
 21
345.6561159714691
 31
0.0
1001
ACAD
1000
DSTYLE
1002
{
1070
    79
1070
     2
1070
   179
1070
     2
1070
   271
1070
     0
1070
   272
1070
     2
1070
   341
1005
0
1002
}
  0
SOLID
  5
E126
330
19
100
AcDbEntity
  8
1DIM
100
AcDbTrace
 10
-565.233853522032
 20
455.597156944766
 30
0.0
 11
-564.4879593741935
 21
453.7117516749815
 31
0.0
 12
-565.8050177096464
 22
455.2533315308841
 32
0.0
 13
-565.8050177096464
 23
455.2533315308841
 33
0.0
1001
ACAD
1000
DSTYLE
1002
{
1070
    79
1070
     2
1070
   179
1070
     2
1070
   272
1070
     2
1070
   341
1005
0
1002
}
  0
LINE
  5
E127
330
19
100
AcDbEntity
  8
1DIM
100
AcDbLine
 10
-565.5194356158393
 20
455.4252442378251
 30
0.0
 11
-589.045073055537
 21
494.506129634427
 31
0.0
1001
ACAD
1000
DSTYLE
1002
{
1070
    79
1070
     2
1070
   179
1070
     2
1070
   272
1070
     2
1070
   341
1005
0
1002
}
  0
LINE
  5
E128
330
19
100
AcDbEntity
  8
1DIM
100
AcDbLine
 10
-589.045073055537
 20
494.506129634427
 30
0.0
 11
-591.7450730555371
 21
494.506129634427
 31
0.0
1001
ACAD
1000
DSTYLE
1002
{
1070
    79
1070
     2
1070
   179
1070
     2
1070
   272
1070
     2
1070
   341
1005
0
1002
}
  0
SOLID
  5
E129
330
19
100
AcDbEntity
  8
1DIM
100
AcDbTrace
 10
-547.061790181553
 20
441.9269579668554
 30
0.0
 11
-548.114391641858
 21
440.1940005880157
 31
0.0
 12
-547.6807277887608
 22
442.1746688524225
 32
0.0
 13
-547.6807277887608
 23
442.1746688524225
 33
0.0
1001
ACAD
1000
DSTYLE
1002
{
1070
    79
1070
     2
1070
   179
1070
     2
1070
   272
1070
     2
1070
   341
1005
0
1002
}
  0
LINE
  5
E12A
330
19
100
AcDbEntity
  8
1DIM
100
AcDbLine
 10
-547.3712589851569
 20
442.050813409639
 30
0.0
 11
-535.7794382987406
 21
471.0144729694852
 31
0.0
1001
ACAD
1000
DSTYLE
1002
{
1070
    79
1070
     2
1070
   179
1070
     2
1070
   272
1070
     2
1070
   341
1005
0
1002
}
  0
LINE
  5
E12B
330
19
100
AcDbEntity
  8
1DIM
100
AcDbLine
 10
-535.7794382987406
 20
471.0144729694852
 30
0.0
 11
-517.0961049654073
 21
471.0144729694852
 31
0.0
1001
ACAD
1000
DSTYLE
1002
{
1070
    79
1070
     2
1070
   179
1070
     2
1070
   272
1070
     2
1070
   341
1005
0
1002
}
  0
TEXT
  5
E12C
330
19
100
AcDbEntity
  8
1DIM
  6
CONTINUOUS
100
AcDbText
 10
-533.3127716320739
 20
471.7144729694852
 30
0.0
 40
3.5
  1
スチール
100
AcDbText
  0
SOLID
  5
E12D
330
19
100
AcDbEntity
  8
1DIM
100
AcDbTrace
 10
-577.1697508634195
 20
404.9235575853903
 30
0.0
 11
-575.4879593741935
 21
406.0561159714693
 31
0.0
 12
-576.7115269820304
 22
404.4393310692132
 32
0.0
 13
-576.7115269820304
 23
404.4393310692132
 33
0.0
1001
ACAD
1000
DSTYLE
1002
{
1070
    79
1070
     2
1070
   179
1070
     2
1070
   272
1070
     2
1070
   341
1005
0
1002
}
  0
LINE
  5
E12E
330
19
100
AcDbEntity
  8
1DIM
100
AcDbLine
 10
-576.9406389227249
 20
404.6814443273017
 30
0.0
 11
-591.9654158558052
 21
390.4634877031257
 31
0.0
1001
ACAD
1000
DSTYLE
1002
{
1070
    79
1070
     2
1070
   179
1070
     2
1070
   272
1070
     2
1070
   341
1005
0
1002
}
  0
LINE
  5
E12F
330
19
100
AcDbEntity
  8
1DIM
100
AcDbLine
 10
-591.9654158558052
 20
390.4634877031257
 30
0.0
 11
-635.4320825224719
 21
390.4634877031257
 31
0.0
1001
ACAD
1000
DSTYLE
1002
{
1070
    79
1070
     2
1070
   179
1070
     2
1070
   272
1070
     2
1070
   341
1005
0
1002
}
  0
TEXT
  5
E130
330
19
100
AcDbEntity
  8
1DIM
  6
CONTINUOUS
100
AcDbText
 10
-614.6154158558053
 20
396.996821036459
 30
0.0
 40
3.5
  1
ステンレス
100
AcDbText
  0
TEXT
  5
E131
330
19
100
AcDbEntity
  8
1DIM
  6
CONTINUOUS
100
AcDbText
 10
-635.2654158558053
 20
391.1634877031257
 30
0.0
 40
3.5
  1
+ポリアセタール樹脂
100
AcDbText
  0
TEXT
  5
E132
330
19
100
AcDbEntity
  8
1DIM
  6
CONTINUOUS
100
AcDbText
 10
-611.6950730555371
 20
495.206129634427
 30
0.0
 40
3.5
  1
ステンレス
100
AcDbText
  0
LINE
  5
E133
330
19
100
AcDbEntity
  8
1DIM
100
AcDbLine
 10
-570.6014695361869
 20
399.4561159714556
 30
0.0
 11
-580.6187138910171
 21
399.4561159714556
 31
0.0
  0
LINE
  5
E134
330
19
100
AcDbEntity
  8
1DIM
100
AcDbLine
 10
-570.0363040052559
 20
419.4561159714556
 30
0.0
 11
-580.6187138910171
 21
419.4561159714556
 31
0.0
  0
LINE
  5
E135
330
19
100
AcDbEntity
  8
1DIM
100
AcDbLine
 10
-579.6187138910171
 20
401.4561159714556
 30
0.0
 11
-579.6187138910171
 21
417.4561159714556
 31
0.0
  0
LINE
  5
E139
330
19
100
AcDbEntity
  8
1DIM
100
AcDbLine
 10
-464.2636542888679
 20
371.5621697158702
 30
0.0
 11
-462.9055707771943
 21
371.1209016337984
 31
0.0
  0
LINE
  5
E13A
330
19
100
AcDbEntity
  8
1DIM
100
AcDbLine
 10
-497.7994271565877
 20
387.5561159714692
 30
0.0
 11
-460.3024885527085
 21
387.5561159714691
 31
0.0
  0
ARC
  5
E13B
330
19
100
AcDbEntity
  8
1DIM
100
AcDbCircle
 10
-513.4879593741908
 20
387.5561159714692
 30
0.0
 40
52.18547082148228
100
AcDbArc
 50
344.1959861883826
 51
357.8040138116174
  0
LINE
  5
E13F
330
19
100
AcDbEntity
  8
0
  6
BYBLOCK
100
AcDbLine
 10
-478.3634669944809
 20
513.9095450021684
 30
0.0
 11
-477.8275686144809
 21
515.9095450021684
 31
0.0
  0
LINE
  5
E140
330
19
100
AcDbEntity
  8
0
  6
BYBLOCK
100
AcDbLine
 10
-477.8275686144809
 20
515.9095450021684
 30
0.0
 11
-477.2916702344809
 21
513.9095450021684
 31
0.0
  0
LINE
  5
E141
330
19
100
AcDbEntity
  8
0
  6
BYBLOCK
100
AcDbLine
 10
-477.8275686144809
 20
515.9095450021684
 30
0.0
 11
-477.8275686144809
 21
513.9095450021684
 31
0.0
  0
LINE
  5
E142
330
19
100
AcDbEntity
  8
0
  6
BYBLOCK
100
AcDbLine
 10
-477.2916702344809
 20
499.1095450021684
 30
0.0
 11
-477.8275686144809
 21
497.1095450021684
 31
0.0
  0
LINE
  5
E143
330
19
100
AcDbEntity
  8
0
  6
BYBLOCK
100
AcDbLine
 10
-477.8275686144809
 20
497.1095450021684
 30
0.0
 11
-478.3634669944809
 21
499.1095450021684
 31
0.0
  0
LINE
  5
E144
330
19
100
AcDbEntity
  8
0
  6
BYBLOCK
100
AcDbLine
 10
-477.8275686144809
 20
497.1095450021684
 30
0.0
 11
-477.8275686144809
 21
499.1095450021684
 31
0.0
  0
TEXT
  5
E145
330
19
100
AcDbEntity
  8
1DIM
  6
CONTINUOUS
100
AcDbText
 10
-478.5275686144809
 20
504.1754014836498
 30
0.0
 40
3.5
  1
19
 50
90.0
100
AcDbText
1001
ACAD
1000
DSTYLE
1002
{
1070
    79
1070
     2
1070
   179
1070
     2
1070
   271
1070
     0
1070
   272
1070
     2
1070
   341
1005
0
1002
}
  0
LINE
  5
E146
330
19
100
AcDbEntity
  8
0
  6
BYBLOCK
100
AcDbLine
 10
-582.0698149327574
 20
510.4095450021684
 30
0.0
 11
-581.5339165527573
 21
512.4095450021684
 31
0.0
  0
LINE
  5
E147
330
19
100
AcDbEntity
  8
0
  6
BYBLOCK
100
AcDbLine
 10
-581.5339165527573
 20
512.4095450021684
 30
0.0
 11
-580.9980181727573
 21
510.4095450021684
 31
0.0
  0
LINE
  5
E148
330
19
100
AcDbEntity
  8
0
  6
BYBLOCK
100
AcDbLine
 10
-581.5339165527573
 20
512.4095450021684
 30
0.0
 11
-581.5339165527573
 21
510.4095450021684
 31
0.0
  0
LINE
  5
E149
330
19
100
AcDbEntity
  8
0
  6
BYBLOCK
100
AcDbLine
 10
-580.9980181727573
 20
502.4095450021691
 30
0.0
 11
-581.5339165527573
 21
500.4095450021691
 31
0.0
  0
LINE
  5
E14A
330
19
100
AcDbEntity
  8
0
  6
BYBLOCK
100
AcDbLine
 10
-581.5339165527573
 20
500.4095450021691
 30
0.0
 11
-582.0698149327574
 21
502.4095450021691
 31
0.0
  0
LINE
  5
E14B
330
19
100
AcDbEntity
  8
0
  6
BYBLOCK
100
AcDbLine
 10
-581.5339165527573
 20
500.4095450021691
 30
0.0
 11
-581.5339165527573
 21
502.4095450021691
 31
0.0
  0
TEXT
  5
E14C
330
19
100
AcDbEntity
  8
1DIM
  6
CONTINUOUS
100
AcDbText
 10
-582.2339165527575
 20
504.0762116688354
 30
0.0
 40
3.5
  1
12
 50
90.0
100
AcDbText
1001
ACAD
1000
DSTYLE
1002
{
1070
    40
1040
1.0
1002
}
  0
LINE
  5
E14D
330
19
100
AcDbEntity
  8
0
  6
BYBLOCK
100
AcDbLine
 10
-667.1381403252979
 20
485.9961241518713
 30
0.0
 11
-669.1381403252979
 21
486.5320225318713
 31
0.0
  0
LINE
  5
E14E
330
19
100
AcDbEntity
  8
0
  6
BYBLOCK
100
AcDbLine
 10
-669.1381403252979
 20
486.5320225318713
 30
0.0
 11
-667.1381403252979
 21
487.0679209118713
 31
0.0
  0
LINE
  5
E14F
330
19
100
AcDbEntity
  8
0
  6
BYBLOCK
100
AcDbLine
 10
-669.1381403252979
 20
486.5320225318713
 30
0.0
 11
-667.1381403252979
 21
486.5320225318713
 31
0.0
  0
LINE
  5
E150
330
19
100
AcDbEntity
  8
0
  6
BYBLOCK
100
AcDbLine
 10
-646.3381403252979
 20
487.0679209118713
 30
0.0
 11
-644.3381403252979
 21
486.5320225318713
 31
0.0
  0
LINE
  5
E151
330
19
100
AcDbEntity
  8
0
  6
BYBLOCK
100
AcDbLine
 10
-644.3381403252979
 20
486.5320225318713
 30
0.0
 11
-646.3381403252979
 21
485.9961241518713
 31
0.0
  0
LINE
  5
E152
330
19
100
AcDbEntity
  8
0
  6
BYBLOCK
100
AcDbLine
 10
-644.3381403252979
 20
486.5320225318713
 30
0.0
 11
-646.3381403252979
 21
486.5320225318713
 31
0.0
  0
TEXT
  5
E153
330
19
100
AcDbEntity
  8
1DIM
  6
CONTINUOUS
100
AcDbText
 10
-659.6548069919645
 20
487.2320225318713
 30
0.0
 40
3.5
  1
25
100
AcDbText
1001
ACAD
1000
DSTYLE
1002
{
1070
    79
1070
     2
1070
   179
1070
     2
1070
   271
1070
     0
1070
   272
1070
     2
1070
   341
1005
0
1002
}
  0
LINE
  5
E154
330
19
100
AcDbEntity
  8
0
  6
BYBLOCK
100
AcDbLine
 10
-687.5813358084869
 20
471.4561159714692
 30
0.0
 11
-687.0454374284868
 21
473.4561159714692
 31
0.0
  0
LINE
  5
E155
330
19
100
AcDbEntity
  8
0
  6
BYBLOCK
100
AcDbLine
 10
-687.0454374284868
 20
473.4561159714692
 30
0.0
 11
-686.5095390484868
 21
471.4561159714692
 31
0.0
  0
LINE
  5
E156
330
19
100
AcDbEntity
  8
0
  6
BYBLOCK
100
AcDbLine
 10
-687.0454374284868
 20
473.4561159714692
 30
0.0
 11
-687.0454374284868
 21
471.4561159714692
 31
0.0
  0
LINE
  5
E157
330
19
100
AcDbEntity
  8
0
  6
BYBLOCK
100
AcDbLine
 10
-686.5095390484868
 20
345.6561159714691
 30
0.0
 11
-687.0454374284868
 21
343.6561159714691
 31
0.0
  0
LINE
  5
E158
330
19
100
AcDbEntity
  8
0
  6
BYBLOCK
100
AcDbLine
 10
-687.0454374284868
 20
343.6561159714691
 30
0.0
 11
-687.5813358084869
 21
345.6561159714691
 31
0.0
  0
LINE
  5
E159
330
19
100
AcDbEntity
  8
0
  6
BYBLOCK
100
AcDbLine
 10
-687.0454374284868
 20
343.6561159714691
 30
0.0
 11
-687.0454374284868
 21
345.6561159714691
 31
0.0
  0
TEXT
  5
E15A
330
19
100
AcDbEntity
  8
1DIM
  6
CONTINUOUS
100
AcDbText
 10
-687.7454374284869
 20
404.6915326381358
 30
0.0
 40
3.5
  1
130
 50
90.0
100
AcDbText
1001
ACAD
1000
DSTYLE
1002
{
1070
    79
1070
     2
1070
   179
1070
     2
1070
   271
1070
     0
1070
   272
1070
     2
1070
   341
1005
0
1002
}
  0
LINE
  5
E15B
330
19
100
AcDbEntity
  8
0
  6
BYBLOCK
100
AcDbLine
 10
-679.3556327764016
 20
463.5561159714691
 30
0.0
 11
-678.8197343964016
 21
465.5561159714691
 31
0.0
  0
LINE
  5
E15C
330
19
100
AcDbEntity
  8
0
  6
BYBLOCK
100
AcDbLine
 10
-678.8197343964016
 20
465.5561159714691
 30
0.0
 11
-678.2838360164016
 21
463.5561159714691
 31
0.0
  0
LINE
  5
E15D
330
19
100
AcDbEntity
  8
0
  6
BYBLOCK
100
AcDbLine
 10
-678.8197343964016
 20
465.5561159714691
 30
0.0
 11
-678.8197343964016
 21
463.5561159714691
 31
0.0
  0
LINE
  5
E15E
330
19
100
AcDbEntity
  8
0
  6
BYBLOCK
100
AcDbLine
 10
-678.2838360164016
 20
353.5561159714691
 30
0.0
 11
-678.8197343964016
 21
351.5561159714691
 31
0.0
  0
LINE
  5
E15F
330
19
100
AcDbEntity
  8
0
  6
BYBLOCK
100
AcDbLine
 10
-678.8197343964016
 20
351.5561159714691
 30
0.0
 11
-679.3556327764016
 21
353.5561159714691
 31
0.0
  0
LINE
  5
E160
330
19
100
AcDbEntity
  8
0
  6
BYBLOCK
100
AcDbLine
 10
-678.8197343964016
 20
351.5561159714691
 30
0.0
 11
-678.8197343964016
 21
353.5561159714691
 31
0.0
  0
TEXT
  5
E161
330
19
100
AcDbEntity
  8
1DIM
  6
CONTINUOUS
100
AcDbText
 10
-679.5197343964018
 20
405.056115971469
 30
0.0
 40
3.5
  1
114
 50
90.0
100
AcDbText
1001
ACAD
1000
DSTYLE
1002
{
1070
    79
1070
     2
1070
   179
1070
     2
1070
   272
1070
     2
1070
   341
1005
0
1002
}
  0
LINE
  5
E162
330
19
100
AcDbEntity
  8
0
  6
BYBLOCK
100
AcDbLine
 10
-558.4879593741902
 20
481.2273745840638
 30
0.0
 11
-560.4879593741902
 21
481.7632729640638
 31
0.0
  0
LINE
  5
E163
330
19
100
AcDbEntity
  8
0
  6
BYBLOCK
100
AcDbLine
 10
-560.4879593741902
 20
481.7632729640638
 30
0.0
 11
-558.4879593741902
 21
482.2991713440638
 31
0.0
  0
LINE
  5
E164
330
19
100
AcDbEntity
  8
0
  6
BYBLOCK
100
AcDbLine
 10
-560.4879593741902
 20
481.7632729640638
 30
0.0
 11
-558.4879593741902
 21
481.7632729640638
 31
0.0
  0
LINE
  5
E165
330
19
100
AcDbEntity
  8
0
  6
BYBLOCK
100
AcDbLine
 10
-566.4879593741903
 20
482.2991713440638
 30
0.0
 11
-564.4879593741903
 21
481.7632729640638
 31
0.0
  0
LINE
  5
E166
330
19
100
AcDbEntity
  8
0
  6
BYBLOCK
100
AcDbLine
 10
-564.4879593741903
 20
481.7632729640638
 30
0.0
 11
-566.4879593741903
 21
481.2273745840638
 31
0.0
  0
LINE
  5
E167
330
19
100
AcDbEntity
  8
0
  6
BYBLOCK
100
AcDbLine
 10
-564.4879593741903
 20
481.7632729640638
 30
0.0
 11
-566.4879593741903
 21
481.7632729640638
 31
0.0
  0
TEXT
  5
E168
330
19
100
AcDbEntity
  8
1DIM
  6
CONTINUOUS
100
AcDbText
 10
-571.6046260408569
 20
482.4632729640638
 30
0.0
 40
3.5
  1
4
100
AcDbText
1001
ACAD
1000
DSTYLE
1002
{
1070
    79
1070
     2
1070
   179
1070
     2
1070
   271
1070
     1
1070
   272
1070
     2
1070
   341
1005
0
1002
}
  0
LINE
  5
E169
330
19
100
AcDbEntity
  8
0
  6
BYBLOCK
100
AcDbLine
 10
-483.4705428329602
 20
435.5561159711803
 30
0.0
 11
-482.9346444529602
 21
437.5561159711803
 31
0.0
  0
LINE
  5
E16A
330
19
100
AcDbEntity
  8
0
  6
BYBLOCK
100
AcDbLine
 10
-482.9346444529602
 20
437.5561159711803
 30
0.0
 11
-482.3987460729602
 21
435.5561159711803
 31
0.0
  0
LINE
  5
E16B
330
19
100
AcDbEntity
  8
0
  6
BYBLOCK
100
AcDbLine
 10
-482.9346444529602
 20
437.5561159711803
 30
0.0
 11
-482.9346444529602
 21
435.5561159711803
 31
0.0
  0
LINE
  5
E16C
330
19
100
AcDbEntity
  8
0
  6
BYBLOCK
100
AcDbLine
 10
-482.3987460729602
 20
389.5561159714691
 30
0.0
 11
-482.9346444529602
 21
387.5561159714691
 31
0.0
  0
LINE
  5
E16D
330
19
100
AcDbEntity
  8
0
  6
BYBLOCK
100
AcDbLine
 10
-482.9346444529602
 20
387.5561159714691
 30
0.0
 11
-483.4705428329602
 21
389.5561159714691
 31
0.0
  0
LINE
  5
E16E
330
19
100
AcDbEntity
  8
0
  6
BYBLOCK
100
AcDbLine
 10
-482.9346444529602
 20
387.5561159714691
 30
0.0
 11
-482.9346444529602
 21
389.5561159714691
 31
0.0
  0
TEXT
  5
E16F
330
19
100
AcDbEntity
  8
1DIM
  6
CONTINUOUS
100
AcDbText
 10
-483.6346444529603
 20
409.8460465268802
 30
0.0
 40
3.5
  1
50
 50
90.0
100
AcDbText
1001
ACAD
1000
DSTYLE
1002
{
1070
    79
1070
     2
1070
   179
1070
     2
1070
   272
1070
     2
1070
   341
1005
0
1002
}
  0
LINE
  5
E170
330
19
100
AcDbEntity
  8
0
  6
BYBLOCK
100
AcDbLine
 10
-476.037865190832
 20
389.5561159714691
 30
0.0
 11
-476.573763570832
 21
387.5561159714691
 31
0.0
  0
LINE
  5
E171
330
19
100
AcDbEntity
  8
0
  6
BYBLOCK
100
AcDbLine
 10
-476.573763570832
 20
387.5561159714691
 30
0.0
 11
-477.109661950832
 21
389.5561159714691
 31
0.0
  0
LINE
  5
E172
330
19
100
AcDbEntity
  8
0
  6
BYBLOCK
100
AcDbLine
 10
-476.573763570832
 20
387.5561159714691
 30
0.0
 11
-476.573763570832
 21
389.5561159714691
 31
0.0
  0
LINE
  5
E173
330
19
100
AcDbEntity
  8
0
  6
BYBLOCK
100
AcDbLine
 10
-477.109661950832
 20
443.5561159714691
 30
0.0
 11
-476.573763570832
 21
445.5561159714691
 31
0.0
  0
LINE
  5
E174
330
19
100
AcDbEntity
  8
0
  6
BYBLOCK
100
AcDbLine
 10
-476.573763570832
 20
445.5561159714691
 30
0.0
 11
-476.037865190832
 21
443.5561159714691
 31
0.0
  0
LINE
  5
E175
330
19
100
AcDbEntity
  8
0
  6
BYBLOCK
100
AcDbLine
 10
-476.573763570832
 20
445.5561159714691
 30
0.0
 11
-476.573763570832
 21
443.5561159714691
 31
0.0
  0
TEXT
  5
E176
330
19
100
AcDbEntity
  8
1DIM
  6
CONTINUOUS
100
AcDbText
 10
-477.2737635708322
 20
413.6272965270246
 30
0.0
 40
3.5
  1
58
 50
90.0
100
AcDbText
1001
ACAD
1000
DSTYLE
1002
{
1070
    79
1070
     2
1070
   179
1070
     2
1070
   272
1070
     2
1070
   341
1005
0
1002
}
  0
LINE
  5
E177
330
19
100
AcDbEntity
  8
0
  6
BYBLOCK
100
AcDbLine
 10
-477.1096619508319
 20
385.5561159714691
 30
0.0
 11
-476.5737635708319
 21
387.5561159714691
 31
0.0
  0
LINE
  5
E178
330
19
100
AcDbEntity
  8
0
  6
BYBLOCK
100
AcDbLine
 10
-476.5737635708319
 20
387.5561159714691
 30
0.0
 11
-476.037865190832
 21
385.5561159714691
 31
0.0
  0
LINE
  5
E179
330
19
100
AcDbEntity
  8
0
  6
BYBLOCK
100
AcDbLine
 10
-476.5737635708319
 20
387.5561159714691
 30
0.0
 11
-476.5737635708319
 21
385.5561159714691
 31
0.0
  0
LINE
  5
E17A
330
19
100
AcDbEntity
  8
0
  6
BYBLOCK
100
AcDbLine
 10
-476.037865190832
 20
373.5561159714691
 30
0.0
 11
-476.573763570832
 21
371.5561159714691
 31
0.0
  0
LINE
  5
E17B
330
19
100
AcDbEntity
  8
0
  6
BYBLOCK
100
AcDbLine
 10
-476.573763570832
 20
371.5561159714691
 30
0.0
 11
-477.109661950832
 21
373.5561159714691
 31
0.0
  0
LINE
  5
E17C
330
19
100
AcDbEntity
  8
0
  6
BYBLOCK
100
AcDbLine
 10
-476.573763570832
 20
371.5561159714691
 30
0.0
 11
-476.573763570832
 21
373.5561159714691
 31
0.0
  0
TEXT
  5
E17D
330
19
100
AcDbEntity
  8
1DIM
  6
CONTINUOUS
100
AcDbText
 10
-477.273763570832
 20
377.2227826381358
 30
0.0
 40
3.5
  1
16
 50
90.0
100
AcDbText
1001
ACAD
1000
DSTYLE
1002
{
1070
    79
1070
     2
1070
   179
1070
     2
1070
   272
1070
     2
1070
   341
1005
0
1002
}
  0
LINE
  5
E17E
330
19
100
AcDbEntity
  8
0
  6
BYBLOCK
100
AcDbLine
 10
-469.5784585675754
 20
373.5561159714691
 30
0.0
 11
-470.1143569475754
 21
371.5561159714691
 31
0.0
  0
LINE
  5
E17F
330
19
100
AcDbEntity
  8
0
  6
BYBLOCK
100
AcDbLine
 10
-470.1143569475754
 20
371.5561159714691
 30
0.0
 11
-470.6502553275754
 21
373.5561159714691
 31
0.0
  0
LINE
  5
E180
330
19
100
AcDbEntity
  8
0
  6
BYBLOCK
100
AcDbLine
 10
-470.1143569475754
 20
371.5561159714691
 30
0.0
 11
-470.1143569475754
 21
373.5561159714691
 31
0.0
  0
LINE
  5
E181
330
19
100
AcDbEntity
  8
0
  6
BYBLOCK
100
AcDbLine
 10
-470.6502553275753
 20
443.5561159714691
 30
0.0
 11
-470.1143569475753
 21
445.5561159714691
 31
0.0
  0
LINE
  5
E182
330
19
100
AcDbEntity
  8
0
  6
BYBLOCK
100
AcDbLine
 10
-470.1143569475753
 20
445.5561159714691
 30
0.0
 11
-469.5784585675754
 21
443.5561159714691
 31
0.0
  0
LINE
  5
E183
330
19
100
AcDbEntity
  8
0
  6
BYBLOCK
100
AcDbLine
 10
-470.1143569475753
 20
445.5561159714691
 30
0.0
 11
-470.1143569475753
 21
443.5561159714691
 31
0.0
  0
TEXT
  5
E184
330
19
100
AcDbEntity
  8
1DIM
  6
CONTINUOUS
100
AcDbText
 10
-470.8143569475754
 20
405.6394493048023
 30
0.0
 40
3.5
  1
74
 50
90.0
100
AcDbText
1001
ACAD
1000
DSTYLE
1002
{
1070
    79
1070
     2
1070
   179
1070
     2
1070
   272
1070
     2
1070
   341
1005
0
1002
}
  0
LINE
  5
E185
330
19
100
AcDbEntity
  8
0
  6
BYBLOCK
100
AcDbLine
 10
-470.6502553275753
 20
369.5561159714691
 30
0.0
 11
-470.1143569475753
 21
371.5561159714691
 31
0.0
  0
LINE
  5
E186
330
19
100
AcDbEntity
  8
0
  6
BYBLOCK
100
AcDbLine
 10
-470.1143569475753
 20
371.5561159714691
 30
0.0
 11
-469.5784585675754
 21
369.5561159714691
 31
0.0
  0
LINE
  5
E187
330
19
100
AcDbEntity
  8
0
  6
BYBLOCK
100
AcDbLine
 10
-470.1143569475753
 20
371.5561159714691
 30
0.0
 11
-470.1143569475753
 21
369.5561159714691
 31
0.0
  0
LINE
  5
E188
330
19
100
AcDbEntity
  8
0
  6
BYBLOCK
100
AcDbLine
 10
-469.5784585675754
 20
345.6561159714691
 30
0.0
 11
-470.1143569475753
 21
343.6561159714691
 31
0.0
  0
LINE
  5
E189
330
19
100
AcDbEntity
  8
0
  6
BYBLOCK
100
AcDbLine
 10
-470.1143569475753
 20
343.6561159714691
 30
0.0
 11
-470.6502553275753
 21
345.6561159714691
 31
0.0
  0
LINE
  5
E18A
330
19
100
AcDbEntity
  8
0
  6
BYBLOCK
100
AcDbLine
 10
-470.1143569475753
 20
343.6561159714691
 30
0.0
 11
-470.1143569475753
 21
345.6561159714691
 31
0.0
  0
TEXT
  5
E18B
330
19
100
AcDbEntity
  8
1DIM
  6
CONTINUOUS
100
AcDbText
 10
-470.8143569475754
 20
354.6894493048023
 30
0.0
 40
3.5
  1
28
 50
90.0
100
AcDbText
1001
ACAD
1000
DSTYLE
1002
{
1070
    79
1070
     2
1070
   179
1070
     2
1070
   271
1070
     0
1070
   272
1070
     2
1070
   341
1005
0
1002
}
  0
LINE
  5
E18C
330
19
100
AcDbEntity
  8
0
  6
BYBLOCK
100
AcDbLine
 10
-562.4879593741903
 20
333.8596791750177
 30
0.0
 11
-564.4879593741903
 21
334.3955775550177
 31
0.0
  0
LINE
  5
E18D
330
19
100
AcDbEntity
  8
0
  6
BYBLOCK
100
AcDbLine
 10
-564.4879593741903
 20
334.3955775550177
 30
0.0
 11
-562.4879593741903
 21
334.9314759350177
 31
0.0
  0
LINE
  5
E18E
330
19
100
AcDbEntity
  8
0
  6
BYBLOCK
100
AcDbLine
 10
-564.4879593741903
 20
334.3955775550177
 30
0.0
 11
-562.4879593741903
 21
334.3955775550177
 31
0.0
  0
LINE
  5
E18F
330
19
100
AcDbEntity
  8
0
  6
BYBLOCK
100
AcDbLine
 10
-515.4879593741903
 20
334.9314759350177
 30
0.0
 11
-513.4879593741903
 21
334.3955775550177
 31
0.0
  0
LINE
  5
E190
330
19
100
AcDbEntity
  8
0
  6
BYBLOCK
100
AcDbLine
 10
-513.4879593741903
 20
334.3955775550177
 30
0.0
 11
-515.4879593741903
 21
333.8596791750177
 31
0.0
  0
LINE
  5
E191
330
19
100
AcDbEntity
  8
0
  6
BYBLOCK
100
AcDbLine
 10
-513.4879593741903
 20
334.3955775550177
 30
0.0
 11
-515.4879593741903
 21
334.3955775550177
 31
0.0
  0
TEXT
  5
E192
330
19
100
AcDbEntity
  8
1DIM
  6
CONTINUOUS
100
AcDbText
 10
-546.4667788186347
 20
335.0955775550178
 30
0.0
 40
3.5
  1
B.S 51
100
AcDbText
1001
ACAD
1000
DSTYLE
1002
{
1070
    79
1070
     2
1070
   179
1070
     2
1070
   272
1070
     2
1070
   341
1005
0
1002
}
  0
LINE
  5
E193
330
19
100
AcDbEntity
  8
0
  6
BYBLOCK
100
AcDbLine
 10
-562.4879593741903
 20
327.7912151899544
 30
0.0
 11
-564.4879593741903
 21
328.3271135699544
 31
0.0
  0
LINE
  5
E194
330
19
100
AcDbEntity
  8
0
  6
BYBLOCK
100
AcDbLine
 10
-564.4879593741903
 20
328.3271135699544
 30
0.0
 11
-562.4879593741903
 21
328.8630119499544
 31
0.0
  0
LINE
  5
E195
330
19
100
AcDbEntity
  8
0
  6
BYBLOCK
100
AcDbLine
 10
-564.4879593741903
 20
328.3271135699544
 30
0.0
 11
-562.4879593741903
 21
328.3271135699544
 31
0.0
  0
LINE
  5
E196
330
19
100
AcDbEntity
  8
0
  6
BYBLOCK
100
AcDbLine
 10
-497.4879593741902
 20
328.8630119499544
 30
0.0
 11
-495.4879593741902
 21
328.3271135699544
 31
0.0
  0
LINE
  5
E197
330
19
100
AcDbEntity
  8
0
  6
BYBLOCK
100
AcDbLine
 10
-495.4879593741902
 20
328.3271135699544
 30
0.0
 11
-497.4879593741902
 21
327.7912151899544
 31
0.0
  0
LINE
  5
E198
330
19
100
AcDbEntity
  8
0
  6
BYBLOCK
100
AcDbLine
 10
-495.4879593741902
 20
328.3271135699544
 30
0.0
 11
-497.4879593741902
 21
328.3271135699544
 31
0.0
  0
TEXT
  5
E199
330
19
100
AcDbEntity
  8
1DIM
  6
CONTINUOUS
100
AcDbText
 10
-532.9175890038199
 20
329.0271135699544
 30
0.0
 40
3.5
  1
69
100
AcDbText
1001
ACAD
1000
DSTYLE
1002
{
1070
    79
1070
     2
1070
   179
1070
     2
1070
   272
1070
     2
1070
   341
1005
0
1002
}
  0
LINE
  5
E19A
330
19
100
AcDbEntity
  8
0
  6
BYBLOCK
100
AcDbLine
 10
-515.0379593750231
 20
360.2852103915008
 30
0.0
 11
-517.0379593750231
 21
360.8211087715007
 31
0.0
  0
LINE
  5
E19B
330
19
100
AcDbEntity
  8
0
  6
BYBLOCK
100
AcDbLine
 10
-517.0379593750231
 20
360.8211087715007
 30
0.0
 11
-515.0379593750231
 21
361.3570071515007
 31
0.0
  0
LINE
  5
E19C
330
19
100
AcDbEntity
  8
0
  6
BYBLOCK
100
AcDbLine
 10
-517.0379593750231
 20
360.8211087715007
 30
0.0
 11
-515.0379593750231
 21
360.8211087715007
 31
0.0
  0
LINE
  5
E19D
330
19
100
AcDbEntity
  8
0
  6
BYBLOCK
100
AcDbLine
 10
-511.9379593750236
 20
361.3570071515007
 30
0.0
 11
-509.9379593750236
 21
360.8211087715007
 31
0.0
  0
LINE
  5
E19E
330
19
100
AcDbEntity
  8
0
  6
BYBLOCK
100
AcDbLine
 10
-509.9379593750236
 20
360.8211087715007
 30
0.0
 11
-511.9379593750236
 21
360.2852103915008
 31
0.0
  0
LINE
  5
E19F
330
19
100
AcDbEntity
  8
0
  6
BYBLOCK
100
AcDbLine
 10
-509.9379593750236
 20
360.8211087715007
 30
0.0
 11
-511.9379593750236
 21
360.8211087715007
 31
0.0
  0
TEXT
  5
E1A0
330
19
100
AcDbEntity
  8
1DIM
  6
CONTINUOUS
100
AcDbText
 10
-506.5879593741902
 20
361.5211087715007
 30
0.0
 40
3.5
  1
□7.1
100
AcDbText
1001
ACAD
1000
DSTYLE
1002
{
1070
     3
1000
□<>
1070
    79
1070
     2
1070
   179
1070
     2
1070
   272
1070
     2
1070
   341
1005
0
1002
}
  0
LINE
  5
E1A1
330
19
100
AcDbEntity
  8
0
  6
BYBLOCK
100
AcDbLine
 10
-543.0414706506384
 20
360.9017424982748
 30
0.0
 11
-544.0767468344866
 21
362.6948934391727
 31
0.0
  0
LINE
  5
E1A2
330
19
100
AcDbEntity
  8
0
  6
BYBLOCK
100
AcDbLine
 10
-544.0767468344866
 20
362.6948934391727
 30
0.0
 11
-542.2835958935887
 21
361.6596172553245
 31
0.0
  0
LINE
  5
E1A3
330
19
100
AcDbEntity
  8
0
  6
BYBLOCK
100
AcDbLine
 10
-544.0767468344866
 20
362.6948934391727
 30
0.0
 11
-542.6625332721135
 21
361.2806798767996
 31
0.0
  0
LINE
  5
E1A4
330
19
100
AcDbEntity
  8
0
  6
BYBLOCK
100
AcDbLine
 10
-539.3844580903348
 20
358.7604794520707
 30
0.0
 11
-538.3491819064866
 21
356.9673285111727
 31
0.0
  0
LINE
  5
E1A5
330
19
100
AcDbEntity
  8
0
  6
BYBLOCK
100
AcDbLine
 10
-538.3491819064866
 20
356.9673285111727
 30
0.0
 11
-540.1423328473845
 21
358.0026046950209
 31
0.0
  0
LINE
  5
E1A6
330
19
100
AcDbEntity
  8
0
  6
BYBLOCK
100
AcDbLine
 10
-538.3491819064866
 20
356.9673285111727
 30
0.0
 11
-539.7633954688597
 21
358.3815420735458
 31
0.0
  0
TEXT
  5
E1A7
330
19
100
AcDbEntity
  8
1DIM
  6
CONTINUOUS
100
AcDbText
 10
-544.3478044337469
 20
363.955900532094
 30
0.0
 40
3.5
  1
□8.1
 50
315.0
100
AcDbText
1001
ACAD
1000
DSTYLE
1002
{
1070
     3
1000
□<>
1070
    79
1070
     2
1070
   179
1070
     2
1070
   272
1070
     2
1070
   341
1005
0
1002
}
  0
LINE
  5
E1A8
330
19
100
AcDbEntity
  8
0
  6
BYBLOCK
100
AcDbLine
 10
-526.4879593741904
 20
352.6183239687265
 30
0.0
 11
-528.4879593741904
 21
353.1542223487265
 31
0.0
  0
LINE
  5
E1A9
330
19
100
AcDbEntity
  8
0
  6
BYBLOCK
100
AcDbLine
 10
-528.4879593741904
 20
353.1542223487265
 30
0.0
 11
-526.4879593741904
 21
353.6901207287265
 31
0.0
  0
LINE
  5
E1AA
330
19
100
AcDbEntity
  8
0
  6
BYBLOCK
100
AcDbLine
 10
-528.4879593741904
 20
353.1542223487265
 30
0.0
 11
-526.4879593741904
 21
353.1542223487265
 31
0.0
  0
LINE
  5
E1AB
330
19
100
AcDbEntity
  8
0
  6
BYBLOCK
100
AcDbLine
 10
-500.4879593736902
 20
353.6901207287265
 30
0.0
 11
-498.4879593736902
 21
353.1542223487265
 31
0.0
  0
LINE
  5
E1AC
330
19
100
AcDbEntity
  8
0
  6
BYBLOCK
100
AcDbLine
 10
-498.4879593736902
 20
353.1542223487265
 30
0.0
 11
-500.4879593736902
 21
352.6183239687265
 31
0.0
  0
LINE
  5
E1AD
330
19
100
AcDbEntity
  8
0
  6
BYBLOCK
100
AcDbLine
 10
-498.4879593736902
 20
353.1542223487265
 30
0.0
 11
-500.4879593736902
 21
353.1542223487265
 31
0.0
  0
TEXT
  5
E1AE
330
19
100
AcDbEntity
  8
1DIM
  6
CONTINUOUS
100
AcDbText
 10
-506.6477848142698
 20
353.8542223487265
 30
0.0
 40
3.5
  1
30
100
AcDbText
1001
ACAD
1000
DSTYLE
1002
{
1070
    79
1070
     2
1070
   179
1070
     2
1070
   272
1070
     2
1070
   341
1005
0
1002
}
  0
LINE
  5
E1AF
330
19
100
AcDbEntity
  8
0
  6
BYBLOCK
100
AcDbLine
 10
-528.4879593741903
 20
346.8539449495064
 30
0.0
 11
-530.4879593741903
 21
347.3898433295064
 31
0.0
  0
LINE
  5
E1B0
330
19
100
AcDbEntity
  8
0
  6
BYBLOCK
100
AcDbLine
 10
-530.4879593741903
 20
347.3898433295064
 30
0.0
 11
-528.4879593741903
 21
347.9257417095064
 31
0.0
  0
LINE
  5
E1B1
330
19
100
AcDbEntity
  8
0
  6
BYBLOCK
100
AcDbLine
 10
-530.4879593741903
 20
347.3898433295064
 30
0.0
 11
-528.4879593741903
 21
347.3898433295064
 31
0.0
  0
LINE
  5
E1B2
330
19
100
AcDbEntity
  8
0
  6
BYBLOCK
100
AcDbLine
 10
-498.4879593741902
 20
347.9257417095064
 30
0.0
 11
-496.4879593741902
 21
347.3898433295064
 31
0.0
  0
LINE
  5
E1B3
330
19
100
AcDbEntity
  8
0
  6
BYBLOCK
100
AcDbLine
 10
-496.4879593741902
 20
347.3898433295064
 30
0.0
 11
-498.4879593741902
 21
346.8539449495064
 31
0.0
  0
LINE
  5
E1B4
330
19
100
AcDbEntity
  8
0
  6
BYBLOCK
100
AcDbLine
 10
-496.4879593741902
 20
347.3898433295064
 30
0.0
 11
-498.4879593741902
 21
347.3898433295064
 31
0.0
  0
TEXT
  5
E1B5
330
19
100
AcDbEntity
  8
1DIM
  6
CONTINUOUS
100
AcDbText
 10
-506.8665348142698
 20
348.0898433295064
 30
0.0
 40
3.5
  1
34
100
AcDbText
1001
ACAD
1000
DSTYLE
1002
{
1070
    79
1070
     2
1070
   179
1070
     2
1070
   272
1070
     2
1070
   341
1005
0
1002
}
  0
LINE
  5
E1B6
330
19
100
AcDbEntity
  8
0
  6
BYBLOCK
100
AcDbLine
 10
-487.1061910885871
 20
386.4061159709967
 30
0.0
 11
-487.6420894685871
 21
384.4061159709967
 31
0.0
  0
LINE
  5
E1B7
330
19
100
AcDbEntity
  8
0
  6
BYBLOCK
100
AcDbLine
 10
-487.6420894685871
 20
384.4061159709967
 30
0.0
 11
-488.1779878485871
 21
386.4061159709967
 31
0.0
  0
LINE
  5
E1B8
330
19
100
AcDbEntity
  8
0
  6
BYBLOCK
100
AcDbLine
 10
-487.6420894685871
 20
384.4061159709967
 30
0.0
 11
-487.6420894685871
 21
386.4061159709967
 31
0.0
  0
LINE
  5
E1B9
330
19
100
AcDbEntity
  8
0
  6
BYBLOCK
100
AcDbLine
 10
-488.1779878485871
 20
388.7061159709967
 30
0.0
 11
-487.6420894685871
 21
390.7061159709967
 31
0.0
  0
LINE
  5
E1BA
330
19
100
AcDbEntity
  8
0
  6
BYBLOCK
100
AcDbLine
 10
-487.6420894685871
 20
390.7061159709967
 30
0.0
 11
-487.1061910885871
 21
388.7061159709967
 31
0.0
  0
LINE
  5
E1BB
330
19
100
AcDbEntity
  8
0
  6
BYBLOCK
100
AcDbLine
 10
-487.6420894685871
 20
390.7061159709967
 30
0.0
 11
-487.6420894685871
 21
388.7061159709967
 31
0.0
  0
TEXT
  5
E1BC
330
19
100
AcDbEntity
  8
1DIM
  6
CONTINUOUS
100
AcDbText
 10
-488.3420894685872
 20
393.4772965265522
 30
0.0
 40
3.5
  1
6.3
 50
90.0
100
AcDbText
1001
ACAD
1000
DSTYLE
1002
{
1070
    79
1070
     2
1070
   179
1070
     2
1070
   272
1070
     2
1070
   341
1005
0
1002
}
  0
LINE
  5
E1BD
330
19
100
AcDbEntity
  8
0
  6
BYBLOCK
100
AcDbLine
 10
-494.3333823668009
 20
450.2760212700642
 30
0.0
 11
-495.3686585506491
 21
452.0691722109622
 31
0.0
  0
LINE
  5
E1BE
330
19
100
AcDbEntity
  8
0
  6
BYBLOCK
100
AcDbLine
 10
-495.3686585506491
 20
452.0691722109622
 30
0.0
 11
-493.5755076097511
 21
451.033896027114
 31
0.0
  0
LINE
  5
E1BF
330
19
100
AcDbEntity
  8
0
  6
BYBLOCK
100
AcDbLine
 10
-495.3686585506491
 20
452.0691722109622
 30
0.0
 11
-493.954444988276
 21
450.6549586485891
 31
0.0
  0
LINE
  5
E1C0
330
19
100
AcDbEntity
  8
0
  6
BYBLOCK
100
AcDbLine
 10
-500.0101793185488
 20
457.4685677359116
 30
0.0
 11
-498.9749031347005
 21
455.6754167950136
 31
0.0
  0
LINE
  5
E1C1
330
19
100
AcDbEntity
  8
0
  6
BYBLOCK
100
AcDbLine
 10
-498.9749031347005
 20
455.6754167950136
 30
0.0
 11
-500.7680540755985
 21
456.7106929788617
 31
0.0
  0
LINE
  5
E1C2
330
19
100
AcDbEntity
  8
0
  6
BYBLOCK
100
AcDbLine
 10
-498.9749031347005
 20
455.6754167950136
 30
0.0
 11
-500.3891166970736
 21
457.0896303573867
 31
0.0
  0
TEXT
  5
E1C3
330
19
100
AcDbEntity
  8
1DIM
  6
CONTINUOUS
100
AcDbText
 10
-509.1776192083838
 20
466.8680823623578
 30
0.0
 40
3.5
  1
□5.1
 50
315.0000000000005
100
AcDbText
1001
ACAD
1000
DSTYLE
1002
{
1070
     3
1000
□<>
1070
    79
1070
     2
1070
   179
1070
     2
1070
   271
1070
     1
1070
   272
1070
     2
1070
   341
1005
0
1002
}
  0
LINE
  5
E1C4
330
19
100
AcDbEntity
  8
0
  6
BYBLOCK
100
AcDbLine
 10
-585.7605412155112
 20
471.456115971469
 30
0.0
 11
-585.2246428355112
 21
473.456115971469
 31
0.0
  0
LINE
  5
E1C5
330
19
100
AcDbEntity
  8
0
  6
BYBLOCK
100
AcDbLine
 10
-585.2246428355112
 20
473.456115971469
 30
0.0
 11
-584.6887444555111
 21
471.456115971469
 31
0.0
  0
LINE
  5
E1C6
330
19
100
AcDbEntity
  8
0
  6
BYBLOCK
100
AcDbLine
 10
-585.2246428355112
 20
473.456115971469
 30
0.0
 11
-585.2246428355112
 21
471.456115971469
 31
0.0
  0
LINE
  5
E1C7
330
19
100
AcDbEntity
  8
0
  6
BYBLOCK
100
AcDbLine
 10
-584.6887444555111
 20
411.4561159714689
 30
0.0
 11
-585.2246428355112
 21
409.4561159714689
 31
0.0
  0
LINE
  5
E1C8
330
19
100
AcDbEntity
  8
0
  6
BYBLOCK
100
AcDbLine
 10
-585.2246428355112
 20
409.4561159714689
 30
0.0
 11
-585.7605412155112
 21
411.4561159714689
 31
0.0
  0
LINE
  5
E1C9
330
19
100
AcDbEntity
  8
0
  6
BYBLOCK
100
AcDbLine
 10
-585.2246428355112
 20
409.4561159714689
 30
0.0
 11
-585.2246428355112
 21
411.4561159714689
 31
0.0
  0
TEXT
  5
E1CA
330
19
100
AcDbEntity
  8
1DIM
  6
CONTINUOUS
100
AcDbText
 10
-585.9246428355113
 20
438.5272965270245
 30
0.0
 40
3.5
  1
64
 50
90.0
100
AcDbText
1001
ACAD
1000
DSTYLE
1002
{
1070
    40
1040
1.0
1070
    79
1070
     2
1070
   179
1070
     2
1070
   272
1070
     2
1070
   341
1005
0
1002
}
  0
LINE
  5
E1CB
330
19
100
AcDbEntity
  8
0
  6
BYBLOCK
100
AcDbLine
 10
-585.7605412155112
 20
407.4561159714689
 30
0.0
 11
-585.2246428355112
 21
409.4561159714689
 31
0.0
  0
LINE
  5
E1CC
330
19
100
AcDbEntity
  8
0
  6
BYBLOCK
100
AcDbLine
 10
-585.2246428355112
 20
409.4561159714689
 30
0.0
 11
-584.6887444555111
 21
407.4561159714689
 31
0.0
  0
LINE
  5
E1CD
330
19
100
AcDbEntity
  8
0
  6
BYBLOCK
100
AcDbLine
 10
-585.2246428355112
 20
409.4561159714689
 30
0.0
 11
-585.2246428355112
 21
407.4561159714689
 31
0.0
  0
LINE
  5
E1CE
330
19
100
AcDbEntity
  8
0
  6
BYBLOCK
100
AcDbLine
 10
-584.6887444555111
 20
345.6561159714691
 30
0.0
 11
-585.2246428355112
 21
343.6561159714691
 31
0.0
  0
LINE
  5
E1CF
330
19
100
AcDbEntity
  8
0
  6
BYBLOCK
100
AcDbLine
 10
-585.2246428355112
 20
343.6561159714691
 30
0.0
 11
-585.7605412155112
 21
345.6561159714691
 31
0.0
  0
LINE
  5
E1D0
330
19
100
AcDbEntity
  8
0
  6
BYBLOCK
100
AcDbLine
 10
-585.2246428355112
 20
343.6561159714691
 30
0.0
 11
-585.2246428355112
 21
345.6561159714691
 31
0.0
  0
TEXT
  5
E1D1
330
19
100
AcDbEntity
  8
1DIM
  6
CONTINUOUS
100
AcDbText
 10
-585.9246428355113
 20
373.6272965270244
 30
0.0
 40
3.5
  1
66
 50
90.0
100
AcDbText
1001
ACAD
1000
DSTYLE
1002
{
1070
    79
1070
     2
1070
   179
1070
     2
1070
   271
1070
     0
1070
   272
1070
     2
1070
   341
1005
0
1002
}
  0
LINE
  5
E1D2
330
19
100
AcDbEntity
  8
0
  6
BYBLOCK
100
AcDbLine
 10
-579.0828155110171
 20
401.4561159714556
 30
0.0
 11
-579.6187138910171
 21
399.4561159714556
 31
0.0
  0
LINE
  5
E1D3
330
19
100
AcDbEntity
  8
0
  6
BYBLOCK
100
AcDbLine
 10
-579.6187138910171
 20
399.4561159714556
 30
0.0
 11
-580.1546122710172
 21
401.4561159714556
 31
0.0
  0
LINE
  5
E1D4
330
19
100
AcDbEntity
  8
0
  6
BYBLOCK
100
AcDbLine
 10
-579.6187138910171
 20
399.4561159714556
 30
0.0
 11
-579.6187138910171
 21
401.4561159714556
 31
0.0
  0
LINE
  5
E1D5
330
19
100
AcDbEntity
  8
0
  6
BYBLOCK
100
AcDbLine
 10
-580.1546122710172
 20
417.4561159714556
 30
0.0
 11
-579.6187138910171
 21
419.4561159714556
 31
0.0
  0
LINE
  5
E1D6
330
19
100
AcDbEntity
  8
0
  6
BYBLOCK
100
AcDbLine
 10
-579.6187138910171
 20
419.4561159714556
 30
0.0
 11
-579.0828155110171
 21
417.4561159714556
 31
0.0
  0
LINE
  5
E1D7
330
19
100
AcDbEntity
  8
0
  6
BYBLOCK
100
AcDbLine
 10
-579.6187138910171
 20
419.4561159714556
 30
0.0
 11
-579.6187138910171
 21
417.4561159714556
 31
0.0
  0
TEXT
  5
E1D8
330
19
100
AcDbEntity
  8
1DIM
  6
CONTINUOUS
100
AcDbText
 10
-580.3187138910173
 20
412.1424113653342
 30
0.0
 40
3.5
  1
20
 50
90.0
100
AcDbText
  0
LINE
  5
E1D9
330
19
100
AcDbEntity
  8
0
  6
BYBLOCK
100
AcDbLine
 10
-462.7624064852317
 20
373.1877206353579
 30
0.0
 11
-463.8566272934895
 21
371.4299186281733
 31
0.0
  0
LINE
  5
E1DA
330
19
100
AcDbEntity
  8
0
  6
BYBLOCK
100
AcDbLine
 10
-463.8566272934895
 20
371.4299186281733
 30
0.0
 11
-463.7879052703931
 21
373.4993302250356
 31
0.0
  0
LINE
  5
E1DB
330
19
100
AcDbEntity
  8
0
  6
BYBLOCK
100
AcDbLine
 10
-463.8566272934895
 20
371.4299186281733
 30
0.0
 11
-463.2751558778124
 21
373.3435254301968
 31
0.0
  0
LINE
  5
E1DC
330
19
100
AcDbEntity
  8
0
  6
BYBLOCK
100
AcDbLine
 10
-461.8766133766167
 20
385.5667523143518
 30
0.0
 11
-461.3024885527085
 21
387.5561159714691
 31
0.0
  0
LINE
  5
E1DD
330
19
100
AcDbEntity
  8
0
  6
BYBLOCK
100
AcDbLine
 10
-461.3024885527085
 20
387.5561159714691
 30
0.0
 11
-460.8050134157157
 21
385.5462140928291
 31
0.0
  0
LINE
  5
E1DE
330
19
100
AcDbEntity
  8
0
  6
BYBLOCK
100
AcDbLine
 10
-461.3024885527085
 20
387.5561159714691
 30
0.0
 11
-461.3408133961662
 21
385.5564832035905
 31
0.0
  0
TEXT
  5
E1DF
330
19
100
AcDbEntity
  8
1DIM
  6
CONTINUOUS
100
AcDbText
 10
-463.1841342431745
 20
376.0435042731611
 30
0.0
 40
3.5
  1
18°
 50
81.0
100
AcDbText
  0
VIEWPORT
  5
2FC
330
16
100
AcDbEntity
 67
     1
  8
0
100
AcDbViewport
 68
     1
 10
0.0
 20
0.0
 30
0.0
 40
491.8228498074454
 41
297.0
 68
     1
 69
     1
1001
ACAD
1000
MVIEW
1002
{
1070
    16
1010
0.0
1020
0.0
1030
0.0
1010
0.0
1020
0.0
1030
1.0
1040
0.0
1040
297.0
1040
18.80000000000001
1040
7.99077084551999
1040
50.0
1040
0.0
1040
0.0
1070
    16
1070
   100
1070
     0
1070
     1
1070
     0
1070
     0
1070
     0
1070
     0
1040
0.0
1040
0.0
1040
0.0
1040
10.0
1040
10.0
1040
10.0
1040
10.0
1070
     0
1002
{
1002
}
1002
}
  0
ENDSEC
  0
SECTION
  2
OBJECTS
  0
DICTIONARY
  5
C
330
0
100
AcDbDictionary
  3
ACAD_CIP_PREVIOUS_PRODUCT_INFO
350
B5D9
  3
ACAD_COLOR
350
C0F
  3
ACAD_GROUP
350
D
  3
ACAD_LAYOUT
350
C37
  3
ACAD_MATERIAL
350
BE5
  3
ACAD_MLEADERSTYLE
350
C34
  3
ACAD_MLINESTYLE
350
E
  3
ACAD_PLOTSETTINGS
350
C38
  3
ACAD_SCALELIST
350
C12
  3
ACAD_VISUALSTYLE
350
BFE
  3
ACDBHEADERROUNDTRIPXREC
350
E1E0
  3
ACDBVARIABLEDICTIONARY
350
2E2
  3
AEC_PROPERTY_SET_DEFS
350
1E54
  3
CONTENTDICTIONARY
350
31B
  3
DRAWINGVARIABLESDICT
350
377
  3
DWGPROPS
350
E1E3
1001
ACAD
1000
TREAT_AS_HARD
1070
     0
  0
DICTIONARY
  5
FE0
330
2
100
AcDbDictionary
  3
ACAD_LAYERSTATES
360
FE1
1001
ACAD
1000
TREAT_AS_HARD
1070
     1
  0
DICTIONARY
  5
C40
330
F
100
AcDbDictionary
  3
ADSK_XREC_LAYER_RECONCILED
360
C41
1001
ACAD
1000
TREAT_AS_HARD
1070
     1
  0
DICTIONARY
  5
C46
330
753
100
AcDbDictionary
  3
ADSK_XREC_LAYER_RECONCILED
360
C47
1001
ACAD
1000
TREAT_AS_HARD
1070
     1
  0
DICTIONARY
  5
C4A
330
BC3
100
AcDbDictionary
  3
ADSK_XREC_LAYER_RECONCILED
360
C4B
1001
ACAD
1000
TREAT_AS_HARD
1070
     1
  0
DICTIONARY
  5
7014
330
7013
100
AcDbDictionary
  3
ADSK_XREC_LAYER_RECONCILED
360
7015
1001
ACAD
1000
TREAT_AS_HARD
1070
     1
  0
DICTIONARY
  5
11D9
330
19
100
AcDbDictionary
  3
ACAD_SORTENTS
360
11DA
1001
ACAD
1000
TREAT_AS_HARD
1070
     1
  0
DICTIONARY
  5
2400
330
16
100
AcDbDictionary
  3
ACAD_SORTENTS
360
2401
1001
ACAD
1000
TREAT_AS_HARD
1070
     1
  0
XRECORD
  5
B5D9
102
{ACAD_REACTORS
330
C
102
}
330
C
100
AcDbXrecord
300
ACDLT
300
2012
300
ACDLT_F_S
  0
DICTIONARY
  5
C0F
102
{ACAD_REACTORS
330
C
102
}
330
C
100
AcDbDictionary
1001
ACAD
1000
TREAT_AS_HARD
1070
     0
  0
DICTIONARY
  5
D
102
{ACAD_REACTORS
330
C
102
}
330
C
100
AcDbDictionary
1001
ACAD
1000
TREAT_AS_HARD
1070
     0
  0
DICTIONARY
  5
C37
102
{ACAD_REACTORS
330
C
102
}
330
C
100
AcDbDictionary
1001
ACAD
1000
TREAT_AS_HARD
1070
     0
  0
DICTIONARY
  5
BE5
102
{ACAD_REACTORS
330
C
102
}
330
C
100
AcDbDictionary
  3
BYBLOCK
350
BEE
  3
BYLAYER
350
BE6
  3
GLOBAL
350
BF6
1001
ACAD
1000
TREAT_AS_HARD
1070
     0
  0
DICTIONARY
  5
C34
102
{ACAD_REACTORS
330
C
102
}
330
C
100
AcDbDictionary
  3
STANDARD
350
C35
1001
ACAD
1000
TREAT_AS_HARD
1070
     0
  0
DICTIONARY
  5
E
102
{ACAD_REACTORS
330
C
102
}
330
C
100
AcDbDictionary
  3
STANDARD
350
1C
1001
ACAD
1000
TREAT_AS_HARD
1070
     0
  0
DICTIONARY
  5
C38
102
{ACAD_REACTORS
330
C
102
}
330
C
100
AcDbDictionary
1001
ACAD
1000
TREAT_AS_HARD
1070
     0
  0
DICTIONARY
  5
C12
102
{ACAD_REACTORS
330
C
102
}
330
C
100
AcDbDictionary
  3
A0
350
C13
  3
A1
350
C14
  3
A2
350
C15
  3
A3
350
C16
  3
A4
350
C17
  3
A5
350
C18
  3
A6
350
C19
  3
A7
350
C1A
  3
A8
350
C1B
  3
A9
350
C1C
  3
B0
350
C1D
  3
B1
350
C1E
  3
B2
350
C1F
  3
B3
350
C20
  3
B4
350
C21
  3
B5
350
C22
  3
B6
350
C23
  3
B7
350
C24
  3
B8
350
C25
  3
B9
350
C26
  3
C0
350
C27
  3
C1
350
C28
  3
C2
350
C29
  3
C3
350
C2A
  3
C4
350
C2B
  3
C5
350
C2C
  3
C6
350
C2D
  3
C7
350
C2E
  3
C8
350
C2F
  3
C9
350
C30
  3
D0
350
C31
  3
D1
350
C32
  3
D2
350
C33
1001
ACAD
1000
TREAT_AS_HARD
1070
     0
  0
DICTIONARY
  5
BFE
102
{ACAD_REACTORS
330
C
102
}
330
C
100
AcDbDictionary
  3
2DWIREFRAME
350
C04
  3
3D_HIDDEN
350
C06
  3
3DWIREFRAME
350
C05
  3
BASIC
350
C03
  3
BRIGHTEN
350
C0A
  3
COLORCHANGE
350
C0E
  3
CONCEPTUAL
350
C07
  3
DIM
350
C09
  3
EDGECOLOROFF
350
B5BE
  3
FACEPATTERN
350
C0D
  3
FLAT
350
BFF
  3
FLATWITHEDGES
350
C00
  3
GOURAUD
350
C01
  3
GOURAUDWITHEDGES
350
C02
  3
HIDDEN
350
B5B6
  3
JITTEROFF
350
B5BC
  3
LINEPATTERN
350
C0C
  3
MODELING
350
D689
  3
OVERHANGOFF
350
B5BD
  3
REALISTIC
350
C08
  3
SHADED
350
B5BB
  3
SHADED_WITH_EDGES
350
B5BA
  3
SHADES_OF_GRAY
350
B5B7
  3
SKETCHY
350
B5B8
  3
THICKEN
350
C0B
  3
WIREFRAME
350
B5B5
  3
X-RAY
350
B5B9
1001
ACAD
1000
TREAT_AS_HARD
1070
     0
  0
DICTIONARY
  5
E1E0
102
{ACAD_REACTORS
330
C
102
}
330
C
100
AcDbDictionary
  3
COLORDICT
350
E1E1
  3
MATERIALDICT
350
E1E2
1001
ACAD
1000
TREAT_AS_HARD
1070
     0
  0
DICTIONARY
  5
2E2
102
{ACAD_REACTORS
330
C
102
}
330
C
100
AcDbDictionary
  3
CANNOSCALE
350
D6FC
  3
CMLEADERSTYLE
350
C68
  3
CTABLESTYLE
350
C67
  3
DIMADEC
350
385
  3
DIMASSOC
350
C6B
  3
HIDETEXT
350
1D00
  3
INDEXCTL
350
C6A
  3
INTERSECTIONCOLOR
350
1D04
  3
INTERSECTIONDISPLAY
350
1D03
  3
LAYEREVAL
350
6E7B
  3
LAYERNOTIFY
350
6E7C
  3
MSLTSCALE
350
D74C
  3
OBSCOLOR
350
1D01
  3
OBSLTYPE
350
1D02
  3
SORTENTS
350
2E3
  3
XCLIPFRAME
350
D688
1001
ACAD
1000
TREAT_AS_HARD
1070
     0
  0
DICTIONARY
  5
1E54
102
{ACAD_REACTORS
330
C
102
}
330
C
100
AcDbDictionary
1001
ACAD
1000
TREAT_AS_HARD
1070
     0
  0
DICTIONARY
  5
31B
102
{ACAD_REACTORS
330
C
102
}
330
C
100
AcDbDictionary
1001
CONTENTTABDATA
1070
     6
1000
Symbol
1000
D:\ACLT\STL2\Symbol.dwg
1070
     0
1070
     0
1070
     1
1000
ねじ
1000
D:\ACLT\STL2\ねじ.dwg
1070
     0
1070
     0
1070
     1
1000
図面
1000
D:\ACLT\STL2\図面.dwg
1070
     0
1070
     0
1070
     1
1000
要素
1000
D:\ACLT\STL2\要素.dwg
1070
     0
1070
     0
1070
     1
1000
ｷｬｽﾀｰ
1000
D:\ACLT\Stl2\ｷｬｽﾀｰ.dwg
1070
     0
1070
     0
1070
     1
1000
SB関連
1000
D:\ACLT\Stl2\SB関連.dwg
1070
     0
1070
     0
1070
     1
1001
CONTENTCURRENTTAB
1070
     0
1001
ACAD
1000
TREAT_AS_HARD
1070
     0
  0
DICTIONARY
  5
377
102
{ACAD_REACTORS
330
C
102
}
330
C
100
AcDbDictionary
1001
DRAWINGVARIABLESXDATA
1000
POLARANG
1000
0.261799387799149410000000
1000
POLARMODE
1000
1
1000
POLARSTYLE
1000
1
1001
ACAD
1000
TREAT_AS_HARD
1070
     0
  0
XRECORD
  5
E1E3
102
{ACAD_REACTORS
330
C
102
}
330
C
100
AcDbXrecord
  1
DWGPROPS COOKIE
  2

  3

  4

  6

  7

  8
3969
  9

300
=
301
=
302
=
303
=
304
=
305
=
306
=
307
=
308
=
309
=
 40
0.0
 41
2448750.112089236
 42
2460194.191338773
  1

 90
        0
  0
DICTIONARY
  5
FE1
102
{ACAD_REACTORS
330
FE0
102
}
330
FE0
100
AcDbDictionary
  3
_LAYISO_STATE
350
C47E
1001
ACLAYERTOOLS
1000
C39
1000
0
1001
ACAD
1000
TREAT_AS_HARD
1070
     0
  0
ACAD_PROXY_OBJECT
  5
C41
102
{ACAD_REACTORS
330
C40
102
}
330
C40
100
AcDbZombieObject
 90
      499
 91
      523
 93
       34
310
40C8804040
  0
ACAD_PROXY_OBJECT
  5
C47
102
{ACAD_REACTORS
330
C46
102
}
330
C46
100
AcDbZombieObject
 90
      499
 91
      523
 93
       34
310
40C8804040
  0
ACAD_PROXY_OBJECT
  5
C4B
102
{ACAD_REACTORS
330
C4A
102
}
330
C4A
100
AcDbZombieObject
 90
      499
 91
      523
 93
       34
310
40C8804040
  0
ACAD_PROXY_OBJECT
  5
7015
102
{ACAD_REACTORS
330
7014
102
}
330
7014
100
AcDbZombieObject
 90
      499
 91
      523
 93
       34
310
40C8804040
  0
SORTENTSTABLE
  5
11DA
102
{ACAD_REACTORS
330
11D9
102
}
330
11D9
100
AcDbSortentsTable
330
19
331
BB6A
  5
BB6B
331
BB6B
  5
BB6C
331
BB6C
  5
BB6D
331
BB6D
  5
BB6E
331
BB6F
  5
BB70
331
BB70
  5
BB71
331
BB72
  5
BB73
331
BB73
  5
BB75
331
BB74
  5
BB78
331
BB75
  5
BB7A
331
BB78
  5
BB7F
331
BB79
  5
BB81
331
BB7A
  5
BB82
331
BB7B
  5
BB83
331
BB7E
  5
BB84
331
BB7F
  5
BB85
331
BB81
  5
BB86
331
BB82
  5
BB87
331
BB8D
  5
BB92
331
BB8E
  5
BB93
331
BB8F
  5
BB94
331
BB90
  5
BB95
331
BBD3
  5
BBE0
331
BBD6
  5
BC32
331
BBDC
  5
BC33
331
BBDD
  5
BC6A
331
0
  5
BC87
331
0
  5
BC88
331
0
  5
BC8C
331
BC5B
  5
C3EB
331
BC5D
  5
C3ED
331
BC5E
  5
C3EE
331
BC5F
  5
C3F2
331
BC60
  5
C3F9
331
BC61
  5
C3FE
331
BC62
  5
C3FF
331
BC63
  5
C400
331
BC64
  5
C401
331
BC65
  5
C406
331
BC66
  5
C407
331
BC67
  5
C40C
331
BCA4
  5
C429
331
0
  5
BD0B
331
BCBA
  5
C460
331
BCD6
  5
C49B
331
BCE0
  5
C4A3
331
BCE1
  5
C4A2
331
BCE2
  5
C4A1
331
BCE3
  5
C4AD
331
BCE5
  5
C416
331
BCE6
  5
C4AE
331
BCE9
  5
C428
331
BCEA
  5
C4AF
331
BCEB
  5
C4B0
331
BCEC
  5
C4B1
331
BCED
  5
C4B2
331
C0BD
  5
C461
331
C14E
  5
C4FE
331
C36A
  5
C4B4
331
C36B
  5
C4B9
331
C36C
  5
C4F7
331
C36D
  5
C4B3
331
C36E
  5
C489
331
C36F
  5
C48A
331
C370
  5
C48B
331
C371
  5
C48C
331
C37A
  5
C48F
331
C382
  5
C490
331
C383
  5
C493
331
C384
  5
C4F8
331
C385
  5
C495
331
C386
  5
C497
331
C387
  5
C498
331
C388
  5
C4FA
331
C389
  5
C499
331
C3A0
  5
C4FC
331
C3A3
  5
C4FB
331
C3B0
  5
C4FD
331
C3EE
  5
C4A9
331
C3F2
  5
C4AA
331
C3F4
  5
C48E
331
C3F6
  5
C482
331
C3F7
  5
C48D
331
C413
  5
C49A
331
C431
  5
C47D
331
C434
  5
C462
331
C43B
  5
C465
331
C43E
  5
C467
331
C440
  5
C46F
331
C44F
  5
C470
331
C453
  5
C472
331
C454
  5
C47C
331
C459
  5
C463
331
C45F
  5
C42C
331
C462
  5
C42D
331
C463
  5
C42A
331
C482
  5
C554
331
C483
  5
C555
331
C484
  5
C556
331
C485
  5
C558
331
C486
  5
C559
331
C487
  5
C55A
331
C488
  5
C55B
331
C48B
  5
C5BC
331
C48D
  5
C5BD
331
C48F
  5
C5BE
331
C490
  5
C5BF
331
C491
  5
C5C0
331
C492
  5
C5C1
331
C493
  5
C5C2
331
C499
  5
C5C3
331
C49A
  5
C5C4
331
C49B
  5
C5C5
331
C49C
  5
C5C6
331
C49D
  5
C5C7
331
C49E
  5
C5C8
331
C49F
  5
C5C9
331
C4A0
  5
C5CA
331
C4A1
  5
C5CB
331
C4A2
  5
C5CC
331
C4A3
  5
C5CD
331
C4A4
  5
C5CE
331
C4A5
  5
C5D1
331
C4A6
  5
C5D2
331
C4A7
  5
C5D3
331
C4A8
  5
C730
331
C4A9
  5
C731
331
C4AA
  5
CC67
331
C4AB
  5
CC68
331
C4AC
  5
CC69
331
C4B0
  5
CC6A
331
C4B1
  5
CCBE
331
C4B2
  5
D599
331
C4B4
  5
D59A
331
C4B5
  5
D59B
331
C4B6
  5
D59C
331
0
  5
D5BC
331
0
  5
D5BA
331
C4F7
  5
C4A4
331
C4F8
  5
C4A5
331
C4F9
  5
C4A6
331
C4FA
  5
C4A7
331
C4FB
  5
C4A8
331
C4FC
  5
C4AB
331
C4FD
  5
C4AC
331
C4FE
  5
E086
331
0
  5
D5CE
331
0
  5
D5CF
331
0
  5
D5D0
331
C558
  5
E0AC
331
C559
  5
E0AD
331
C55A
  5
E0B1
331
C55B
  5
E0B2
331
0
  5
D5D5
331
0
  5
D5D6
331
0
  5
D5F3
331
0
  5
E05E
331
0
  5
E05F
331
0
  5
E060
331
0
  5
E061
331
0
  5
E062
331
0
  5
E063
331
0
  5
E064
331
0
  5
E065
331
0
  5
E066
331
0
  5
E067
331
0
  5
E068
331
0
  5
E069
331
0
  5
E06A
331
0
  5
E06B
331
0
  5
E06C
331
0
  5
E06D
331
0
  5
E06E
331
0
  5
E06F
331
0
  5
E070
331
C730
  5
E19D
331
C731
  5
E19E
331
CC67
  5
E19F
331
CC68
  5
E1A0
331
CC69
  5
E1A1
331
CC6A
  5
E1A2
331
CCBE
  5
E1A3
331
D599
  5
E1A4
331
D59A
  5
E1A5
331
D59B
  5
E1A6
331
D59C
  5
E1A7
331
D59D
  5
E1A8
331
D59E
  5
E1A9
331
D59F
  5
E1AA
331
D5A0
  5
E1AB
331
D5A1
  5
E1AC
331
0
  5
E081
331
D5B8
  5
E1B7
331
D5B9
  5
E1B8
331
D5BA
  5
E1B9
331
D5BB
  5
E1BA
331
D5BC
  5
E1BB
331
D5BD
  5
E1BC
331
D5BE
  5
E1BD
331
D5BF
  5
E1BE
331
D5C0
  5
E1BF
331
D5C1
  5
E1C0
331
D5C2
  5
E1C1
331
D5C3
  5
E1C2
331
D5C4
  5
E1C3
331
D5C5
  5
E1C4
331
D5C6
  5
E1C5
331
D5C7
  5
E1C6
331
D5C8
  5
E1C7
331
D5C9
  5
E1C8
331
D5CA
  5
E1C9
331
D5CB
  5
E1CA
331
D5CC
  5
E1CB
331
D5CD
  5
E1CC
331
D5CE
  5
E1CD
331
D5CF
  5
E1CE
331
D5D0
  5
E1CF
331
D5D1
  5
E1D0
331
D5D2
  5
E1D1
331
D5D3
  5
E1D2
331
D5D4
  5
E1D3
331
D5D5
  5
E1D4
331
0
  5
E0A0
331
D5F3
  5
E1DF
331
E05E
  5
BC8D
331
E05F
  5
BC8E
331
E060
  5
BC8F
331
E061
  5
BC90
331
E062
  5
BC91
331
E063
  5
BC92
331
E064
  5
BC93
331
E065
  5
BCD7
331
E066
  5
BCE0
331
E067
  5
BCE1
331
E068
  5
BCE2
331
E069
  5
BCE3
331
E06A
  5
BCE5
331
E06B
  5
BCE9
331
E06C
  5
BCF7
331
E06D
  5
BCF8
331
E06E
  5
BCFB
331
E06F
  5
BCFF
331
E070
  5
BD0C
331
E071
  5
C0BD
331
E072
  5
C101
331
E073
  5
C107
331
E074
  5
C10A
331
E075
  5
C11A
331
E076
  5
C11E
331
E077
  5
C362
331
E078
  5
C365
331
E079
  5
C366
331
E07A
  5
C367
331
E07B
  5
C368
331
E07C
  5
C36E
331
E07D
  5
C36F
331
E07E
  5
C370
331
E07F
  5
C371
331
E080
  5
C372
331
E081
  5
C379
331
E082
  5
C37A
331
E083
  5
C382
331
E084
  5
C383
331
E085
  5
C385
331
E086
  5
C386
331
E087
  5
C387
331
E088
  5
C389
331
E089
  5
C3B7
331
E08A
  5
C3D6
331
E08B
  5
C3DA
331
E08C
  5
C3DB
331
E08D
  5
C3DC
331
E08E
  5
C3E0
331
E08F
  5
C3E4
331
E090
  5
C3E5
331
E091
  5
C43A
331
E092
  5
C43B
331
E093
  5
C43D
331
E094
  5
C43E
331
E095
  5
C43F
331
E096
  5
C440
331
E097
  5
C441
331
E098
  5
C442
331
E099
  5
C449
331
E09A
  5
C44A
331
E09B
  5
C44B
331
E09C
  5
C44D
331
E09D
  5
C450
331
E09E
  5
C454
331
E09F
  5
C45C
331
E0A0
  5
C45E
331
E0A1
  5
C45F
331
E0A2
  5
D59D
331
E0A3
  5
D59E
331
E0A4
  5
D59F
331
0
  5
D5A0
331
0
  5
D5A1
331
0
  5
D5A2
331
E0AE
  5
E087
331
E0AF
  5
E088
331
E0B0
  5
E08C
331
0
  5
E07C
331
0
  5
E07D
331
0
  5
E07E
331
E0B4
  5
E094
331
E0B5
  5
E098
331
E0B6
  5
E099
331
0
  5
E083
331
0
  5
E084
331
0
  5
E085
331
0
  5
E089
331
0
  5
E08A
331
0
  5
E08B
331
E0C0
  5
E0B3
331
E0C1
  5
E0B7
331
E0C2
  5
E0B8
331
E0C3
  5
E0B9
331
E0C4
  5
E0BD
331
0
  5
E095
331
0
  5
E096
331
0
  5
E097
331
E0C8
  5
E0CB
331
E0C9
  5
E0CC
331
E0CA
  5
E0D0
331
0
  5
E09B
331
0
  5
E09C
331
0
  5
E09D
331
E0CE
  5
E0DE
331
E0CF
  5
E0DF
331
E0D0
  5
E0E3
331
0
  5
E0A2
331
0
  5
E0A3
331
0
  5
E0A4
331
E0D4
  5
E0F1
331
E0D5
  5
E0F2
331
E0D6
  5
E0F3
331
0
  5
E0A8
331
0
  5
E0A9
331
0
  5
E0AA
331
E0DA
  5
E0AB
331
E0DB
  5
E0AB
331
E0DC
  5
E0AD
331
0
  5
E0AE
331
0
  5
E0AF
331
0
  5
E0B0
331
E0E0
  5
E111
331
E0E1
  5
E112
331
E0E2
  5
E113
331
0
  5
E0B4
331
0
  5
E0B5
331
0
  5
E0B6
331
E0E6
  5
E11E
331
E0E7
  5
E11F
331
E0E8
  5
E120
331
0
  5
E0BA
331
0
  5
E0BB
331
0
  5
E0BC
331
E0EC
  5
E128
331
E0ED
  5
E129
331
E0EE
  5
E12A
331
0
  5
E0C0
331
0
  5
E0C1
331
0
  5
E0C2
331
E0F2
  5
E132
331
E0F3
  5
E133
331
E0F4
  5
E134
331
E0F5
  5
E135
331
0
  5
E0C7
331
0
  5
E0C8
331
0
  5
E0C9
331
E0F9
  5
E140
331
E0FA
  5
E141
331
E0FB
  5
E142
331
0
  5
E0CD
331
0
  5
E0CE
331
0
  5
E0CF
331
E0FF
  5
E151
331
E100
  5
E152
331
E101
  5
E153
331
0
  5
E0D3
331
0
  5
E0D4
331
0
  5
E0D5
331
E105
  5
E15B
331
E106
  5
E15C
331
E107
  5
E15D
331
0
  5
E0D9
331
0
  5
E0DA
331
0
  5
E0DB
331
E10B
  5
E165
331
E10C
  5
E166
331
E10D
  5
E167
331
E10E
  5
E168
331
0
  5
E0E0
331
0
  5
E0E1
331
0
  5
E0E2
331
E112
  5
E170
331
E113
  5
E171
331
E114
  5
E172
331
E115
  5
E173
331
E116
  5
E174
331
0
  5
E0E8
331
0
  5
E0E9
331
0
  5
E0EA
331
E11A
  5
E17C
331
E11B
  5
E17D
331
E11C
  5
E17E
331
0
  5
E0EE
331
0
  5
E0EF
331
0
  5
E0F0
331
E120
  5
E186
331
E121
  5
E187
331
E122
  5
E188
331
0
  5
E0F4
331
0
  5
E0F5
331
0
  5
E0F6
331
E126
  5
E190
331
E127
  5
E191
331
E128
  5
E192
331
E129
  5
E193
331
E12A
  5
E194
331
E12B
  5
E195
331
E12C
  5
E196
331
E12D
  5
E197
331
E12E
  5
E198
331
E12F
  5
E199
331
E130
  5
E19A
331
E131
  5
E19B
331
E132
  5
E19C
331
E133
  5
E1AD
331
E134
  5
E1AE
331
E135
  5
E1AF
331
0
  5
E117
331
0
  5
E118
331
0
  5
E119
331
E139
  5
E1D5
331
E13A
  5
E1D6
331
E13B
  5
E1D7
331
0
  5
E13B
331
0
  5
E13C
331
0
  5
E13D
331
E13F
  5
D5B8
331
E140
  5
E079
331
E141
  5
E07A
331
E142
  5
E07B
331
E143
  5
E07F
331
E144
  5
E080
331
E145
  5
E082
331
E14D
  5
E08D
331
E14E
  5
E08E
331
E14F
  5
E08F
331
E150
  5
E090
331
E151
  5
E091
331
E152
  5
E092
331
E153
  5
E093
331
E154
  5
E09A
331
E155
  5
E09E
331
E156
  5
E09F
331
E157
  5
E0A1
331
E158
  5
E0A5
331
E159
  5
E0A6
331
E15A
  5
E0A7
331
E162
  5
E0BE
331
E163
  5
E0BF
331
E164
  5
E0C3
331
E165
  5
E0C4
331
E166
  5
E0C5
331
E167
  5
E0C6
331
E168
  5
E0CA
331
E169
  5
E0D1
331
E16A
  5
E0D2
331
E16B
  5
E0D6
331
E16C
  5
E0D7
331
E16D
  5
E0D8
331
E16E
  5
E0DC
331
E16F
  5
E0DD
331
E170
  5
E0E4
331
E171
  5
E0E5
331
E172
  5
E0E6
331
E173
  5
E0E7
331
E174
  5
E0EB
331
E175
  5
E0EC
331
E176
  5
E0ED
331
E177
  5
E0F7
331
E178
  5
E0F8
331
E179
  5
E0F9
331
E17A
  5
E0FA
331
E17B
  5
E0FB
331
E17C
  5
E0FC
331
E17D
  5
E0FD
331
E17E
  5
E10A
331
E17F
  5
E10B
331
E180
  5
E10C
331
E181
  5
E10D
331
E182
  5
E10E
331
E183
  5
E10F
331
E184
  5
E110
331
E185
  5
E114
331
E186
  5
E115
331
E187
  5
E116
331
E188
  5
E11A
331
E189
  5
E11B
331
E18A
  5
E11C
331
E18B
  5
E11D
331
E18C
  5
E121
331
E18D
  5
E122
331
E18E
  5
E123
331
E18F
  5
E124
331
E190
  5
E125
331
E191
  5
E126
331
E192
  5
E127
331
E193
  5
E12B
331
E194
  5
E12C
331
E195
  5
E12D
331
E196
  5
E12E
331
E197
  5
E12F
331
E198
  5
E130
331
E199
  5
E131
331
E19A
  5
E136
331
E19B
  5
E137
331
E19C
  5
E138
331
E19D
  5
E139
331
E19E
  5
E13A
331
E19F
  5
E13E
331
E1A0
  5
E13F
331
E1A1
  5
E143
331
E1A2
  5
E144
331
E1A3
  5
E145
331
E1A4
  5
E14D
331
E1A5
  5
E14E
331
E1A6
  5
E14F
331
E1A7
  5
E150
331
E1A8
  5
E154
331
E1A9
  5
E155
331
E1AA
  5
E156
331
E1AB
  5
E157
331
E1AC
  5
E158
331
E1AD
  5
E159
331
E1AE
  5
E15A
331
E1AF
  5
E15E
331
E1B0
  5
E15F
331
E1B1
  5
E160
331
E1B2
  5
E161
331
E1B3
  5
E162
331
E1B4
  5
E163
331
E1B5
  5
E164
331
E1B6
  5
E169
331
E1B7
  5
E16A
331
E1B8
  5
E16B
331
E1B9
  5
E16C
331
E1BA
  5
E16D
331
E1BB
  5
E16E
331
E1BC
  5
E16F
331
E1BD
  5
E175
331
E1BE
  5
E176
331
E1BF
  5
E177
331
E1C0
  5
E178
331
E1C1
  5
E179
331
E1C2
  5
E17A
331
E1C3
  5
E17B
331
E1C4
  5
E17F
331
E1C5
  5
E180
331
E1C6
  5
E181
331
E1C7
  5
E182
331
E1C8
  5
E183
331
E1C9
  5
E184
331
E1CA
  5
E185
331
E1CB
  5
E189
331
E1CC
  5
E18A
331
E1CD
  5
E18B
331
E1CE
  5
E18C
331
E1CF
  5
E18D
331
E1D0
  5
E18E
331
E1D1
  5
E18F
331
E1D2
  5
E1B0
331
E1D3
  5
E1B1
331
E1D4
  5
E1B2
331
E1D5
  5
E1B3
331
E1D6
  5
E1B4
331
E1D7
  5
E1B5
331
E1D8
  5
E1B6
331
E1D9
  5
E1D8
331
E1DA
  5
E1D9
331
E1DB
  5
E1DA
331
E1DC
  5
E1DB
331
E1DD
  5
E1DC
331
E1DE
  5
E1DD
331
E1DF
  5
E1DE
  0
SORTENTSTABLE
  5
2401
102
{ACAD_REACTORS
330
2400
102
}
330
2400
100
AcDbSortentsTable
330
16
331
2FC
  5
2FC
331
0
  5
4CA8
  0
MATERIAL
  5
BEE
102
{ACAD_REACTORS
330
BE5
102
}
102
{ACAD_XDICTIONARY
360
E37E
102
}
330
BE5
100
AcDbMaterial
  1
BYBLOCK
 72
     0
 73
     2
 43
0.0208333333333333
 43
0.0
 43
0.0
 43
0.0
 43
0.0
 43
0.0208333333333333
 43
0.0
 43
0.0
 43
0.0
 43
0.0
 43
1.0
 43
0.0
 43
0.0
 43
0.0
 43
0.0
 43
1.0
 77
     0
 78
     2
 47
0.0208333333333333
 47
0.0
 47
0.0
 47
0.0
 47
0.0
 47
0.0208333333333333
 47
0.0
 47
0.0
 47
0.0
 47
0.0
 47
1.0
 47
0.0
 47
0.0
 47
0.0
 47
0.0
 47
1.0
171
     0
172
     2
 49
0.0208333333333333
 49
0.0
 49
0.0
 49
0.0
 49
0.0
 49
0.0208333333333333
 49
0.0
 49
0.0
 49
0.0
 49
0.0
 49
1.0
 49
0.0
 49
0.0
 49
0.0
 49
0.0
 49
1.0
175
     0
176
     2
142
0.0208333333333333
142
0.0
142
0.0
142
0.0
142
0.0
142
0.0208333333333333
142
0.0
142
0.0
142
0.0
142
0.0
142
1.0
142
0.0
142
0.0
142
0.0
142
0.0
142
1.0
179
     0
270
     2
144
0.0208333333333333
144
0.0
144
0.0
144
0.0
144
0.0
144
0.0208333333333333
144
0.0
144
0.0
144
0.0
144
0.0
144
1.0
144
0.0
144
0.0
144
0.0
144
0.0
144
1.0
274
     2
147
0.0208333333333333
147
0.0
147
0.0
147
0.0
147
0.0
147
0.0208333333333333
147
0.0
147
0.0
147
0.0
147
0.0
147
1.0
147
0.0
147
0.0
147
0.0
147
0.0
147
1.0
  0
MATERIAL
  5
BE6
102
{ACAD_REACTORS
330
BE5
102
}
102
{ACAD_XDICTIONARY
360
E380
102
}
330
BE5
100
AcDbMaterial
  1
BYLAYER
 72
     0
 73
     2
 43
0.0208333333333333
 43
0.0
 43
0.0
 43
0.0
 43
0.0
 43
0.0208333333333333
 43
0.0
 43
0.0
 43
0.0
 43
0.0
 43
1.0
 43
0.0
 43
0.0
 43
0.0
 43
0.0
 43
1.0
 77
     0
 78
     2
 47
0.0208333333333333
 47
0.0
 47
0.0
 47
0.0
 47
0.0
 47
0.0208333333333333
 47
0.0
 47
0.0
 47
0.0
 47
0.0
 47
1.0
 47
0.0
 47
0.0
 47
0.0
 47
0.0
 47
1.0
171
     0
172
     2
 49
0.0208333333333333
 49
0.0
 49
0.0
 49
0.0
 49
0.0
 49
0.0208333333333333
 49
0.0
 49
0.0
 49
0.0
 49
0.0
 49
1.0
 49
0.0
 49
0.0
 49
0.0
 49
0.0
 49
1.0
175
     0
176
     2
142
0.0208333333333333
142
0.0
142
0.0
142
0.0
142
0.0
142
0.0208333333333333
142
0.0
142
0.0
142
0.0
142
0.0
142
1.0
142
0.0
142
0.0
142
0.0
142
0.0
142
1.0
179
     0
270
     2
144
0.0208333333333333
144
0.0
144
0.0
144
0.0
144
0.0
144
0.0208333333333333
144
0.0
144
0.0
144
0.0
144
0.0
144
1.0
144
0.0
144
0.0
144
0.0
144
0.0
144
1.0
274
     2
147
0.0208333333333333
147
0.0
147
0.0
147
0.0
147
0.0
147
0.0208333333333333
147
0.0
147
0.0
147
0.0
147
0.0
147
1.0
147
0.0
147
0.0
147
0.0
147
0.0
147
1.0
  0
MATERIAL
  5
BF6
102
{ACAD_REACTORS
330
BE5
102
}
102
{ACAD_XDICTIONARY
360
E382
102
}
330
BE5
100
AcDbMaterial
  1
GLOBAL
 72
     0
 73
     2
 43
0.0208333333333333
 43
0.0
 43
0.0
 43
0.0
 43
0.0
 43
0.0208333333333333
 43
0.0
 43
0.0
 43
0.0
 43
0.0
 43
1.0
 43
0.0
 43
0.0
 43
0.0
 43
0.0
 43
1.0
 77
     0
 78
     2
 47
0.0208333333333333
 47
0.0
 47
0.0
 47
0.0
 47
0.0
 47
0.0208333333333333
 47
0.0
 47
0.0
 47
0.0
 47
0.0
 47
1.0
 47
0.0
 47
0.0
 47
0.0
 47
0.0
 47
1.0
171
     0
172
     2
 49
0.0208333333333333
 49
0.0
 49
0.0
 49
0.0
 49
0.0
 49
0.0208333333333333
 49
0.0
 49
0.0
 49
0.0
 49
0.0
 49
1.0
 49
0.0
 49
0.0
 49
0.0
 49
0.0
 49
1.0
175
     0
176
     2
142
0.0208333333333333
142
0.0
142
0.0
142
0.0
142
0.0
142
0.0208333333333333
142
0.0
142
0.0
142
0.0
142
0.0
142
1.0
142
0.0
142
0.0
142
0.0
142
0.0
142
1.0
179
     0
270
     2
144
0.0208333333333333
144
0.0
144
0.0
144
0.0
144
0.0
144
0.0208333333333333
144
0.0
144
0.0
144
0.0
144
0.0
144
1.0
144
0.0
144
0.0
144
0.0
144
0.0
144
1.0
274
     2
147
0.0208333333333333
147
0.0
147
0.0
147
0.0
147
0.0
147
0.0208333333333333
147
0.0
147
0.0
147
0.0
147
0.0
147
1.0
147
0.0
147
0.0
147
0.0
147
0.0
147
1.0
  0
ACAD_PROXY_OBJECT
  5
C35
102
{ACAD_REACTORS
330
C34
102
}
330
C34
100
AcDbZombieObject
 90
      499
 91
      509
 93
      610
310
40901902A4063FBFFFFFE000000000000002040AD7A3703D0AD73F4214DD185B99185C990000000000000104090141901A00000000000004100000000000000041025764000000000000300FC0
340
13
340
0
340
10
340
0
 94
        0
1001
ACAD_MLEADERVER
1070
     2
  0
MLINESTYLE
  5
1C
102
{ACAD_REACTORS
330
E
102
}
330
E
100
AcDbMlineStyle
  2
STANDARD
 70
     0
  3

 62
     0
 51
90.0
 52
90.0
 71
     2
 49
0.5
 62
   256
  6
BYLAYER
 49
-0.5
 62
   256
  6
BYLAYER
  0
ACAD_PROXY_OBJECT
  5
C13
102
{ACAD_REACTORS
330
C12
102
}
330
C12
100
AcDbZombieObject
 90
      499
 91
      508
 93
       41
310
903313A31580
  0
ACAD_PROXY_OBJECT
  5
C14
102
{ACAD_REACTORS
330
C12
102
}
330
C12
100
AcDbZombieObject
 90
      499
 91
      508
 93
      105
310
903313A324000000000000004000
  0
ACAD_PROXY_OBJECT
  5
C15
102
{ACAD_REACTORS
330
C12
102
}
330
C12
100
AcDbZombieObject
 90
      499
 91
      508
 93
      105
310
903313A344000000000000104000
  0
ACAD_PROXY_OBJECT
  5
C16
102
{ACAD_REACTORS
330
C12
102
}
330
C12
100
AcDbZombieObject
 90
      499
 91
      508
 93
      105
310
903313A354000000000000144000
  0
ACAD_PROXY_OBJECT
  5
C17
102
{ACAD_REACTORS
330
C12
102
}
330
C12
100
AcDbZombieObject
 90
      499
 91
      508
 93
      105
310
903313A384000000000000204000
  0
ACAD_PROXY_OBJECT
  5
C18
102
{ACAD_REACTORS
330
C12
102
}
330
C12
100
AcDbZombieObject
 90
      499
 91
      508
 93
      113
310
904313A31304000000000000244000
  0
ACAD_PROXY_OBJECT
  5
C19
102
{ACAD_REACTORS
330
C12
102
}
330
C12
100
AcDbZombieObject
 90
      499
 91
      508
 93
      113
310
904313A31364000000000000304000
  0
ACAD_PROXY_OBJECT
  5
C1A
102
{ACAD_REACTORS
330
C12
102
}
330
C12
100
AcDbZombieObject
 90
      499
 91
      508
 93
      113
310
904313A32304000000000000344000
  0
ACAD_PROXY_OBJECT
  5
C1B
102
{ACAD_REACTORS
330
C12
102
}
330
C12
100
AcDbZombieObject
 90
      499
 91
      508
 93
      113
310
904313A333040000000000003E4000
  0
ACAD_PROXY_OBJECT
  5
C1C
102
{ACAD_REACTORS
330
C12
102
}
330
C12
100
AcDbZombieObject
 90
      499
 91
      508
 93
      113
310
904313A34304000000000000444000
  0
ACAD_PROXY_OBJECT
  5
C1D
102
{ACAD_REACTORS
330
C12
102
}
330
C12
100
AcDbZombieObject
 90
      499
 91
      508
 93
      113
310
904313A35304000000000000494000
  0
ACAD_PROXY_OBJECT
  5
C1E
102
{ACAD_REACTORS
330
C12
102
}
330
C12
100
AcDbZombieObject
 90
      499
 91
      508
 93
      121
310
905313A3130304000000000000594000
  0
ACAD_PROXY_OBJECT
  5
C1F
102
{ACAD_REACTORS
330
C12
102
}
330
C12
100
AcDbZombieObject
 90
      499
 91
      508
 93
      105
310
903323A310000000000000010100
  0
ACAD_PROXY_OBJECT
  5
C20
102
{ACAD_REACTORS
330
C12
102
}
330
C12
100
AcDbZombieObject
 90
      499
 91
      508
 93
      105
310
903343A310000000000000410100
  0
ACAD_PROXY_OBJECT
  5
C21
102
{ACAD_REACTORS
330
C12
102
}
330
C12
100
AcDbZombieObject
 90
      499
 91
      508
 93
      105
310
903383A310000000000000810100
  0
ACAD_PROXY_OBJECT
  5
C22
102
{ACAD_REACTORS
330
C12
102
}
330
C12
100
AcDbZombieObject
 90
      499
 91
      508
 93
      113
310
90431303A310000000000000910100
  0
ACAD_PROXY_OBJECT
  5
C23
102
{ACAD_REACTORS
330
C12
102
}
330
C12
100
AcDbZombieObject
 90
      499
 91
      508
 93
      121
310
9053130303A310000000000001650100
  0
ACAD_PROXY_OBJECT
  5
C24
102
{ACAD_REACTORS
330
C12
102
}
330
C12
100
AcDbZombieObject
 90
      499
 91
      508
 93
      257
310
90E312F31323822203D2031272D3022000000000000200FC000000000000284000
  0
ACAD_PROXY_OBJECT
  5
C25
102
{ACAD_REACTORS
330
C12
102
}
330
C12
100
AcDbZombieObject
 90
      499
 91
      508
 93
      249
310
90D312F363422203D2031272D3022000000000000240FC000000000000284000
  0
ACAD_PROXY_OBJECT
  5
C26
102
{ACAD_REACTORS
330
C12
102
}
330
C12
100
AcDbZombieObject
 90
      499
 91
      508
 93
      249
310
90D312F333222203D2031272D3022000000000000280FC000000000000284000
  0
ACAD_PROXY_OBJECT
  5
C27
102
{ACAD_REACTORS
330
C12
102
}
330
C12
100
AcDbZombieObject
 90
      499
 91
      508
 93
      249
310
90D312F313622203D2031272D30220000000000002C0FC000000000000284000
  0
ACAD_PROXY_OBJECT
  5
C28
102
{ACAD_REACTORS
330
C12
102
}
330
C12
100
AcDbZombieObject
 90
      499
 91
      508
 93
      249
310
90D332F333222203D2031272D30220000000000002E0FC000000000000284000
  0
ACAD_PROXY_OBJECT
  5
C29
102
{ACAD_REACTORS
330
C12
102
}
330
C12
100
AcDbZombieObject
 90
      499
 91
      508
 93
      241
310
90C312F3822203D2031272D3022000000000000300FC000000000000284000
  0
ACAD_PROXY_OBJECT
  5
C2A
102
{ACAD_REACTORS
330
C12
102
}
330
C12
100
AcDbZombieObject
 90
      499
 91
      508
 93
      249
310
90D332F313622203D2031272D3022000000000000320FC000000000000284000
  0
ACAD_PROXY_OBJECT
  5
C2B
102
{ACAD_REACTORS
330
C12
102
}
330
C12
100
AcDbZombieObject
 90
      499
 91
      508
 93
      241
310
90C312F3422203D2031272D3022000000000000340FC000000000000284000
  0
ACAD_PROXY_OBJECT
  5
C2C
102
{ACAD_REACTORS
330
C12
102
}
330
C12
100
AcDbZombieObject
 90
      499
 91
      508
 93
      241
310
90C332F3822203D2031272D3022000000000000360FC000000000000284000
  0
ACAD_PROXY_OBJECT
  5
C2D
102
{ACAD_REACTORS
330
C12
102
}
330
C12
100
AcDbZombieObject
 90
      499
 91
      508
 93
      241
310
90C312F3222203D2031272D3022000000000000380FC000000000000284000
  0
ACAD_PROXY_OBJECT
  5
C2E
102
{ACAD_REACTORS
330
C12
102
}
330
C12
100
AcDbZombieObject
 90
      499
 91
      508
 93
      241
310
90C332F3422203D2031272D30220000000000003A0FC000000000000284000
  0
ACAD_PROXY_OBJECT
  5
C2F
102
{ACAD_REACTORS
330
C12
102
}
330
C12
100
AcDbZombieObject
 90
      499
 91
      508
 93
      161
310
90A3122203D2031272D30224000000000000284000
  0
ACAD_PROXY_OBJECT
  5
C30
102
{ACAD_REACTORS
330
C12
102
}
330
C12
100
AcDbZombieObject
 90
      499
 91
      508
 93
      257
310
90E312D312F3222203D2031272D30220000000000003E0FC000000000000284000
  0
ACAD_PROXY_OBJECT
  5
C31
102
{ACAD_REACTORS
330
C12
102
}
330
C12
100
AcDbZombieObject
 90
      499
 91
      508
 93
      225
310
90A3322203D2031272D302200000000000002100000000000000284000
  0
ACAD_PROXY_OBJECT
  5
C32
102
{ACAD_REACTORS
330
C12
102
}
330
C12
100
AcDbZombieObject
 90
      499
 91
      508
 93
      225
310
90A3622203D2031272D302200000000000006100000000000000284000
  0
ACAD_PROXY_OBJECT
  5
C33
102
{ACAD_REACTORS
330
C12
102
}
330
C12
100
AcDbZombieObject
 90
      499
 91
      508
 93
      249
310
90D31272D3022203D2031272D30220000000000000A100000000000000284000
  0
ACAD_PROXY_OBJECT
  5
C04
102
{ACAD_REACTORS
330
BFE
102
}
330
BFE
100
AcDbZombieObject
 90
      499
 91
      506
 93
      436
310
42CC9915DA5C99599C985B595049028333333333333E3BF0000000000000FB0107901411070040501600405405064090741402480A0340
1001
ACAD
1000
AcDbSavedByObjectVersion
1070
     0
  0
ACAD_PROXY_OBJECT
  5
C06
102
{ACAD_REACTORS
330
BFE
102
}
330
BFE
100
AcDbZombieObject
 90
      499
 91
      506
 93
      500
310
424CD108121A5919195B90640502408333333333333E3BF0000000000000FB01079024090700405020000000000001110200405405064090740C02480A0340
1001
ACAD
1000
AcDbSavedByObjectVersion
1070
     0
  0
ACAD_PROXY_OBJECT
  5
C05
102
{ACAD_REACTORS
330
BFE
102
}
330
BFE
100
AcDbZombieObject
 90
      499
 91
      506
 93
      436
310
42CCD915DA5C99599C985B595059028333333333333E3BF0000000000000FB0107901411070040501600405405064090741402480A0340
1001
ACAD
1000
AcDbSavedByObjectVersion
1070
     0
  0
ACAD_PROXY_OBJECT
  5
C03
102
{ACAD_REACTORS
330
BFE
102
}
330
BFE
100
AcDbZombieObject
 90
      499
 91
      506
 93
      388
310
4150985CDA58D07406404333333333333E3BF0000000000000FB0107A41107004050150841D405064090741402480A0350
1001
ACAD
1000
AcDbSavedByObjectVersion
1070
     0
  0
ACAD_PROXY_OBJECT
  5
C0A
102
{ACAD_REACTORS
330
BFE
102
}
330
BFE
100
AcDbZombieObject
 90
      499
 91
      506
 93
      428
310
42109C9A59DA1D195B90C409028333333333333E3BF0000000000000FB010790141107004050150841D405064090741402480A029950
1001
ACAD
1000
AcDbSavedByObjectVersion
1070
     0
  0
ACAD_PROXY_OBJECT
  5
C0E
102
{ACAD_REACTORS
330
BFE
102
}
330
BFE
100
AcDbZombieObject
 90
      499
 91
      506
 93
      452
310
42D0DBDB1BDC90DA185B99D95104090240C333333333333E3BF0000000000000FB0108901411070040501508421405064090741402480A0350
1001
ACAD
1000
AcDbSavedByObjectVersion
1070
     0
  0
ACAD_PROXY_OBJECT
  5
C07
102
{ACAD_REACTORS
330
BFE
102
}
330
BFE
100
AcDbZombieObject
 90
      499
 91
      506
 93
      500
310
4290DBDB98D95C1D1D585B10940D028333333333333E3BF0000000000000FB0107902409070040501000000000000111010841D405064090740C02480A0340
1001
ACAD
1000
AcDbSavedByObjectVersion
1070
     0
  0
ACAD_PROXY_OBJECT
  5
C09
102
{ACAD_REACTORS
330
BFE
102
}
330
BFE
100
AcDbZombieObject
 90
      499
 91
      506
 93
      412
310
40D11A5B50B409028333333333333E3BF0000000000000FB010790141107004050150841D405064090741402480A02677FFFFFD0
1001
ACAD
1000
AcDbSavedByObjectVersion
1070
     0
  0
ACAD_PROXY_OBJECT
  5
B5BE
102
{ACAD_REACTORS
330
BFE
102
}
330
BFE
100
AcDbZombieObject
 90
      499
 91
      506
 93
      452
310
43115919D950DBDB1BDC93D999916409028333333333333E3BF0000000000000FB010790141107004050150841D405064090741402480A0350
1001
ACAD
1000
AcDbSavedByObjectVersion
1070
     0
  0
ACAD_PROXY_OBJECT
  5
C0D
102
{ACAD_REACTORS
330
BFE
102
}
330
BFE
100
AcDbZombieObject
 90
      499
 91
      506
 93
      444
310
42D19858D95C185D1D195C9B90F409028333333333333E3BF0000000000000FB010790141107004050150841D405064090741402480A0350
1001
ACAD
1000
AcDbSavedByObjectVersion
1070
     0
  0
ACAD_PROXY_OBJECT
  5
BFF
102
{ACAD_REACTORS
330
BFE
102
}
330
BFE
100
AcDbZombieObject
 90
      499
 91
      506
 93
      388
310
41119B185D240901404333333333333E3BF0000000000000F9010740A41107004050150841D405064090741402480A1B50
1001
ACAD
1000
AcDbSavedByObjectVersion
1070
     0
  0
ACAD_PROXY_OBJECT
  5
C00
102
{ACAD_REACTORS
330
BFE
102
}
330
BFE
100
AcDbZombieObject
 90
      499
 91
      506
 93
      476
310
43519B185D15DA5D1A115919D95CD0140901404333333333333E3BF0000000000000F9010740901411070040501600405405064090741402480A1B50
1001
ACAD
1000
AcDbSavedByObjectVersion
1070
     0
  0
ACAD_PROXY_OBJECT
  5
C01
102
{ACAD_REACTORS
330
BFE
102
}
330
BFE
100
AcDbZombieObject
 90
      499
 91
      506
 93
      412
310
41D1DBDD5C985D5910240902404333333333333E3BF0000000000000F9010740A411070040501641D405064090741402480A1B50
1001
ACAD
1000
AcDbSavedByObjectVersion
1070
     0
  0
ACAD_PROXY_OBJECT
  5
C02
102
{ACAD_REACTORS
330
BFE
102
}
330
BFE
100
AcDbZombieObject
 90
      499
 91
      506
 93
      500
310
4411DBDD5C985D5915DA5D1A115919D95CD0340902404333333333333E3BF0000000000000F9010740901411070040501600405405064090741402480A1B50
1001
ACAD
1000
AcDbSavedByObjectVersion
1070
     0
  0
ACAD_PROXY_OBJECT
  5
B5B6
102
{ACAD_REACTORS
330
BFE
102
}
330
BFE
100
AcDbZombieObject
 90
      499
 91
      506
 93
      476
310
41921A5919195B90640502408333333333333E3BF0000000000000FB01079024090700405020000000000001110200405405064090740C02480A0340
1001
ACAD
1000
AcDbSavedByObjectVersion
1070
     0
  0
ACAD_PROXY_OBJECT
  5
B5BC
102
{ACAD_REACTORS
330
BFE
102
}
330
BFE
100
AcDbZombieObject
 90
      499
 91
      506
 93
      428
310
42529A5D1D195C93D999914409028333333333333E3BF0000000000000FB010790141107004050150A41D405064090741402480A0350
1001
ACAD
1000
AcDbSavedByObjectVersion
1070
     0
  0
ACAD_PROXY_OBJECT
  5
C0C
102
{ACAD_REACTORS
330
BFE
102
}
330
BFE
100
AcDbZombieObject
 90
      499
 91
      506
 93
      444
310
42D31A5B995C185D1D195C9B90E409028333333333333E3BF0000000000000FB010790141107004050750841D405064090741402483A0350
1001
ACAD
1000
AcDbSavedByObjectVersion
1070
     0
  0
ACAD_PROXY_OBJECT
  5
D689
102
{ACAD_REACTORS
330
BFE
102
}
330
BFE
100
AcDbZombieObject
 90
      499
 91
      506
 93
      484
310
42135BD9195B1A5B99D0A409038333333333333E33F0000000000000F901074090290700405010000000000201990108421405064090741402480A1B40
1001
ACAD
1000
AcDbSavedByObjectVersion
1070
     0
  0
ACAD_PROXY_OBJECT
  5
B5BD
102
{ACAD_REACTORS
330
BFE
102
}
330
BFE
100
AcDbZombieObject
 90
      499
 91
      506
 93
      444
310
42D3DD995C9A185B99D3D999915409028333333333333E3BF0000000000000FB010790141107004050150941D405064090741402480A0350
1001
ACAD
1000
AcDbSavedByObjectVersion
1070
     0
  0
ACAD_PROXY_OBJECT
  5
C08
102
{ACAD_REACTORS
330
BFE
102
}
330
BFE
100
AcDbZombieObject
 90
      499
 91
      506
 93
      420
310
425499585B1A5CDD1A58D08409028333333333333E3BF0000000000000FB01079019070040501508421405064090741402480A1B40
1001
ACAD
1000
AcDbSavedByObjectVersion
1070
     0
  0
ACAD_PROXY_OBJECT
  5
B5BB
102
{ACAD_REACTORS
330
BFE
102
}
330
BFE
100
AcDbZombieObject
 90
      499
 91
      506
 93
      420
310
4194DA1859195911B40902404333333333333E3BF0000000000000F9010740A41107004050150800405405064090840C02480A0B40
1001
ACAD
1000
AcDbSavedByObjectVersion
1070
     0
  0
ACAD_PROXY_OBJECT
  5
B5BA
102
{ACAD_REACTORS
330
BFE
102
}
330
BFE
100
AcDbZombieObject
 90
      499
 91
      506
 93
      516
310
4454DA18591959081DDA5D1A08195919D95CD1A40902404333333333333E3BF0000000000000F901074090142907004050250800405405064090740C02480A0B40
1001
ACAD
1000
AcDbSavedByObjectVersion
1070
     0
  0
ACAD_PROXY_OBJECT
  5
B5B7
102
{ACAD_REACTORS
330
BFE
102
}
330
BFE
100
AcDbZombieObject
 90
      499
 91
      506
 93
      532
310
4394DA1859195CC81BD98811DC985E5174090240C333333333333E3BF0000000000000FB01079024090741D01000000000000111010841D405064090740C02480A0340
1001
ACAD
1000
AcDbSavedByObjectVersion
1070
     0
  0
ACAD_PROXY_OBJECT
  5
B5B8
102
{ACAD_REACTORS
330
BFE
102
}
330
BFE
100
AcDbZombieObject
 90
      499
 91
      506
 93
      476
310
41D4DAD95D18DA1E51840502408333333333333E3BF0000000000000FB01079024090741D01000000000000111010B41D405064090741802480A0340
1001
ACAD
1000
AcDbSavedByObjectVersion
1070
     0
  0
ACAD_PROXY_OBJECT
  5
C0B
102
{ACAD_REACTORS
330
BFE
102
}
330
BFE
100
AcDbZombieObject
 90
      499
 91
      506
 93
      412
310
41D51A1A58DAD95B90D409028333333333333E3BF0000000000000FB010790141107004050150C41D405064090741402480A0350
1001
ACAD
1000
AcDbSavedByObjectVersion
1070
     0
  0
ACAD_PROXY_OBJECT
  5
B5B5
102
{ACAD_REACTORS
330
BFE
102
}
330
BFE
100
AcDbZombieObject
 90
      499
 91
      506
 93
      420
310
4255DA5C99599C985B595059028333333333333E3BF0000000000000FB0107901411070040501600405405064090740C02480A0340
1001
ACAD
1000
AcDbSavedByObjectVersion
1070
     0
  0
ACAD_PROXY_OBJECT
  5
B5B9
102
{ACAD_REACTORS
330
BFE
102
}
330
BFE
100
AcDbZombieObject
 90
      499
 91
      506
 93
      404
310
41560B54985E51940902404000000000000E03F0000000000000FB010740501907004050150841D405064090740C02480A1B40
1001
ACAD
1000
AcDbSavedByObjectVersion
1070
     0
  0
XRECORD
  5
E1E1
102
{ACAD_REACTORS
330
E1E0
102
}
330
E1E0
100
AcDbXrecord
340
C0F
  0
XRECORD
  5
E1E2
102
{ACAD_REACTORS
330
E1E0
102
}
330
E1E0
100
AcDbXrecord
340
BE5
  0
DICTIONARYVAR
  5
D6FC
102
{ACAD_REACTORS
330
2E2
102
}
330
2E2
100
DictionaryVariables
280
     0
  1
1:1
  0
DICTIONARYVAR
  5
C68
102
{ACAD_REACTORS
330
2E2
102
}
330
2E2
100
DictionaryVariables
280
     0
  1
Standard
  0
DICTIONARYVAR
  5
C67
102
{ACAD_REACTORS
330
2E2
102
}
330
2E2
100
DictionaryVariables
280
     0
  1
Standard
  0
DICTIONARYVAR
  5
385
102
{ACAD_REACTORS
330
2E2
102
}
330
2E2
100
DictionaryVariables
280
     0
  1
-1
  0
DICTIONARYVAR
  5
C6B
102
{ACAD_REACTORS
330
2E2
102
}
330
2E2
100
DictionaryVariables
280
     0
  1
2
  0
DICTIONARYVAR
  5
1D00
102
{ACAD_REACTORS
330
2E2
102
}
330
2E2
100
DictionaryVariables
280
     0
  1
1
  0
DICTIONARYVAR
  5
C6A
102
{ACAD_REACTORS
330
2E2
102
}
330
2E2
100
DictionaryVariables
280
     0
  1
0
  0
DICTIONARYVAR
  5
1D04
102
{ACAD_REACTORS
330
2E2
102
}
330
2E2
100
DictionaryVariables
280
     0
  1
8
  0
DICTIONARYVAR
  5
1D03
102
{ACAD_REACTORS
330
2E2
102
}
330
2E2
100
DictionaryVariables
280
     0
  1
1
  0
DICTIONARYVAR
  5
6E7B
102
{ACAD_REACTORS
330
2E2
102
}
330
2E2
100
DictionaryVariables
280
     0
  1
0
  0
DICTIONARYVAR
  5
6E7C
102
{ACAD_REACTORS
330
2E2
102
}
330
2E2
100
DictionaryVariables
280
     0
  1
0
  0
DICTIONARYVAR
  5
D74C
102
{ACAD_REACTORS
330
2E2
102
}
330
2E2
100
DictionaryVariables
280
     0
  1
0
  0
DICTIONARYVAR
  5
1D01
102
{ACAD_REACTORS
330
2E2
102
}
330
2E2
100
DictionaryVariables
280
     0
  1
120
  0
DICTIONARYVAR
  5
1D02
102
{ACAD_REACTORS
330
2E2
102
}
330
2E2
100
DictionaryVariables
280
     0
  1
0
  0
DICTIONARYVAR
  5
2E3
102
{ACAD_REACTORS
330
2E2
102
}
330
2E2
100
DictionaryVariables
280
     0
  1
96
  0
DICTIONARYVAR
  5
D688
102
{ACAD_REACTORS
330
2E2
102
}
330
2E2
100
DictionaryVariables
280
     0
  1
2
  0
ACAD_PROXY_OBJECT
  5
C47E
102
{ACAD_REACTORS
330
FE1
102
}
102
{ACAD_XDICTIONARY
360
C47F
102
}
330
FE1
100
AcDbZombieObject
 90
      499
 91
      523
 93
    16450
310
0102000016C005C080000B404000098880400B804040098C128042EE4000000000001680020000000F8000401C80464012C041EE4000000000000040010009A41197CC6E0040000000128040000000000000001680020000000F8001C01C807F7FD2C045400000000000000040010009A41197CDEE00400000001280400000
310
00000000001680020000000F8037401C807F7FD2C040000000000000000040018009A41197CC8C8C6E0040000000128040000000000000001680020000000F8001C01C807F7FD2C045400000000000000040010009A41197CDEE0040000000128040000000000000001680020000000F803F001C807F7FD2C0454000000000
310
00000040018009A41197CC8D4CAE0040000000128077E14000000000001680020000000F800A801C807F7FD2C045400000000000000040014009A41197CD0CAE00400000001280635D8000000000001680020000000F8001C01C807F7FD2C045400000000000000040010009A41197CDEE004000000012805B1C8000000000
310
001680000000000F8000401C807F7FD2C04BDC8000000000000040010009A41197CC6E004000000012805ADC8000000000001680024000000F8002001C807F7FD2C045400000000000000040010009A41197CE2E004000000012805A9C8000000000001680020000000F803F001C807F7FD2C0454000000000000000400180
310
09A41197CC8D4CAE0040000000128052DC8000000000001680020000000F8001C01C807F7FD2C045400000000000000040010009A41197CDEE00400000001280529C8000000000001680020000000F8001C01C807F7FD2C04CDC8000000000000040010009A41197CDEE00400000001280525C800000000000168002000000
310
0F8001C01C807F7FD2C04C9C8000000000000040010009A41197CDEE00400000001280521C8000000000001680020000000F8001C01C807F7FD2C04C5C8000000000000040010009A41197CDEE0040000000128051DC8000000000001680020000000F8001C01C807F7FD2C04C1C8000000000000040010009A41197CDEE00
310
400000001280519C8000000000001680020000000F8001C01C807F7FD2C04B9C8000000000000040010009A41197CDEE00400000001280515C8000000000001680020000000F803F801C807F7FD2C04D5C8000000000000040018009A41197CC8D4D2E00400000001280511C8000000000001680020000000F8002001C807F
310
7FD2C04ADC8000000000000040010009A41197CE2E0040000000128050DC8000000000001680020000000F8002001C807F7FD2C045400000000000000040010009A41197CE2E00400000001280509C8000000000001680020000000F8002001C807F7FD2C045400000000000000040010009A41197CE2E0040000000128050
310
5C8000000000001680020000000F8002001C807F7FD2C045400000000000000040010009A41197CE2E00400000001280501C8000000000001680020000000F8001C01C807F7FD2C045400000000000000040010009A41197CDEE004000000012804FDC8000000000001680020000000F8035401C807F7FD2C0454000000000
310
00000040018009A41197CC8C4CEE004000000012804F9C8000000000001680020000000F8003C01C807F7FD2C045400000000000000040014009A41197CC4D6E004000000012804F5C8000000000001680020000000F8017C01C807F7FD2C045400000000000000040014009A41197CE4D6E004000000012804F1C80000000
310
00001680020000000F8023C01C807F7FD2C045400000000000000040018009A41197CC4D0CEE004000000012804EDC8000000000001680020000000F8001801C807F7FD2C045400000000000000040010009A41197CDAE004000000012804E9C8000000000001680020000000F8001401C807F7FD2C0454000000000000000
310
40010009A41197CD6E004000000012804E5C8000000000001680020000000F8001001C807F7FD2C045400000000000000040010009A41197CD2E004000000012804E1C8000000000001680020000000F8000C01C807F7FD2C045400000000000000040010009A41197CCEE004000000012804DDC8000000000001680020000
310
000F8000801C807F7FD2C045400000000000000040010009A41197CCAE004000000012804D9C8000000000001680020000000F8000401C807F7FD2C045400000000000000040010009A41197CC6E00400000001280561C0000000000001680020000000F8002001C80448012C045400000000000000040010009A41197CE2E
310
0040000000128044DC0000000000001680020000000F8002001C80448012C045400000000000000040010009A41197CE2E00400000001280431C0000000000001680000000000F8001C01C807F7FD2C045400000000000000040010009A41197CDEE0040000000128067430000000000001680020000000F803F401C804340
310
12C045400000000000000040018009A41197CC8D4CEE0040000000128067030000000000001680024000000F8000401C807F7FD2C045400000000000000040010009A41197CC6E0040000000128066C30000000000001680020000000F8037401C80448012C045400000000000000040018009A41197CC8C8C6E0040000000
310
128070C2C000000000001680020000000F8032401C80464012C045400000000000000040018009A41197CC8C0C6E0040000000128054C1C000000000001680020000000F8037401C80448012C045400000000000000040018009A41197CC8C8C6E0040000000128043C00000000000001680020000000F8001C01C80478012
310
C045400000000000000040010009A41197CDEE004000000000
  0
DICTIONARY
  5
E37E
330
BEE
100
AcDbDictionary
  3
ACAD_XREC_ROUNDTRIP
360
E37F
1001
ACAD
1000
TREAT_AS_HARD
1070
     1
  0
DICTIONARY
  5
E380
330
BE6
100
AcDbDictionary
  3
ACAD_XREC_ROUNDTRIP
360
E381
1001
ACAD
1000
TREAT_AS_HARD
1070
     1
  0
DICTIONARY
  5
E382
330
BF6
100
AcDbDictionary
  3
ACAD_XREC_ROUNDTRIP
360
E383
1001
ACAD
1000
TREAT_AS_HARD
1070
     1
  0
DICTIONARY
  5
C47F
330
C47E
100
AcDbDictionary
  3
ACADLAYERSTATEANNOSCALE
360
C480
1001
ACAD
1000
TREAT_AS_HARD
1070
     1
  0
XRECORD
  5
E37F
102
{ACAD_REACTORS
330
E37E
102
}
330
E37E
100
AcDbXrecord
102
MATERIAL
148
0.0
149
0.0
149
0.0
 93
        0
 94
      127
282
     0
 72
     0
 77
     0
171
     0
175
     0
179
     0
273
     0
  0
XRECORD
  5
E381
102
{ACAD_REACTORS
330
E380
102
}
330
E380
100
AcDbXrecord
102
MATERIAL
148
0.0
149
0.0
149
0.0
 93
        0
 94
      127
282
     0
 72
     0
 77
     0
171
     0
175
     0
179
     0
273
     0
  0
XRECORD
  5
E383
102
{ACAD_REACTORS
330
E382
102
}
330
E382
100
AcDbXrecord
102
MATERIAL
148
0.0
149
0.0
149
0.0
 93
        0
 94
      127
282
     0
 72
     0
 77
     0
171
     0
175
     0
179
     0
273
     0
  0
XRECORD
  5
C480
102
{ACAD_REACTORS
330
C47F
102
}
330
C47F
100
AcDbXrecord
330
C13
  0
ENDSEC
  0
EOF
