  0
SECTION
  2
HEADER
  9
$ACADVER
  1
AC1012
  9
$DWGCODEPAGE
  3
ansi_932
  9
$INSBASE
 10
0.0
 20
0.0
 30
0.0
  9
$EXTMIN
 10
172.4750064499088
 20
369.4007024028299
 30
0.0
  9
$EXTMAX
 10
531.623434646218
 20
562.201221593226
 30
0.0
  9
$LIMMIN
 10
0.0
 20
0.0
  9
$LIMMAX
 10
420.0
 20
297.0
  9
$ORTHOMODE
 70
     0
  9
$REGENMODE
 70
     1
  9
$FILLMODE
 70
     1
  9
$QTEXTMODE
 70
     0
  9
$MIRRTEXT
 70
     1
  9
$DRAGMODE
 70
     2
  9
$LTSCALE
 40
0.5
  9
$OSMODE
 70
  2399
  9
$ATTMODE
 70
     1
  9
$TEXTSIZE
 40
2.5
  9
$TRACEWID
 40
1.0
  9
$TEXTSTYLE
  7
STANDARD
  9
$CLAYER
  8
1TEXT
  9
$CELTYPE
  6
BYLAYER
  9
$CECOLOR
 62
   256
  9
$CELTSCALE
 40
1.0
  9
$DELOBJ
 70
     1
  9
$DISPSILH
 70
     0
  9
$DIMSCALE
 40
1.0
  9
$DIMASZ
 40
2.0
  9
$DIMEXO
 40
0.0
  9
$DIMDLI
 40
7.0
  9
$DIMRND
 40
0.0
  9
$DIMDLE
 40
0.0
  9
$DIMEXE
 40
1.0
  9
$DIMTP
 40
0.0
  9
$DIMTM
 40
0.0
  9
$DIMTXT
 40
3.5
  9
$DIMCEN
 40
0.0
  9
$DIMTSZ
 40
0.0
  9
$DIMTOL
 70
     0
  9
$DIMLIM
 70
     0
  9
$DIMTIH
 70
     0
  9
$DIMTOH
 70
     0
  9
$DIMSE1
 70
     0
  9
$DIMSE2
 70
     0
  9
$DIMTAD
 70
     1
  9
$DIMZIN
 70
     8
  9
$DIMBLK
  1

  9
$DIMASO
 70
     1
  9
$DIMSHO
 70
     1
  9
$DIMPOST
  1
 
  9
$DIMAPOST
  1

  9
$DIMALT
 70
     0
  9
$DIMALTD
 70
     2
  9
$DIMALTF
 40
25.4
  9
$DIMLFAC
 40
1.0
  9
$DIMTOFL
 70
     1
  9
$DIMTVP
 40
0.0
  9
$DIMTIX
 70
     0
  9
$DIMSOXD
 70
     0
  9
$DIMSAH
 70
     1
  9
$DIMBLK1
  1
OPEN30
  9
$DIMBLK2
  1
OPEN30
  9
$DIMSTYLE
  2
NEWX10
  9
$DIMCLRD
 70
   256
  9
$DIMCLRE
 70
   256
  9
$DIMCLRT
 70
   201
  9
$DIMTFAC
 40
0.7
  9
$DIMGAP
 40
0.7
  9
$DIMJUST
 70
     0
  9
$DIMSD1
 70
     0
  9
$DIMSD2
 70
     0
  9
$DIMTOLJ
 70
     1
  9
$DIMTZIN
 70
     8
  9
$DIMALTZ
 70
     0
  9
$DIMALTTZ
 70
     0
  9
$DIMFIT
 70
     2
  9
$DIMUPT
 70
     0
  9
$DIMUNIT
 70
     2
  9
$DIMDEC
 70
     2
  9
$DIMTDEC
 70
     2
  9
$DIMALTU
 70
     2
  9
$DIMALTTD
 70
     2
  9
$DIMTXSTY
  7
STANDARD
  9
$DIMAUNIT
 70
     0
  9
$LUNITS
 70
     2
  9
$LUPREC
 70
     4
  9
$SKETCHINC
 40
1.0
  9
$FILLETRAD
 40
0.0
  9
$AUNITS
 70
     0
  9
$AUPREC
 70
     2
  9
$MENU
  1
acad
  9
$ELEVATION
 40
0.0
  9
$PELEVATION
 40
0.0
  9
$THICKNESS
 40
0.0
  9
$LIMCHECK
 70
     0
  9
$CHAMFERA
 40
10.0
  9
$CHAMFERB
 40
10.0
  9
$CHAMFERC
 40
20.0
  9
$CHAMFERD
 40
0.0
  9
$SKPOLY
 70
     0
  9
$TDCREATE
 40
2451318.621352917
  9
$TDUPDATE
 40
2459172.586328183
  9
$TDINDWG
 40
0.3987264931
  9
$TDUSRTIMER
 40
0.3987264931
  9
$USRTIMER
 70
     1
  9
$ANGBASE
 50
0.0
  9
$ANGDIR
 70
     0
  9
$PDMODE
 70
     0
  9
$PDSIZE
 40
0.0
  9
$PLINEWID
 40
0.0
  9
$COORDS
 70
     2
  9
$SPLFRAME
 70
     0
  9
$SPLINETYPE
 70
     6
  9
$SPLINESEGS
 70
     8
  9
$ATTDIA
 70
     0
  9
$ATTREQ
 70
     1
  9
$HANDLING
 70
     1
  9
$HANDSEED
  5
E95C
  9
$SURFTAB1
 70
     6
  9
$SURFTAB2
 70
     6
  9
$SURFTYPE
 70
     6
  9
$SURFU
 70
     6
  9
$SURFV
 70
     6
  9
$UCSNAME
  2

  9
$UCSORG
 10
0.0
 20
0.0
 30
0.0
  9
$UCSXDIR
 10
1.0
 20
0.0
 30
0.0
  9
$UCSYDIR
 10
0.0
 20
1.0
 30
0.0
  9
$PUCSNAME
  2

  9
$PUCSORG
 10
0.0
 20
0.0
 30
0.0
  9
$PUCSXDIR
 10
1.0
 20
0.0
 30
0.0
  9
$PUCSYDIR
 10
0.0
 20
1.0
 30
0.0
  9
$USERI1
 70
     0
  9
$USERI2
 70
     0
  9
$USERI3
 70
     0
  9
$USERI4
 70
     0
  9
$USERI5
 70
     0
  9
$USERR1
 40
0.0
  9
$USERR2
 40
0.0
  9
$USERR3
 40
0.0
  9
$USERR4
 40
0.0
  9
$USERR5
 40
0.0
  9
$WORLDVIEW
 70
     1
  9
$SHADEDGE
 70
     3
  9
$SHADEDIF
 70
    70
  9
$TILEMODE
 70
     1
  9
$MAXACTVP
 70
    48
  9
$PINSBASE
 10
0.0
 20
0.0
 30
0.0
  9
$PLIMCHECK
 70
     0
  9
$PEXTMIN
 10
1.000000000000000E+20
 20
1.000000000000000E+20
 30
1.000000000000000E+20
  9
$PEXTMAX
 10
-1.000000000000000E+20
 20
-1.000000000000000E+20
 30
-1.000000000000000E+20
  9
$PLIMMIN
 10
0.0
 20
0.0
  9
$PLIMMAX
 10
420.0
 20
297.0
  9
$UNITMODE
 70
     0
  9
$VISRETAIN
 70
     1
  9
$PLINEGEN
 70
     0
  9
$PSLTSCALE
 70
     1
  9
$TREEDEPTH
 70
  3020
  9
$PICKSTYLE
 70
     0
  9
$CMLSTYLE
  2
STANDARD
  9
$CMLJUST
 70
     0
  9
$CMLSCALE
 40
20.0
  9
$SAVEIMAGES
 70
     1
  0
ENDSEC
  0
SECTION
  2
CLASSES
  0
CLASS
  1
DICTIONARYVAR
  2
AcDbDictionaryVar
  3
ObjectDBX Classes
 90
        0
280
     0
281
     0
  0
CLASS
  1
IDBUFFER
  2
AcDbIdBuffer
  3
ObjectDBX Classes
 90
    32768
280
     0
281
     0
  0
CLASS
  1
LWPOLYLINE
  2
AcDbPolyline
  3
ObjectDBX Classes
 90
    32768
280
     0
281
     1
  0
CLASS
  1
ACDBDICTIONARYWDFLT
  2
AcDbDictionaryWithDefault
  3
ObjectDBX Classes
 90
    32768
280
     0
281
     0
  0
CLASS
  1
ACDBPLACEHOLDER
  2
AcDbPlaceHolder
  3
ObjectDBX Classes
 90
        0
280
     0
281
     0
  0
CLASS
  1
LAYOUT
  2
AcDbLayout
  3
ObjectDBX Classes
 90
        0
280
     0
281
     0
  0
CLASS
  1
TABLESTYLE
  2
AcDbTableStyle
  3
ObjectDBX Classes
 90
     4095
280
     0
281
     0
  0
CLASS
  1
SORTENTSTABLE
  2
AcDbSortentsTable
  3
ObjectDBX Classes
 90
    32768
280
     0
281
     0
  0
CLASS
  1
MATERIAL
  2
AcDbMaterial
  3
ObjectDBX Classes
 90
     1153
280
     0
281
     0
  0
CLASS
  1
VISUALSTYLE
  2
AcDbVisualStyle
  3
ObjectDBX Classes
 90
     4095
280
     0
281
     0
  0
CLASS
  1
SCALE
  2
AcDbScale
  3
ObjectDBX Classes
 90
     1153
280
     0
281
     0
  0
CLASS
  1
MLEADERSTYLE
  2
AcDbMLeaderStyle
  3
ACDB_MLEADERSTYLE_CLASS
 90
     4095
280
     0
281
     0
  0
CLASS
  1
CELLSTYLEMAP
  2
AcDbCellStyleMap
  3
ObjectDBX Classes
 90
     1152
280
     0
281
     0
  0
CLASS
  1
DIMASSOC
  2
AcDbDimAssoc
  3
"AcDbDimAssoc|Product Desc:     AcDim ARX App For Dimension|Company:          Autodesk, Inc.|WEB Address:      www.autodesk.com"
 90
        0
280
     0
281
     0
  0
CLASS
  1
EXACTERMXREFMAP
  2
ExAcTermXrefMap
  3
EXAC_SERVICE
 90
     1025
280
     1
281
     0
  0
CLASS
  1
NPOCOLLECTION
  2
AcDbImpNonPersistentObjectsCollection
  3
ObjectDBX Classes
 90
     1153
280
     1
281
     0
  0
CLASS
  1
EXACXREFPANELOBJECT
  2
ExAcXREFPanelObject
  3
EXAC_ESW
 90
     1025
280
     1
281
     0
  0
CLASS
  1
SUN
  2
AcDbSun
  3
SCENEOE
 90
     1153
280
     0
281
     0
  0
CLASS
  1
XRECORD
  2
AcDbXrecord
  3
ObjectDBX Classes
 90
    32768
280
     0
281
     0
  0
CLASS
  1
HATCH
  2
AcDbHatch
  3
ObjectDBX Classes
 90
    32768
280
     0
281
     1
  0
ENDSEC
  0
SECTION
  2
TABLES
  0
TABLE
  2
VPORT
  5
8
330
0
100
AcDbSymbolTable
 70
     1
  0
VPORT
  5
14C9
330
8
100
AcDbSymbolTableRecord
100
AcDbViewportTableRecord
  2
*ACTIVE
 70
     0
 10
0.0
 20
0.0
 11
1.0
 21
1.0
 12
352.0492205480634
 22
465.800961998028
 13
0.0
 23
0.0
 14
10.0
 24
10.0
 15
10.0
 25
10.0
 16
0.0
 26
0.0
 36
1.0
 17
0.0
 27
0.0
 37
0.0
 40
207.524013431873
 41
1.858156028368794
 42
50.0
 43
0.0
 44
0.0
 50
0.0
 51
0.0
 71
    16
 72
   100
 73
     1
 74
     1
 75
     0
 76
     0
 77
     0
 78
     0
1001
ACAD_NAV_VCDISPLAY
1070
     3
  0
ENDTAB
  0
TABLE
  2
LTYPE
  5
5
330
0
100
AcDbSymbolTable
 70
     4
  0
LTYPE
  5
12
330
5
100
AcDbSymbolTableRecord
100
AcDbLinetypeTableRecord
  2
BYBLOCK
 70
     0
  3

 72
    65
 73
     0
 40
0.0
  0
LTYPE
  5
13
330
5
100
AcDbSymbolTableRecord
100
AcDbLinetypeTableRecord
  2
BYLAYER
 70
     0
  3

 72
    65
 73
     0
 40
0.0
  0
LTYPE
  5
14
330
5
100
AcDbSymbolTableRecord
100
AcDbLinetypeTableRecord
  2
CONTINUOUS
 70
     0
  3
Solid line
 72
    65
 73
     0
 40
0.0
  0
LTYPE
  5
26
330
5
100
AcDbSymbolTableRecord
100
AcDbLinetypeTableRecord
  2
CENTER2
 70
     0
  3
Center (.5x) ___ _ ___ _ ___ _ ___ _ ___ _ ___
 72
    65
 73
     4
 40
28.575
 49
19.05
 74
     0
 49
-3.175
 74
     0
 49
3.175
 74
     0
 49
-3.175
 74
     0
  0
LTYPE
  5
6A
330
5
100
AcDbSymbolTableRecord
100
AcDbLinetypeTableRecord
  2
XREF1|CENTER2
 70
    16
  3
Center (.5x) ___ _ ___ _ ___ _ ___ _ ___ _ ___
 72
    65
 73
     4
 40
28.575
 49
19.05
 74
     0
 49
-3.175
 74
     0
 49
3.175
 74
     0
 49
-3.175
 74
     0
  0
LTYPE
  5
BAC3
330
5
100
AcDbSymbolTableRecord
100
AcDbLinetypeTableRecord
  2
A3WAKUDAKE|CENTER2
 70
    16
  3
Center (.5x) ___ _ ___ _ ___ _ ___ _ ___ _ ___
 72
    65
 73
     4
 40
28.575
 49
19.05
 74
     0
 49
-3.175
 74
     0
 49
3.175
 74
     0
 49
-3.175
 74
     0
  0
ENDTAB
  0
TABLE
  2
LAYER
  5
2
102
{ACAD_XDICTIONARY
360
1C5A
102
}
330
0
100
AcDbSymbolTable
 70
     9
  0
LAYER
  5
E
102
{ACAD_XDICTIONARY
360
1545
102
}
330
2
100
AcDbSymbolTableRecord
100
AcDbLayerTableRecord
  2
0
 70
     0
 62
     7
  6
CONTINUOUS
  0
LAYER
  5
29
102
{ACAD_XDICTIONARY
360
1547
102
}
330
2
100
AcDbSymbolTableRecord
100
AcDbLayerTableRecord
  2
1CENTER
 70
     0
 62
     7
  6
CENTER2
  0
LAYER
  5
31
102
{ACAD_XDICTIONARY
360
1549
102
}
330
2
100
AcDbSymbolTableRecord
100
AcDbLayerTableRecord
  2
1TEXT
 70
     0
 62
     7
  6
CONTINUOUS
  0
LAYER
  5
243
102
{ACAD_XDICTIONARY
360
1559
102
}
330
2
100
AcDbSymbolTableRecord
100
AcDbLayerTableRecord
  2
01
 70
     0
 62
     1
  6
CONTINUOUS
  0
LAYER
  5
24E
102
{ACAD_XDICTIONARY
360
156F
102
}
330
2
100
AcDbSymbolTableRecord
100
AcDbLayerTableRecord
  2
1DIM
 70
     0
 62
     7
  6
CONTINUOUS
  0
LAYER
  5
BABF
330
2
100
AcDbSymbolTableRecord
100
AcDbLayerTableRecord
  2
A3WAKUDAKE|THICK
 70
    16
 62
     7
  6
CONTINUOUS
  0
LAYER
  5
BAC0
330
2
100
AcDbSymbolTableRecord
100
AcDbLayerTableRecord
  2
A3WAKUDAKE|POINT
 70
    16
 62
     7
  6
CONTINUOUS
  0
LAYER
  5
BAC1
330
2
100
AcDbSymbolTableRecord
100
AcDbLayerTableRecord
  2
A3WAKUDAKE|1CENTER
 70
    16
 62
     7
  6
A3WAKUDAKE|CENTER2
  0
LAYER
  5
BAC2
330
2
100
AcDbSymbolTableRecord
100
AcDbLayerTableRecord
  2
A3WAKUDAKE|0-6
 70
    16
 62
     7
  6
CONTINUOUS
  0
ENDTAB
  0
TABLE
  2
STYLE
  5
3
330
0
100
AcDbSymbolTable
 70
     3
  0
STYLE
  5
F
330
3
100
AcDbSymbolTableRecord
100
AcDbTextStyleTableRecord
  2
STANDARD
 70
     0
 40
0.0
 41
1.0
 50
0.0
 71
     0
 42
2.5
  3
txt.shx
  4
extfont.shx
  0
STYLE
  5
DB8F
330
3
100
AcDbSymbolTableRecord
100
AcDbTextStyleTableRecord
  2
A3WAKUDAKE|STANDARD
 70
    16
 40
0.0
 41
1.0
 50
0.0
 71
     0
 42
4.0
  3
romans.shx
  4
extfont.shx
  0
STYLE
  5
DBB7
330
3
100
AcDbSymbolTableRecord
100
AcDbTextStyleTableRecord
  2
XREF1|STANDARD
 70
    16
 40
0.0
 41
1.0
 50
0.0
 71
     0
 42
4.0
  3
romans.shx
  4
extfont.shx
  0
ENDTAB
  0
TABLE
  2
VIEW
  5
6
330
0
100
AcDbSymbolTable
 70
     0
  0
ENDTAB
  0
TABLE
  2
UCS
  5
7
330
0
100
AcDbSymbolTable
 70
     0
  0
ENDTAB
  0
TABLE
  2
APPID
  5
9
330
0
100
AcDbSymbolTable
 70
    19
  0
APPID
  5
10
330
9
100
AcDbSymbolTableRecord
100
AcDbRegAppTableRecord
  2
ACAD
 70
     0
  0
APPID
  5
21
330
9
100
AcDbSymbolTableRecord
100
AcDbRegAppTableRecord
  2
DRAWINGVARIABLESXDATA
 70
     0
  0
APPID
  5
64
330
9
100
AcDbSymbolTableRecord
100
AcDbRegAppTableRecord
  2
CONTENTTABDATA
 70
     0
  0
APPID
  5
65
330
9
100
AcDbSymbolTableRecord
100
AcDbRegAppTableRecord
  2
CONTENTCURRENTTAB
 70
     0
  0
APPID
  5
66
330
9
100
AcDbSymbolTableRecord
100
AcDbRegAppTableRecord
  2
CONTENTBLOCKDESCRIPTION
 70
     0
  0
APPID
  5
67
330
9
100
AcDbSymbolTableRecord
100
AcDbRegAppTableRecord
  2
CONTENTBLOCKICON
 70
     0
  0
APPID
  5
68
330
9
100
AcDbSymbolTableRecord
100
AcDbRegAppTableRecord
  2
CONTENTLONGBLOCKNAME
 70
     0
  0
APPID
  5
153E
330
9
100
AcDbSymbolTableRecord
100
AcDbRegAppTableRecord
  2
ACAD_MLEADERVER
 70
     0
  0
APPID
  5
1C58
330
9
100
AcDbSymbolTableRecord
100
AcDbRegAppTableRecord
  2
ACAD_DSTYLE_DIMRADIAL_EXTE
 70
     0
  0
APPID
  5
1C59
330
9
100
AcDbSymbolTableRecord
100
AcDbRegAppTableRecord
  2
ACAD_PSEXT
 70
     0
  0
APPID
  5
BE78
330
9
100
AcDbSymbolTableRecord
100
AcDbRegAppTableRecord
  2
ACAD_NAV_VCDISPLAY
 70
     0
  0
APPID
  5
CB42
330
9
100
AcDbSymbolTableRecord
100
AcDbRegAppTableRecord
  2
ACAD_EXEMPT_FROM_CAD_STAND
 70
     0
  0
APPID
  5
CB59
330
9
100
AcDbSymbolTableRecord
100
AcDbRegAppTableRecord
  2
ACLAYERTOOLS
 70
     0
  0
APPID
  5
CEA2
330
9
100
AcDbSymbolTableRecord
100
AcDbRegAppTableRecord
  2
GRADIENTCOLOR1ACI
 70
     0
  0
APPID
  5
CEA3
330
9
100
AcDbSymbolTableRecord
100
AcDbRegAppTableRecord
  2
GRADIENTCOLOR2ACI
 70
     0
  0
APPID
  5
DE18
330
9
100
AcDbSymbolTableRecord
100
AcDbRegAppTableRecord
  2
ACAD_DSTYLE_DIMJAG
 70
     0
  0
APPID
  5
DE19
330
9
100
AcDbSymbolTableRecord
100
AcDbRegAppTableRecord
  2
ACAD_DSTYLE_DIMTALN
 70
     0
  0
APPID
  5
DE1C
330
9
100
AcDbSymbolTableRecord
100
AcDbRegAppTableRecord
  2
ACADANNOTATIVE
 70
     0
  0
APPID
  5
DE1D
330
9
100
AcDbSymbolTableRecord
100
AcDbRegAppTableRecord
  2
ACDBBLOCKREPETAG
 70
     0
  0
ENDTAB
  0
TABLE
  2
DIMSTYLE
  5
A
330
0
100
AcDbSymbolTable
 70
     2
  0
DIMSTYLE
105
48
330
A
100
AcDbSymbolTableRecord
100
AcDbDimStyleTableRecord
  2
NEWX10
 70
     0
  3
 
  4

  5

  6
OPEN30
  7
OPEN30
 40
1.0
 41
2.0
 42
0.0
 43
7.0
 44
1.0
 45
0.0
 46
0.0
 47
0.0
 48
0.0
140
3.5
141
0.0
142
0.0
143
25.4
144
1.0
145
0.0
146
0.7
147
0.7
 71
     0
 72
     0
 73
     0
 74
     0
 75
     0
 76
     0
 77
     1
 78
     8
170
     0
171
     2
172
     1
173
     1
174
     0
175
     0
176
   256
177
   256
178
   201
270
     2
271
     2
272
     4
273
     2
274
     2
340
F
275
     0
280
     0
281
     0
282
     0
283
     1
284
     8
285
     0
286
     0
287
     2
288
     0
  0
DIMSTYLE
105
DE1A
330
A
100
AcDbSymbolTableRecord
100
AcDbDimStyleTableRecord
  2
ISO-25
 70
     0
  3

  4

  5

  6

  7

 40
1.0
 41
20.0
 42
3.0
 43
3.75
 44
2.0
 45
0.0
 46
0.0
 47
0.0
 48
0.0
140
30.0
141
5.0
142
0.0
143
0.03937
144
1.0
145
0.0
146
1.0
147
8.0
 71
     0
 72
     0
 73
     0
 74
     0
 75
     0
 76
     0
 77
     1
 78
     8
170
     0
171
     3
172
     1
173
     0
174
     0
175
     0
176
     1
177
     1
178
     1
179
     2
270
     2
271
     2
272
     2
273
     2
274
     3
340
F
275
     0
280
     0
281
     0
282
     0
283
     0
284
     8
285
     0
286
     0
287
     3
288
     0
  0
ENDTAB
  0
TABLE
  2
BLOCK_RECORD
  5
1
330
0
100
AcDbSymbolTable
 70
    10
  0
BLOCK_RECORD
  5
18
102
{ACAD_XDICTIONARY
360
6ED2
102
}
330
1
100
AcDbSymbolTableRecord
100
AcDbBlockTableRecord
  2
*MODEL_SPACE
  0
BLOCK_RECORD
  5
15
102
{ACAD_XDICTIONARY
360
14C7
102
}
330
1
100
AcDbSymbolTableRecord
100
AcDbBlockTableRecord
  2
*PAPER_SPACE
  0
BLOCK_RECORD
  5
42
330
1
100
AcDbSymbolTableRecord
100
AcDbBlockTableRecord
  2
_OPEN30
  0
BLOCK_RECORD
  5
5B
330
1
100
AcDbSymbolTableRecord
100
AcDbBlockTableRecord
  2
XREF1
  0
BLOCK_RECORD
  5
BABC
330
1
100
AcDbSymbolTableRecord
100
AcDbBlockTableRecord
  2
A3WAKUDAKE
  0
BLOCK_RECORD
  5
DE6C
330
1
100
AcDbSymbolTableRecord
100
AcDbBlockTableRecord
  2
A3WAKUKAWAJUN2017_HYOUDAI_
  0
BLOCK_RECORD
  5
E7BC
330
1
100
AcDbSymbolTableRecord
100
AcDbBlockTableRecord
  2
*X45
  0
BLOCK_RECORD
  5
E80A
330
1
100
AcDbSymbolTableRecord
100
AcDbBlockTableRecord
  2
*X46
  0
BLOCK_RECORD
  5
E85C
330
1
100
AcDbSymbolTableRecord
100
AcDbBlockTableRecord
  2
*X47
  0
BLOCK_RECORD
  5
E8AD
330
1
100
AcDbSymbolTableRecord
100
AcDbBlockTableRecord
  2
*X48
  0
BLOCK_RECORD
  5
E8EA
330
1
100
AcDbSymbolTableRecord
100
AcDbBlockTableRecord
  2
*X49
  0
BLOCK_RECORD
  5
E92A
330
1
100
AcDbSymbolTableRecord
100
AcDbBlockTableRecord
  2
*X50
  0
ENDTAB
  0
ENDSEC
  0
SECTION
  2
BLOCKS
  0
BLOCK
  5
19
330
18
100
AcDbEntity
  8
0
100
AcDbBlockBegin
  2
*MODEL_SPACE
 70
     0
 10
0.0
 20
0.0
 30
0.0
  3
*MODEL_SPACE
  1

  0
ENDBLK
  5
1A
330
18
100
AcDbEntity
  8
0
100
AcDbBlockEnd
  0
BLOCK
  5
16
330
15
100
AcDbEntity
 67
     1
  8
0
100
AcDbBlockBegin
  2
*PAPER_SPACE
 70
     0
 10
0.0
 20
0.0
 30
0.0
  3
*PAPER_SPACE
  1

  0
ENDBLK
  5
17
330
15
100
AcDbEntity
 67
     1
  8
0
100
AcDbBlockEnd
  0
BLOCK
  5
43
330
42
100
AcDbEntity
  8
0
100
AcDbBlockBegin
  2
_OPEN30
 70
     0
 10
0.0
 20
0.0
 30
0.0
  3
_OPEN30
  1

  0
LINE
  5
44
330
42
100
AcDbEntity
  8
0
  6
BYBLOCK
 62
     0
100
AcDbLine
 10
-1.0
 20
0.26794919
 30
0.0
 11
0.0
 21
0.0
 31
0.0
  0
LINE
  5
45
330
42
100
AcDbEntity
  8
0
  6
BYBLOCK
 62
     0
100
AcDbLine
 10
0.0
 20
0.0
 30
0.0
 11
-1.0
 21
-0.26794919
 31
0.0
  0
LINE
  5
46
330
42
100
AcDbEntity
  8
0
  6
BYBLOCK
 62
     0
100
AcDbLine
 10
0.0
 20
0.0
 30
0.0
 11
-1.0
 21
0.0
 31
0.0
  0
ENDBLK
  5
47
330
42
100
AcDbEntity
  8
0
100
AcDbBlockEnd
  0
BLOCK
  5
5C
330
5B
100
AcDbEntity
  8
0
100
AcDbBlockBegin
  2
XREF1
 70
     4
 10
0.0
 20
0.0
 30
0.0
  3
XREF1
  1
D:\ACLT\FORMAT\KAWAJUN(9)図面用.dwg
  0
ENDBLK
  5
5D
330
5B
100
AcDbEntity
  8
0
100
AcDbBlockEnd
  0
BLOCK
  5
BABD
330
BABC
100
AcDbEntity
  8
0
100
AcDbBlockBegin
  2
A3WAKUDAKE
 70
     4
 10
0.0
 20
0.0
 30
0.0
  3
A3WAKUDAKE
  1
D:\ACLT\FORMAT\A3WAKUdake.dwg
  0
ENDBLK
  5
BABE
330
BABC
100
AcDbEntity
  8
0
100
AcDbBlockEnd
  0
BLOCK
  5
E574
330
DE6C
100
AcDbEntity
  8
0
100
AcDbBlockBegin
  2
A3WAKUKAWAJUN2017_HYOUDAI_
 70
     0
 10
0.0
 20
0.0
 30
0.0
  3
A3WAKUKAWAJUN2017_HYOUDAI_
  1

  0
LINE
  5
DE6E
330
DE6C
100
AcDbEntity
  8
0
100
AcDbLine
 10
13.26299999998673
 20
-0.0001000000000317
 30
0.0
 11
9.236999999990758
 21
8.999899999990987
 31
0.0
1001
ACAD
1000
ASC_BOUNDS
1002
{
1070
    19
1005
DEAF
1002
}
  0
LINE
  5
DE6F
330
DE6C
100
AcDbEntity
  8
0
100
AcDbLine
 10
5.657999999994331
 20
0.9999999999989768
 30
0.0
 11
9.236999999990758
 21
8.999999999991019
 31
0.0
1001
ACAD
1000
ASC_BOUNDS
1002
{
1070
    19
1005
DEAF
1002
}
  0
LINE
  5
DE70
330
DE6C
100
AcDbEntity
  8
0
100
AcDbLine
 10
18.59199999998134
 20
-0.2368999999997641
 30
0.0
 11
16.46099999998353
 21
5.432899999994561
 31
0.0
1001
ACAD
1000
ASC_BOUNDS
1002
{
1070
    19
1005
DEB0
1002
}
  0
LINE
  5
DE71
330
DE6C
100
AcDbEntity
  8
0
100
AcDbLine
 10
18.59199999998134
 20
-0.2368999999997641
 30
0.0
 11
22.38199999997767
 21
8.763099999991255
 31
0.0
1001
ACAD
1000
ASC_BOUNDS
1002
{
1070
    19
1005
DEB0
1002
}
  0
LINE
  5
DE72
330
DE6C
100
AcDbEntity
  8
0
100
AcDbLine
 10
14.32899999998563
 20
-0.2368999999997641
 30
0.0
 11
16.46099999998353
 21
5.432899999994561
 31
0.0
1001
ACAD
1000
ASC_BOUNDS
1002
{
1070
    19
1005
DEB0
1002
}
  0
LINE
  5
DE73
330
DE6C
100
AcDbEntity
  8
0
100
AcDbLine
 10
14.32899999998563
 20
-0.2368999999997641
 30
0.0
 11
10.53899999998941
 21
8.763099999991255
 31
0.0
1001
ACAD
1000
ASC_BOUNDS
1002
{
1070
    19
1005
DEB0
1002
}
  0
LINE
  5
DE74
330
DE6C
100
AcDbEntity
  8
0
100
AcDbLine
 10
19.53899999998043
 20
-0.0001000000000317
 30
0.0
 11
23.56599999997638
 21
8.999899999990987
 31
0.0
1001
ACAD
1000
ASC_BOUNDS
1002
{
1070
    19
1005
DEB1
1002
}
  0
LINE
  5
DE75
330
DE6C
100
AcDbEntity
  8
0
100
AcDbLine
 10
26.97358892824991
 20
1.383099999991202
 30
0.0
 11
23.56599999997638
 21
8.999899999990987
 31
0.0
1001
ACAD
1000
ASC_BOUNDS
1002
{
1070
    19
1005
DEB1
1002
}
  0
LINE
  5
DE76
330
DE6C
100
AcDbEntity
  8
0
100
AcDbLine
 10
5.657999999994331
 20
0.9999999999989768
 30
0.0
 11
3.181999999996833
 21
4.668599999995308
 31
0.0
1001
ACAD
1000
ASC_BOUNDS
1002
{
1070
    19
1005
DEAF
1002
}
  0
LINE
  5
DE77
330
DE6C
100
AcDbEntity
  8
0
100
AcDbLine
 10
4.617999999995391
 20
-0.0001000000000317
 30
0.0
 11
1.420999999998571
 21
4.736799999995242
 31
0.0
1001
ACAD
1000
ASC_BOUNDS
1002
{
1070
    19
1005
DEAF
1002
}
  0
LINE
  5
DE78
330
DE6C
100
AcDbEntity
  8
0
100
AcDbLine
 10
1.420999999998571
 20
8.763099999991255
 30
0.0
 11
1.420999999998571
 21
0.0
 31
0.0
1001
ACAD
1000
ASC_BOUNDS
1002
{
1070
    19
1005
DEB4
1002
}
  0
LINE
  5
DE79
330
DE6C
100
AcDbEntity
  8
0
100
AcDbLine
 10
0.0
 20
8.763099999991255
 30
0.0
 11
0.0
 21
0.0
 31
0.0
1001
ACAD
1000
ASC_BOUNDS
1002
{
1070
    19
1005
DEB4
1002
}
  0
LINE
  5
DE7A
330
DE6C
100
AcDbEntity
  8
0
100
AcDbLine
 10
6.766999999993232
 20
-0.0001000000000317
 30
0.0
 11
7.826999999992154
 21
2.368399999997621
 31
0.0
1001
ACAD
1000
ASC_BOUNDS
1002
{
1070
    19
1005
DEAF
1002
}
  0
LINE
  5
DE7B
330
DE6C
100
AcDbEntity
  8
0
100
AcDbLine
 10
0.0
 20
0.0
 30
0.0
 11
1.420999999998571
 21
0.0
 31
0.0
1001
ACAD
1000
ASC_BOUNDS
1002
{
1070
    19
1005
DEB4
1002
}
  0
LINE
  5
DE7C
330
DE6C
100
AcDbEntity
  8
0
100
AcDbLine
 10
4.617999999995391
 20
0.0
 30
0.0
 11
6.766999999993232
 21
0.0
 31
0.0
1001
ACAD
1000
ASC_BOUNDS
1002
{
1070
    19
1005
DEAF
1002
}
  0
LINE
  5
DE7D
330
DE6C
100
AcDbEntity
  8
0
100
AcDbLine
 10
11.70599999998831
 20
-0.0001000000000317
 30
0.0
 11
10.64699999998936
 21
2.368399999997621
 31
0.0
1001
ACAD
1000
ASC_BOUNDS
1002
{
1070
    19
1005
DEAF
1002
}
  0
LINE
  5
DE7E
330
DE6C
100
AcDbEntity
  8
0
100
AcDbLine
 10
7.826999999992154
 20
2.368399999997621
 30
0.0
 11
10.64699999998936
 21
2.368399999997621
 31
0.0
1001
ACAD
1000
ASC_BOUNDS
1002
{
1070
    19
1005
DEAF
1002
}
  0
LINE
  5
DE7F
330
DE6C
100
AcDbEntity
  8
0
100
AcDbLine
 10
11.70599999998831
 20
0.0
 30
0.0
 11
13.26299999998673
 21
0.0
 31
0.0
1001
ACAD
1000
ASC_BOUNDS
1002
{
1070
    19
1005
DEAF
1002
}
  0
LINE
  5
DE80
330
DE6C
100
AcDbEntity
  8
0
100
AcDbLine
 10
22.15599999997789
 20
2.368399999997621
 30
0.0
 11
24.97599999997499
 21
2.368399999997621
 31
0.0
1001
ACAD
1000
ASC_BOUNDS
1002
{
1070
    19
1005
DEB1
1002
}
  0
LINE
  5
DE81
330
DE6C
100
AcDbEntity
  8
0
100
AcDbLine
 10
19.53899999998043
 20
0.0
 30
0.0
 11
21.09599999997886
 21
0.0
 31
0.0
1001
ACAD
1000
ASC_BOUNDS
1002
{
1070
    19
1005
DEB1
1002
}
  0
LINE
  5
DE82
330
DE6C
100
AcDbEntity
  8
0
100
AcDbLine
 10
21.09599999997886
 20
-0.0001000000000317
 30
0.0
 11
22.15599999997789
 21
2.368399999997621
 31
0.0
1001
ACAD
1000
ASC_BOUNDS
1002
{
1070
    19
1005
DEB1
1002
}
  0
LINE
  5
DE83
330
DE6C
100
AcDbEntity
  8
0
100
AcDbLine
 10
26.02015566812236
 20
0.0330999999912365
 30
0.0
 11
24.97599999997499
 21
2.368399999997621
 31
0.0
1001
ACAD
1000
ASC_BOUNDS
1002
{
1070
    19
1005
DEB1
1002
}
  0
LINE
  5
DE84
330
DE6C
100
AcDbEntity
  8
0
100
AcDbLine
 10
14.32399999998563
 20
3.315799999996671
 30
0.0
 11
16.46099999998353
 21
8.999899999990987
 31
0.0
1001
ACAD
1000
ASC_BOUNDS
1002
{
1070
    19
1005
DEB0
1002
}
  0
LINE
  5
DE85
330
DE6C
100
AcDbEntity
  8
0
100
AcDbLine
 10
6.432999999993513
 20
8.763099999991255
 30
0.0
 11
3.181999999996833
 21
4.668599999995308
 31
0.0
1001
ACAD
1000
ASC_BOUNDS
1002
{
1070
    19
1005
DEAF
1002
}
  0
LINE
  5
DE86
330
DE6C
100
AcDbEntity
  8
0
100
AcDbLine
 10
4.617999999995391
 20
8.763099999991255
 30
0.0
 11
1.420999999998571
 21
4.736799999995242
 31
0.0
1001
ACAD
1000
ASC_BOUNDS
1002
{
1070
    19
1005
DEAF
1002
}
  0
LINE
  5
DE87
330
DE6C
100
AcDbEntity
  8
0
100
AcDbLine
 10
0.0
 20
8.763099999991255
 30
0.0
 11
1.420999999998571
 21
8.763099999991255
 31
0.0
1001
ACAD
1000
ASC_BOUNDS
1002
{
1070
    19
1005
DEB4
1002
}
  0
LINE
  5
DE88
330
DE6C
100
AcDbEntity
  8
0
100
AcDbLine
 10
4.617999999995391
 20
8.763099999991255
 30
0.0
 11
6.432999999993513
 21
8.763099999991255
 31
0.0
1001
ACAD
1000
ASC_BOUNDS
1002
{
1070
    19
1005
DEAF
1002
}
  0
LINE
  5
DE89
330
DE6C
100
AcDbEntity
  8
0
100
AcDbLine
 10
14.32399999998563
 20
3.315799999996671
 30
0.0
 11
12.02999999998792
 21
8.763099999991255
 31
0.0
1001
ACAD
1000
ASC_BOUNDS
1002
{
1070
    19
1005
DEB0
1002
}
  0
LINE
  5
DE8A
330
DE6C
100
AcDbEntity
  8
0
100
AcDbLine
 10
10.06399999998996
 20
3.670999999996297
 30
0.0
 11
9.236999999990758
 21
5.5200999999945
 31
0.0
1001
ACAD
1000
ASC_BOUNDS
1002
{
1070
    19
1005
DEAF
1002
}
  0
LINE
  5
DE8B
330
DE6C
100
AcDbEntity
  8
0
100
AcDbLine
 10
8.409999999991555
 20
3.670999999996297
 30
0.0
 11
9.236999999990758
 21
5.5200999999945
 31
0.0
1001
ACAD
1000
ASC_BOUNDS
1002
{
1070
    19
1005
DEAF
1002
}
  0
LINE
  5
DE8C
330
DE6C
100
AcDbEntity
  8
0
100
AcDbLine
 10
8.409999999991555
 20
3.670999999996297
 30
0.0
 11
10.06399999998996
 21
3.670999999996297
 31
0.0
1001
ACAD
1000
ASC_BOUNDS
1002
{
1070
    19
1005
DEAF
1002
}
  0
LINE
  5
DE8D
330
DE6C
100
AcDbEntity
  8
0
100
AcDbLine
 10
10.53899999998941
 20
8.763099999991255
 30
0.0
 11
12.02999999998792
 21
8.763099999991255
 31
0.0
1001
ACAD
1000
ASC_BOUNDS
1002
{
1070
    19
1005
DEB0
1002
}
  0
LINE
  5
DE8E
330
DE6C
100
AcDbEntity
  8
0
100
AcDbLine
 10
22.7389999999773
 20
3.670999999996297
 30
0.0
 11
23.56599999997638
 21
5.5200999999945
 31
0.0
1001
ACAD
1000
ASC_BOUNDS
1002
{
1070
    19
1005
DEB1
1002
}
  0
LINE
  5
DE8F
330
DE6C
100
AcDbEntity
  8
0
100
AcDbLine
 10
22.7389999999773
 20
3.670999999996297
 30
0.0
 11
24.39299999997559
 21
3.670999999996297
 31
0.0
1001
ACAD
1000
ASC_BOUNDS
1002
{
1070
    19
1005
DEB1
1002
}
  0
LINE
  5
DE90
330
DE6C
100
AcDbEntity
  8
0
100
AcDbLine
 10
18.59799999998143
 20
3.315799999996671
 30
0.0
 11
20.89099999997916
 21
8.763099999991255
 31
0.0
1001
ACAD
1000
ASC_BOUNDS
1002
{
1070
    19
1005
DEB0
1002
}
  0
LINE
  5
DE91
330
DE6C
100
AcDbEntity
  8
0
100
AcDbLine
 10
18.59799999998143
 20
3.315799999996671
 30
0.0
 11
16.46099999998353
 21
8.999899999990987
 31
0.0
1001
ACAD
1000
ASC_BOUNDS
1002
{
1070
    19
1005
DEB0
1002
}
  0
LINE
  5
DE92
330
DE6C
100
AcDbEntity
  8
0
100
AcDbLine
 10
20.89099999997916
 20
8.763099999991255
 30
0.0
 11
22.38199999997767
 21
8.763099999991255
 31
0.0
1001
ACAD
1000
ASC_BOUNDS
1002
{
1070
    19
1005
DEB0
1002
}
  0
LINE
  5
DE93
330
DE6C
100
AcDbEntity
  8
0
100
AcDbLine
 10
24.39299999997559
 20
3.670999999996297
 30
0.0
 11
23.56599999997638
 21
5.5200999999945
 31
0.0
1001
ACAD
1000
ASC_BOUNDS
1002
{
1070
    19
1005
DEB1
1002
}
  0
LINE
  5
DE94
330
DE6C
100
AcDbEntity
  8
0
100
AcDbLine
 10
44.99999999995498
 20
-0.2368999999997641
 30
0.0
 11
40.02599999995994
 21
5.341799999994635
 31
0.0
1001
ACAD
1000
ASC_BOUNDS
1002
{
1070
    19
1005
DEB3
1002
}
  0
LINE
  5
DE95
330
DE6C
100
AcDbEntity
  8
0
100
AcDbLine
 10
40.02599999995994
 20
5.341799999994635
 30
0.0
 11
40.02599999995994
 21
0.0
 31
0.0
1001
ACAD
1000
ASC_BOUNDS
1002
{
1070
    19
1005
DEB3
1002
}
  0
LINE
  5
DE96
330
DE6C
100
AcDbEntity
  8
0
100
AcDbLine
 10
38.60499999996136
 20
8.999999999991019
 30
0.0
 11
38.60499999996136
 21
0.0
 31
0.0
1001
ACAD
1000
ASC_BOUNDS
1002
{
1070
    19
1005
DEB3
1002
}
  0
LINE
  5
DE97
330
DE6C
100
AcDbEntity
  8
0
100
AcDbLine
 10
44.99999999995498
 20
8.763099999991255
 30
0.0
 11
44.99999999995498
 21
-0.2368999999997641
 31
0.0
1001
ACAD
1000
ASC_BOUNDS
1002
{
1070
    19
1005
DEB3
1002
}
  0
LINE
  5
DE98
330
DE6C
100
AcDbEntity
  8
0
100
AcDbLine
 10
38.60499999996136
 20
0.0
 30
0.0
 11
40.02599999995994
 21
0.0
 31
0.0
1001
ACAD
1000
ASC_BOUNDS
1002
{
1070
    19
1005
DEB3
1002
}
  0
LINE
  5
DE99
330
DE6C
100
AcDbEntity
  8
0
100
AcDbLine
 10
43.57899999995641
 20
3.421199999996588
 30
0.0
 11
38.60499999996136
 21
8.999899999990987
 31
0.0
1001
ACAD
1000
ASC_BOUNDS
1002
{
1070
    19
1005
DEB3
1002
}
  0
LINE
  5
DE9A
330
DE6C
100
AcDbEntity
  8
0
100
AcDbLine
 10
43.57899999995641
 20
8.763099999991255
 30
0.0
 11
43.57899999995641
 21
3.421199999996588
 31
0.0
1001
ACAD
1000
ASC_BOUNDS
1002
{
1070
    19
1005
DEB3
1002
}
  0
LINE
  5
DE9B
330
DE6C
100
AcDbEntity
  8
0
100
AcDbLine
 10
43.57899999995641
 20
8.763099999991255
 30
0.0
 11
44.99999999995498
 21
8.763099999991255
 31
0.0
1001
ACAD
1000
ASC_BOUNDS
1002
{
1070
    19
1005
DEB3
1002
}
  0
LINE
  5
DE9C
330
DE6C
100
AcDbEntity
  8
0
100
AcDbLine
 10
37.67199999996831
 20
8.763099999991255
 30
0.0
 11
36.23199999996837
 21
8.763099999991255
 31
0.0
  0
LINE
  5
DE9D
330
DE6C
100
AcDbEntity
  8
0
100
AcDbLine
 10
31.64199999996833
 20
8.763099999991255
 30
0.0
 11
31.64199999996833
 21
2.481619422925121
 31
0.0
  0
LINE
  5
DE9E
330
DE6C
100
AcDbEntity
  8
0
100
AcDbLine
 10
37.67199999996831
 20
8.763099999991255
 30
0.0
 11
37.67199999996831
 21
2.481619422925121
 31
0.0
  0
LINE
  5
DE9F
330
DE6C
100
AcDbEntity
  8
0
100
AcDbLine
 10
36.23199999996837
 20
8.763099999991255
 30
0.0
 11
36.23199999996837
 21
2.481619422925064
 31
0.0
  0
LINE
  5
DEA0
330
DE6C
100
AcDbEntity
  8
0
100
AcDbLine
 10
33.08199999996839
 20
8.763099999991255
 30
0.0
 11
33.08199999996839
 21
2.481619422925121
 31
0.0
  0
ARC
  5
DEA1
330
DE6C
100
AcDbEntity
  8
0
100
AcDbCircle
 10
34.65699999996832
 20
3.183099999991214
 30
0.0
 40
3.420000000000007
100
AcDbArc
 50
240.0000000000255
 51
299.9999999999766
  0
ARC
  5
DEA2
330
DE6C
100
AcDbEntity
  8
0
100
AcDbCircle
 10
34.65699999996832
 20
3.183099999991214
 30
0.0
 40
1.97999999999999
100
AcDbArc
 50
240.000000000026
 51
299.9999999999703
  0
LINE
  5
DEA3
330
DE6C
100
AcDbEntity
  8
0
100
AcDbLine
 10
33.08199999996828
 20
8.763099999991255
 30
0.0
 11
31.64199999996833
 21
8.763099999991255
 31
0.0
  0
ARC
  5
DEA4
330
DE6C
100
AcDbEntity
  8
0
100
AcDbCircle
 10
35.06199999996829
 20
2.481619422925064
 30
0.0
 40
1.17
100
AcDbArc
 50
299.9999999999699
 51
0.0
  0
ARC
  5
DEA5
330
DE6C
100
AcDbEntity
  8
0
100
AcDbCircle
 10
34.25199999996835
 20
2.481619422925121
 30
0.0
 40
1.17
100
AcDbArc
 50
180.0
 51
240.0000000000238
  0
ARC
  5
DEA6
330
DE6C
100
AcDbEntity
  8
0
100
AcDbCircle
 10
35.06199999996841
 20
2.481619422925121
 30
0.0
 40
2.61
100
AcDbArc
 50
299.9999999999756
 51
0.0
  0
ARC
  5
DEA7
330
DE6C
100
AcDbEntity
  8
0
100
AcDbCircle
 10
34.25199999996835
 20
2.481619422925121
 30
0.0
 40
2.61
100
AcDbArc
 50
180.0
 51
240.0000000000244
  0
LINE
  5
DEA8
330
DE6C
100
AcDbEntity
  8
0
100
AcDbLine
 10
29.30199999996933
 20
8.763099999991255
 30
0.0
 11
30.74199999996927
 21
8.763099999991255
 31
0.0
1001
ACAD
1000
ASC_BOUNDS
1002
{
1070
    19
1005
DEB1
1002
}
  0
LINE
  5
DEA9
330
DE6C
100
AcDbEntity
  8
0
100
AcDbLine
 10
30.74199999996927
 20
8.763099999991255
 30
0.0
 11
30.74199999996927
 21
2.373099999991211
 31
0.0
1001
ACAD
1000
ASC_BOUNDS
1002
{
1070
    19
1005
DEB1
1002
}
  0
LINE
  5
DEAA
330
DE6C
100
AcDbEntity
  8
0
100
AcDbLine
 10
26.02015566812236
 20
0.0330999999912365
 30
0.0
 11
28.40199999996923
 21
0.0330999999912365
 31
0.0
1001
ACAD
1000
ASC_BOUNDS
1002
{
1070
    19
1005
DEB1
1002
}
  0
LINE
  5
DEAB
330
DE6C
100
AcDbEntity
  8
0
100
AcDbLine
 10
29.30199999996933
 20
8.763099999991255
 30
0.0
 11
29.30199999996933
 21
2.283099999991236
 31
0.0
1001
ACAD
1000
ASC_BOUNDS
1002
{
1070
    19
1005
DEB1
1002
}
  0
LINE
  5
DEAC
330
DE6C
100
AcDbEntity
  8
0
100
AcDbLine
 10
26.97358892824991
 20
1.383099999991202
 30
0.0
 11
28.40199999996923
 21
1.383099999991202
 31
0.0
1001
ACAD
1000
ASC_BOUNDS
1002
{
1070
    19
1005
DEB1
1002
}
  0
ARC
  5
DEAD
330
DE6C
100
AcDbEntity
  8
0
100
AcDbCircle
 10
28.40199999996923
 20
2.283099999991236
 30
0.0
 40
0.9
100
AcDbArc
 50
270.0
 51
0.0
1001
ACAD
1000
ASC_BOUNDS
1002
{
1070
    19
1005
DEB1
1002
}
  0
ARC
  5
DEAE
330
DE6C
100
AcDbEntity
  8
0
100
AcDbCircle
 10
28.40199999996923
 20
2.373099999991211
 30
0.0
 40
2.34
100
AcDbArc
 50
270.0
 51
0.0
1001
ACAD
1000
ASC_BOUNDS
1002
{
1070
    19
1005
DEB1
1002
}
  0
INSERT
  5
DEAF
330
DE6C
100
AcDbEntity
  8
0
100
AcDbBlockReference
  2
*X45
 10
0.0
 20
0.0
 30
0.0
1001
ACAD
1000
HATCH
1002
{
1070
    19
1000
ANSI37
1040
0.15
1040
0.0
1000
ASC_BOUNDS
1070
     2
1070
     2
1070
    12
1005
DE6E
1005
DE6F
1005
DE76
1005
DE85
1005
DE88
1005
DE86
1005
DE77
1005
DE7C
1005
DE7A
1005
DE7E
1005
DE7D
1005
DE7F
1070
     2
1070
     3
1005
DE8A
1005
DE8C
1005
DE8B
1000
ASC_SEEDPOINT
1011
3.614004224891801
1021
2.996669441146025
1031
0.0
1000
R14_HATCH_DATA
1000
DEAF
1011
1.0
1021
0.0
1031
0.0
1011
0.0
1021
1.0
1031
0.0
1011
0.0
1021
0.0
1031
1.0
1040
0.0
1010
0.0
1020
0.0
1030
1.0
1000
ANSI37
1070
     0
1070
     1
1071
        2
1071
        7
1070
     0
1070
     1
1071
       17
1040
13.26299999998673
1040
-0.0001000000000317
1040
9.236999999990758
1040
8.999899999990987
1040
9.236999999990758
1040
8.999999999991019
1040
5.657999999994331
1040
0.9999999999989768
1040
3.181999999996833
1040
4.668599999995308
1040
6.432999999993513
1040
8.763099999991255
1040
4.617999999995391
1040
8.763099999991255
1040
1.420999999998571
1040
4.736799999995242
1040
4.617999999995391
1040
-0.0001000000000317
1040
4.617999999995391
1040
0.0
1040
6.766999999993232
1040
0.0
1040
6.766999999993232
1040
-0.0001000000000317
1040
7.826999999992154
1040
2.368399999997621
1040
10.64699999998936
1040
2.368399999997621
1040
11.70599999998831
1040
-0.0001000000000317
1040
11.70599999998831
1040
0.0
1040
13.26299999998673
1040
0.0
1071
       12
1005
DE6E
1005
DE6F
1005
DE76
1005
DE85
1005
DE88
1005
DE86
1005
DE77
1005
DE7C
1005
DE7A
1005
DE7E
1005
DE7D
1005
DE7F
1071
       22
1070
     0
1070
     1
1071
        3
1040
9.236999999990758
1040
5.5200999999945
1040
10.06399999998996
1040
3.670999999996297
1040
8.409999999991555
1040
3.670999999996297
1071
        3
1005
DE8A
1005
DE8C
1005
DE8B
1070
     0
1070
     1
1040
0.0
1040
0.15
1070
     0
1070
     2
1040
0.7853981633974483
1040
49.29960901727088
1040
-10.17736998311392
1040
-0.3367596045400932
1040
0.3367596045400932
1070
     0
1040
2.356194490192345
1040
49.29960901727088
1040
-10.17736998311392
1040
-0.3367596045400932
1040
-0.3367596045400932
1070
     0
1040
0.0110235143455945
1071
        2
1040
3.614004224891801
1040
2.996669441146025
1040
0.0
1040
3.614004224891801
1040
2.996669441146025
1040
0.0
1002
}
  0
INSERT
  5
DEB0
330
DE6C
100
AcDbEntity
  8
0
100
AcDbBlockReference
  2
*X46
 10
0.0
 20
0.0
 30
0.0
1001
ACAD
1000
HATCH
1002
{
1070
    19
1000
ANSI37
1040
0.15
1040
0.0
1000
ASC_BOUNDS
1070
     1
1070
     2
1070
    10
1005
DE70
1005
DE71
1005
DE92
1005
DE90
1005
DE91
1005
DE84
1005
DE89
1005
DE8D
1005
DE73
1005
DE72
1000
ASC_SEEDPOINT
1011
14.73245321214324
1021
2.798246178283421
1031
0.0
1000
R14_HATCH_DATA
1000
DEB0
1011
1.0
1021
0.0
1031
0.0
1011
0.0
1021
1.0
1031
0.0
1011
0.0
1021
0.0
1031
1.0
1040
0.0
1010
0.0
1020
0.0
1030
1.0
1000
ANSI37
1070
     0
1070
     1
1071
        1
1071
        7
1070
     0
1070
     1
1071
       10
1040
16.46099999998353
1040
5.432899999994561
1040
18.59199999998134
1040
-0.2368999999997641
1040
22.38199999997767
1040
8.763099999991255
1040
20.89099999997916
1040
8.763099999991255
1040
18.59799999998143
1040
3.315799999996671
1040
16.46099999998353
1040
8.999899999990987
1040
14.32399999998563
1040
3.315799999996671
1040
12.02999999998792
1040
8.763099999991255
1040
10.53899999998941
1040
8.763099999991255
1040
14.32899999998563
1040
-0.2368999999997641
1071
       10
1005
DE70
1005
DE71
1005
DE92
1005
DE90
1005
DE91
1005
DE84
1005
DE89
1005
DE8D
1005
DE73
1005
DE72
1070
     0
1070
     1
1040
0.0
1040
0.15
1070
     0
1070
     2
1040
0.7853981633974483
1040
49.29960901727088
1040
-10.17736998311392
1040
-0.3367596045400932
1040
0.3367596045400932
1070
     0
1040
2.356194490192345
1040
49.29960901727088
1040
-10.17736998311392
1040
-0.3367596045400932
1040
-0.3367596045400932
1070
     0
1040
0.0110235143455945
1071
        1
1040
14.73245321214324
1040
2.798246178283421
1040
0.0
1002
}
  0
INSERT
  5
DEB1
330
DE6C
100
AcDbEntity
  8
0
100
AcDbBlockReference
  2
*X47
 10
0.0
 20
0.0
 30
0.0
1001
ACAD
1000
HATCH
1002
{
1070
    19
1000
ANSI37
1040
0.15
1040
0.0
1000
ASC_BOUNDS
1070
     2
1070
     2
1070
    13
1005
DE74
1005
DE81
1005
DE82
1005
DE80
1005
DE83
1005
DEAA
1005
DEAE
1005
DEA9
1005
DEA8
1005
DEAB
1005
DEAD
1005
DEAC
1005
DE75
1070
     2
1070
     3
1005
DE8E
1005
DE93
1005
DE8F
1000
ASC_SEEDPOINT
1011
21.97929957367762
1021
3.294304244259308
1031
0.0
1000
R14_HATCH_DATA
1000
DEB1
1011
1.0
1021
0.0
1031
0.0
1011
0.0
1021
1.0
1031
0.0
1011
0.0
1021
0.0
1031
1.0
1040
0.0
1010
0.0
1020
0.0
1030
1.0
1000
ANSI37
1070
     0
1070
     1
1071
        2
1071
        7
1070
     1
1070
     1
1071
       15
1040
23.56599999997638
1040
8.999899999990987
1040
0.0
1040
19.53899999998043
1040
-0.0001000000000317
1040
0.0
1040
19.53899999998043
1040
0.0
1040
0.0
1040
21.09599999997886
1040
0.0
1040
0.0
1040
21.09599999997886
1040
-0.0001000000000317
1040
0.0
1040
22.15599999997789
1040
2.368399999997621
1040
0.0
1040
24.97599999997499
1040
2.368399999997621
1040
0.0
1040
26.02015566812236
1040
0.0330999999912365
1040
0.0
1040
28.40199999996923
1040
0.0330999999912365
1040
0.414213562373095
1040
30.74199999996923
1040
2.373099999991211
1040
0.0
1040
30.74199999996927
1040
8.763099999991255
1040
0.0
1040
29.30199999996933
1040
8.763099999991255
1040
0.0
1040
29.30199999996933
1040
2.283099999991236
1040
-0.414213562373095
1040
28.40199999996923
1040
1.383099999991237
1040
0.0
1040
26.97358892824991
1040
1.383099999991202
1040
0.0
1071
       13
1005
DE74
1005
DE81
1005
DE82
1005
DE80
1005
DE83
1005
DEAA
1005
DEAE
1005
DEA9
1005
DEA8
1005
DEAB
1005
DEAD
1005
DEAC
1005
DE75
1071
       22
1070
     0
1070
     1
1071
        3
1040
22.7389999999773
1040
3.670999999996297
1040
23.56599999997638
1040
5.5200999999945
1040
24.39299999997559
1040
3.670999999996297
1071
        3
1005
DE8E
1005
DE93
1005
DE8F
1070
     0
1070
     1
1040
0.0
1040
0.15
1070
     0
1070
     2
1040
0.7853981633974483
1040
49.29960901727088
1040
-10.17736998311392
1040
-0.3367596045400932
1040
0.3367596045400932
1070
     0
1040
2.356194490192345
1040
49.29960901727088
1040
-10.17736998311392
1040
-0.3367596045400932
1040
-0.3367596045400932
1070
     0
1040
0.0110235143455945
1071
        2
1040
21.97929957367762
1040
3.294304244259308
1040
0.0
1040
21.97929957367762
1040
3.294304244259308
1040
0.0
1002
}
  0
INSERT
  5
DEB2
330
DE6C
100
AcDbEntity
  8
0
100
AcDbBlockReference
  2
*X48
 10
0.0
 20
0.0
 30
0.0
1001
ACAD
1000
HATCH
1002
{
1070
    19
1000
ANSI37
1040
0.15
1040
0.0
1000
R14_HATCH_DATA
1000
DEB2
1011
1.0
1021
0.0
1031
0.0
1011
0.0
1021
1.0
1031
0.0
1011
0.0
1021
0.0
1031
1.0
1040
0.0
1010
0.0
1020
0.0
1030
1.0
1000
ANSI37
1070
     0
1070
     1
1071
        1
1071
        7
1070
     1
1070
     1
1071
       12
1040
31.64199999996833
1040
2.481619422925121
1040
0.2679491924310942
1040
32.94699999997067
1040
0.2212931190493919
1040
0.2679491924301353
1040
36.36699999995983
1040
0.2212931190459813
1040
0.2679491924321411
1040
37.67199999996831
1040
2.481619422928361
1040
0.0
1040
37.67199999996831
1040
8.763099999991255
1040
0.0
1040
36.23199999996837
1040
8.763099999991255
1040
0.0
1040
36.23199999996837
1040
2.481619422925064
1040
-0.2679491924310291
1040
35.64699999996708
1040
1.468369700498386
1040
-0.267949192430519
1040
33.66699999997093
1040
1.468369700497703
1040
-0.267949192431809
1040
33.08199999996839
1040
2.481619422926997
1040
0.0
1040
33.08199999996839
1040
8.763099999991255
1040
0.0
1040
31.64199999996833
1040
8.763099999991255
1040
0.0
1071
        0
1070
     0
1070
     1
1040
0.0
1040
0.15
1070
     0
1070
     2
1040
0.7853981633974483
1040
49.29960901727088
1040
-10.17736998311392
1040
-0.3367596045400932
1040
0.3367596045400932
1070
     0
1040
2.356194490192345
1040
49.29960901727088
1040
-10.17736998311392
1040
-0.3367596045400932
1040
-0.3367596045400932
1070
     0
1040
0.0110235143455945
1071
        1
1040
32.30357378967278
1040
3.988785755459219
1040
0.0
1002
}
  0
INSERT
  5
DEB3
330
DE6C
100
AcDbEntity
  8
0
100
AcDbBlockReference
  2
*X49
 10
0.0
 20
0.0
 30
0.0
1001
ACAD
1000
HATCH
1002
{
1070
    19
1000
ANSI37
1040
0.15
1040
0.0
1000
ASC_BOUNDS
1070
     1
1070
     2
1070
     8
1005
DE94
1005
DE97
1005
DE9B
1005
DE9A
1005
DE99
1005
DE96
1005
DE98
1005
DE95
1000
ASC_SEEDPOINT
1011
39.74896370716704
1021
4.484843821435049
1031
0.0
1000
R14_HATCH_DATA
1000
DEB3
1011
1.0
1021
0.0
1031
0.0
1011
0.0
1021
1.0
1031
0.0
1011
0.0
1021
0.0
1031
1.0
1040
0.0
1010
0.0
1020
0.0
1030
1.0
1000
ANSI37
1070
     0
1070
     1
1071
        1
1071
        7
1070
     0
1070
     1
1071
        9
1040
40.02599999995994
1040
5.341799999994635
1040
44.99999999995498
1040
-0.2368999999997641
1040
44.99999999995498
1040
8.763099999991255
1040
43.57899999995641
1040
8.763099999991255
1040
43.57899999995641
1040
3.421199999996588
1040
38.60499999996136
1040
8.999899999990987
1040
38.60499999996136
1040
8.999999999991019
1040
38.60499999996136
1040
0.0
1040
40.02599999995994
1040
0.0
1071
        8
1005
DE94
1005
DE97
1005
DE9B
1005
DE9A
1005
DE99
1005
DE96
1005
DE98
1005
DE95
1070
     0
1070
     1
1040
0.0
1040
0.15
1070
     0
1070
     2
1040
0.7853981633974483
1040
49.29960901727088
1040
-10.17736998311392
1040
-0.3367596045400932
1040
0.3367596045400932
1070
     0
1040
2.356194490192345
1040
49.29960901727088
1040
-10.17736998311392
1040
-0.3367596045400932
1040
-0.3367596045400932
1070
     0
1040
0.0110235143455945
1071
        1
1040
39.74896370716704
1040
4.484843821435049
1040
0.0
1002
}
  0
INSERT
  5
DEB4
330
DE6C
100
AcDbEntity
  8
0
100
AcDbBlockReference
  2
*X50
 10
0.0
 20
0.0
 30
0.0
1001
ACAD
1000
HATCH
1002
{
1070
    19
1000
ANSI37
1040
0.15
1040
0.0
1000
ASC_BOUNDS
1070
     1
1070
     2
1070
     4
1005
DE78
1005
DE87
1005
DE79
1005
DE7B
1000
ASC_SEEDPOINT
1011
1.079051535452663
1021
4.148538732891836
1031
0.0
1000
R14_HATCH_DATA
1000
DEB4
1011
1.0
1021
0.0
1031
0.0
1011
0.0
1021
1.0
1031
0.0
1011
0.0
1021
0.0
1031
1.0
1040
0.0
1010
0.0
1020
0.0
1030
1.0
1000
ANSI37
1070
     0
1070
     1
1071
        1
1071
        7
1070
     0
1070
     1
1071
        4
1040
1.420999999998571
1040
0.0
1040
1.420999999998571
1040
8.763099999991255
1040
0.0
1040
8.763099999991255
1040
0.0
1040
0.0
1071
        4
1005
DE78
1005
DE87
1005
DE79
1005
DE7B
1070
     0
1070
     1
1040
0.0
1040
0.15
1070
     0
1070
     2
1040
0.7853981633974483
1040
49.29960901727088
1040
-10.17736998311392
1040
-0.3367596045400932
1040
0.3367596045400932
1070
     0
1040
2.356194490192345
1040
49.29960901727088
1040
-10.17736998311392
1040
-0.3367596045400932
1040
-0.3367596045400932
1070
     0
1040
0.0053004257112761
1071
        1
1040
1.079051535452663
1040
4.148538732891836
1040
0.0
1002
}
  0
ENDBLK
  5
E575
330
DE6C
100
AcDbEntity
  8
0
100
AcDbBlockEnd
  0
BLOCK
  5
E94A
330
E7BC
100
AcDbEntity
  8
0
100
AcDbBlockBegin
  2
*X45
 70
     1
 10
0.0
 20
0.0
 30
0.0
  3
*X45
  1

  0
LINE
  5
E7BD
330
E7BC
100
AcDbEntity
  8
0
  6
CONTINUOUS
100
AcDbLine
 10
3.418023043697893
 20
7.251849696850613
 30
0.0
 11
4.929273346838536
 21
8.763099999991255
 31
0.0
  0
LINE
  5
E7BE
330
E7BC
100
AcDbEntity
  8
0
  6
CONTINUOUS
100
AcDbLine
 10
1.483656411257782
 20
4.643963855330318
 30
0.0
 11
5.60279255591872
 21
8.763099999991255
 31
0.0
  0
LINE
  5
E7BF
330
E7BC
100
AcDbEntity
  8
0
  6
CONTINUOUS
100
AcDbLine
 10
1.755053947328235
 20
4.241842182320584
 30
0.0
 11
6.276311764998907
 21
8.763099999991255
 31
0.0
  0
LINE
  5
E7C0
330
E7BC
100
AcDbEntity
  8
0
  6
CONTINUOUS
100
AcDbLine
 10
2.026451483398688
 20
3.839720509310849
 30
0.0
 11
4.441040904851878
 21
6.254309930764039
 31
0.0
  0
LINE
  5
E7C1
330
E7BC
100
AcDbEntity
  8
0
  6
CONTINUOUS
100
AcDbLine
 10
2.297849019469139
 20
3.437598836301114
 30
0.0
 11
3.321765168359338
 21
4.461514985191313
 31
0.0
  0
LINE
  5
E7C2
330
E7BC
100
AcDbEntity
  8
0
  6
CONTINUOUS
100
AcDbLine
 10
2.569246555539591
 20
3.03547716329138
 30
0.0
 11
3.593163397972743
 21
4.059394005724531
 31
0.0
  0
LINE
  5
E7C3
330
E7BC
100
AcDbEntity
  8
0
  6
CONTINUOUS
100
AcDbLine
 10
2.840644091610043
 20
2.633355490281646
 30
0.0
 11
3.864561627586149
 21
3.657273026257751
 31
0.0
  0
LINE
  5
E7C4
330
E7BC
100
AcDbEntity
  8
0
  6
CONTINUOUS
100
AcDbLine
 10
3.112041627680496
 20
2.231233817271911
 30
0.0
 11
4.135959857199554
 21
3.25515204679097
 31
0.0
  0
LINE
  5
E7C5
330
E7BC
100
AcDbEntity
  8
0
  6
CONTINUOUS
100
AcDbLine
 10
3.383439163750948
 20
1.829112144262177
 30
0.0
 11
4.40735808681296
 21
2.853031067324189
 31
0.0
  0
LINE
  5
E7C6
330
E7BC
100
AcDbEntity
  8
0
  6
CONTINUOUS
100
AcDbLine
 10
3.654836699821399
 20
1.426990471252442
 30
0.0
 11
4.678756316426365
 21
2.450910087857407
 31
0.0
  0
LINE
  5
E7C7
330
E7BC
100
AcDbEntity
  8
0
  6
CONTINUOUS
100
AcDbLine
 10
3.926234235891853
 20
1.024868798242709
 30
0.0
 11
4.95015454603977
 21
2.048789108390626
 31
0.0
  0
LINE
  5
E7C8
330
E7BC
100
AcDbEntity
  8
0
  6
CONTINUOUS
100
AcDbLine
 10
4.197631771962304
 20
0.6227471252329737
 30
0.0
 11
5.221552775653176
 21
1.646668128923846
 31
0.0
  0
LINE
  5
E7C9
330
E7BC
100
AcDbEntity
  8
0
  6
CONTINUOUS
100
AcDbLine
 10
8.715877546767851
 20
7.835069736359266
 30
0.0
 11
9.435953450375058
 21
8.555145639966472
 31
0.0
  0
LINE
  5
E7CA
330
E7BC
100
AcDbEntity
  8
0
  6
CONTINUOUS
100
AcDbLine
 10
8.170620868422267
 20
6.616293848933497
 30
0.0
 11
9.644120833743461
 21
8.08979381425469
 31
0.0
  0
LINE
  5
E7CB
330
E7BC
100
AcDbEntity
  8
0
  6
CONTINUOUS
100
AcDbLine
 10
7.625364190076684
 20
5.397517961507727
 30
0.0
 11
9.852288217111864
 21
7.624441988542907
 31
0.0
  0
LINE
  5
E7CC
330
E7BC
100
AcDbEntity
  8
0
  6
CONTINUOUS
100
AcDbLine
 10
7.080107511731101
 20
4.178742074081957
 30
0.0
 11
10.06045560048027
 21
7.159090162831124
 31
0.0
  0
LINE
  5
E7CD
330
E7BC
100
AcDbEntity
  8
0
  6
CONTINUOUS
100
AcDbLine
 10
6.534850833385518
 20
2.959966186656187
 30
0.0
 11
10.26862298384867
 21
6.693738337119342
 31
0.0
  0
LINE
  5
E7CE
330
E7BC
100
AcDbEntity
  8
0
  6
CONTINUOUS
100
AcDbLine
 10
4.469029308032756
 20
0.2206254522232385
 30
0.0
 11
5.492951005266582
 21
1.244547149457064
 31
0.0
  0
LINE
  5
E7CF
330
E7BC
100
AcDbEntity
  8
0
  6
CONTINUOUS
100
AcDbLine
 10
5.989594155039935
 20
1.741190299230417
 30
0.0
 11
8.806950407233131
 21
4.558546551423613
 31
0.0
  0
LINE
  5
E7D0
330
E7BC
100
AcDbEntity
  8
0
  6
CONTINUOUS
100
AcDbLine
 10
9.401251593263643
 20
5.152847737454126
 30
0.0
 11
10.47679036721708
 21
6.228386511407559
 31
0.0
  0
LINE
  5
E7D1
330
E7BC
100
AcDbEntity
  8
0
  6
CONTINUOUS
100
AcDbLine
 10
4.921837203428691
 20
-0.0000858614610131
 30
0.0
 11
8.592923064886001
 21
3.670999999996297
 31
0.0
  0
LINE
  5
E7D2
330
E7BC
100
AcDbEntity
  8
0
  6
CONTINUOUS
100
AcDbLine
 10
9.609390446785305
 20
4.6874673818956
 30
0.0
 11
10.68495775058548
 21
5.763034685695775
 31
0.0
  0
LINE
  5
E7D3
330
E7BC
100
AcDbEntity
  8
0
  6
CONTINUOUS
100
AcDbLine
 10
5.595387755019432
 20
-0.0000545189504582
 30
0.0
 11
7.716137258923768
 21
2.120694984953879
 31
0.0
  0
LINE
  5
E7D4
330
E7BC
100
AcDbEntity
  8
0
  6
CONTINUOUS
100
AcDbLine
 10
6.268938306610172
 20
-0.000023176439905
 30
0.0
 11
7.170485805526503
 21
0.9015243224764267
 31
0.0
  0
LINE
  5
E7D5
330
E7BC
100
AcDbEntity
  8
0
  6
CONTINUOUS
100
AcDbLine
 10
7.963842273967511
 20
2.368399999997621
 30
0.0
 11
9.266442273966188
 21
3.670999999996297
 31
0.0
  0
LINE
  5
E7D6
330
E7BC
100
AcDbEntity
  8
0
  6
CONTINUOUS
100
AcDbLine
 10
8.637361483047696
 20
2.368399999997621
 30
0.0
 11
9.939961483046375
 21
3.670999999996297
 31
0.0
  0
LINE
  5
E7D7
330
E7BC
100
AcDbEntity
  8
0
  6
CONTINUOUS
100
AcDbLine
 10
9.817529300306965
 20
4.222087026337075
 30
0.0
 11
10.89312513395388
 21
5.297682859983993
 31
0.0
  0
LINE
  5
E7D8
330
E7BC
100
AcDbEntity
  8
0
  6
CONTINUOUS
100
AcDbLine
 10
10.02566815382863
 20
3.756706670778549
 30
0.0
 11
11.10129251732229
 21
4.832331034272211
 31
0.0
  0
LINE
  5
E7D9
330
E7BC
100
AcDbEntity
  8
0
  6
CONTINUOUS
100
AcDbLine
 10
9.310880692127883
 20
2.368399999997621
 30
0.0
 11
11.30945990069069
 21
4.366979208560428
 31
0.0
  0
LINE
  5
E7DA
330
E7BC
100
AcDbEntity
  8
0
  6
CONTINUOUS
100
AcDbLine
 10
9.98439990120807
 20
2.36839999999762
 30
0.0
 11
11.5176272840591
 21
3.901627382848645
 31
0.0
  0
LINE
  5
E7DB
330
E7BC
100
AcDbEntity
  8
0
  6
CONTINUOUS
100
AcDbLine
 10
10.65037369446246
 20
2.36085458417182
 30
0.0
 11
11.7257946674275
 21
3.436275557136862
 31
0.0
  0
LINE
  5
E7DC
330
E7BC
100
AcDbEntity
  8
0
  6
CONTINUOUS
100
AcDbLine
 10
10.85847197087848
 20
1.895433651507656
 30
0.0
 11
11.9339620507959
 21
2.97092373142508
 31
0.0
  0
LINE
  5
E7DD
330
E7BC
100
AcDbEntity
  8
0
  6
CONTINUOUS
100
AcDbLine
 10
11.0665702472945
 20
1.430012718843491
 30
0.0
 11
12.14212943416431
 21
2.505571905713296
 31
0.0
  0
LINE
  5
E7DE
330
E7BC
100
AcDbEntity
  8
0
  6
CONTINUOUS
100
AcDbLine
 10
11.27466852371052
 20
0.9645917861793256
 30
0.0
 11
12.35029681753271
 21
2.040220080001513
 31
0.0
  0
LINE
  5
E7DF
330
E7BC
100
AcDbEntity
  8
0
  6
CONTINUOUS
100
AcDbLine
 10
11.48276680012654
 20
0.4991708535151611
 30
0.0
 11
12.55846420090111
 21
1.57486825428973
 31
0.0
  0
LINE
  5
E7E0
330
E7BC
100
AcDbEntity
  8
0
  6
CONTINUOUS
100
AcDbLine
 10
11.69086507654257
 20
0.0337499208509957
 30
0.0
 11
12.76663158426952
 21
1.109516428577947
 31
0.0
  0
LINE
  5
E7E1
330
E7BC
100
AcDbEntity
  8
0
  6
CONTINUOUS
100
AcDbLine
 10
12.33057447873954
 20
-0.0000598860322123
 30
0.0
 11
12.97479896763792
 21
0.6441646028661663
 31
0.0
  0
LINE
  5
E7E2
330
E7BC
100
AcDbEntity
  8
0
  6
CONTINUOUS
100
AcDbLine
 10
13.00413694809395
 20
-0.0000166257579952
 30
0.0
 11
13.18296635100632
 21
0.1788127771543824
 31
0.0
  0
LINE
  5
E7E3
330
E7BC
100
AcDbEntity
  8
0
  6
CONTINUOUS
100
AcDbLine
 10
4.772852165289667
 20
-0.000092794222212
 30
0.0
 11
4.296495091028902
 21
0.4762642800385528
 31
0.0
  0
LINE
  5
E7E4
330
E7BC
100
AcDbEntity
  8
0
  6
CONTINUOUS
100
AcDbLine
 10
5.446340034776103
 20
-0.0000614546284616
 30
0.0
 11
2.898195908335625
 21
2.548082671812017
 31
0.0
  0
LINE
  5
E7E5
330
E7BC
100
AcDbEntity
  8
0
  6
CONTINUOUS
100
AcDbLine
 10
6.119827904262539
 20
-0.0000301150347113
 30
0.0
 11
1.499896725642348
 21
4.61990106358548
 31
0.0
  0
LINE
  5
E7E6
330
E7BC
100
AcDbEntity
  8
0
  6
CONTINUOUS
100
AcDbLine
 10
6.775136745476159
 20
0.0181802528318542
 30
0.0
 11
5.699826040202669
 21
1.093490958105344
 31
0.0
  0
LINE
  5
E7E7
330
E7BC
100
AcDbEntity
  8
0
  6
CONTINUOUS
100
AcDbLine
 10
6.983376846288489
 20
0.4834593610997118
 30
0.0
 11
5.908008617934405
 21
1.558827589453796
 31
0.0
  0
LINE
  5
E7E8
330
E7BC
100
AcDbEntity
  8
0
  6
CONTINUOUS
100
AcDbLine
 10
5.377063484962296
 20
1.416253513345719
 30
0.0
 11
1.702276957014131
 21
5.091040041293883
 31
0.0
  0
LINE
  5
E7E9
330
E7BC
100
AcDbEntity
  8
0
  6
CONTINUOUS
100
AcDbLine
 10
3.978745891735324
 20
3.488090315652877
 30
0.0
 11
2.000373521109399
 21
5.466462686278803
 31
0.0
  0
LINE
  5
E7EA
330
E7BC
100
AcDbEntity
  8
0
  6
CONTINUOUS
100
AcDbLine
 10
7.191616947100819
 20
0.948738469367568
 30
0.0
 11
6.11619119566614
 21
2.024164220802247
 31
0.0
  0
LINE
  5
E7EB
330
E7BC
100
AcDbEntity
  8
0
  6
CONTINUOUS
100
AcDbLine
 10
7.399857047913149
 20
1.414017577635424
 30
0.0
 11
6.324373773397875
 21
2.489500852150698
 31
0.0
  0
LINE
  5
E7EC
330
E7BC
100
AcDbEntity
  8
0
  6
CONTINUOUS
100
AcDbLine
 10
7.608097148725479
 20
1.879296685903281
 30
0.0
 11
6.53255635112961
 21
2.95483748349915
 31
0.0
  0
LINE
  5
E7ED
330
E7BC
100
AcDbEntity
  8
0
  6
CONTINUOUS
100
AcDbLine
 10
7.816337249537808
 20
2.344575794171138
 30
0.0
 11
6.740738928861345
 21
3.420174114847601
 31
0.0
  0
LINE
  5
E7EE
330
E7BC
100
AcDbEntity
  8
0
  6
CONTINUOUS
100
AcDbLine
 10
3.310241080789734
 20
4.830114335678653
 30
0.0
 11
2.298470085204666
 21
5.84188533126372
 31
0.0
  0
LINE
  5
E7EF
330
E7BC
100
AcDbEntity
  8
0
  6
CONTINUOUS
100
AcDbLine
 10
3.60832983563551
 20
5.205544789913063
 30
0.0
 11
2.596566649299935
 21
6.217307976248638
 31
0.0
  0
LINE
  5
E7F0
330
E7BC
100
AcDbEntity
  8
0
  6
CONTINUOUS
100
AcDbLine
 10
3.906418590481286
 20
5.580975244147473
 30
0.0
 11
2.894663213395203
 21
6.592730621233557
 31
0.0
  0
LINE
  5
E7F1
330
E7BC
100
AcDbEntity
  8
0
  6
CONTINUOUS
100
AcDbLine
 10
4.204507345327062
 20
5.956405698381884
 30
0.0
 11
3.192759777490472
 21
6.968153266218474
 31
0.0
  0
LINE
  5
E7F2
330
E7BC
100
AcDbEntity
  8
0
  6
CONTINUOUS
100
AcDbLine
 10
8.466032252791512
 20
2.368399999997621
 30
0.0
 11
6.948921506593081
 21
3.885510746196053
 31
0.0
  0
LINE
  5
E7F3
330
E7BC
100
AcDbEntity
  8
0
  6
CONTINUOUS
100
AcDbLine
 10
9.139551461871699
 20
2.36839999999762
 30
0.0
 11
7.157104084324816
 21
4.350847377544504
 31
0.0
  0
LINE
  5
E7F4
330
E7BC
100
AcDbEntity
  8
0
  6
CONTINUOUS
100
AcDbLine
 10
4.502596100172839
 20
6.331836152616295
 30
0.0
 11
3.49085634158574
 21
7.343575911203393
 31
0.0
  0
LINE
  5
E7F5
330
E7BC
100
AcDbEntity
  8
0
  6
CONTINUOUS
100
AcDbLine
 10
4.800684855018615
 20
6.707266606850705
 30
0.0
 11
3.788952905681008
 21
7.718998556188312
 31
0.0
  0
LINE
  5
E7F6
330
E7BC
100
AcDbEntity
  8
0
  6
CONTINUOUS
100
AcDbLine
 10
12.18154012887317
 20
-0.0000694579236642
 30
0.0
 11
11.32140332908496
 21
0.8600673418645499
 31
0.0
  0
LINE
  5
E7F7
330
E7BC
100
AcDbEntity
  8
0
  6
CONTINUOUS
100
AcDbLine
 10
12.85501608323566
 20
-0.0000262032059659
 30
0.0
 11
10.77672456435345
 21
2.078265315676246
 31
0.0
  0
LINE
  5
E7F8
330
E7BC
100
AcDbEntity
  8
0
  6
CONTINUOUS
100
AcDbLine
 10
9.813070670951886
 20
2.36839999999762
 30
0.0
 11
8.51047067095321
 21
3.670999999996297
 31
0.0
  0
LINE
  5
E7F9
330
E7BC
100
AcDbEntity
  8
0
  6
CONTINUOUS
100
AcDbLine
 10
10.48658988003207
 20
2.36839999999762
 30
0.0
 11
9.183989880033396
 21
3.670999999996297
 31
0.0
  0
LINE
  5
E7FA
330
E7BC
100
AcDbEntity
  8
0
  6
CONTINUOUS
100
AcDbLine
 10
8.441048632286794
 20
3.740422038662712
 30
0.0
 11
7.365286662056551
 21
4.816184008892956
 31
0.0
  0
LINE
  5
E7FB
330
E7BC
100
AcDbEntity
  8
0
  6
CONTINUOUS
100
AcDbLine
 10
8.649187485808454
 20
4.205802394221237
 30
0.0
 11
7.573469239788285
 21
5.281520640241407
 31
0.0
  0
LINE
  5
E7FC
330
E7BC
100
AcDbEntity
  8
0
  6
CONTINUOUS
100
AcDbLine
 10
5.098773609864391
 20
7.082697061085115
 30
0.0
 11
4.087049469776277
 21
8.09442120117323
 31
0.0
  0
LINE
  5
E7FD
330
E7BC
100
AcDbEntity
  8
0
  6
CONTINUOUS
100
AcDbLine
 10
5.396862364710167
 20
7.458127515319526
 30
0.0
 11
4.385146033871544
 21
8.469843846158149
 31
0.0
  0
LINE
  5
E7FE
330
E7BC
100
AcDbEntity
  8
0
  6
CONTINUOUS
100
AcDbLine
 10
13.04801363231285
 20
0.4804954567970334
 30
0.0
 11
9.85750908911358
 21
3.670999999996297
 31
0.0
  0
LINE
  5
E7FF
330
E7BC
100
AcDbEntity
  8
0
  6
CONTINUOUS
100
AcDbLine
 10
8.857326339330116
 20
4.671182749779763
 30
0.0
 11
7.781651817520021
 21
5.746857271589858
 31
0.0
  0
LINE
  5
E800
330
E7BC
100
AcDbEntity
  8
0
  6
CONTINUOUS
100
AcDbLine
 10
5.694951119555943
 20
7.833557969553937
 30
0.0
 11
4.765409089118624
 21
8.763099999991255
 31
0.0
  0
LINE
  5
E801
330
E7BC
100
AcDbEntity
  8
0
  6
CONTINUOUS
100
AcDbLine
 10
12.50286117236978
 20
1.699167125820288
 30
0.0
 11
9.68611877250287
 21
4.515909525687196
 31
0.0
  0
LINE
  5
E802
330
E7BC
100
AcDbEntity
  8
0
  6
CONTINUOUS
100
AcDbLine
 10
9.065465192851777
 20
5.136563105338288
 30
0.0
 11
7.989834395251757
 21
6.21219390293831
 31
0.0
  0
LINE
  5
E803
330
E7BC
100
AcDbEntity
  8
0
  6
CONTINUOUS
100
AcDbLine
 10
5.993039874401719
 20
8.208988423788346
 30
0.0
 11
5.43892829819881
 21
8.763099999991255
 31
0.0
  0
LINE
  5
E804
330
E7BC
100
AcDbEntity
  8
0
  6
CONTINUOUS
100
AcDbLine
 10
11.95770871242671
 20
2.917838794843543
 30
0.0
 11
8.19801697298349
 21
6.677530534286761
 31
0.0
  0
LINE
  5
E805
330
E7BC
100
AcDbEntity
  8
0
  6
CONTINUOUS
100
AcDbLine
 10
6.291128629247495
 20
8.584418878022756
 30
0.0
 11
6.112447507278997
 21
8.763099999991255
 31
0.0
  0
LINE
  5
E806
330
E7BC
100
AcDbEntity
  8
0
  6
CONTINUOUS
100
AcDbLine
 10
11.41255625248364
 20
4.136510463866797
 30
0.0
 11
8.406199550715227
 21
7.142867165635211
 31
0.0
  0
LINE
  5
E807
330
E7BC
100
AcDbEntity
  8
0
  6
CONTINUOUS
100
AcDbLine
 10
10.86740379254057
 20
5.355182132890051
 30
0.0
 11
8.614382128446962
 21
7.608203796983664
 31
0.0
  0
LINE
  5
E808
330
E7BC
100
AcDbEntity
  8
0
  6
CONTINUOUS
100
AcDbLine
 10
10.3222513325975
 20
6.573853801913305
 30
0.0
 11
8.822564706178696
 21
8.073540428332114
 31
0.0
  0
LINE
  5
E809
330
E7BC
100
AcDbEntity
  8
0
  6
CONTINUOUS
100
AcDbLine
 10
9.777098872654436
 20
7.792525470936562
 30
0.0
 11
9.030747283910433
 21
8.538877059680566
 31
0.0
  0
ENDBLK
  5
E94B
330
E7BC
100
AcDbEntity
  8
0
100
AcDbBlockEnd
  0
BLOCK
  5
E94C
330
E80A
100
AcDbEntity
  8
0
100
AcDbBlockBegin
  2
*X46
 70
     1
 10
0.0
 20
0.0
 30
0.0
  3
*X46
  1

  0
LINE
  5
E80B
330
E80A
100
AcDbEntity
  8
0
  6
CONTINUOUS
100
AcDbLine
 10
10.67292308101235
 20
8.445076852443387
 30
0.0
 11
10.99094622856022
 21
8.763099999991255
 31
0.0
  0
LINE
  5
E80C
330
E80A
100
AcDbEntity
  8
0
  6
CONTINUOUS
100
AcDbLine
 10
10.87250383178748
 20
7.971138394138331
 30
0.0
 11
11.6644654376404
 21
8.763099999991255
 31
0.0
  0
LINE
  5
E80D
330
E80A
100
AcDbEntity
  8
0
  6
CONTINUOUS
100
AcDbLine
 10
11.07208458256261
 20
7.497199935833273
 30
0.0
 11
12.12126590876355
 21
8.546381262034211
 31
0.0
  0
LINE
  5
E80E
330
E80A
100
AcDbEntity
  8
0
  6
CONTINUOUS
100
AcDbLine
 10
11.27166533333774
 20
7.023261477528216
 30
0.0
 11
12.32085164573666
 21
8.072447789927136
 31
0.0
  0
LINE
  5
E80F
330
E80A
100
AcDbEntity
  8
0
  6
CONTINUOUS
100
AcDbLine
 10
11.47124608411287
 20
6.549323019223158
 30
0.0
 11
12.52043738270977
 21
7.59851431782006
 31
0.0
  0
LINE
  5
E810
330
E80A
100
AcDbEntity
  8
0
  6
CONTINUOUS
100
AcDbLine
 10
11.670826834888
 20
6.075384560918101
 30
0.0
 11
12.72002311968288
 21
7.124580845712984
 31
0.0
  0
LINE
  5
E811
330
E80A
100
AcDbEntity
  8
0
  6
CONTINUOUS
100
AcDbLine
 10
11.87040758566313
 20
5.601446102613043
 30
0.0
 11
12.91960885665599
 21
6.650647373605907
 31
0.0
  0
LINE
  5
E812
330
E80A
100
AcDbEntity
  8
0
  6
CONTINUOUS
100
AcDbLine
 10
12.06998833643825
 20
5.127507644307986
 30
0.0
 11
13.1191945936291
 21
6.176713901498832
 31
0.0
  0
LINE
  5
E813
330
E80A
100
AcDbEntity
  8
0
  6
CONTINUOUS
100
AcDbLine
 10
12.26956908721338
 20
4.65356918600293
 30
0.0
 11
13.31878033060221
 21
5.702780429391757
 31
0.0
  0
LINE
  5
E814
330
E80A
100
AcDbEntity
  8
0
  6
CONTINUOUS
100
AcDbLine
 10
12.46914983798851
 20
4.179630727697873
 30
0.0
 11
13.51836606757532
 21
5.228846957284683
 31
0.0
  0
LINE
  5
E815
330
E80A
100
AcDbEntity
  8
0
  6
CONTINUOUS
100
AcDbLine
 10
12.66873058876364
 20
3.705692269392816
 30
0.0
 11
13.71795180454843
 21
4.754913485177607
 31
0.0
  0
LINE
  5
E816
330
E80A
100
AcDbEntity
  8
0
  6
CONTINUOUS
100
AcDbLine
 10
12.86831133953877
 20
3.231753811087759
 30
0.0
 11
13.91753754152154
 21
4.280980013070531
 31
0.0
  0
LINE
  5
E817
330
E80A
100
AcDbEntity
  8
0
  6
CONTINUOUS
100
AcDbLine
 10
13.0678920903139
 20
2.757815352782702
 30
0.0
 11
14.11712327849465
 21
3.807046540963456
 31
0.0
  0
LINE
  5
E818
330
E80A
100
AcDbEntity
  8
0
  6
CONTINUOUS
100
AcDbLine
 10
13.26747284108903
 20
2.283876894477644
 30
0.0
 11
14.31670901546777
 21
3.333113068856379
 31
0.0
  0
LINE
  5
E819
330
E80A
100
AcDbEntity
  8
0
  6
CONTINUOUS
100
AcDbLine
 10
16.36767838827179
 20
8.751678487061342
 30
0.0
 11
16.50332410898388
 21
8.887324207773432
 31
0.0
  0
LINE
  5
E81A
330
E80A
100
AcDbEntity
  8
0
  6
CONTINUOUS
100
AcDbLine
 10
15.96190732182191
 20
7.67238821153127
 30
0.0
 11
16.68735328004734
 21
8.397834169756699
 31
0.0
  0
LINE
  5
E81B
330
E80A
100
AcDbEntity
  8
0
  6
CONTINUOUS
100
AcDbLine
 10
15.55613625537202
 20
6.593097936001196
 30
0.0
 11
16.87138245111079
 21
7.908344131739965
 31
0.0
  0
LINE
  5
E81C
330
E80A
100
AcDbEntity
  8
0
  6
CONTINUOUS
100
AcDbLine
 10
15.15036518892213
 20
5.513807660471122
 30
0.0
 11
17.05541162217424
 21
7.418854093723231
 31
0.0
  0
LINE
  5
E81D
330
E80A
100
AcDbEntity
  8
0
  6
CONTINUOUS
100
AcDbLine
 10
14.74459412247225
 20
4.434517384941048
 30
0.0
 11
17.2394407932377
 21
6.929364055706499
 31
0.0
  0
LINE
  5
E81E
330
E80A
100
AcDbEntity
  8
0
  6
CONTINUOUS
100
AcDbLine
 10
14.33882305602236
 20
3.355227109410975
 30
0.0
 11
17.42346996430115
 21
6.439874017689766
 31
0.0
  0
LINE
  5
E81F
330
E80A
100
AcDbEntity
  8
0
  6
CONTINUOUS
100
AcDbLine
 10
13.46705359186416
 20
1.809938436172586
 30
0.0
 11
16.0819338255367
 21
4.424818669845129
 31
0.0
  0
LINE
  5
E820
330
E80A
100
AcDbEntity
  8
0
  6
CONTINUOUS
100
AcDbLine
 10
16.63283254238972
 20
4.975717386698149
 30
0.0
 11
17.60749913536461
 21
5.950383979673033
 31
0.0
  0
LINE
  5
E821
330
E80A
100
AcDbEntity
  8
0
  6
CONTINUOUS
100
AcDbLine
 10
13.66663434263929
 20
1.335999977867529
 30
0.0
 11
15.67604797733754
 21
3.345413612565779
 31
0.0
  0
LINE
  5
E822
330
E80A
100
AcDbEntity
  8
0
  6
CONTINUOUS
100
AcDbLine
 10
13.86621509341442
 20
0.8620615195624723
 30
0.0
 11
15.27016212913838
 21
2.26600855528643
 31
0.0
  0
LINE
  5
E823
330
E80A
100
AcDbEntity
  8
0
  6
CONTINUOUS
100
AcDbLine
 10
16.81682257348267
 20
4.486188208710908
 30
0.0
 11
17.79152830642806
 21
5.460893941656299
 31
0.0
  0
LINE
  5
E824
330
E80A
100
AcDbEntity
  8
0
  6
CONTINUOUS
100
AcDbLine
 10
17.00081260457561
 20
3.996659030723667
 30
0.0
 11
17.97555747749151
 21
4.971403903639565
 31
0.0
  0
LINE
  5
E825
330
E80A
100
AcDbEntity
  8
0
  6
CONTINUOUS
100
AcDbLine
 10
20.74362343514722
 20
8.412989070375462
 30
0.0
 11
21.09373436476302
 21
8.763099999991256
 31
0.0
  0
LINE
  5
E826
330
E80A
100
AcDbEntity
  8
0
  6
CONTINUOUS
100
AcDbLine
 10
20.25401257174777
 20
7.249858997895826
 30
0.0
 11
21.7672535738432
 21
8.763099999991255
 31
0.0
  0
LINE
  5
E827
330
E80A
100
AcDbEntity
  8
0
  6
CONTINUOUS
100
AcDbLine
 10
14.06579584418955
 20
0.3881230612574149
 30
0.0
 11
14.86427628093921
 21
1.186603498007082
 31
0.0
  0
LINE
  5
E828
330
E80A
100
AcDbEntity
  8
0
  6
CONTINUOUS
100
AcDbLine
 10
14.26537659496467
 20
-0.0858153970476412
 30
0.0
 11
14.45839043274005
 21
0.1071984407277329
 31
0.0
  0
LINE
  5
E829
330
E80A
100
AcDbEntity
  8
0
  6
CONTINUOUS
100
AcDbLine
 10
17.18480263566856
 20
3.507129852736426
 30
0.0
 11
18.15958664855496
 21
4.481913865622833
 31
0.0
  0
LINE
  5
E82A
330
E80A
100
AcDbEntity
  8
0
  6
CONTINUOUS
100
AcDbLine
 10
17.3687926667615
 20
3.017600674749186
 30
0.0
 11
18.34361581961842
 21
3.9924238276061
 31
0.0
  0
LINE
  5
E82B
330
E80A
100
AcDbEntity
  8
0
  6
CONTINUOUS
100
AcDbLine
 10
19.76440170834832
 20
6.086728925416191
 30
0.0
 11
22.33924590259489
 21
8.661573119662755
 31
0.0
  0
LINE
  5
E82C
330
E80A
100
AcDbEntity
  8
0
  6
CONTINUOUS
100
AcDbLine
 10
19.27479084494887
 20
4.923598852936555
 30
0.0
 11
21.84929622842713
 21
7.498104236414807
 31
0.0
  0
LINE
  5
E82D
330
E80A
100
AcDbEntity
  8
0
  6
CONTINUOUS
100
AcDbLine
 10
17.55278269785445
 20
2.528071496761945
 30
0.0
 11
18.52764499068187
 21
3.502933789589366
 31
0.0
  0
LINE
  5
E82E
330
E80A
100
AcDbEntity
  8
0
  6
CONTINUOUS
100
AcDbLine
 10
18.78517998154942
 20
3.760468780456919
 30
0.0
 11
21.35934655425936
 21
6.33463535316686
 31
0.0
  0
LINE
  5
E82F
330
E80A
100
AcDbEntity
  8
0
  6
CONTINUOUS
100
AcDbLine
 10
17.73677272894739
 20
2.038542318774704
 30
0.0
 11
20.8693968800916
 21
5.171166469918914
 31
0.0
  0
LINE
  5
E830
330
E80A
100
AcDbEntity
  8
0
  6
CONTINUOUS
100
AcDbLine
 10
17.92076276004034
 20
1.549013140787464
 30
0.0
 11
20.37944720592384
 21
4.007697586670968
 31
0.0
  0
LINE
  5
E831
330
E80A
100
AcDbEntity
  8
0
  6
CONTINUOUS
100
AcDbLine
 10
18.10475279113329
 20
1.059483962800223
 30
0.0
 11
19.88949753175608
 21
2.84422870342302
 31
0.0
  0
LINE
  5
E832
330
E80A
100
AcDbEntity
  8
0
  6
CONTINUOUS
100
AcDbLine
 10
18.28874282222623
 20
0.5699547848129822
 30
0.0
 11
19.39954785758832
 21
1.680759820175074
 31
0.0
  0
LINE
  5
E833
330
E80A
100
AcDbEntity
  8
0
  6
CONTINUOUS
100
AcDbLine
 10
18.47273285331918
 20
0.0804256068257416
 30
0.0
 11
18.90959818342056
 21
0.517290936927127
 31
0.0
  0
LINE
  5
E834
330
E80A
100
AcDbEntity
  8
0
  6
CONTINUOUS
100
AcDbLine
 10
14.3590401358224
 20
-0.1570118376323384
 30
0.0
 11
14.24903296539946
 21
-0.0470046672093929
 31
0.0
  0
LINE
  5
E835
330
E80A
100
AcDbEntity
  8
0
  6
CONTINUOUS
100
AcDbLine
 10
14.54309291258661
 20
0.332454594683643
 30
0.0
 11
13.75908329123172
 21
1.116464216038529
 31
0.0
  0
LINE
  5
E836
330
E80A
100
AcDbEntity
  8
0
  6
CONTINUOUS
100
AcDbLine
 10
14.72714568935081
 20
0.8219210269996244
 30
0.0
 11
13.26913361706399
 21
2.27993309928645
 31
0.0
  0
LINE
  5
E837
330
E80A
100
AcDbEntity
  8
0
  6
CONTINUOUS
100
AcDbLine
 10
14.91119846611502
 20
1.311387459315606
 30
0.0
 11
12.77918394289625
 21
3.443401982534371
 31
0.0
  0
LINE
  5
E838
330
E80A
100
AcDbEntity
  8
0
  6
CONTINUOUS
100
AcDbLine
 10
15.09525124287922
 20
1.800853891631587
 30
0.0
 11
12.28923426872852
 21
4.606870865782293
 31
0.0
  0
LINE
  5
E839
330
E80A
100
AcDbEntity
  8
0
  6
CONTINUOUS
100
AcDbLine
 10
15.27930401964343
 20
2.290320323947569
 30
0.0
 11
11.79928459456078
 21
5.770339749030213
 31
0.0
  0
LINE
  5
E83A
330
E80A
100
AcDbEntity
  8
0
  6
CONTINUOUS
100
AcDbLine
 10
15.46335679640763
 20
2.77978675626355
 30
0.0
 11
14.48885470994921
 21
3.754288842721972
 31
0.0
  0
LINE
  5
E83B
330
E80A
100
AcDbEntity
  8
0
  6
CONTINUOUS
100
AcDbLine
 10
13.88507249233704
 20
4.358071060334137
 30
0.0
 11
11.30933492039305
 21
6.933808632278135
 31
0.0
  0
LINE
  5
E83C
330
E80A
100
AcDbEntity
  8
0
  6
CONTINUOUS
100
AcDbLine
 10
18.75840522805855
 20
0.1582575336928151
 30
0.0
 11
18.25383727664818
 21
0.6628254851031863
 31
0.0
  0
LINE
  5
E83D
330
E80A
100
AcDbEntity
  8
0
  6
CONTINUOUS
100
AcDbLine
 10
15.64740957317184
 20
3.269253188579531
 30
0.0
 11
14.67288388101266
 21
4.243778880738705
 31
0.0
  0
LINE
  5
E83E
330
E80A
100
AcDbEntity
  8
0
  6
CONTINUOUS
100
AcDbLine
 10
13.39509276772158
 20
5.521569994029786
 30
0.0
 11
10.81938524622531
 21
8.097277515526056
 31
0.0
  0
LINE
  5
E83F
330
E80A
100
AcDbEntity
  8
0
  6
CONTINUOUS
100
AcDbLine
 10
18.95798597883369
 20
0.6321959919978686
 30
0.0
 11
17.84825644852853
 21
1.741925522303024
 31
0.0
  0
LINE
  5
E840
330
E80A
100
AcDbEntity
  8
0
  6
CONTINUOUS
100
AcDbLine
 10
19.15756672960882
 20
1.106134450302922
 30
0.0
 11
17.44267562040888
 21
2.821025559502861
 31
0.0
  0
LINE
  5
E841
330
E80A
100
AcDbEntity
  8
0
  6
CONTINUOUS
100
AcDbLine
 10
15.83146234993604
 20
3.758719620895513
 30
0.0
 11
14.85691305207612
 21
4.733268918755439
 31
0.0
  0
LINE
  5
E842
330
E80A
100
AcDbEntity
  8
0
  6
CONTINUOUS
100
AcDbLine
 10
16.01551512670025
 20
4.248186053211494
 30
0.0
 11
15.04094222313957
 21
5.222758956772172
 31
0.0
  0
LINE
  5
E843
330
E80A
100
AcDbEntity
  8
0
  6
CONTINUOUS
100
AcDbLine
 10
12.90511304310612
 20
6.685068927725435
 30
0.0
 11
10.8270819708403
 21
8.763099999991255
 31
0.0
  0
LINE
  5
E844
330
E80A
100
AcDbEntity
  8
0
  6
CONTINUOUS
100
AcDbLine
 10
12.41513331849066
 20
7.848567861421083
 30
0.0
 11
11.50060117992049
 21
8.763099999991255
 31
0.0
  0
LINE
  5
E845
330
E80A
100
AcDbEntity
  8
0
  6
CONTINUOUS
100
AcDbLine
 10
19.35714748038395
 20
1.580072908607975
 30
0.0
 11
17.03709479228923
 21
3.900125596702697
 31
0.0
  0
LINE
  5
E846
330
E80A
100
AcDbEntity
  8
0
  6
CONTINUOUS
100
AcDbLine
 10
19.55672823115909
 20
2.054011366913028
 30
0.0
 11
16.63151396416958
 21
4.979225633902534
 31
0.0
  0
LINE
  5
E847
330
E80A
100
AcDbEntity
  8
0
  6
CONTINUOUS
100
AcDbLine
 10
16.19956790346445
 20
4.737652485527476
 30
0.0
 11
15.22497139420302
 21
5.712248994788904
 31
0.0
  0
LINE
  5
E848
330
E80A
100
AcDbEntity
  8
0
  6
CONTINUOUS
100
AcDbLine
 10
16.38362068022866
 20
5.227118917843457
 30
0.0
 11
15.40900056526648
 21
6.201739032805637
 31
0.0
  0
LINE
  5
E849
330
E80A
100
AcDbEntity
  8
0
  6
CONTINUOUS
100
AcDbLine
 10
19.75630898193422
 20
2.527949825218081
 30
0.0
 11
18.70774536448286
 21
3.576513442669441
 31
0.0
  0
LINE
  5
E84A
330
E80A
100
AcDbEntity
  8
0
  6
CONTINUOUS
100
AcDbLine
 10
19.95588973270936
 20
3.001888283523134
 30
0.0
 11
18.90726987211446
 21
4.050508144118028
 31
0.0
  0
LINE
  5
E84B
330
E80A
100
AcDbEntity
  8
0
  6
CONTINUOUS
100
AcDbLine
 10
20.15547048348449
 20
3.475826741828186
 30
0.0
 11
19.10679437974606
 21
4.524502845566614
 31
0.0
  0
LINE
  5
E84C
330
E80A
100
AcDbEntity
  8
0
  6
CONTINUOUS
100
AcDbLine
 10
20.35505123425962
 20
3.94976520013324
 30
0.0
 11
19.30631888737766
 21
4.998497547015201
 31
0.0
  0
LINE
  5
E84D
330
E80A
100
AcDbEntity
  8
0
  6
CONTINUOUS
100
AcDbLine
 10
20.55463198503475
 20
4.423703658438292
 30
0.0
 11
19.50584339500926
 21
5.472492248463787
 31
0.0
  0
LINE
  5
E84E
330
E80A
100
AcDbEntity
  8
0
  6
CONTINUOUS
100
AcDbLine
 10
18.37481191085755
 20
3.909446896294752
 30
0.0
 11
15.59302973632993
 21
6.691229070822371
 31
0.0
  0
LINE
  5
E84F
330
E80A
100
AcDbEntity
  8
0
  6
CONTINUOUS
100
AcDbLine
 10
17.96904084440766
 20
4.988737171824825
 30
0.0
 11
15.77705890739338
 21
7.180719108839104
 31
0.0
  0
LINE
  5
E850
330
E80A
100
AcDbEntity
  8
0
  6
CONTINUOUS
100
AcDbLine
 10
17.56326977795777
 20
6.068027447354899
 30
0.0
 11
15.96108807845684
 21
7.670209146855838
 31
0.0
  0
LINE
  5
E851
330
E80A
100
AcDbEntity
  8
0
  6
CONTINUOUS
100
AcDbLine
 10
17.15749871150789
 20
7.147317722884972
 30
0.0
 11
16.14511724952029
 21
8.15969918487257
 31
0.0
  0
LINE
  5
E852
330
E80A
100
AcDbEntity
  8
0
  6
CONTINUOUS
100
AcDbLine
 10
16.751727645058
 20
8.226607998415046
 30
0.0
 11
16.32914642058374
 21
8.649189222889303
 31
0.0
  0
LINE
  5
E853
330
E80A
100
AcDbEntity
  8
0
  6
CONTINUOUS
100
AcDbLine
 10
20.75421273580989
 20
4.897642116743345
 30
0.0
 11
19.70536790264086
 21
5.946486949912374
 31
0.0
  0
LINE
  5
E854
330
E80A
100
AcDbEntity
  8
0
  6
CONTINUOUS
100
AcDbLine
 10
20.95379348658502
 20
5.371580575048398
 30
0.0
 11
19.90489241027246
 21
6.42048165136096
 31
0.0
  0
LINE
  5
E855
330
E80A
100
AcDbEntity
  8
0
  6
CONTINUOUS
100
AcDbLine
 10
21.15337423736015
 20
5.845519033353452
 30
0.0
 11
20.10441691790406
 21
6.894476352809547
 31
0.0
  0
LINE
  5
E856
330
E80A
100
AcDbEntity
  8
0
  6
CONTINUOUS
100
AcDbLine
 10
21.35295498813529
 20
6.319457491658505
 30
0.0
 11
20.30394142553566
 21
7.368471054258134
 31
0.0
  0
LINE
  5
E857
330
E80A
100
AcDbEntity
  8
0
  6
CONTINUOUS
100
AcDbLine
 10
21.55253573891042
 20
6.793395949963558
 30
0.0
 11
20.50346593316726
 21
7.842465755706721
 31
0.0
  0
LINE
  5
E858
330
E80A
100
AcDbEntity
  8
0
  6
CONTINUOUS
100
AcDbLine
 10
21.75211648968556
 20
7.267334408268612
 30
0.0
 11
20.70299044079886
 21
8.316460457155308
 31
0.0
  0
LINE
  5
E859
330
E80A
100
AcDbEntity
  8
0
  6
CONTINUOUS
100
AcDbLine
 10
21.95169724046069
 20
7.741272866573663
 30
0.0
 11
20.9298701070431
 21
8.763099999991256
 31
0.0
  0
LINE
  5
E85A
330
E80A
100
AcDbEntity
  8
0
  6
CONTINUOUS
100
AcDbLine
 10
22.15127799123582
 20
8.215211324878716
 30
0.0
 11
21.60338931612328
 21
8.763099999991256
 31
0.0
  0
LINE
  5
E85B
330
E80A
100
AcDbEntity
  8
0
  6
CONTINUOUS
100
AcDbLine
 10
22.35085874201096
 20
8.689149783183769
 30
0.0
 11
22.27690852520347
 21
8.763099999991255
 31
0.0
  0
ENDBLK
  5
E94D
330
E80A
100
AcDbEntity
  8
0
100
AcDbBlockEnd
  0
BLOCK
  5
E94E
330
E85C
100
AcDbEntity
  8
0
100
AcDbBlockBegin
  2
*X47
 70
     1
 10
0.0
 20
0.0
 30
0.0
  3
*X47
  1

  0
LINE
  5
E85D
330
E85C
100
AcDbEntity
  8
0
  6
CONTINUOUS
100
AcDbLine
 10
23.19462913593892
 20
8.169917934846424
 30
0.0
 11
23.70775465517246
 21
8.683043454079957
 31
0.0
  0
LINE
  5
E85E
330
E85C
100
AcDbEntity
  8
0
  6
CONTINUOUS
100
AcDbLine
 10
22.64923161835078
 20
6.951001208178088
 30
0.0
 11
23.9159364069932
 21
8.217705996820516
 31
0.0
  0
LINE
  5
E85F
330
E85C
100
AcDbEntity
  8
0
  6
CONTINUOUS
100
AcDbLine
 10
22.10383410076263
 20
5.732084481509751
 30
0.0
 11
24.12411815881395
 21
7.752368539561078
 31
0.0
  0
LINE
  5
E860
330
E85C
100
AcDbEntity
  8
0
  6
CONTINUOUS
100
AcDbLine
 10
21.55843658317447
 20
4.513167754841414
 30
0.0
 11
24.3322999106347
 21
7.287031082301639
 31
0.0
  0
LINE
  5
E861
330
E85C
100
AcDbEntity
  8
0
  6
CONTINUOUS
100
AcDbLine
 10
21.01303906558632
 20
3.294251028173077
 30
0.0
 11
24.54048166245544
 21
6.821693625042199
 31
0.0
  0
LINE
  5
E862
330
E85C
100
AcDbEntity
  8
0
  6
CONTINUOUS
100
AcDbLine
 10
20.46764154799817
 20
2.075334301504738
 30
0.0
 11
23.28571549467848
 21
4.89340824818505
 31
0.0
  0
LINE
  5
E863
330
E85C
100
AcDbEntity
  8
0
  6
CONTINUOUS
100
AcDbLine
 10
19.92224403041002
 20
0.8564175748364002
 30
0.0
 11
22.74075865492779
 21
3.674932199354171
 31
0.0
  0
LINE
  5
E864
330
E85C
100
AcDbEntity
  8
0
  6
CONTINUOUS
100
AcDbLine
 10
23.67305085490148
 20
5.280743608408048
 30
0.0
 11
24.74866341427619
 21
6.356356167782759
 31
0.0
  0
LINE
  5
E865
330
E85C
100
AcDbEntity
  8
0
  6
CONTINUOUS
100
AcDbLine
 10
23.88118970842314
 20
4.815363252849522
 30
0.0
 11
24.95684516609694
 21
5.89101871052332
 31
0.0
  0
LINE
  5
E866
330
E85C
100
AcDbEntity
  8
0
  6
CONTINUOUS
100
AcDbLine
 10
19.73925852647308
 20
-0.0000871381807288
 30
0.0
 11
23.4103456646501
 21
3.670999999996297
 31
0.0
  0
LINE
  5
E867
330
E85C
100
AcDbEntity
  8
0
  6
CONTINUOUS
100
AcDbLine
 10
24.0893285619448
 20
4.349982897290997
 30
0.0
 11
25.16502691791769
 21
5.42568125326388
 31
0.0
  0
LINE
  5
E868
330
E85C
100
AcDbEntity
  8
0
  6
CONTINUOUS
100
AcDbLine
 10
20.41282099582748
 20
-0.0000438779065108
 30
0.0
 11
21.64944178675636
 21
1.236576913022366
 31
0.0
  0
LINE
  5
E869
330
E85C
100
AcDbEntity
  8
0
  6
CONTINUOUS
100
AcDbLine
 10
22.78126487373161
 20
2.36839999999762
 30
0.0
 11
24.08386487373029
 21
3.670999999996297
 31
0.0
  0
LINE
  5
E86A
330
E85C
100
AcDbEntity
  8
0
  6
CONTINUOUS
100
AcDbLine
 10
24.29746741546646
 20
3.884602541732471
 30
0.0
 11
25.37320866973843
 21
4.960343796004441
 31
0.0
  0
LINE
  5
E86B
330
E85C
100
AcDbEntity
  8
0
  6
CONTINUOUS
100
AcDbLine
 10
21.08638346518189
 20
-0.0000006176322938
 30
0.0
 11
21.10379033335899
 21
0.0174062505448083
 31
0.0
  0
LINE
  5
E86C
330
E85C
100
AcDbEntity
  8
0
  6
CONTINUOUS
100
AcDbLine
 10
23.4547840828118
 20
2.36839999999762
 30
0.0
 11
25.58139042155918
 21
4.495006338745002
 31
0.0
  0
LINE
  5
E86D
330
E85C
100
AcDbEntity
  8
0
  6
CONTINUOUS
100
AcDbLine
 10
29.30199999996933
 20
8.215615917155148
 30
0.0
 11
29.84948408280543
 21
8.763099999991255
 31
0.0
  0
LINE
  5
E86E
330
E85C
100
AcDbEntity
  8
0
  6
CONTINUOUS
100
AcDbLine
 10
24.12830329189199
 20
2.36839999999762
 30
0.0
 11
25.78957217337993
 21
4.029668881485562
 31
0.0
  0
LINE
  5
E86F
330
E85C
100
AcDbEntity
  8
0
  6
CONTINUOUS
100
AcDbLine
 10
29.30199999996933
 20
7.54209670807496
 30
0.0
 11
30.52300329188562
 21
8.763099999991255
 31
0.0
  0
LINE
  5
E870
330
E85C
100
AcDbEntity
  8
0
  6
CONTINUOUS
100
AcDbLine
 10
24.80182250097217
 20
2.36839999999762
 30
0.0
 11
25.99775392520067
 21
3.564331424226122
 31
0.0
  0
LINE
  5
E871
330
E85C
100
AcDbEntity
  8
0
  6
CONTINUOUS
100
AcDbLine
 10
29.30199999996933
 20
6.868577498994774
 30
0.0
 11
30.74199999996926
 21
8.308577498994712
 31
0.0
  0
LINE
  5
E872
330
E85C
100
AcDbEntity
  8
0
  6
CONTINUOUS
100
AcDbLine
 10
25.13028238392013
 20
2.023340673865392
 30
0.0
 11
26.20593567702142
 21
3.098993966966683
 31
0.0
  0
LINE
  5
E873
330
E85C
100
AcDbEntity
  8
0
  6
CONTINUOUS
100
AcDbLine
 10
25.33838066033617
 20
1.557919741201244
 30
0.0
 11
26.41411742884217
 21
2.633656509707244
 31
0.0
  0
LINE
  5
E874
330
E85C
100
AcDbEntity
  8
0
  6
CONTINUOUS
100
AcDbLine
 10
25.54647893675221
 20
1.092498808537098
 30
0.0
 11
26.62229918066291
 21
2.168319052447804
 31
0.0
  0
LINE
  5
E875
330
E85C
100
AcDbEntity
  8
0
  6
CONTINUOUS
100
AcDbLine
 10
25.75457721316825
 20
0.62707787587295
 30
0.0
 11
26.83048093248366
 21
1.702981595188365
 31
0.0
  0
LINE
  5
E876
330
E85C
100
AcDbEntity
  8
0
  6
CONTINUOUS
100
AcDbLine
 10
29.30199999996933
 20
6.195058289914587
 30
0.0
 11
30.74199999996926
 21
7.635058289914522
 31
0.0
  0
LINE
  5
E877
330
E85C
100
AcDbEntity
  8
0
  6
CONTINUOUS
100
AcDbLine
 10
29.30199999996933
 20
5.521539080834401
 30
0.0
 11
30.74199999996926
 21
6.961539080834331
 31
0.0
  0
LINE
  5
E878
330
E85C
100
AcDbEntity
  8
0
  6
CONTINUOUS
100
AcDbLine
 10
29.30199999996933
 20
4.848019871754214
 30
0.0
 11
30.74199999996925
 21
6.288019871754143
 31
0.0
  0
LINE
  5
E879
330
E85C
100
AcDbEntity
  8
0
  6
CONTINUOUS
100
AcDbLine
 10
29.30199999996933
 20
4.174500662674028
 30
0.0
 11
30.74199999996925
 21
5.614500662673953
 31
0.0
  0
LINE
  5
E87A
330
E85C
100
AcDbEntity
  8
0
  6
CONTINUOUS
100
AcDbLine
 10
25.96267548958429
 20
0.1616569432088024
 30
0.0
 11
27.18411854636669
 21
1.383099999991207
 31
0.0
  0
LINE
  5
E87B
330
E85C
100
AcDbEntity
  8
0
  6
CONTINUOUS
100
AcDbLine
 10
29.30199999996933
 20
3.500981453593841
 30
0.0
 11
30.74199999996925
 21
4.940981453593762
 31
0.0
  0
LINE
  5
E87C
330
E85C
100
AcDbEntity
  8
0
  6
CONTINUOUS
100
AcDbLine
 10
26.50763775544691
 20
0.0330999999912356
 30
0.0
 11
27.85763775544689
 21
1.383099999991223
 31
0.0
  0
LINE
  5
E87D
330
E85C
100
AcDbEntity
  8
0
  6
CONTINUOUS
100
AcDbLine
 10
29.30199999996933
 20
2.827462244513656
 30
0.0
 11
30.74199999996925
 21
4.267462244513574
 31
0.0
  0
LINE
  5
E87E
330
E85C
100
AcDbEntity
  8
0
  6
CONTINUOUS
100
AcDbLine
 10
27.18115696452709
 20
0.0330999999912356
 30
0.0
 11
28.6224847300034
 21
1.474427765467545
 31
0.0
  0
LINE
  5
E87F
330
E85C
100
AcDbEntity
  8
0
  6
CONTINUOUS
100
AcDbLine
 10
29.21067223449293
 20
2.062615269957069
 30
0.0
 11
30.74199999996924
 21
3.593943035433383
 31
0.0
  0
LINE
  5
E880
330
E85C
100
AcDbEntity
  8
0
  6
CONTINUOUS
100
AcDbLine
 10
27.85467617360728
 20
0.0330999999912356
 30
0.0
 11
30.74199999996924
 21
2.920423826353195
 31
0.0
  0
LINE
  5
E881
330
E85C
100
AcDbEntity
  8
0
  6
CONTINUOUS
100
AcDbLine
 10
28.57438609860264
 20
0.0792907159064073
 30
0.0
 11
30.69580928405405
 21
2.200713901357819
 31
0.0
  0
LINE
  5
E882
330
E85C
100
AcDbEntity
  8
0
  6
CONTINUOUS
100
AcDbLine
 10
29.49443044814297
 20
0.3258158563665496
 30
0.0
 11
30.44928414359389
 21
1.280669551817477
 31
0.0
  0
LINE
  5
E883
330
E85C
100
AcDbEntity
  8
0
  6
CONTINUOUS
100
AcDbLine
 10
19.59027867740337
 20
-0.0000967065718083
 30
0.0
 11
19.55485265190471
 21
0.035329318926844
 31
0.0
  0
LINE
  5
E884
330
E85C
100
AcDbEntity
  8
0
  6
CONTINUOUS
100
AcDbLine
 10
20.26375463176586
 20
-0.0000534518541091
 30
0.0
 11
19.76305575737534
 21
0.5006454225364014
 31
0.0
  0
LINE
  5
E885
330
E85C
100
AcDbEntity
  8
0
  6
CONTINUOUS
100
AcDbLine
 10
20.93723058612834
 20
-0.0000101971364099
 30
0.0
 11
19.97125886284597
 21
0.965961526145958
 31
0.0
  0
LINE
  5
E886
330
E85C
100
AcDbEntity
  8
0
  6
CONTINUOUS
100
AcDbLine
 10
21.25514828313686
 20
0.355591314935257
 30
0.0
 11
20.1794619683166
 21
1.431277629755512
 31
0.0
  0
LINE
  5
E887
330
E85C
100
AcDbEntity
  8
0
  6
CONTINUOUS
100
AcDbLine
 10
21.46338838394921
 20
0.8208704232030986
 30
0.0
 11
20.38766507378723
 21
1.896593733365069
 31
0.0
  0
LINE
  5
E888
330
E85C
100
AcDbEntity
  8
0
  6
CONTINUOUS
100
AcDbLine
 10
21.67162848476155
 20
1.28614953147094
 30
0.0
 11
20.59586817925786
 21
2.361909836974626
 31
0.0
  0
LINE
  5
E889
330
E85C
100
AcDbEntity
  8
0
  6
CONTINUOUS
100
AcDbLine
 10
21.8798685855739
 20
1.751428639738782
 30
0.0
 11
20.80407128472849
 21
2.827225940584183
 31
0.0
  0
LINE
  5
E88A
330
E85C
100
AcDbEntity
  8
0
  6
CONTINUOUS
100
AcDbLine
 10
22.08810868638624
 20
2.216707748006623
 30
0.0
 11
21.01227439019912
 21
3.292542044193739
 31
0.0
  0
LINE
  5
E88B
330
E85C
100
AcDbEntity
  8
0
  6
CONTINUOUS
100
AcDbLine
 10
22.60993564347543
 20
2.36839999999762
 30
0.0
 11
21.22047749566975
 21
3.757858147803296
 31
0.0
  0
LINE
  5
E88C
330
E85C
100
AcDbEntity
  8
0
  6
CONTINUOUS
100
AcDbLine
 10
23.28345485255561
 20
2.36839999999762
 30
0.0
 11
21.42868060114038
 21
4.223174251412853
 31
0.0
  0
LINE
  5
E88D
330
E85C
100
AcDbEntity
  8
0
  6
CONTINUOUS
100
AcDbLine
 10
26.29227406164219
 20
0.0330999999912356
 30
0.0
 11
25.80009199592872
 21
0.5252820657046957
 31
0.0
  0
LINE
  5
E88E
330
E85C
100
AcDbEntity
  8
0
  6
CONTINUOUS
100
AcDbLine
 10
23.9569740616358
 20
2.36839999999762
 30
0.0
 11
21.63688370661101
 21
4.688490355022409
 31
0.0
  0
LINE
  5
E88F
330
E85C
100
AcDbEntity
  8
0
  6
CONTINUOUS
100
AcDbLine
 10
26.96579327072237
 20
0.0330999999912356
 30
0.0
 11
25.2554132311971
 21
1.743480039516508
 31
0.0
  0
LINE
  5
E890
330
E85C
100
AcDbEntity
  8
0
  6
CONTINUOUS
100
AcDbLine
 10
24.63049327071599
 20
2.36839999999762
 30
0.0
 11
23.32789327071731
 21
3.670999999996297
 31
0.0
  0
LINE
  5
E891
330
E85C
100
AcDbEntity
  8
0
  6
CONTINUOUS
100
AcDbLine
 10
22.92098674744635
 20
4.077906523267254
 30
0.0
 11
21.84508681208164
 21
5.153806458631966
 31
0.0
  0
LINE
  5
E892
330
E85C
100
AcDbEntity
  8
0
  6
CONTINUOUS
100
AcDbLine
 10
27.63931247980256
 20
0.0330999999912356
 30
0.0
 11
24.0014124797975
 21
3.670999999996297
 31
0.0
  0
LINE
  5
E893
330
E85C
100
AcDbEntity
  8
0
  6
CONTINUOUS
100
AcDbLine
 10
23.129125600968
 20
4.5432868788258
 30
0.0
 11
22.05328991755227
 21
5.619122562241522
 31
0.0
  0
LINE
  5
E894
330
E85C
100
AcDbEntity
  8
0
  6
CONTINUOUS
100
AcDbLine
 10
28.31283168888275
 20
0.0330999999912356
 30
0.0
 11
24.16488385994816
 21
4.181047828925828
 31
0.0
  0
LINE
  5
E895
330
E85C
100
AcDbEntity
  8
0
  6
CONTINUOUS
100
AcDbLine
 10
23.33726445448964
 20
5.008667234384345
 30
0.0
 11
22.2614930230229
 21
6.084438665851079
 31
0.0
  0
LINE
  5
E896
330
E85C
100
AcDbEntity
  8
0
  6
CONTINUOUS
100
AcDbLine
 10
28.86286302309502
 20
0.1565878748591523
 30
0.0
 11
27.63635089796295
 21
1.383099999991217
 31
0.0
  0
LINE
  5
E897
330
E85C
100
AcDbEntity
  8
0
  6
CONTINUOUS
100
AcDbLine
 10
26.43704649509776
 20
2.582404402856405
 30
0.0
 11
23.61992702019732
 21
5.399523877756844
 31
0.0
  0
LINE
  5
E898
330
E85C
100
AcDbEntity
  8
0
  6
CONTINUOUS
100
AcDbLine
 10
23.54540330801128
 20
5.47404758994289
 30
0.0
 11
22.46969612849353
 21
6.549754769460635
 31
0.0
  0
LINE
  5
E899
330
E85C
100
AcDbEntity
  8
0
  6
CONTINUOUS
100
AcDbLine
 10
29.39405087596853
 20
0.2989192310658284
 30
0.0
 11
28.30987010704312
 21
1.383099999991234
 31
0.0
  0
LINE
  5
E89A
330
E85C
100
AcDbEntity
  8
0
  6
CONTINUOUS
100
AcDbLine
 10
25.89179548232307
 20
3.801174624711282
 30
0.0
 11
22.67789923396416
 21
7.015070873070191
 31
0.0
  0
LINE
  5
E89B
330
E85C
100
AcDbEntity
  8
0
  6
CONTINUOUS
100
AcDbLine
 10
29.79594438047407
 20
0.570544935640473
 30
0.0
 11
28.81310432793121
 21
1.553384988183336
 31
0.0
  0
LINE
  5
E89C
330
E85C
100
AcDbEntity
  8
0
  6
CONTINUOUS
100
AcDbLine
 10
25.34654446954838
 20
5.01994484656616
 30
0.0
 11
22.88610233943479
 21
7.480386976679748
 31
0.0
  0
LINE
  5
E89D
330
E85C
100
AcDbEntity
  8
0
  6
CONTINUOUS
100
AcDbLine
 10
30.13270398501416
 20
0.9073045401805646
 30
0.0
 11
29.14234640337737
 21
1.897662121817355
 31
0.0
  0
LINE
  5
E89E
330
E85C
100
AcDbEntity
  8
0
  6
CONTINUOUS
100
AcDbLine
 10
24.80129345677369
 20
6.238715068421037
 30
0.0
 11
23.09430544490542
 21
7.945703080289305
 31
0.0
  0
LINE
  5
E89F
330
E85C
100
AcDbEntity
  8
0
  6
CONTINUOUS
100
AcDbLine
 10
30.44581292956759
 20
1.26771480470732
 30
0.0
 11
29.30199999996933
 21
2.411527734305588
 31
0.0
  0
LINE
  5
E8A0
330
E85C
100
AcDbEntity
  8
0
  6
CONTINUOUS
100
AcDbLine
 10
30.58814428577427
 20
1.798902657580827
 30
0.0
 11
29.30199999996933
 21
3.085046943385775
 31
0.0
  0
LINE
  5
E8A1
330
E85C
100
AcDbEntity
  8
0
  6
CONTINUOUS
100
AcDbLine
 10
24.256042443999
 20
7.457485290275915
 30
0.0
 11
23.30250855037605
 21
8.411019183898862
 31
0.0
  0
LINE
  5
E8A2
330
E85C
100
AcDbEntity
  8
0
  6
CONTINUOUS
100
AcDbLine
 10
23.71079143122431
 20
8.676255512130794
 30
0.0
 11
23.51071165584668
 21
8.876335287508418
 31
0.0
  0
LINE
  5
E8A3
330
E85C
100
AcDbEntity
  8
0
  6
CONTINUOUS
100
AcDbLine
 10
30.73047564198095
 20
2.330090510454333
 30
0.0
 11
29.30199999996933
 21
3.758566152465961
 31
0.0
  0
LINE
  5
E8A4
330
E85C
100
AcDbEntity
  8
0
  6
CONTINUOUS
100
AcDbLine
 10
30.74199999996924
 20
2.992085361546236
 30
0.0
 11
29.30199999996933
 21
4.432085361546148
 31
0.0
  0
LINE
  5
E8A5
330
E85C
100
AcDbEntity
  8
0
  6
CONTINUOUS
100
AcDbLine
 10
30.74199999996924
 20
3.665604570626419
 30
0.0
 11
29.30199999996933
 21
5.105604570626333
 31
0.0
  0
LINE
  5
E8A6
330
E85C
100
AcDbEntity
  8
0
  6
CONTINUOUS
100
AcDbLine
 10
30.74199999996925
 20
4.339123779706602
 30
0.0
 11
29.30199999996933
 21
5.77912377970652
 31
0.0
  0
LINE
  5
E8A7
330
E85C
100
AcDbEntity
  8
0
  6
CONTINUOUS
100
AcDbLine
 10
30.74199999996925
 20
5.012642988786785
 30
0.0
 11
29.30199999996933
 21
6.452642988786707
 31
0.0
  0
LINE
  5
E8A8
330
E85C
100
AcDbEntity
  8
0
  6
CONTINUOUS
100
AcDbLine
 10
30.74199999996925
 20
5.68616219786697
 30
0.0
 11
29.30199999996933
 21
7.126162197866894
 31
0.0
  0
LINE
  5
E8A9
330
E85C
100
AcDbEntity
  8
0
  6
CONTINUOUS
100
AcDbLine
 10
30.74199999996925
 20
6.359681406947153
 30
0.0
 11
29.30199999996933
 21
7.799681406947081
 31
0.0
  0
LINE
  5
E8AA
330
E85C
100
AcDbEntity
  8
0
  6
CONTINUOUS
100
AcDbLine
 10
30.74199999996926
 20
7.033200616027337
 30
0.0
 11
29.30199999996933
 21
8.473200616027269
 31
0.0
  0
LINE
  5
E8AB
330
E85C
100
AcDbEntity
  8
0
  6
CONTINUOUS
100
AcDbLine
 10
30.74199999996926
 20
7.706719825107518
 30
0.0
 11
29.68561982508552
 21
8.763099999991255
 31
0.0
  0
LINE
  5
E8AC
330
E85C
100
AcDbEntity
  8
0
  6
CONTINUOUS
100
AcDbLine
 10
30.74199999996926
 20
8.380239034187703
 30
0.0
 11
30.35913903416571
 21
8.763099999991255
 31
0.0
  0
ENDBLK
  5
E94F
330
E85C
100
AcDbEntity
  8
0
100
AcDbBlockEnd
  0
BLOCK
  5
E950
330
E8AD
100
AcDbEntity
  8
0
100
AcDbBlockBegin
  2
*X48
 70
     1
 10
0.0
 20
0.0
 30
0.0
  3
*X48
  1

  0
LINE
  5
E8AE
330
E8AD
100
AcDbEntity
  8
0
  6
CONTINUOUS
100
AcDbLine
 10
31.64199999996833
 20
8.5350582899136
 30
0.0
 11
31.87004171004599
 21
8.763099999991255
 31
0.0
  0
LINE
  5
E8AF
330
E8AD
100
AcDbEntity
  8
0
  6
CONTINUOUS
100
AcDbLine
 10
31.64199999996833
 20
7.861539080833413
 30
0.0
 11
32.54356091912618
 21
8.763099999991255
 31
0.0
  0
LINE
  5
E8B0
330
E8AD
100
AcDbEntity
  8
0
  6
CONTINUOUS
100
AcDbLine
 10
31.64199999996833
 20
7.188019871753227
 30
0.0
 11
33.08199999996839
 21
8.628019871753281
 31
0.0
  0
LINE
  5
E8B1
330
E8AD
100
AcDbEntity
  8
0
  6
CONTINUOUS
100
AcDbLine
 10
31.64199999996833
 20
6.514500662673041
 30
0.0
 11
33.08199999996839
 21
7.954500662673095
 31
0.0
  0
LINE
  5
E8B2
330
E8AD
100
AcDbEntity
  8
0
  6
CONTINUOUS
100
AcDbLine
 10
31.64199999996833
 20
5.840981453592855
 30
0.0
 11
33.08199999996839
 21
7.28098145359291
 31
0.0
  0
LINE
  5
E8B3
330
E8AD
100
AcDbEntity
  8
0
  6
CONTINUOUS
100
AcDbLine
 10
31.64199999996833
 20
5.167462244512668
 30
0.0
 11
33.08199999996839
 21
6.607462244512723
 31
0.0
  0
LINE
  5
E8B4
330
E8AD
100
AcDbEntity
  8
0
  6
CONTINUOUS
100
AcDbLine
 10
31.64199999996833
 20
4.493943035432482
 30
0.0
 11
33.08199999996839
 21
5.933943035432536
 31
0.0
  0
LINE
  5
E8B5
330
E8AD
100
AcDbEntity
  8
0
  6
CONTINUOUS
100
AcDbLine
 10
31.64199999996833
 20
3.820423826352294
 30
0.0
 11
33.08199999996839
 21
5.260423826352349
 31
0.0
  0
LINE
  5
E8B6
330
E8AD
100
AcDbEntity
  8
0
  6
CONTINUOUS
100
AcDbLine
 10
31.64199999996833
 20
3.146904617272108
 30
0.0
 11
33.08199999996839
 21
4.586904617272163
 31
0.0
  0
LINE
  5
E8B7
330
E8AD
100
AcDbEntity
  8
0
  6
CONTINUOUS
100
AcDbLine
 10
36.23199999996837
 20
8.410423826352327
 30
0.0
 11
36.58467617360729
 21
8.763099999991255
 31
0.0
  0
LINE
  5
E8B8
330
E8AD
100
AcDbEntity
  8
0
  6
CONTINUOUS
100
AcDbLine
 10
36.23199999996837
 20
7.73690461727214
 30
0.0
 11
37.25819538268748
 21
8.763099999991255
 31
0.0
  0
LINE
  5
E8B9
330
E8AD
100
AcDbEntity
  8
0
  6
CONTINUOUS
100
AcDbLine
 10
31.64323424774199
 20
2.474619655965573
 30
0.0
 11
33.08199999996839
 21
3.913385408191976
 31
0.0
  0
LINE
  5
E8BA
330
E8AD
100
AcDbEntity
  8
0
  6
CONTINUOUS
100
AcDbLine
 10
31.74419223861915
 20
1.902058437762552
 30
0.0
 11
33.08199999996839
 21
3.239866199111789
 31
0.0
  0
LINE
  5
E8BB
330
E8AD
100
AcDbEntity
  8
0
  6
CONTINUOUS
100
AcDbLine
 10
36.23199999996837
 20
7.063385408191953
 30
0.0
 11
37.67199999996831
 21
8.503385408191894
 31
0.0
  0
LINE
  5
E8BC
330
E8AD
100
AcDbEntity
  8
0
  6
CONTINUOUS
100
AcDbLine
 10
36.23199999996837
 20
6.389866199111767
 30
0.0
 11
37.67199999996831
 21
7.829866199111708
 31
0.0
  0
LINE
  5
E8BD
330
E8AD
100
AcDbEntity
  8
0
  6
CONTINUOUS
100
AcDbLine
 10
31.91111233414976
 20
1.39545932421297
 30
0.0
 11
33.08199999996839
 21
2.566346990031603
 31
0.0
  0
LINE
  5
E8BE
330
E8AD
100
AcDbEntity
  8
0
  6
CONTINUOUS
100
AcDbLine
 10
36.23199999996837
 20
5.71634699003158
 30
0.0
 11
37.67199999996831
 21
7.156346990031522
 31
0.0
  0
LINE
  5
E8BF
330
E8AD
100
AcDbEntity
  8
0
  6
CONTINUOUS
100
AcDbLine
 10
32.1576374746103
 20
0.9684652555933289
 30
0.0
 11
33.20642631446081
 21
2.017254095443838
 31
0.0
  0
LINE
  5
E8C0
330
E8AD
100
AcDbEntity
  8
0
  6
CONTINUOUS
100
AcDbLine
 10
36.23199999996837
 20
5.042827780951393
 30
0.0
 11
37.67199999996831
 21
6.482827780951334
 31
0.0
  0
LINE
  5
E8C1
330
E8AD
100
AcDbEntity
  8
0
  6
CONTINUOUS
100
AcDbLine
 10
32.47774023927325
 20
0.6150488111760914
 30
0.0
 11
33.49903056428258
 21
1.636339136185419
 31
0.0
  0
LINE
  5
E8C2
330
E8AD
100
AcDbEntity
  8
0
  6
CONTINUOUS
100
AcDbLine
 10
36.23199999996837
 20
4.369308571871207
 30
0.0
 11
37.67199999996831
 21
5.809308571871148
 31
0.0
  0
LINE
  5
E8C3
330
E8AD
100
AcDbEntity
  8
0
  6
CONTINUOUS
100
AcDbLine
 10
32.84396249154443
 20
0.3077518543670883
 30
0.0
 11
33.93324121824649
 21
1.397030581069146
 31
0.0
  0
LINE
  5
E8C4
330
E8AD
100
AcDbEntity
  8
0
  6
CONTINUOUS
100
AcDbLine
 10
36.23199999996837
 20
3.695789362791021
 30
0.0
 11
37.67199999996831
 21
5.135789362790963
 31
0.0
  0
LINE
  5
E8C5
330
E8AD
100
AcDbEntity
  8
0
  6
CONTINUOUS
100
AcDbLine
 10
33.30186329036846
 20
0.0921334441109263
 30
0.0
 11
34.46442907112041
 21
1.254699224862875
 31
0.0
  0
LINE
  5
E8C6
330
E8AD
100
AcDbEntity
  8
0
  6
CONTINUOUS
100
AcDbLine
 10
36.23199999996837
 20
3.022270153710834
 30
0.0
 11
37.67199999996831
 21
4.462270153710776
 31
0.0
  0
LINE
  5
E8C7
330
E8AD
100
AcDbEntity
  8
0
  6
CONTINUOUS
100
AcDbLine
 10
33.79565647746294
 20
-0.0875925778747773
 30
0.0
 11
35.24350171668284
 21
1.360252661345124
 31
0.0
  0
LINE
  5
E8C8
330
E8AD
100
AcDbEntity
  8
0
  6
CONTINUOUS
100
AcDbLine
 10
36.18336676155003
 20
2.300117706212308
 30
0.0
 11
37.67199999996831
 21
3.788750944630589
 31
0.0
  0
LINE
  5
E8C9
330
E8AD
100
AcDbEntity
  8
0
  6
CONTINUOUS
100
AcDbLine
 10
34.37182574910968
 20
-0.184942515308224
 30
0.0
 11
37.67199999996831
 21
3.115231735550402
 31
0.0
  0
LINE
  5
E8CA
330
E8AD
100
AcDbEntity
  8
0
  6
CONTINUOUS
100
AcDbLine
 10
35.0453449581892
 20
-0.1849425153088955
 30
0.0
 11
37.66345697088136
 21
2.433169497383271
 31
0.0
  0
LINE
  5
E8CB
330
E8AD
100
AcDbEntity
  8
0
  6
CONTINUOUS
100
AcDbLine
 10
35.98667157609191
 20
0.0828648935136398
 30
0.0
 11
37.51927401744566
 21
1.615467334867382
 31
0.0
  0
LINE
  5
E8CC
330
E8AD
100
AcDbEntity
  8
0
  6
CONTINUOUS
100
AcDbLine
 10
32.27747408544484
 20
0.7830920669904482
 30
0.0
 11
32.24716210471949
 21
0.8134040477157893
 31
0.0
  0
LINE
  5
E8CD
330
E8AD
100
AcDbEntity
  8
0
  6
CONTINUOUS
100
AcDbLine
 10
33.83656881101902
 20
-0.1024834495035494
 30
0.0
 11
31.72538911593758
 21
2.008696245577891
 31
0.0
  0
LINE
  5
E8CE
330
E8AD
100
AcDbEntity
  8
0
  6
CONTINUOUS
100
AcDbLine
 10
34.5925470859041
 20
-0.1849425153084434
 30
0.0
 11
31.64199999996833
 21
2.765604570627322
 31
0.0
  0
LINE
  5
E8CF
330
E8AD
100
AcDbEntity
  8
0
  6
CONTINUOUS
100
AcDbLine
 10
35.26201302775981
 20
-0.1808892480839752
 30
0.0
 11
31.64199999996833
 21
3.439123779707508
 31
0.0
  0
LINE
  5
E8D0
330
E8AD
100
AcDbEntity
  8
0
  6
CONTINUOUS
100
AcDbLine
 10
35.75580621485512
 20
-0.0011632260990879
 30
0.0
 11
34.51294304365551
 21
1.241699945100514
 31
0.0
  0
LINE
  5
E8D1
330
E8AD
100
AcDbEntity
  8
0
  6
CONTINUOUS
100
AcDbLine
 10
33.08199999996839
 20
2.672642988787641
 30
0.0
 11
31.64199999996833
 21
4.112642988787695
 31
0.0
  0
LINE
  5
E8D2
330
E8AD
100
AcDbEntity
  8
0
  6
CONTINUOUS
100
AcDbLine
 10
36.24959940195042
 20
0.1785627958857976
 30
0.0
 11
35.10501653033629
 21
1.323145667499924
 31
0.0
  0
LINE
  5
E8D3
330
E8AD
100
AcDbEntity
  8
0
  6
CONTINUOUS
100
AcDbLine
 10
33.08199999996839
 20
3.346162197867827
 30
0.0
 11
31.64199999996833
 21
4.786162197867881
 31
0.0
  0
LINE
  5
E8D4
330
E8AD
100
AcDbEntity
  8
0
  6
CONTINUOUS
100
AcDbLine
 10
36.64615197150552
 20
0.4555294354108876
 30
0.0
 11
35.6362043832099
 21
1.465477023706505
 31
0.0
  0
LINE
  5
E8D5
330
E8AD
100
AcDbEntity
  8
0
  6
CONTINUOUS
100
AcDbLine
 10
33.08199999996839
 20
4.019681406948013
 30
0.0
 11
31.64199999996833
 21
5.459681406948068
 31
0.0
  0
LINE
  5
E8D6
330
E8AD
100
AcDbEntity
  8
0
  6
CONTINUOUS
100
AcDbLine
 10
37.0123742237774
 20
0.7628263922191891
 30
0.0
 11
35.97691545773309
 21
1.798285158263504
 31
0.0
  0
LINE
  5
E8D7
330
E8AD
100
AcDbEntity
  8
0
  6
CONTINUOUS
100
AcDbLine
 10
33.08199999996839
 20
4.6932006160282
 30
0.0
 11
31.64199999996833
 21
6.133200616028255
 31
0.0
  0
LINE
  5
E8D8
330
E8AD
100
AcDbEntity
  8
0
  6
CONTINUOUS
100
AcDbLine
 10
37.27491524157143
 20
1.173804583505349
 30
0.0
 11
36.17602012811361
 21
2.272699696963169
 31
0.0
  0
LINE
  5
E8D9
330
E8AD
100
AcDbEntity
  8
0
  6
CONTINUOUS
100
AcDbLine
 10
33.08199999996839
 20
5.366719825108387
 30
0.0
 11
31.64199999996833
 21
6.806719825108441
 31
0.0
  0
LINE
  5
E8DA
330
E8AD
100
AcDbEntity
  8
0
  6
CONTINUOUS
100
AcDbLine
 10
37.51739996707661
 20
1.604839067080355
 30
0.0
 11
36.23199999996837
 21
2.890239034188595
 31
0.0
  0
LINE
  5
E8DB
330
E8AD
100
AcDbEntity
  8
0
  6
CONTINUOUS
100
AcDbLine
 10
37.6183579579535
 20
2.177400285283649
 30
0.0
 11
36.23199999996837
 21
3.563758243268782
 31
0.0
  0
LINE
  5
E8DC
330
E8AD
100
AcDbEntity
  8
0
  6
CONTINUOUS
100
AcDbLine
 10
33.08199999996839
 20
6.040239034188573
 30
0.0
 11
31.64199999996833
 21
7.480239034188628
 31
0.0
  0
LINE
  5
E8DD
330
E8AD
100
AcDbEntity
  8
0
  6
CONTINUOUS
100
AcDbLine
 10
33.08199999996839
 20
6.713758243268759
 30
0.0
 11
31.64199999996833
 21
8.153758243268815
 31
0.0
  0
LINE
  5
E8DE
330
E8AD
100
AcDbEntity
  8
0
  6
CONTINUOUS
100
AcDbLine
 10
37.67199999996831
 20
2.797277452349027
 30
0.0
 11
36.23199999996837
 21
4.237277452348969
 31
0.0
  0
LINE
  5
E8DF
330
E8AD
100
AcDbEntity
  8
0
  6
CONTINUOUS
100
AcDbLine
 10
37.67199999996831
 20
3.470796661429214
 30
0.0
 11
36.23199999996837
 21
4.910796661429155
 31
0.0
  0
LINE
  5
E8E0
330
E8AD
100
AcDbEntity
  8
0
  6
CONTINUOUS
100
AcDbLine
 10
37.67199999996831
 20
4.1443158705094
 30
0.0
 11
36.23199999996837
 21
5.584315870509341
 31
0.0
  0
LINE
  5
E8E1
330
E8AD
100
AcDbEntity
  8
0
  6
CONTINUOUS
100
AcDbLine
 10
33.08199999996839
 20
7.387277452348946
 30
0.0
 11
31.70617745232608
 21
8.763099999991255
 31
0.0
  0
LINE
  5
E8E2
330
E8AD
100
AcDbEntity
  8
0
  6
CONTINUOUS
100
AcDbLine
 10
33.08199999996839
 20
8.060796661429134
 30
0.0
 11
32.37969666140626
 21
8.763099999991255
 31
0.0
  0
LINE
  5
E8E3
330
E8AD
100
AcDbEntity
  8
0
  6
CONTINUOUS
100
AcDbLine
 10
33.08199999996839
 20
8.734315870509318
 30
0.0
 11
33.05321587048645
 21
8.763099999991255
 31
0.0
  0
LINE
  5
E8E4
330
E8AD
100
AcDbEntity
  8
0
  6
CONTINUOUS
100
AcDbLine
 10
37.67199999996831
 20
4.817835079589586
 30
0.0
 11
36.23199999996837
 21
6.257835079589528
 31
0.0
  0
LINE
  5
E8E5
330
E8AD
100
AcDbEntity
  8
0
  6
CONTINUOUS
100
AcDbLine
 10
37.67199999996831
 20
5.491354288669772
 30
0.0
 11
36.23199999996837
 21
6.931354288669715
 31
0.0
  0
LINE
  5
E8E6
330
E8AD
100
AcDbEntity
  8
0
  6
CONTINUOUS
100
AcDbLine
 10
37.67199999996831
 20
6.164873497749959
 30
0.0
 11
36.23199999996837
 21
7.6048734977499
 31
0.0
  0
LINE
  5
E8E7
330
E8AD
100
AcDbEntity
  8
0
  6
CONTINUOUS
100
AcDbLine
 10
37.67199999996831
 20
6.838392706830145
 30
0.0
 11
36.23199999996837
 21
8.278392706830086
 31
0.0
  0
LINE
  5
E8E8
330
E8AD
100
AcDbEntity
  8
0
  6
CONTINUOUS
100
AcDbLine
 10
37.67199999996831
 20
7.511911915910333
 30
0.0
 11
36.42081191588738
 21
8.763099999991255
 31
0.0
  0
LINE
  5
E8E9
330
E8AD
100
AcDbEntity
  8
0
  6
CONTINUOUS
100
AcDbLine
 10
37.67199999996831
 20
8.185431124990519
 30
0.0
 11
37.09433112496757
 21
8.763099999991255
 31
0.0
  0
ENDBLK
  5
E951
330
E8AD
100
AcDbEntity
  8
0
100
AcDbBlockEnd
  0
BLOCK
  5
E952
330
E8EA
100
AcDbEntity
  8
0
100
AcDbBlockBegin
  2
*X49
 70
     1
 10
0.0
 20
0.0
 30
0.0
  3
*X49
  1

  0
LINE
  5
E8EB
330
E8EA
100
AcDbEntity
  8
0
  6
CONTINUOUS
100
AcDbLine
 10
38.60499999996136
 20
8.762866199104765
 30
0.0
 11
38.71672554182345
 21
8.874591740966855
 31
0.0
  0
LINE
  5
E8EC
330
E8EA
100
AcDbEntity
  8
0
  6
CONTINUOUS
100
AcDbLine
 10
38.60499999996136
 20
8.089346990024577
 30
0.0
 11
39.03418785440363
 21
8.518534844466847
 31
0.0
  0
LINE
  5
E8ED
330
E8EA
100
AcDbEntity
  8
0
  6
CONTINUOUS
100
AcDbLine
 10
38.60499999996136
 20
7.41582778094439
 30
0.0
 11
39.35165016698382
 21
8.16247794796684
 31
0.0
  0
LINE
  5
E8EE
330
E8EA
100
AcDbEntity
  8
0
  6
CONTINUOUS
100
AcDbLine
 10
38.60499999996136
 20
6.742308571864204
 30
0.0
 11
39.66911247956399
 21
7.806421051466834
 31
0.0
  0
LINE
  5
E8EF
330
E8EA
100
AcDbEntity
  8
0
  6
CONTINUOUS
100
AcDbLine
 10
38.60499999996136
 20
6.068789362784018
 30
0.0
 11
39.98657479214418
 21
7.450364154966827
 31
0.0
  0
LINE
  5
E8F0
330
E8EA
100
AcDbEntity
  8
0
  6
CONTINUOUS
100
AcDbLine
 10
38.60499999996136
 20
5.395270153703832
 30
0.0
 11
40.30403710472435
 21
7.09430725846682
 31
0.0
  0
LINE
  5
E8F1
330
E8EA
100
AcDbEntity
  8
0
  6
CONTINUOUS
100
AcDbLine
 10
38.60499999996136
 20
4.721750944623645
 30
0.0
 11
40.62149941730453
 21
6.738250361966813
 31
0.0
  0
LINE
  5
E8F2
330
E8EA
100
AcDbEntity
  8
0
  6
CONTINUOUS
100
AcDbLine
 10
38.60499999996136
 20
4.048231735543458
 30
0.0
 11
40.93896172988471
 21
6.382193465466806
 31
0.0
  0
LINE
  5
E8F3
330
E8EA
100
AcDbEntity
  8
0
  6
CONTINUOUS
100
AcDbLine
 10
38.60499999996136
 20
3.374712526463272
 30
0.0
 11
40.02599999995994
 21
4.795712526461843
 31
0.0
  0
LINE
  5
E8F4
330
E8EA
100
AcDbEntity
  8
0
  6
CONTINUOUS
100
AcDbLine
 10
38.60499999996136
 20
2.701193317383085
 30
0.0
 11
40.02599999995994
 21
4.122193317381657
 31
0.0
  0
LINE
  5
E8F5
330
E8EA
100
AcDbEntity
  8
0
  6
CONTINUOUS
100
AcDbLine
 10
40.28339754687704
 20
5.053110073378947
 30
0.0
 11
41.25642404246489
 21
6.026136568966799
 31
0.0
  0
LINE
  5
E8F6
330
E8EA
100
AcDbEntity
  8
0
  6
CONTINUOUS
100
AcDbLine
 10
40.60085985945722
 20
4.697053176878939
 30
0.0
 11
41.57388635504507
 21
5.670079672466793
 31
0.0
  0
LINE
  5
E8F7
330
E8EA
100
AcDbEntity
  8
0
  6
CONTINUOUS
100
AcDbLine
 10
43.57899999995641
 20
8.348712526458318
 30
0.0
 11
43.99338747348935
 21
8.763099999991255
 31
0.0
  0
LINE
  5
E8F8
330
E8EA
100
AcDbEntity
  8
0
  6
CONTINUOUS
100
AcDbLine
 10
43.57899999995641
 20
7.675193317378131
 30
0.0
 11
44.66690668256953
 21
8.763099999991255
 31
0.0
  0
LINE
  5
E8F9
330
E8EA
100
AcDbEntity
  8
0
  6
CONTINUOUS
100
AcDbLine
 10
38.60499999996136
 20
2.027674108302898
 30
0.0
 11
40.02599999995994
 21
3.44867410830147
 31
0.0
  0
LINE
  5
E8FA
330
E8EA
100
AcDbEntity
  8
0
  6
CONTINUOUS
100
AcDbLine
 10
38.60499999996136
 20
1.354154899222712
 30
0.0
 11
40.02599999995994
 21
2.775154899221284
 31
0.0
  0
LINE
  5
E8FB
330
E8EA
100
AcDbEntity
  8
0
  6
CONTINUOUS
100
AcDbLine
 10
38.60499999996136
 20
0.6806356901425255
 30
0.0
 11
40.02599999995994
 21
2.101635690141098
 31
0.0
  0
LINE
  5
E8FC
330
E8EA
100
AcDbEntity
  8
0
  6
CONTINUOUS
100
AcDbLine
 10
38.60499999996136
 20
0.0071164810623383
 30
0.0
 11
40.02599999995994
 21
1.428116481060911
 31
0.0
  0
LINE
  5
E8FD
330
E8EA
100
AcDbEntity
  8
0
  6
CONTINUOUS
100
AcDbLine
 10
40.9183221720374
 20
4.340996280378933
 30
0.0
 11
41.89134866762525
 21
5.314022775966786
 31
0.0
  0
LINE
  5
E8FE
330
E8EA
100
AcDbEntity
  8
0
  6
CONTINUOUS
100
AcDbLine
 10
41.23578448461758
 20
3.984939383878926
 30
0.0
 11
42.20881098020543
 21
4.957965879466778
 31
0.0
  0
LINE
  5
E8FF
330
E8EA
100
AcDbEntity
  8
0
  6
CONTINUOUS
100
AcDbLine
 10
41.55324679719776
 20
3.628882487378919
 30
0.0
 11
42.52627329278561
 21
4.601908982966772
 31
0.0
  0
LINE
  5
E900
330
E8EA
100
AcDbEntity
  8
0
  6
CONTINUOUS
100
AcDbLine
 10
41.87070910977793
 20
3.272825590878912
 30
0.0
 11
42.84373560536579
 21
4.245852086466765
 31
0.0
  0
LINE
  5
E901
330
E8EA
100
AcDbEntity
  8
0
  6
CONTINUOUS
100
AcDbLine
 10
43.57899999995641
 20
7.001674108297943
 30
0.0
 11
44.99999999995498
 21
8.422674108296516
 31
0.0
  0
LINE
  5
E902
330
E8EA
100
AcDbEntity
  8
0
  6
CONTINUOUS
100
AcDbLine
 10
43.57899999995641
 20
6.328154899217758
 30
0.0
 11
44.99999999995498
 21
7.749154899216329
 31
0.0
  0
LINE
  5
E903
330
E8EA
100
AcDbEntity
  8
0
  6
CONTINUOUS
100
AcDbLine
 10
43.57899999995641
 20
5.654635690137571
 30
0.0
 11
44.99999999995498
 21
7.075635690136142
 31
0.0
  0
LINE
  5
E904
330
E8EA
100
AcDbEntity
  8
0
  6
CONTINUOUS
100
AcDbLine
 10
43.57899999995641
 20
4.981116481057384
 30
0.0
 11
44.99999999995498
 21
6.402116481055955
 31
0.0
  0
LINE
  5
E905
330
E8EA
100
AcDbEntity
  8
0
  6
CONTINUOUS
100
AcDbLine
 10
39.27140272797921
 20
-0.0000000000000009
 30
0.0
 11
40.02599999995994
 21
0.7545972719807246
 31
0.0
  0
LINE
  5
E906
330
E8EA
100
AcDbEntity
  8
0
  6
CONTINUOUS
100
AcDbLine
 10
39.9449219370594
 20
-0.0000000000000009
 30
0.0
 11
40.02599999995994
 21
0.0810780629005379
 31
0.0
  0
LINE
  5
E907
330
E8EA
100
AcDbEntity
  8
0
  6
CONTINUOUS
100
AcDbLine
 10
42.18817142235812
 20
2.916768694378905
 30
0.0
 11
43.16119791794597
 21
3.889795189966758
 31
0.0
  0
LINE
  5
E908
330
E8EA
100
AcDbEntity
  8
0
  6
CONTINUOUS
100
AcDbLine
 10
42.50563373493829
 20
2.560711797878898
 30
0.0
 11
43.47866023052615
 21
3.533738293466751
 31
0.0
  0
LINE
  5
E909
330
E8EA
100
AcDbEntity
  8
0
  6
CONTINUOUS
100
AcDbLine
 10
43.57899999995641
 20
4.307597271977198
 30
0.0
 11
44.99999999995498
 21
5.728597271975769
 31
0.0
  0
LINE
  5
E90A
330
E8EA
100
AcDbEntity
  8
0
  6
CONTINUOUS
100
AcDbLine
 10
43.57899999995641
 20
3.634078062897011
 30
0.0
 11
44.99999999995498
 21
5.055078062895582
 31
0.0
  0
LINE
  5
E90B
330
E8EA
100
AcDbEntity
  8
0
  6
CONTINUOUS
100
AcDbLine
 10
42.82309604751848
 20
2.204654901378891
 30
0.0
 11
44.99999999995498
 21
4.381558853815395
 31
0.0
  0
LINE
  5
E90C
330
E8EA
100
AcDbEntity
  8
0
  6
CONTINUOUS
100
AcDbLine
 10
43.14055836009865
 20
1.848598004878885
 30
0.0
 11
44.99999999995498
 21
3.70803964473521
 31
0.0
  0
LINE
  5
E90D
330
E8EA
100
AcDbEntity
  8
0
  6
CONTINUOUS
100
AcDbLine
 10
43.45802067267883
 20
1.492541108378878
 30
0.0
 11
44.99999999995498
 21
3.034520435655023
 31
0.0
  0
LINE
  5
E90E
330
E8EA
100
AcDbEntity
  8
0
  6
CONTINUOUS
100
AcDbLine
 10
43.77548298525902
 20
1.136484211878871
 30
0.0
 11
44.99999999995498
 21
2.361001226574837
 31
0.0
  0
LINE
  5
E90F
330
E8EA
100
AcDbEntity
  8
0
  6
CONTINUOUS
100
AcDbLine
 10
44.09294529783919
 20
0.7804273153788639
 30
0.0
 11
44.99999999995498
 21
1.687482017494649
 31
0.0
  0
LINE
  5
E910
330
E8EA
100
AcDbEntity
  8
0
  6
CONTINUOUS
100
AcDbLine
 10
44.41040761041938
 20
0.4243704188788566
 30
0.0
 11
44.99999999995498
 21
1.013962808414463
 31
0.0
  0
LINE
  5
E911
330
E8EA
100
AcDbEntity
  8
0
  6
CONTINUOUS
100
AcDbLine
 10
44.72786992299955
 20
0.0683135223788494
 30
0.0
 11
44.99999999995498
 21
0.340443599334276
 31
0.0
  0
LINE
  5
E912
330
E8EA
100
AcDbEntity
  8
0
  6
CONTINUOUS
100
AcDbLine
 10
39.12223903415696
 20
-0.0000000000000009
 30
0.0
 11
38.60499999996136
 21
0.5172390341955961
 31
0.0
  0
LINE
  5
E913
330
E8EA
100
AcDbEntity
  8
0
  6
CONTINUOUS
100
AcDbLine
 10
39.79575824323715
 20
-0.0000000000000009
 30
0.0
 11
38.60499999996136
 21
1.190758243275783
 31
0.0
  0
LINE
  5
E914
330
E8EA
100
AcDbEntity
  8
0
  6
CONTINUOUS
100
AcDbLine
 10
40.02599999995994
 20
0.443277452357397
 30
0.0
 11
38.60499999996136
 21
1.864277452355969
 31
0.0
  0
LINE
  5
E915
330
E8EA
100
AcDbEntity
  8
0
  6
CONTINUOUS
100
AcDbLine
 10
40.02599999995994
 20
1.116796661437583
 30
0.0
 11
38.60499999996136
 21
2.537796661436155
 31
0.0
  0
LINE
  5
E916
330
E8EA
100
AcDbEntity
  8
0
  6
CONTINUOUS
100
AcDbLine
 10
40.02599999995994
 20
1.79031587051777
 30
0.0
 11
38.60499999996136
 21
3.211315870516341
 31
0.0
  0
LINE
  5
E917
330
E8EA
100
AcDbEntity
  8
0
  6
CONTINUOUS
100
AcDbLine
 10
40.02599999995994
 20
2.463835079597956
 30
0.0
 11
38.60499999996136
 21
3.884835079596527
 31
0.0
  0
LINE
  5
E918
330
E8EA
100
AcDbEntity
  8
0
  6
CONTINUOUS
100
AcDbLine
 10
40.02599999995994
 20
3.137354288678143
 30
0.0
 11
38.60499999996136
 21
4.558354288676714
 31
0.0
  0
LINE
  5
E919
330
E8EA
100
AcDbEntity
  8
0
  6
CONTINUOUS
100
AcDbLine
 10
40.02599999995994
 20
3.810873497758329
 30
0.0
 11
38.60499999996136
 21
5.2318734977569
 31
0.0
  0
LINE
  5
E91A
330
E8EA
100
AcDbEntity
  8
0
  6
CONTINUOUS
100
AcDbLine
 10
40.02599999995994
 20
4.484392706838515
 30
0.0
 11
38.60499999996136
 21
5.905392706837086
 31
0.0
  0
LINE
  5
E91B
330
E8EA
100
AcDbEntity
  8
0
  6
CONTINUOUS
100
AcDbLine
 10
44.99999999995498
 20
0.183911915923658
 30
0.0
 11
41.53858364506288
 21
3.64532827081576
 31
0.0
  0
LINE
  5
E91C
330
E8EA
100
AcDbEntity
  8
0
  6
CONTINUOUS
100
AcDbLine
 10
40.02599999995994
 20
5.157911915918703
 30
0.0
 11
38.60499999996136
 21
6.578911915917274
 31
0.0
  0
LINE
  5
E91D
330
E8EA
100
AcDbEntity
  8
0
  6
CONTINUOUS
100
AcDbLine
 10
44.99999999995498
 20
0.8574311250038447
 30
0.0
 11
38.60499999996136
 21
7.25243112499746
 31
0.0
  0
LINE
  5
E91E
330
E8EA
100
AcDbEntity
  8
0
  6
CONTINUOUS
100
AcDbLine
 10
44.99999999995498
 20
1.530950334084031
 30
0.0
 11
38.60499999996136
 21
7.925950334077647
 31
0.0
  0
LINE
  5
E91F
330
E8EA
100
AcDbEntity
  8
0
  6
CONTINUOUS
100
AcDbLine
 10
44.99999999995498
 20
2.204469543164218
 30
0.0
 11
43.57899999995641
 21
3.625469543162789
 31
0.0
  0
LINE
  5
E920
330
E8EA
100
AcDbEntity
  8
0
  6
CONTINUOUS
100
AcDbLine
 10
41.89876730984767
 20
5.305702233271528
 30
0.0
 11
38.60499999996136
 21
8.599469543157834
 31
0.0
  0
LINE
  5
E921
330
E8EA
100
AcDbEntity
  8
0
  6
CONTINUOUS
100
AcDbLine
 10
44.99999999995498
 20
2.877988752244405
 30
0.0
 11
43.57899999995641
 21
4.298988752242975
 31
0.0
  0
LINE
  5
E922
330
E8EA
100
AcDbEntity
  8
0
  6
CONTINUOUS
100
AcDbLine
 10
44.99999999995498
 20
3.551507961324591
 30
0.0
 11
43.57899999995641
 21
4.972507961323163
 31
0.0
  0
LINE
  5
E923
330
E8EA
100
AcDbEntity
  8
0
  6
CONTINUOUS
100
AcDbLine
 10
44.99999999995498
 20
4.225027170404777
 30
0.0
 11
43.57899999995641
 21
5.646027170403348
 31
0.0
  0
LINE
  5
E924
330
E8EA
100
AcDbEntity
  8
0
  6
CONTINUOUS
100
AcDbLine
 10
44.99999999995498
 20
4.898546379484964
 30
0.0
 11
43.57899999995641
 21
6.319546379483535
 31
0.0
  0
LINE
  5
E925
330
E8EA
100
AcDbEntity
  8
0
  6
CONTINUOUS
100
AcDbLine
 10
44.99999999995498
 20
5.572065588565151
 30
0.0
 11
43.57899999995641
 21
6.993065588563722
 31
0.0
  0
LINE
  5
E926
330
E8EA
100
AcDbEntity
  8
0
  6
CONTINUOUS
100
AcDbLine
 10
44.99999999995498
 20
6.245584797645336
 30
0.0
 11
43.57899999995641
 21
7.666584797643908
 31
0.0
  0
LINE
  5
E927
330
E8EA
100
AcDbEntity
  8
0
  6
CONTINUOUS
100
AcDbLine
 10
44.99999999995498
 20
6.919104006725522
 30
0.0
 11
43.57899999995641
 21
8.340104006724093
 31
0.0
  0
LINE
  5
E928
330
E8EA
100
AcDbEntity
  8
0
  6
CONTINUOUS
100
AcDbLine
 10
44.99999999995498
 20
7.592623215805709
 30
0.0
 11
43.82952321576943
 21
8.763099999991255
 31
0.0
  0
LINE
  5
E929
330
E8EA
100
AcDbEntity
  8
0
  6
CONTINUOUS
100
AcDbLine
 10
44.99999999995498
 20
8.266142424885896
 30
0.0
 11
44.50304242484962
 21
8.763099999991255
 31
0.0
  0
ENDBLK
  5
E953
330
E8EA
100
AcDbEntity
  8
0
100
AcDbBlockEnd
  0
BLOCK
  5
E954
330
E92A
100
AcDbEntity
  8
0
100
AcDbBlockBegin
  2
*X50
 70
     1
 10
0.0
 20
0.0
 30
0.0
  3
*X50
  1

  0
LINE
  5
E92B
330
E92A
100
AcDbEntity
  8
0
  6
CONTINUOUS
100
AcDbLine
 10
0.0
 20
8.548461116714023
 30
0.0
 11
0.2146388832772324
 21
8.763099999991255
 31
0.0
  0
LINE
  5
E92C
330
E92A
100
AcDbEntity
  8
0
  6
CONTINUOUS
100
AcDbLine
 10
-0.0000000000000002
 20
7.874941907633837
 30
0.0
 11
0.8881580923574184
 21
8.763099999991255
 31
0.0
  0
LINE
  5
E92D
330
E92A
100
AcDbEntity
  8
0
  6
CONTINUOUS
100
AcDbLine
 10
0.0
 20
7.20142269855365
 30
0.0
 11
1.420999999998572
 21
8.622422698552223
 31
0.0
  0
LINE
  5
E92E
330
E92A
100
AcDbEntity
  8
0
  6
CONTINUOUS
100
AcDbLine
 10
-0.0000000000000001
 20
6.527903489473465
 30
0.0
 11
1.420999999998571
 21
7.948903489472036
 31
0.0
  0
LINE
  5
E92F
330
E92A
100
AcDbEntity
  8
0
  6
CONTINUOUS
100
AcDbLine
 10
-0.0000000000000002
 20
5.854384280393278
 30
0.0
 11
1.420999999998571
 21
7.275384280391849
 31
0.0
  0
LINE
  5
E930
330
E92A
100
AcDbEntity
  8
0
  6
CONTINUOUS
100
AcDbLine
 10
-0.0000000000000002
 20
5.180865071313091
 30
0.0
 11
1.420999999998571
 21
6.601865071311663
 31
0.0
  0
LINE
  5
E931
330
E92A
100
AcDbEntity
  8
0
  6
CONTINUOUS
100
AcDbLine
 10
0.0
 20
4.507345862232905
 30
0.0
 11
1.420999999998571
 21
5.928345862231477
 31
0.0
  0
LINE
  5
E932
330
E92A
100
AcDbEntity
  8
0
  6
CONTINUOUS
100
AcDbLine
 10
-0.0000000000000003
 20
3.833826653152718
 30
0.0
 11
1.420999999998571
 21
5.25482665315129
 31
0.0
  0
LINE
  5
E933
330
E92A
100
AcDbEntity
  8
0
  6
CONTINUOUS
100
AcDbLine
 10
-0.0000000000000002
 20
3.160307444072532
 30
0.0
 11
1.420999999998571
 21
4.581307444071103
 31
0.0
  0
LINE
  5
E934
330
E92A
100
AcDbEntity
  8
0
  6
CONTINUOUS
100
AcDbLine
 10
-0.0000000000000001
 20
2.486788234992345
 30
0.0
 11
1.420999999998571
 21
3.907788234990917
 31
0.0
  0
LINE
  5
E935
330
E92A
100
AcDbEntity
  8
0
  6
CONTINUOUS
100
AcDbLine
 10
-0.0000000000000006
 20
1.813269025912159
 30
0.0
 11
1.420999999998571
 21
3.234269025910731
 31
0.0
  0
LINE
  5
E936
330
E92A
100
AcDbEntity
  8
0
  6
CONTINUOUS
100
AcDbLine
 10
0.0
 20
1.139749816831973
 30
0.0
 11
1.420999999998571
 21
2.560749816830544
 31
0.0
  0
LINE
  5
E937
330
E92A
100
AcDbEntity
  8
0
  6
CONTINUOUS
100
AcDbLine
 10
0.0000000000000002
 20
0.466230607751787
 30
0.0
 11
1.420999999998571
 21
1.887230607750358
 31
0.0
  0
LINE
  5
E938
330
E92A
100
AcDbEntity
  8
0
  6
CONTINUOUS
100
AcDbLine
 10
0.2072886013284003
 20
-0.0000000000000009
 30
0.0
 11
1.420999999998571
 21
1.213711398670171
 31
0.0
  0
LINE
  5
E939
330
E92A
100
AcDbEntity
  8
0
  6
CONTINUOUS
100
AcDbLine
 10
0.8808078104085864
 20
-0.0000000000000009
 30
0.0
 11
1.420999999998571
 21
0.5401921895899839
 31
0.0
  0
LINE
  5
E93A
330
E92A
100
AcDbEntity
  8
0
  6
CONTINUOUS
100
AcDbLine
 10
0.0581249075061505
 20
-0.0000000000000009
 30
0.0
 11
-0.0000000000000002
 21
0.0581249075061496
 31
0.0
  0
LINE
  5
E93B
330
E92A
100
AcDbEntity
  8
0
  6
CONTINUOUS
100
AcDbLine
 10
0.7316441165863372
 20
-0.0000000000000009
 30
0.0
 11
-0.0000000000000002
 21
0.7316441165863363
 31
0.0
  0
LINE
  5
E93C
330
E92A
100
AcDbEntity
  8
0
  6
CONTINUOUS
100
AcDbLine
 10
1.405163325666523
 20
-0.0000000000000009
 30
0.0
 11
-0.0000000000000002
 21
1.405163325666523
 31
0.0
  0
LINE
  5
E93D
330
E92A
100
AcDbEntity
  8
0
  6
CONTINUOUS
100
AcDbLine
 10
1.420999999998572
 20
0.6576825347481381
 30
0.0
 11
-0.0000000000000001
 21
2.07868253474671
 31
0.0
  0
LINE
  5
E93E
330
E92A
100
AcDbEntity
  8
0
  6
CONTINUOUS
100
AcDbLine
 10
1.420999999998571
 20
1.331201743828324
 30
0.0
 11
-0.0000000000000001
 21
2.752201743826896
 31
0.0
  0
LINE
  5
E93F
330
E92A
100
AcDbEntity
  8
0
  6
CONTINUOUS
100
AcDbLine
 10
1.420999999998571
 20
2.004720952908511
 30
0.0
 11
-0.0000000000000002
 21
3.425720952907082
 31
0.0
  0
LINE
  5
E940
330
E92A
100
AcDbEntity
  8
0
  6
CONTINUOUS
100
AcDbLine
 10
1.420999999998571
 20
2.678240161988697
 30
0.0
 11
-0.0000000000000001
 21
4.099240161987269
 31
0.0
  0
LINE
  5
E941
330
E92A
100
AcDbEntity
  8
0
  6
CONTINUOUS
100
AcDbLine
 10
1.420999999998572
 20
3.351759371068884
 30
0.0
 11
0.0
 21
4.772759371067455
 31
0.0
  0
LINE
  5
E942
330
E92A
100
AcDbEntity
  8
0
  6
CONTINUOUS
100
AcDbLine
 10
1.420999999998571
 20
4.02527858014907
 30
0.0
 11
-0.0000000000000003
 21
5.446278580147642
 31
0.0
  0
LINE
  5
E943
330
E92A
100
AcDbEntity
  8
0
  6
CONTINUOUS
100
AcDbLine
 10
1.420999999998571
 20
4.698797789229257
 30
0.0
 11
0.0
 21
6.119797789227828
 31
0.0
  0
LINE
  5
E944
330
E92A
100
AcDbEntity
  8
0
  6
CONTINUOUS
100
AcDbLine
 10
1.420999999998571
 20
5.372316998309444
 30
0.0
 11
-0.0000000000000001
 21
6.793316998308015
 31
0.0
  0
LINE
  5
E945
330
E92A
100
AcDbEntity
  8
0
  6
CONTINUOUS
100
AcDbLine
 10
1.420999999998572
 20
6.045836207389629
 30
0.0
 11
-0.0000000000000004
 21
7.466836207388202
 31
0.0
  0
LINE
  5
E946
330
E92A
100
AcDbEntity
  8
0
  6
CONTINUOUS
100
AcDbLine
 10
1.420999999998571
 20
6.719355416469816
 30
0.0
 11
0.0
 21
8.140355416468388
 31
0.0
  0
LINE
  5
E947
330
E92A
100
AcDbEntity
  8
0
  6
CONTINUOUS
100
AcDbLine
 10
1.420999999998571
 20
7.392874625550003
 30
0.0
 11
0.0507746255573185
 21
8.763099999991255
 31
0.0
  0
LINE
  5
E948
330
E92A
100
AcDbEntity
  8
0
  6
CONTINUOUS
100
AcDbLine
 10
1.420999999998571
 20
8.06639383463019
 30
0.0
 11
0.7242938346375052
 21
8.763099999991255
 31
0.0
  0
LINE
  5
E949
330
E92A
100
AcDbEntity
  8
0
  6
CONTINUOUS
100
AcDbLine
 10
1.420999999998571
 20
8.739913043710375
 30
0.0
 11
1.397813043717691
 21
8.763099999991255
 31
0.0
  0
ENDBLK
  5
E955
330
E92A
100
AcDbEntity
  8
0
100
AcDbBlockEnd
  0
ENDSEC
  0
SECTION
  2
ENTITIES
  0
TEXT
  5
BAC9
330
18
100
AcDbEntity
  8
1TEXT
100
AcDbText
 10
223.2747047474505
 20
551.1181686832862
 30
0.0
 40
10.0
  1
LVK
100
AcDbText
  0
CIRCLE
  5
C0A6
330
18
100
AcDbEntity
  8
01
100
AcDbCircle
 10
461.6961252070405
 20
460.9007024028306
 30
0.0
 40
3.15
  0
POINT
  5
C0A7
330
18
100
AcDbEntity
  8
01
100
AcDbPoint
 10
474.1961252070405
 20
426.4007024028306
 30
0.0
  0
LINE
  5
C0A8
330
18
100
AcDbEntity
  8
01
100
AcDbLine
 10
426.2961252070405
 20
475.0279101966948
 30
0.0
 11
427.1961252070405
 21
476.3007024028306
 31
0.0
  0
LINE
  5
C0A9
330
18
100
AcDbEntity
  8
01
100
AcDbLine
 10
426.2961252070403
 20
412.7734946089664
 30
0.0
 11
426.2961252070403
 21
417.0379607030334
 31
0.0
  0
LINE
  5
C0AA
330
18
100
AcDbEntity
  8
01
100
AcDbLine
 10
427.1961252070405
 20
411.5007024028305
 30
0.0
 11
426.2961252070405
 21
412.7734946089663
 31
0.0
  0
LINE
  5
C0AB
330
18
100
AcDbEntity
  8
01
100
AcDbLine
 10
427.1961252070405
 20
397.9007024028306
 30
0.0
 11
427.1961252070405
 21
411.5007024028305
 31
0.0
  0
LINE
  5
C0AC
330
18
100
AcDbEntity
  8
01
100
AcDbLine
 10
425.5961252070405
 20
410.2279101966948
 30
0.0
 11
425.5961252070405
 21
397.9007024028306
 31
0.0
  0
LINE
  5
C0AD
330
18
100
AcDbEntity
  8
01
100
AcDbLine
 10
424.6961252070405
 20
411.5007024028305
 30
0.0
 11
425.5961252070405
 21
410.2279101966948
 31
0.0
  0
LINE
  5
C0AE
330
18
100
AcDbEntity
  8
01
100
AcDbLine
 10
424.6961252070405
 20
411.5007024028305
 30
0.0
 11
424.6961252070405
 21
476.3007024028306
 31
0.0
  0
LINE
  5
C0AF
330
18
100
AcDbEntity
  8
01
100
AcDbLine
 10
425.5961252070405
 20
477.5734946089664
 30
0.0
 11
424.6961252070405
 21
476.3007024028306
 31
0.0
  0
LINE
  5
C0B0
330
18
100
AcDbEntity
  8
01
100
AcDbLine
 10
425.5961252070405
 20
489.9007024028306
 30
0.0
 11
425.5961252070405
 21
477.5734946089664
 31
0.0
  0
LINE
  5
C0B1
330
18
100
AcDbEntity
  8
01
100
AcDbLine
 10
427.1961252070405
 20
489.9007024028306
 30
0.0
 11
427.1961252070405
 21
476.3007024028306
 31
0.0
  0
LINE
  5
C0B2
330
18
100
AcDbEntity
  8
01
100
AcDbLine
 10
427.1961252070405
 20
391.9007024028306
 30
0.0
 11
425.5961252070405
 21
391.9007024028306
 31
0.0
  0
LINE
  5
C0B3
330
18
100
AcDbEntity
  8
01
100
AcDbLine
 10
425.5961252070405
 20
391.9007024028306
 30
0.0
 11
425.5961252070405
 21
397.9007024028306
 31
0.0
  0
LINE
  5
C0B4
330
18
100
AcDbEntity
  8
01
100
AcDbLine
 10
427.1961252070405
 20
397.9007024028306
 30
0.0
 11
427.1961252070405
 21
391.9007024028306
 31
0.0
  0
LINE
  5
C0B5
330
18
100
AcDbEntity
  8
01
100
AcDbLine
 10
424.6961252070405
 20
405.9864888404575
 30
0.0
 11
424.6961252070405
 21
411.5007024028305
 31
0.0
  0
LINE
  5
C0B6
330
18
100
AcDbEntity
  8
01
100
AcDbLine
 10
424.6961252070405
 20
481.8149159652036
 30
0.0
 11
424.6961252070405
 21
476.3007024028306
 31
0.0
  0
LINE
  5
C0B7
330
18
100
AcDbEntity
  8
01
100
AcDbLine
 10
425.5961252070405
 20
495.9007024028306
 30
0.0
 11
427.1961252070405
 21
495.9007024028306
 31
0.0
  0
LINE
  5
C0B8
330
18
100
AcDbEntity
  8
01
100
AcDbLine
 10
425.5961252070405
 20
489.9007024028306
 30
0.0
 11
425.5961252070405
 21
495.9007024028306
 31
0.0
  0
LINE
  5
C0B9
330
18
100
AcDbEntity
  8
01
100
AcDbLine
 10
427.1961252070405
 20
495.9007024028306
 30
0.0
 11
427.1961252070405
 21
489.9007024028306
 31
0.0
  0
LINE
  5
C0BA
330
18
100
AcDbEntity
  8
01
100
AcDbLine
 10
452.1961252070405
 20
418.9007024028306
 30
0.0
 11
452.1961252070405
 21
420.5007024028305
 31
0.0
  0
LINE
  5
C0BB
330
18
100
AcDbEntity
  8
01
100
AcDbLine
 10
462.1961252070405
 20
420.5007024028305
 30
0.0
 11
462.1961252070405
 21
418.9007024028306
 31
0.0
  0
LINE
  5
C0BC
330
18
100
AcDbEntity
  8
01
100
AcDbLine
 10
462.1961252070405
 20
418.9007024028306
 30
0.0
 11
452.1961252070405
 21
418.9007024028306
 31
0.0
  0
LINE
  5
C0BD
330
18
100
AcDbEntity
  8
01
100
AcDbLine
 10
452.1961252070405
 20
420.5007024028305
 30
0.0
 11
462.1961252070405
 21
420.5007024028305
 31
0.0
  0
LINE
  5
C0BE
330
18
100
AcDbEntity
  8
01
100
AcDbLine
 10
490.5961252070405
 20
448.9007024028305
 30
0.0
 11
490.5961252070405
 21
438.9007024028306
 31
0.0
  0
LINE
  5
C0BF
330
18
100
AcDbEntity
  8
01
100
AcDbLine
 10
492.1961252070405
 20
448.9007024028305
 30
0.0
 11
490.5961252070405
 21
448.9007024028305
 31
0.0
  0
LINE
  5
C0C0
330
18
100
AcDbEntity
  8
01
100
AcDbLine
 10
490.5961252070405
 20
438.9007024028306
 30
0.0
 11
492.1961252070405
 21
438.9007024028306
 31
0.0
  0
LINE
  5
C0C1
330
18
100
AcDbEntity
  8
01
100
AcDbLine
 10
492.1961252070405
 20
438.9007024028306
 30
0.0
 11
492.1961252070405
 21
448.9007024028305
 31
0.0
  0
LINE
  5
C0C2
330
18
100
AcDbEntity
  8
01
100
AcDbLine
 10
462.1961252070405
 20
467.3007024028306
 30
0.0
 11
462.1961252070405
 21
468.9007024028305
 31
0.0
  0
LINE
  5
C0C3
330
18
100
AcDbEntity
  8
01
100
AcDbLine
 10
452.1961252070405
 20
467.3007024028305
 30
0.0
 11
462.1961252070405
 21
467.3007024028306
 31
0.0
  0
LINE
  5
C0C4
330
18
100
AcDbEntity
  8
01
100
AcDbLine
 10
462.1961252070405
 20
468.9007024028305
 30
0.0
 11
452.1961252070405
 21
468.9007024028305
 31
0.0
  0
LINE
  5
C0C5
330
18
100
AcDbEntity
  8
01
100
AcDbLine
 10
452.1961252070405
 20
468.9007024028305
 30
0.0
 11
452.1961252070405
 21
467.3007024028306
 31
0.0
  0
LINE
  5
C0C6
330
18
100
AcDbEntity
  8
01
100
AcDbLine
 10
424.6961252070405
 20
481.8149159652036
 30
0.0
 11
424.6961252070405
 21
483.2291295275767
 31
0.0
  0
LINE
  5
C0C7
330
18
100
AcDbEntity
  8
01
100
AcDbLine
 10
424.6961252070405
 20
404.5722752780844
 30
0.0
 11
424.6961252070405
 21
405.9864888404575
 31
0.0
  0
SPLINE
  5
C0C8
330
18
100
AcDbEntity
  8
01
100
AcDbSpline
210
0.0
220
0.0
230
1.0
 70
     8
 71
     3
 72
     8
 73
     4
 74
     0
 42
0.0000000001
 43
0.0000000001
 40
0.0
 40
0.0
 40
0.0
 40
0.0
 40
1.0
 40
1.0
 40
1.0
 40
1.0
 10
424.6961252070405
 20
489.717327193186
 30
0.0
 10
424.9956491806382
 20
489.8076370691987
 30
0.0
 10
425.2956825652823
 20
489.8944348955413
 30
0.0
 10
425.5961252070405
 20
489.9784111668301
 30
0.0
  0
LINE
  5
C0C9
330
18
100
AcDbEntity
  8
01
100
AcDbLine
 10
424.6961252070405
 20
489.717327193186
 30
0.0
 11
424.6961252070405
 21
486.4007024028305
 31
0.0
  0
LINE
  5
C0CA
330
18
100
AcDbEntity
  8
01
100
AcDbLine
 10
424.6961252070405
 20
486.4007024028305
 30
0.0
 11
424.6961252070405
 21
483.2291295275767
 31
0.0
  0
SPLINE
  5
C0CB
330
18
100
AcDbEntity
  8
01
100
AcDbSpline
210
0.0
220
0.0
230
1.0
 70
     8
 71
     3
 72
     8
 73
     4
 74
     0
 42
0.0000000001
 43
0.0000000001
 40
0.0
 40
0.0
 40
0.0
 40
0.0
 40
1.0
 40
1.0
 40
1.0
 40
1.0
 10
425.5961252070405
 20
397.8229936388309
 30
0.0
 10
425.2956825652823
 20
397.9069699101198
 30
0.0
 10
424.9956491806382
 20
397.9937677364625
 30
0.0
 10
424.6961252070405
 20
398.0840776124751
 30
0.0
  0
LINE
  5
C0CC
330
18
100
AcDbEntity
  8
01
100
AcDbLine
 10
424.6961252070405
 20
398.0840776124751
 30
0.0
 11
424.6961252070405
 21
401.4007024028306
 31
0.0
  0
LINE
  5
C0CD
330
18
100
AcDbEntity
  8
01
100
AcDbLine
 10
424.6961252070405
 20
401.4007024028306
 30
0.0
 11
424.6961252070405
 21
404.5722752780844
 31
0.0
  0
LINE
  5
C0CE
330
18
100
AcDbEntity
  8
01
100
AcDbLine
 10
424.6961252070405
 20
495.9007024028306
 30
0.0
 11
425.5961252070405
 21
495.9007024028306
 31
0.0
  0
LINE
  5
C0CF
330
18
100
AcDbEntity
  8
01
100
AcDbLine
 10
424.6961252070405
 20
495.9007024028306
 30
0.0
 11
424.6961252070405
 21
489.717327193186
 31
0.0
  0
LINE
  5
C0D0
330
18
100
AcDbEntity
  8
01
100
AcDbLine
 10
425.5961252070405
 20
391.9007024028306
 30
0.0
 11
424.6961252070405
 21
391.9007024028306
 31
0.0
  0
LINE
  5
C0D1
330
18
100
AcDbEntity
  8
01
100
AcDbLine
 10
424.6961252070405
 20
391.9007024028306
 30
0.0
 11
424.6961252070405
 21
398.0840776124751
 31
0.0
  0
LINE
  5
C0D2
330
18
100
AcDbEntity
  8
01
100
AcDbLine
 10
490.3961252070404
 20
418.9007024028306
 30
0.0
 11
490.3961252070404
 21
419.3507024028303
 31
0.0
  0
LINE
  5
C0D3
330
18
100
AcDbEntity
  8
01
100
AcDbLine
 10
462.1961252070405
 20
418.9007024028306
 30
0.0
 11
490.3961252070404
 21
418.9007024028306
 31
0.0
  0
LINE
  5
C0D6
330
18
100
AcDbEntity
  8
01
100
AcDbLine
 10
427.9159936223973
 20
418.9007024028306
 30
0.0
 11
452.1961252070405
 21
418.9007024028306
 31
0.0
  0
LINE
  5
C0D8
330
18
100
AcDbEntity
  8
01
100
AcDbLine
 10
491.7461252070407
 20
420.7007024028305
 30
0.0
 11
492.1961252070405
 21
420.7007024028305
 31
0.0
  0
LINE
  5
C0DA
330
18
100
AcDbEntity
  8
01
100
AcDbLine
 10
492.1961252070405
 20
420.7007024028305
 30
0.0
 11
492.1961252070405
 21
438.9007024028306
 31
0.0
  0
LINE
  5
C0DB
330
18
100
AcDbEntity
  8
01
100
AcDbLine
 10
492.1961252070405
 20
467.1007024028305
 30
0.0
 11
491.7461252070406
 21
467.1007024028305
 31
0.0
  0
LINE
  5
C0DD
330
18
100
AcDbEntity
  8
01
100
AcDbLine
 10
492.1961252070405
 20
448.9007024028305
 30
0.0
 11
492.1961252070405
 21
467.1007024028305
 31
0.0
  0
LINE
  5
C0DE
330
18
100
AcDbEntity
  8
01
100
AcDbLine
 10
490.3961252070404
 20
468.4507024028306
 30
0.0
 11
490.3961252070404
 21
468.9007024028305
 31
0.0
  0
LINE
  5
C0E0
330
18
100
AcDbEntity
  8
01
100
AcDbLine
 10
490.3961252070404
 20
468.9007024028305
 30
0.0
 11
462.1961252070405
 21
468.9007024028305
 31
0.0
  0
LINE
  5
C0E2
330
18
100
AcDbEntity
  8
01
100
AcDbLine
 10
452.1961252070405
 20
468.9007024028305
 30
0.0
 11
427.9159936223969
 21
468.9007024028305
 31
0.0
  0
CIRCLE
  5
C0E3
330
18
100
AcDbEntity
  8
01
100
AcDbCircle
 10
486.6961252070405
 20
460.9007024028306
 30
0.0
 40
3.15
  0
CIRCLE
  5
C0EA
330
18
100
AcDbEntity
  8
01
100
AcDbCircle
 10
445.6961252070405
 20
440.3007024028306
 30
0.0
 40
1.750000000304814
  0
LINE
  5
C117
330
18
100
AcDbEntity
  8
1CENTER
100
AcDbLine
 10
360.8609729140807
 20
486.4007024028305
 30
0.0
 11
349.8512762979302
 21
486.4007024028305
 31
0.0
  0
LINE
  5
C118
330
18
100
AcDbEntity
  8
1CENTER
100
AcDbLine
 10
355.3561246060054
 20
491.9055507109057
 30
0.0
 11
355.3561246060054
 21
480.8958540947552
 31
0.0
  0
LINE
  5
C119
330
18
100
AcDbEntity
  8
01
100
AcDbLine
 10
427.1961252070405
 20
561.9012215932261
 30
0.0
 11
424.6961252070405
 21
561.9012215932261
 31
0.0
  0
LINE
  5
C11A
330
18
100
AcDbEntity
  8
01
100
AcDbLine
 10
425.5961252070405
 20
561.9012215932261
 30
0.0
 11
425.5961252070405
 21
557.201221593226
 31
0.0
  0
LINE
  5
C11B
330
18
100
AcDbEntity
  8
01
100
AcDbLine
 10
427.1961252070405
 20
557.2012215932261
 30
0.0
 11
427.1961252070405
 21
561.9012215932261
 31
0.0
  0
LINE
  5
C11E
330
18
100
AcDbEntity
  8
01
100
AcDbLine
 10
424.6961252070405
 20
554.801221593226
 30
0.0
 11
424.6961252070405
 21
554.6512215932261
 31
0.0
  0
LINE
  5
C11F
330
18
100
AcDbEntity
  8
01
100
AcDbLine
 10
424.6961252070405
 20
544.951221593226
 30
0.0
 11
424.6961252070405
 21
544.801221593226
 31
0.0
  0
LINE
  5
C120
330
18
100
AcDbEntity
  8
01
100
AcDbLine
 10
425.5961252070405
 20
537.701221593226
 30
0.0
 11
427.1961252070405
 21
537.701221593226
 31
0.0
  0
LINE
  5
C123
330
18
100
AcDbEntity
  8
01
100
AcDbLine
 10
427.1961252070405
 20
537.701221593226
 30
0.0
 11
427.1961252070404
 21
542.401221593226
 31
0.0
  0
LINE
  5
C125
330
18
100
AcDbEntity
  8
01
100
AcDbLine
 10
424.6961252070405
 20
554.801221593226
 30
0.0
 11
424.6961252070405
 21
555.801221593226
 31
0.0
  0
LINE
  5
C127
330
18
100
AcDbEntity
  8
01
100
AcDbLine
 10
424.6961252070405
 20
544.801221593226
 30
0.0
 11
424.6961252070405
 21
543.801221593226
 31
0.0
  0
LINE
  5
C128
330
18
100
AcDbEntity
  8
01
100
AcDbLine
 10
424.6961252070405
 20
556.3870080308529
 30
0.0
 11
424.6961252070405
 21
555.801221593226
 31
0.0
  0
LINE
  5
C129
330
18
100
AcDbEntity
  8
01
100
AcDbLine
 10
424.6961252070405
 20
543.801221593226
 30
0.0
 11
424.6961252070405
 21
543.2154351555992
 31
0.0
  0
LINE
  5
C12A
330
18
100
AcDbEntity
  8
01
100
AcDbLine
 10
424.6961252070405
 20
556.3870080308529
 30
0.0
 11
424.6961252070404
 21
557.201221593226
 31
0.0
  0
LINE
  5
C12B
330
18
100
AcDbEntity
  8
01
100
AcDbLine
 10
424.6961252070405
 20
537.701221593226
 30
0.0
 11
425.5961252070405
 21
537.701221593226
 31
0.0
  0
LINE
  5
C12C
330
18
100
AcDbEntity
  8
01
100
AcDbLine
 10
424.6961252070405
 20
543.2154351555992
 30
0.0
 11
424.6961252070405
 21
537.701221593226
 31
0.0
  0
LINE
  5
C12F
330
18
100
AcDbEntity
  8
01
100
AcDbLine
 10
426.4961252070404
 20
544.0012215932261
 30
0.0
 11
452.1961252070405
 21
544.0012215932261
 31
0.0
  0
LINE
  5
C130
330
18
100
AcDbEntity
  8
01
100
AcDbLine
 10
462.1961252070405
 20
544.0012215932261
 30
0.0
 11
490.3961252070404
 21
544.0012215932261
 31
0.0
  0
LINE
  5
C133
330
18
100
AcDbEntity
  8
01
100
AcDbLine
 10
424.6961252070404
 20
557.201221593226
 30
0.0
 11
490.3961252070404
 21
557.201221593226
 31
0.0
  0
LINE
  5
C135
330
18
100
AcDbEntity
  8
01
100
AcDbLine
 10
490.5961252070405
 20
544.0012215932261
 30
0.0
 11
492.1961252070405
 21
544.0012215932261
 31
0.0
  0
LINE
  5
C136
330
18
100
AcDbEntity
  8
01
100
AcDbLine
 10
490.5961252070405
 20
544.0012215932261
 30
0.0
 11
490.5961252070405
 21
555.601221593226
 31
0.0
  0
LINE
  5
C137
330
18
100
AcDbEntity
  8
01
100
AcDbLine
 10
492.1961252070405
 20
544.0012215932261
 30
0.0
 11
492.1961252070404
 21
555.601221593226
 31
0.0
  0
ARC
  5
C138
330
18
100
AcDbEntity
  8
01
100
AcDbCircle
 10
490.5961252070404
 20
555.601221593226
 30
0.0
 40
1.6
100
AcDbArc
 50
0.0
 51
90.0
  0
LINE
  5
C139
330
18
100
AcDbEntity
  8
01
100
AcDbLine
 10
490.5961252070405
 20
555.601221593226
 30
0.0
 11
490.3961252070404
 21
555.601221593226
 31
0.0
  0
LINE
  5
C13A
330
18
100
AcDbEntity
  8
01
100
AcDbLine
 10
490.3961252070404
 20
557.201221593226
 30
0.0
 11
490.5961252070404
 21
557.201221593226
 31
0.0
  0
LINE
  5
C13B
330
18
100
AcDbEntity
  8
01
100
AcDbLine
 10
490.5961252070405
 20
542.5012215932261
 30
0.0
 11
492.1961252070405
 21
542.5012215932261
 31
0.0
  0
LINE
  5
C13C
330
18
100
AcDbEntity
  8
01
100
AcDbLine
 10
490.5961252070405
 20
542.5012215932261
 30
0.0
 11
490.5961252070405
 21
544.0012215932261
 31
0.0
  0
LINE
  5
C13D
330
18
100
AcDbEntity
  8
01
100
AcDbLine
 10
492.1961252070405
 20
542.5012215932261
 30
0.0
 11
492.1961252070405
 21
544.0012215932261
 31
0.0
  0
LINE
  5
C13E
330
18
100
AcDbEntity
  8
01
100
AcDbLine
 10
490.3961252070404
 20
544.0012215932261
 30
0.0
 11
490.3961252070404
 21
555.601221593226
 31
0.0
  0
LINE
  5
C144
330
18
100
AcDbEntity
  8
01
100
AcDbLine
 10
448.6961252070405
 20
544.001221593226
 30
0.0
 11
442.6961252070405
 21
544.001221593226
 31
0.0
  0
ARC
  5
C147
330
18
100
AcDbEntity
  8
01
100
AcDbCircle
 10
474.1961252070405
 20
547.601221593226
 30
0.0
 40
10.0
100
AcDbArc
 50
73.73979529168608
 51
106.2602047083139
  0
ARC
  5
C148
330
18
100
AcDbEntity
  8
01
100
AcDbCircle
 10
445.6961252070405
 20
547.601221593226
 30
0.0
 40
10.0
100
AcDbArc
 50
73.73979529168608
 51
106.2602047083139
  0
LINE
  5
C14C
330
18
100
AcDbEntity
  8
01
100
AcDbLine
 10
409.1961252070404
 20
428.7007024028306
 30
0.0
 11
423.1961252070405
 21
428.7007024028306
 31
0.0
  0
LINE
  5
C14D
330
18
100
AcDbEntity
  8
01
100
AcDbLine
 10
409.1961252070404
 20
452.9007024028306
 30
0.0
 11
409.1961252070404
 21
428.7007024028306
 31
0.0
  0
LINE
  5
C14E
330
18
100
AcDbEntity
  8
01
100
AcDbLine
 10
423.1961252070405
 20
452.9007024028306
 30
0.0
 11
409.1961252070404
 21
452.9007024028306
 31
0.0
  0
LINE
  5
C14F
330
18
100
AcDbEntity
  8
01
100
AcDbLine
 10
409.1961252070404
 20
453.2007024028306
 30
0.0
 11
423.1961252070405
 21
453.2007024028306
 31
0.0
  0
LINE
  5
C150
330
18
100
AcDbEntity
  8
01
100
AcDbLine
 10
409.1961252070404
 20
452.9007024028306
 30
0.0
 11
409.1961252070404
 21
453.2007024028306
 31
0.0
  0
LINE
  5
C151
330
18
100
AcDbEntity
  8
01
100
AcDbLine
 10
409.1961252070404
 20
428.7007024028306
 30
0.0
 11
408.8961252070405
 21
428.7007024028306
 31
0.0
  0
LINE
  5
C152
330
18
100
AcDbEntity
  8
01
100
AcDbLine
 10
408.8961252070405
 20
428.7007024028306
 30
0.0
 11
408.8961252070405
 21
452.9007024028306
 31
0.0
  0
LINE
  5
C153
330
18
100
AcDbEntity
  8
01
100
AcDbLine
 10
409.1961252070404
 20
452.9007024028306
 30
0.0
 11
408.8961252070405
 21
452.9007024028306
 31
0.0
  0
LINE
  5
C154
330
18
100
AcDbEntity
  8
01
100
AcDbLine
 10
408.8961252070405
 20
452.9007024028306
 30
0.0
 11
409.1961252070404
 21
453.2007024028306
 31
0.0
  0
LINE
  5
C155
330
18
100
AcDbEntity
  8
01
100
AcDbLine
 10
409.1961252070404
 20
428.4007024028306
 30
0.0
 11
408.8961252070405
 21
428.7007024028306
 31
0.0
  0
LINE
  5
C156
330
18
100
AcDbEntity
  8
01
100
AcDbLine
 10
409.1961252070404
 20
428.4007024028306
 30
0.0
 11
409.1961252070404
 21
428.7007024028306
 31
0.0
  0
LINE
  5
C157
330
18
100
AcDbEntity
  8
01
100
AcDbLine
 10
423.1961252070405
 20
428.4007024028306
 30
0.0
 11
409.1961252070404
 21
428.4007024028306
 31
0.0
  0
LINE
  5
C169
330
18
100
AcDbEntity
  8
1CENTER
100
AcDbLine
 10
420.2988730190405
 20
401.4007024028306
 30
0.0
 11
429.7988730190405
 21
401.4007024028306
 31
0.0
  0
LINE
  5
C16A
330
18
100
AcDbEntity
  8
01
100
AcDbLine
 10
424.6961252070405
 20
496.4007024028305
 30
0.0
 11
423.1961252070405
 21
496.4007024028305
 31
0.0
  0
LINE
  5
C16B
330
18
100
AcDbEntity
  8
01
100
AcDbLine
 10
423.1961252070405
 20
391.4007024028305
 30
0.0
 11
424.6961252070404
 21
391.4007024028305
 31
0.0
  0
LINE
  5
C16C
330
18
100
AcDbEntity
  8
01
100
AcDbLine
 10
423.1961252070405
 20
496.4007024028305
 30
0.0
 11
423.1961252070405
 21
391.4007024028305
 31
0.0
  0
LINE
  5
C16D
330
18
100
AcDbEntity
  8
01
100
AcDbLine
 10
424.6961252070404
 20
391.4007024028305
 30
0.0
 11
424.6961252070404
 21
428.4007024028306
 31
0.0
  0
LINE
  5
C16E
330
18
100
AcDbEntity
  8
01
100
AcDbLine
 10
424.6961252070404
 20
453.2007024028306
 30
0.0
 11
424.6961252070405
 21
496.4007024028305
 31
0.0
  0
LINE
  5
C17A
330
18
100
AcDbEntity
  8
01
100
AcDbLine
 10
476.2461252070404
 20
458.8507024028305
 30
0.0
 11
472.1461252070405
 21
458.8507024028305
 31
0.0
  0
LINE
  5
C17B
330
18
100
AcDbEntity
  8
01
100
AcDbLine
 10
476.4461252070405
 20
458.6507024028306
 30
0.0
 11
471.9461252070405
 21
458.6507024028306
 31
0.0
  0
LINE
  5
C17C
330
18
100
AcDbEntity
  8
01
100
AcDbLine
 10
476.2461252070404
 20
462.9507024028305
 30
0.0
 11
472.1461252070405
 21
462.9507024028305
 31
0.0
  0
LINE
  5
C17D
330
18
100
AcDbEntity
  8
01
100
AcDbLine
 10
476.4461252070405
 20
463.1507024028305
 30
0.0
 11
471.9461252070405
 21
463.1507024028305
 31
0.0
  0
LINE
  5
C17E
330
18
100
AcDbEntity
  8
01
100
AcDbLine
 10
476.2461252070404
 20
462.9507024028305
 30
0.0
 11
476.2461252070404
 21
458.8507024028305
 31
0.0
  0
LINE
  5
C17F
330
18
100
AcDbEntity
  8
01
100
AcDbLine
 10
476.4461252070405
 20
463.1507024028305
 30
0.0
 11
476.4461252070405
 21
458.6507024028306
 31
0.0
  0
LINE
  5
C180
330
18
100
AcDbEntity
  8
01
100
AcDbLine
 10
472.1461252070405
 20
462.9507024028305
 30
0.0
 11
472.1461252070405
 21
458.8507024028305
 31
0.0
  0
LINE
  5
C181
330
18
100
AcDbEntity
  8
01
100
AcDbLine
 10
471.9461252070405
 20
463.1507024028305
 30
0.0
 11
471.9461252070405
 21
458.6507024028306
 31
0.0
  0
CIRCLE
  5
C183
330
18
100
AcDbEntity
  8
01
100
AcDbCircle
 10
474.1961252070405
 20
460.9007024028305
 30
0.0
 40
4.899999999999989
  0
CIRCLE
  5
C184
330
18
100
AcDbEntity
  8
01
100
AcDbCircle
 10
474.1961252070405
 20
460.9007024028305
 30
0.0
 40
4.90000000000002
  0
LINE
  5
C1A1
330
18
100
AcDbEntity
  8
01
100
AcDbLine
 10
424.6961252070405
 20
562.201221593226
 30
0.0
 11
423.1961252070405
 21
562.201221593226
 31
0.0
  0
LINE
  5
C1A2
330
18
100
AcDbEntity
  8
01
100
AcDbLine
 10
424.6961252070405
 20
537.4012215932261
 30
0.0
 11
423.1961252070405
 21
537.4012215932261
 31
0.0
  0
LINE
  5
C1A3
330
18
100
AcDbEntity
  8
01
100
AcDbLine
 10
423.1961252070405
 20
537.4012215932261
 30
0.0
 11
423.1961252070405
 21
562.201221593226
 31
0.0
  0
LINE
  5
C1A5
330
18
100
AcDbEntity
  8
01
100
AcDbLine
 10
424.6961252070405
 20
537.4012215932261
 30
0.0
 11
424.6961252070405
 21
562.201221593226
 31
0.0
  0
CIRCLE
  5
C1B6
330
18
100
AcDbEntity
  8
01
100
AcDbCircle
 10
355.3561246060054
 20
486.4007024028305
 30
0.0
 40
4.0
  0
CIRCLE
  5
C1B7
330
18
100
AcDbEntity
  8
01
100
AcDbCircle
 10
355.3561246060054
 20
486.4007024028305
 30
0.0
 40
2.75
  0
LINE
  5
C1B8
330
18
100
AcDbEntity
  8
01
100
AcDbLine
 10
360.3561246060055
 20
428.4007024028305
 30
0.0
 11
360.3561246060054
 21
453.4007024028305
 31
0.0
  0
LINE
  5
C1B9
330
18
100
AcDbEntity
  8
01
100
AcDbLine
 10
360.3561246060054
 20
453.4007024028305
 30
0.0
 11
350.3561246060054
 21
453.4007024028305
 31
0.0
  0
LINE
  5
C1BA
330
18
100
AcDbEntity
  8
01
100
AcDbLine
 10
350.3561246060054
 20
453.4007024028305
 30
0.0
 11
350.3561246060054
 21
428.4007024028305
 31
0.0
  0
LINE
  5
C1BB
330
18
100
AcDbEntity
  8
01
100
AcDbLine
 10
350.3561246060054
 20
428.4007024028305
 30
0.0
 11
360.3561246060055
 21
428.4007024028305
 31
0.0
  0
LINE
  5
C1BC
330
18
100
AcDbEntity
  8
01
100
AcDbLine
 10
367.7561246060055
 20
496.4007024028305
 30
0.0
 11
342.9561246060055
 21
496.4007024028305
 31
0.0
  0
LINE
  5
C1BD
330
18
100
AcDbEntity
  8
01
100
AcDbLine
 10
367.7561246060055
 20
391.4007024028305
 30
0.0
 11
367.7561246060055
 21
496.4007024028305
 31
0.0
  0
LINE
  5
C1BE
330
18
100
AcDbEntity
  8
01
100
AcDbLine
 10
342.9561246060055
 20
496.4007024028305
 30
0.0
 11
342.9561246060055
 21
391.4007024028305
 31
0.0
  0
LINE
  5
C1C1
330
18
100
AcDbEntity
  8
01
100
AcDbLine
 10
409.1961252070406
 20
554.351221593226
 30
0.0
 11
423.1961252070405
 21
554.351221593226
 31
0.0
  0
LINE
  5
C1C4
330
18
100
AcDbEntity
  8
01
100
AcDbLine
 10
409.1961252070406
 20
554.351221593226
 30
0.0
 11
409.1961252070406
 21
554.6512215932261
 31
0.0
  0
LINE
  5
C1C5
330
18
100
AcDbEntity
  8
01
100
AcDbLine
 10
408.8961252070405
 20
554.351221593226
 30
0.0
 11
409.1961252070406
 21
554.6512215932261
 31
0.0
  0
LINE
  5
C1C6
330
18
100
AcDbEntity
  8
01
100
AcDbLine
 10
409.1961252070406
 20
554.351221593226
 30
0.0
 11
408.8961252070405
 21
554.351221593226
 31
0.0
  0
LINE
  5
C1C8
330
18
100
AcDbEntity
  8
01
100
AcDbLine
 10
409.1961252070406
 20
545.2512215932261
 30
0.0
 11
409.1961252070406
 21
554.351221593226
 31
0.0
  0
LINE
  5
C1CA
330
18
100
AcDbEntity
  8
01
100
AcDbLine
 10
408.8961252070405
 20
554.351221593226
 30
0.0
 11
408.8961252070405
 21
545.2512215932261
 31
0.0
  0
LINE
  5
C1CB
330
18
100
AcDbEntity
  8
01
100
AcDbLine
 10
409.1961252070406
 20
545.2512215932261
 30
0.0
 11
408.8961252070405
 21
545.2512215932261
 31
0.0
  0
LINE
  5
C1CC
330
18
100
AcDbEntity
  8
01
100
AcDbLine
 10
409.1961252070406
 20
545.2512215932261
 30
0.0
 11
409.1961252070406
 21
544.951221593226
 31
0.0
  0
LINE
  5
C1CD
330
18
100
AcDbEntity
  8
01
100
AcDbLine
 10
409.1961252070406
 20
544.951221593226
 30
0.0
 11
423.1961252070405
 21
544.951221593226
 31
0.0
  0
LINE
  5
C1CF
330
18
100
AcDbEntity
  8
01
100
AcDbLine
 10
409.1961252070406
 20
544.951221593226
 30
0.0
 11
408.8961252070405
 21
545.2512215932261
 31
0.0
  0
LINE
  5
C1F7
330
18
100
AcDbEntity
  8
01
100
AcDbLine
 10
424.8961252070405
 20
544.001221593226
 30
0.0
 11
491.9461252070406
 21
544.001221593226
 31
0.0
  0
LINE
  5
C1F8
330
18
100
AcDbEntity
  8
01
100
AcDbLine
 10
424.8961252070405
 20
542.401221593226
 30
0.0
 11
491.9461252070406
 21
542.401221593226
 31
0.0
  0
LINE
  5
C1F9
330
18
100
AcDbEntity
  8
01
100
AcDbLine
 10
491.9461252070406
 20
542.401221593226
 30
0.0
 11
491.9461252070406
 21
544.001221593226
 31
0.0
  0
LINE
  5
C1FA
330
18
100
AcDbEntity
  8
01
100
AcDbLine
 10
424.8961252070405
 20
544.001221593226
 30
0.0
 11
424.8961252070405
 21
542.401221593226
 31
0.0
  0
LINE
  5
C1FD
330
18
100
AcDbEntity
  8
01
100
AcDbLine
 10
426.3961252070405
 20
419.9007024028305
 30
0.0
 11
426.3961252070405
 21
419.4007024028305
 31
0.0
  0
LINE
  5
C1FE
330
18
100
AcDbEntity
  8
01
100
AcDbLine
 10
426.3961252070405
 20
419.9007024028305
 30
0.0
 11
426.2961252070403
 21
419.9007024028305
 31
0.0
  0
LINE
  5
C1FF
330
18
100
AcDbEntity
  8
01
100
AcDbLine
 10
426.2961252070404
 20
425.9007024028305
 30
0.0
 11
426.3961252070405
 21
425.9007024028305
 31
0.0
  0
LINE
  5
C200
330
18
100
AcDbEntity
  8
01
100
AcDbLine
 10
426.2961252070405
 20
461.9007024028305
 30
0.0
 11
426.3961252070405
 21
461.9007024028305
 31
0.0
  0
LINE
  5
C201
330
18
100
AcDbEntity
  8
01
100
AcDbLine
 10
426.3961252070405
 20
468.4007024028294
 30
0.0
 11
426.3961252070405
 21
467.9007024028305
 31
0.0
  0
LINE
  5
C202
330
18
100
AcDbEntity
  8
01
100
AcDbLine
 10
452.1961252070405
 20
468.6507024028305
 30
0.0
 11
427.9764732699679
 21
468.6507024028304
 31
0.0
  0
CIRCLE
  5
C205
330
18
100
AcDbEntity
  8
01
100
AcDbCircle
 10
445.6961252070405
 20
440.3007024028305
 30
0.0
 40
1.799999999999997
  0
LINE
  5
C206
330
18
100
AcDbEntity
  8
01
100
AcDbLine
 10
426.3961252070405
 20
461.9007024028305
 30
0.0
 11
426.3961252070405
 21
461.4007024028304
 31
0.0
  0
LINE
  5
C207
330
18
100
AcDbEntity
  8
01
100
AcDbLine
 10
426.3961252070405
 20
467.9007024028305
 30
0.0
 11
426.2961252070405
 21
467.9007024028305
 31
0.0
  0
LINE
  5
C220
330
18
100
AcDbEntity
  8
1CENTER
100
AcDbLine
 10
420.2988730190405
 20
486.4007024028305
 30
0.0
 11
429.7988730190405
 21
486.4007024028305
 31
0.0
  0
LINE
  5
C482
330
18
100
AcDbEntity
  8
01
100
AcDbLine
 10
367.7561246060055
 20
391.4007024028305
 30
0.0
 11
342.9561246060055
 21
391.4007024028305
 31
0.0
  0
LINE
  5
C483
330
18
100
AcDbEntity
  8
1CENTER
100
AcDbLine
 10
360.8609729140807
 20
401.4007024028305
 30
0.0
 11
349.8512762979302
 21
401.4007024028305
 31
0.0
  0
LINE
  5
C484
330
18
100
AcDbEntity
  8
1CENTER
100
AcDbLine
 10
355.3561246060054
 20
395.8958540947552
 30
0.0
 11
355.3561246060054
 21
406.9055507109057
 31
0.0
  0
CIRCLE
  5
C485
330
18
100
AcDbEntity
  8
01
100
AcDbCircle
 10
355.3561246060054
 20
401.4007024028305
 30
0.0
 40
4.0
  0
CIRCLE
  5
C486
330
18
100
AcDbEntity
  8
01
100
AcDbCircle
 10
355.3561246060054
 20
401.4007024028305
 30
0.0
 40
2.75
  0
LINE
  5
C570
330
18
100
AcDbEntity
  8
01
100
AcDbLine
 10
423.1961252070405
 20
554.6512215932261
 30
0.0
 11
409.1961252070406
 21
554.6512215932261
 31
0.0
  0
LINE
  5
C572
330
18
100
AcDbEntity
  8
01
100
AcDbLine
 10
423.1961252070405
 20
545.2512215932261
 30
0.0
 11
409.1961252070406
 21
545.2512215932261
 31
0.0
  0
LINE
  5
C761
330
18
100
AcDbEntity
  8
01
100
AcDbLine
 10
425.5961252070405
 20
542.4012215932261
 30
0.0
 11
425.5961252070405
 21
537.701221593226
 31
0.0
  0
LINE
  5
CB2E
330
18
100
AcDbEntity
  8
01
100
AcDbLine
 10
462.1961252070406
 20
419.1507024028305
 30
0.0
 11
490.1961252070405
 21
419.1507024028305
 31
0.0
  0
LINE
  5
CB31
330
18
100
AcDbEntity
  8
01
100
AcDbLine
 10
490.1961252070406
 20
468.6507024028305
 30
0.0
 11
462.1961252070406
 21
468.6507024028305
 31
0.0
  0
LINE
  5
CB32
330
18
100
AcDbEntity
  8
01
100
AcDbLine
 10
491.9461252070406
 20
466.9007024028305
 30
0.0
 11
490.1961252070406
 21
468.6507024028305
 31
0.0
  0
LINE
  5
CB33
330
18
100
AcDbEntity
  8
01
100
AcDbLine
 10
491.9461252070406
 20
466.9007024028305
 30
0.0
 11
491.9461252070406
 21
448.9007024028305
 31
0.0
  0
LINE
  5
CB34
330
18
100
AcDbEntity
  8
01
100
AcDbLine
 10
491.9461252070406
 20
448.9007024028305
 30
0.0
 11
490.5961252070406
 21
448.9007024028305
 31
0.0
  0
LINE
  5
CB35
330
18
100
AcDbEntity
  8
01
100
AcDbLine
 10
490.5961252070406
 20
448.9007024028305
 30
0.0
 11
490.5961252070406
 21
438.9007024028305
 31
0.0
  0
LINE
  5
CB36
330
18
100
AcDbEntity
  8
01
100
AcDbLine
 10
490.5961252070406
 20
438.9007024028305
 30
0.0
 11
491.9461252070406
 21
438.9007024028305
 31
0.0
  0
LINE
  5
CB37
330
18
100
AcDbEntity
  8
01
100
AcDbLine
 10
491.9461252070406
 20
438.9007024028305
 30
0.0
 11
491.9461252070406
 21
420.9007024028305
 31
0.0
  0
LINE
  5
CB38
330
18
100
AcDbEntity
  8
01
100
AcDbLine
 10
490.1961252070405
 20
419.1507024028305
 30
0.0
 11
491.9461252070406
 21
420.9007024028305
 31
0.0
  0
LINE
  5
CBD3
330
18
100
AcDbEntity
  8
1CENTER
100
AcDbLine
 10
457.6011252071701
 20
460.900702402831
 30
0.0
 11
465.7911252069101
 21
460.900702402831
 31
0.0
  0
LINE
  5
CBD4
330
18
100
AcDbEntity
  8
1CENTER
100
AcDbLine
 10
461.69612520704
 20
456.80570240296
 30
0.0
 11
461.69612520704
 21
464.9957024027011
 31
0.0
  0
LINE
  5
CBD5
330
18
100
AcDbEntity
  8
1CENTER
100
AcDbLine
 10
482.6011252071701
 20
460.900702402831
 30
0.0
 11
490.7911252069101
 21
460.900702402831
 31
0.0
  0
LINE
  5
CBD6
330
18
100
AcDbEntity
  8
1CENTER
100
AcDbLine
 10
486.69612520704
 20
456.80570240296
 30
0.0
 11
486.69612520704
 21
464.9957024027011
 31
0.0
  0
CIRCLE
  5
CBD7
330
18
100
AcDbEntity
  8
01
100
AcDbCircle
 10
474.1961252070405
 20
426.4007024028306
 30
0.0
 40
3.100000000000051
  0
LINE
  5
CBD9
330
18
100
AcDbEntity
  8
1CENTER
100
AcDbLine
 10
467.82612520704
 20
460.9007024028299
 30
0.0
 11
480.56612520704
 21
460.9007024028299
 31
0.0
  0
LINE
  5
CBDA
330
18
100
AcDbEntity
  8
1CENTER
100
AcDbLine
 10
474.19612520704
 20
454.5307024028299
 30
0.0
 11
474.19612520704
 21
467.27070240283
 31
0.0
  0
ARC
  5
D62F
330
18
100
AcDbEntity
  8
01
100
AcDbCircle
 10
426.2961252070401
 20
459.037960703033
 30
0.0
 40
1.6
100
AcDbArc
 50
135.0
 51
180.0
  0
ARC
  5
D630
330
18
100
AcDbEntity
  8
01
100
AcDbCircle
 10
426.2961252070401
 20
470.7634441026269
 30
0.0
 40
1.6
100
AcDbArc
 50
180.0
 51
225.0
  0
LINE
  5
D631
330
18
100
AcDbEntity
  8
01
100
AcDbLine
 10
426.39612520704
 20
461.4007024028299
 30
0.0
 11
426.39612520704
 21
468.4007024028299
 31
0.0
  0
LINE
  5
D632
330
18
100
AcDbEntity
  8
01
100
AcDbLine
 10
427.9961252070401
 20
461.4007024028299
 30
0.0
 11
427.9961252070401
 21
468.4007024028299
 31
0.0
  0
ARC
  5
D633
330
18
100
AcDbEntity
  8
01
100
AcDbCircle
 10
426.39612520704
 20
468.4007024028299
 30
0.0
 40
1.6
100
AcDbArc
 50
0.0
 51
45.0
  0
LINE
  5
D634
330
18
100
AcDbEntity
  8
01
100
AcDbLine
 10
426.39612520704
 20
468.4007024028299
 30
0.0
 11
425.1647543571415
 21
469.6320732527284
 31
0.0
  0
LINE
  5
D635
330
18
100
AcDbEntity
  8
01
100
AcDbLine
 10
427.5274960569385
 20
469.5320732527285
 30
0.0
 11
426.2961252070401
 21
470.7634441026269
 31
0.0
  0
LINE
  5
D636
330
18
100
AcDbEntity
  8
01
100
AcDbLine
 10
426.39612520704
 20
461.4007024028299
 30
0.0
 11
425.1647543571416
 21
460.1693315529315
 31
0.0
  0
LINE
  5
D637
330
18
100
AcDbEntity
  8
01
100
AcDbLine
 10
427.5274960569385
 20
460.2693315529315
 30
0.0
 11
426.2961252070401
 21
459.0379607030331
 31
0.0
  0
ARC
  5
D638
330
18
100
AcDbEntity
  8
01
100
AcDbCircle
 10
426.39612520704
 20
461.4007024028299
 30
0.0
 40
1.6
100
AcDbArc
 50
315.0
 51
0.0
  0
ARC
  5
D639
330
18
100
AcDbEntity
  8
01
100
AcDbCircle
 10
426.2961252070401
 20
417.037960703033
 30
0.0
 40
1.6
100
AcDbArc
 50
135.0
 51
180.0
  0
ARC
  5
D63A
330
18
100
AcDbEntity
  8
01
100
AcDbCircle
 10
426.2961252070401
 20
428.7634441026269
 30
0.0
 40
1.6
100
AcDbArc
 50
180.0
 51
225.0
  0
LINE
  5
D63B
330
18
100
AcDbEntity
  8
01
100
AcDbLine
 10
426.39612520704
 20
419.4007024028299
 30
0.0
 11
426.39612520704
 21
426.4007024028299
 31
0.0
  0
LINE
  5
D63C
330
18
100
AcDbEntity
  8
01
100
AcDbLine
 10
427.9961252070401
 20
419.4007024028299
 30
0.0
 11
427.9961252070401
 21
426.4007024028299
 31
0.0
  0
ARC
  5
D63D
330
18
100
AcDbEntity
  8
01
100
AcDbCircle
 10
426.39612520704
 20
426.4007024028299
 30
0.0
 40
1.6
100
AcDbArc
 50
0.0
 51
45.0
  0
LINE
  5
D63E
330
18
100
AcDbEntity
  8
01
100
AcDbLine
 10
426.39612520704
 20
426.4007024028299
 30
0.0
 11
425.1647543571415
 21
427.6320732527284
 31
0.0
  0
LINE
  5
D63F
330
18
100
AcDbEntity
  8
01
100
AcDbLine
 10
427.5274960569385
 20
427.5320732527285
 30
0.0
 11
426.2961252070401
 21
428.7634441026269
 31
0.0
  0
LINE
  5
D640
330
18
100
AcDbEntity
  8
01
100
AcDbLine
 10
426.39612520704
 20
419.4007024028299
 30
0.0
 11
425.1647543571416
 21
418.1693315529315
 31
0.0
  0
LINE
  5
D641
330
18
100
AcDbEntity
  8
01
100
AcDbLine
 10
427.5274960569385
 20
418.2693315529315
 30
0.0
 11
426.2961252070401
 21
417.0379607030331
 31
0.0
  0
ARC
  5
D642
330
18
100
AcDbEntity
  8
01
100
AcDbCircle
 10
426.39612520704
 20
419.4007024028299
 30
0.0
 40
1.6
100
AcDbArc
 50
315.0
 51
0.0
  0
LINE
  5
D643
330
18
100
AcDbEntity
  8
01
100
AcDbLine
 10
426.2961252070406
 20
470.7634441026266
 30
0.0
 11
426.2961252070405
 21
475.0279101966948
 31
0.0
  0
LINE
  5
D644
330
18
100
AcDbEntity
  8
01
100
AcDbLine
 10
426.2961252070406
 20
461.3007024028306
 30
0.0
 11
426.2961252070406
 21
468.5007024028291
 31
0.0
  0
LINE
  5
D645
330
18
100
AcDbEntity
  8
01
100
AcDbLine
 10
426.3961252070405
 20
459.1379607030336
 30
0.0
 11
426.3961252070405
 21
428.6634441026266
 31
0.0
  0
LINE
  5
D650
330
18
100
AcDbEntity
  8
01
100
AcDbLine
 10
426.3961252070405
 20
426.4007024028295
 30
0.0
 11
426.3961252070405
 21
425.9007024028305
 31
0.0
  0
LINE
  5
D651
330
18
100
AcDbEntity
  8
01
100
AcDbLine
 10
426.2961252070405
 20
428.7634441026266
 30
0.0
 11
426.2961252070406
 21
459.0379607030337
 31
0.0
  0
LINE
  5
D652
330
18
100
AcDbEntity
  8
01
100
AcDbLine
 10
427.976473269968
 20
419.1507024028305
 30
0.0
 11
452.1961252070406
 21
419.1507024028305
 31
0.0
  0
LINE
  5
D653
330
18
100
AcDbEntity
  8
01
100
AcDbLine
 10
426.2961252070403
 20
419.3007024028303
 30
0.0
 11
426.2961252070405
 21
426.5007024028297
 31
0.0
  0
LINE
  5
D798
330
18
100
AcDbEntity
  8
01
100
AcDbLine
 10
195.0623207382488
 20
476.6775905465227
 30
0.0
 11
195.0623207382488
 21
441.4775895465227
 31
0.0
  0
LINE
  5
D799
330
18
100
AcDbEntity
  8
01
100
AcDbLine
 10
208.2623207382488
 20
493.0775905465227
 30
0.0
 11
208.2623207382488
 21
425.0775905465227
 31
0.0
  0
LINE
  5
D79A
330
18
100
AcDbEntity
  8
01
100
AcDbLine
 10
207.8623187382487
 20
441.0775905465227
 30
0.0
 11
207.8623187382487
 21
425.0775905465227
 31
0.0
  0
LINE
  5
D79B
330
18
100
AcDbEntity
  8
01
100
AcDbLine
 10
207.8623187382487
 20
425.0775905465227
 30
0.0
 11
208.2623207382488
 21
425.0775905465227
 31
0.0
  0
LINE
  5
D79C
330
18
100
AcDbEntity
  8
01
100
AcDbLine
 10
195.4623207382488
 20
441.0775905465227
 30
0.0
 11
208.2623207382488
 21
441.0775905465227
 31
0.0
  0
ARC
  5
D79D
330
18
100
AcDbEntity
  8
01
100
AcDbCircle
 10
256.5808891524919
 20
431.5775905465227
 30
0.0
 40
3.0
100
AcDbArc
 50
0.0
 51
180.000010000001
  0
LINE
  5
D79E
330
18
100
AcDbEntity
  8
01
100
AcDbLine
 10
207.8623187382487
 20
493.0775905465227
 30
0.0
 11
207.8623187382487
 21
477.0775905465227
 31
0.0
  0
LINE
  5
D79F
330
18
100
AcDbEntity
  8
01
100
AcDbLine
 10
195.4623207382488
 20
477.0775905465227
 30
0.0
 11
208.2623207382488
 21
477.0775905465227
 31
0.0
  0
LINE
  5
D7A0
330
18
100
AcDbEntity
  8
01
100
AcDbLine
 10
207.8623187382487
 20
493.0775905465227
 30
0.0
 11
208.2623207382488
 21
493.0775905465227
 31
0.0
  0
ARC
  5
D7A1
330
18
100
AcDbEntity
  8
01
100
AcDbCircle
 10
256.5808891524919
 20
486.5775925465227
 30
0.0
 40
3.0
100
AcDbArc
 50
179.999989999999
 51
0.0000100179138904
  0
LINE
  5
D7A2
330
18
100
AcDbEntity
  8
01
100
AcDbLine
 10
246.5808891524919
 20
409.6016776868963
 30
0.0
 11
246.5808891524919
 21
409.2016776868963
 31
0.0
  0
LINE
  5
D7A3
330
18
100
AcDbEntity
  8
01
100
AcDbLine
 10
266.5808891524919
 20
409.6016776868963
 30
0.0
 11
266.5808891524919
 21
409.2016776868963
 31
0.0
  0
LINE
  5
D7A4
330
18
100
AcDbEntity
  8
01
100
AcDbLine
 10
253.5808891524919
 20
409.2016776868963
 30
0.0
 11
253.5808891524919
 21
409.6016776868963
 31
0.0
  0
LINE
  5
D7A5
330
18
100
AcDbEntity
  8
01
100
AcDbLine
 10
259.5808891524919
 20
409.6016776868963
 30
0.0
 11
259.5808891524919
 21
409.2016776868963
 31
0.0
  0
LINE
  5
D7A6
330
18
100
AcDbEntity
  8
01
100
AcDbLine
 10
246.5808891524919
 20
409.2016776868963
 30
0.0
 11
266.5808891524919
 21
409.2016776868963
 31
0.0
  0
LINE
  5
D7A7
330
18
100
AcDbEntity
  8
01
100
AcDbLine
 10
266.9808901524918
 20
396.8016776868963
 30
0.0
 11
266.9808901524918
 21
409.6016776868963
 31
0.0
  0
LINE
  5
D7A8
330
18
100
AcDbEntity
  8
01
100
AcDbLine
 10
246.1808891524919
 20
396.8016776868963
 30
0.0
 11
246.1808891524919
 21
409.6016776868963
 31
0.0
  0
LINE
  5
D7A9
330
18
100
AcDbEntity
  8
01
100
AcDbLine
 10
246.5808891524919
 20
396.4016776868963
 30
0.0
 11
266.5808891524919
 21
396.4016776868963
 31
0.0
  0
LINE
  5
D7AA
330
18
100
AcDbEntity
  8
01
100
AcDbLine
 10
246.5808891524919
 20
409.2016776868963
 30
0.0
 11
246.5808891524919
 21
396.4016776868963
 31
0.0
  0
LINE
  5
D7AB
330
18
100
AcDbEntity
  8
01
100
AcDbLine
 10
266.5808891524919
 20
409.2016776868963
 30
0.0
 11
266.5808891524919
 21
396.4016776868963
 31
0.0
  0
ARC
  5
D7AC
330
18
100
AcDbEntity
  8
01
100
AcDbCircle
 10
246.5808891524919
 20
396.8016776868963
 30
0.0
 40
0.4000000000000128
100
AcDbArc
 50
180.0
 51
270.0
  0
ARC
  5
D7AD
330
18
100
AcDbEntity
  8
01
100
AcDbCircle
 10
266.5808891524919
 20
396.8016776868963
 30
0.0
 40
0.4000000000000057
100
AcDbArc
 50
270.0
 51
0.0
  0
ARC
  5
D7AE
330
18
100
AcDbEntity
  8
01
100
AcDbCircle
 10
195.4623207382488
 20
476.6775905465227
 30
0.0
 40
0.4000000000000057
100
AcDbArc
 50
90.0
 51
180.0
  0
ARC
  5
D7AF
330
18
100
AcDbEntity
  8
01
100
AcDbCircle
 10
195.4623207382488
 20
441.4775895465227
 30
0.0
 40
0.3999999999999986
100
AcDbArc
 50
180.0
 51
270.0
  0
LINE
  5
D7B0
330
18
100
AcDbEntity
  8
01
100
AcDbLine
 10
209.7623207382488
 20
494.0775901465227
 30
0.0
 11
209.7623207382488
 21
424.0775897465226
 31
0.0
  0
LINE
  5
D7B1
330
18
100
AcDbEntity
  8
01
100
AcDbLine
 10
208.2623207382488
 20
494.0775901465227
 30
0.0
 11
208.2623207382488
 21
424.0775897465226
 31
0.0
  0
LINE
  5
D7B2
330
18
100
AcDbEntity
  8
01
100
AcDbLine
 10
208.2623207382488
 20
424.0775897465226
 30
0.0
 11
209.7623207382488
 21
424.0775897465226
 31
0.0
  0
LINE
  5
D7B3
330
18
100
AcDbEntity
  8
01
100
AcDbLine
 10
208.2623207382488
 20
493.0775905465227
 30
0.0
 11
208.2623207382488
 21
425.0775905465227
 31
0.0
  0
LINE
  5
D7B4
330
18
100
AcDbEntity
  8
01
100
AcDbLine
 10
208.2623207382488
 20
494.0775905465226
 30
0.0
 11
209.7623207382488
 21
494.0775905465226
 31
0.0
  0
LINE
  5
D7C0
330
18
100
AcDbEntity
  8
01
100
AcDbLine
 10
268.9808891524918
 20
409.6016776868963
 30
0.0
 11
268.9808891524918
 21
411.1016776868963
 31
0.0
  0
LINE
  5
D7C1
330
18
100
AcDbEntity
  8
01
100
AcDbLine
 10
244.1808891524918
 20
409.6016776868963
 30
0.0
 11
244.1808891524918
 21
411.1016776868963
 31
0.0
  0
LINE
  5
D7C2
330
18
100
AcDbEntity
  8
01
100
AcDbLine
 10
244.1808891524918
 20
411.1016776868963
 30
0.0
 11
268.9808891524918
 21
411.1016776868963
 31
0.0
  0
LINE
  5
D7C3
330
18
100
AcDbEntity
  8
01
100
AcDbLine
 10
244.1808891524918
 20
409.6016776868963
 30
0.0
 11
268.9808891524918
 21
409.6016776868963
 31
0.0
  0
LINE
  5
D7C4
330
18
100
AcDbEntity
  8
01
100
AcDbLine
 10
246.1808891524919
 20
409.6016776868963
 30
0.0
 11
266.9808901524918
 21
409.6016776868963
 31
0.0
  0
LINE
  5
D7C5
330
18
100
AcDbEntity
  8
01
100
AcDbLine
 10
263.0808891524919
 20
473.5775901465228
 30
0.0
 11
263.0808891524919
 21
444.5775891465227
 31
0.0
  0
ARC
  5
D7C6
330
18
100
AcDbEntity
  8
01
100
AcDbCircle
 10
261.5808891524919
 20
444.5775891465227
 30
0.0
 40
1.5
100
AcDbArc
 50
270.0
 51
0.0
  0
ARC
  5
D7C7
330
18
100
AcDbEntity
  8
01
100
AcDbCircle
 10
261.5808891524919
 20
473.5775901465228
 30
0.0
 40
1.5
100
AcDbArc
 50
0.0
 51
90.0
  0
LINE
  5
D7C8
330
18
100
AcDbEntity
  8
01
100
AcDbLine
 10
250.0808891524919
 20
473.5775901465228
 30
0.0
 11
250.0808891524919
 21
444.5775891465227
 31
0.0
  0
ARC
  5
D7C9
330
18
100
AcDbEntity
  8
01
100
AcDbCircle
 10
251.5808891524919
 20
473.5775901465228
 30
0.0
 40
1.5
100
AcDbArc
 50
90.0
 51
180.0
  0
LINE
  5
D7CA
330
18
100
AcDbEntity
  8
01
100
AcDbLine
 10
268.9808891524918
 20
494.0775901465227
 30
0.0
 11
268.9808891524918
 21
424.0775897465227
 31
0.0
  0
LINE
  5
D7CB
330
18
100
AcDbEntity
  8
01
100
AcDbLine
 10
244.1808891524919
 20
494.0775901465227
 30
0.0
 11
244.1808891524919
 21
424.0775897465227
 31
0.0
  0
LINE
  5
D7CC
330
18
100
AcDbEntity
  8
01
100
AcDbLine
 10
244.1808891524919
 20
424.0775897465227
 30
0.0
 11
268.9808891524918
 21
424.0775897465227
 31
0.0
  0
CIRCLE
  5
D7CD
330
18
100
AcDbEntity
  8
01
100
AcDbCircle
 10
256.5808891524919
 20
432.0775893165227
 30
0.0
 40
4.400002
  0
CIRCLE
  5
D7CE
330
18
100
AcDbEntity
  8
01
100
AcDbCircle
 10
256.5808891524919
 20
432.0775893165227
 30
0.0
 40
3.4000001
  0
LINE
  5
D7CF
330
18
100
AcDbEntity
  8
01
100
AcDbLine
 10
251.5808891524919
 20
443.0775891465227
 30
0.0
 11
261.5808891524919
 21
443.0775891465227
 31
0.0
  0
ARC
  5
D7D0
330
18
100
AcDbEntity
  8
01
100
AcDbCircle
 10
251.5808891524919
 20
444.5775891465227
 30
0.0
 40
1.5
100
AcDbArc
 50
180.0
 51
270.0
  0
LINE
  5
D7D1
330
18
100
AcDbEntity
  8
01
100
AcDbLine
 10
244.1808891524919
 20
494.0775901465227
 30
0.0
 11
268.9808891524918
 21
494.0775901465227
 31
0.0
  0
CIRCLE
  5
D7D2
330
18
100
AcDbEntity
  8
01
100
AcDbCircle
 10
256.5808891524919
 20
486.0775901465227
 30
0.0
 40
3.4000001
  0
CIRCLE
  5
D7D3
330
18
100
AcDbEntity
  8
01
100
AcDbCircle
 10
256.5808891524919
 20
486.0775901465227
 30
0.0
 40
4.400002
  0
LINE
  5
D7D4
330
18
100
AcDbEntity
  8
01
100
AcDbLine
 10
251.5808891524919
 20
475.0775901465228
 30
0.0
 11
261.5808891524919
 21
475.0775901465228
 31
0.0
  0
LINE
  5
D7D5
330
18
100
AcDbEntity
  8
1CENTER
100
AcDbLine
 10
250.8608865526219
 20
486.0775901465227
 30
0.0
 11
262.3008917523618
 21
486.0775901465227
 31
0.0
  0
LINE
  5
D7D6
330
18
100
AcDbEntity
  8
1CENTER
100
AcDbLine
 10
256.5808891524919
 20
480.3575875466527
 30
0.0
 11
256.5808891524919
 21
491.7975927463931
 31
0.0
  0
LINE
  5
D7D7
330
18
100
AcDbEntity
  8
1CENTER
100
AcDbLine
 10
250.8608865526219
 20
432.0775893165227
 30
0.0
 11
262.3008917523618
 21
432.0775893165227
 31
0.0
  0
LINE
  5
D7D8
330
18
100
AcDbEntity
  8
1CENTER
100
AcDbLine
 10
256.5808891524919
 20
426.3575867166527
 30
0.0
 11
256.5808891524919
 21
437.7975919163927
 31
0.0
  0
LINE
  5
E5D4
330
18
100
AcDbEntity
  8
01
  6
CONTINUOUS
100
AcDbLine
 10
476.486128661759
 20
557.3114415945582
 30
0.0
 11
476.5963486630911
 21
557.201221593226
 31
0.0
1001
ACAD
1010
0.0
1020
0.0
1030
0.0
  0
LINE
  5
E5D5
330
18
100
AcDbEntity
  8
01
  6
CONTINUOUS
100
AcDbLine
 10
475.9133212188506
 20
557.4352362314131
 30
0.0
 11
476.1473358570377
 21
557.201221593226
 31
0.0
1001
ACAD
1010
0.0
1020
0.0
1030
0.0
  0
LINE
  5
E5D6
330
18
100
AcDbEntity
  8
01
  6
CONTINUOUS
100
AcDbLine
 10
475.3826465247667
 20
557.5168981194436
 30
0.0
 11
475.6983230509842
 21
557.201221593226
 31
0.0
1001
ACAD
1010
0.0
1020
0.0
1030
0.0
  0
LINE
  5
E5D7
330
18
100
AcDbEntity
  8
01
  6
CONTINUOUS
100
AcDbLine
 10
474.8992820641647
 20
557.551249773992
 30
0.0
 11
475.2493102449308
 21
557.201221593226
 31
0.0
1001
ACAD
1010
0.0
1020
0.0
1030
0.0
  0
LINE
  5
E5D8
330
18
100
AcDbEntity
  8
01
  6
CONTINUOUS
100
AcDbLine
 10
474.4159176035627
 20
557.5856014285406
 30
0.0
 11
474.8002974388774
 21
557.201221593226
 31
0.0
1001
ACAD
1010
0.0
1020
0.0
1030
0.0
  0
LINE
  5
E5D9
330
18
100
AcDbEntity
  8
01
  6
CONTINUOUS
100
AcDbLine
 10
473.9675303678489
 20
557.584975858201
 30
0.0
 11
474.1961252070405
 21
557.3563810190094
 31
0.0
1001
ACAD
1010
0.0
1020
0.0
1030
0.0
  0
LINE
  5
E5DA
330
18
100
AcDbEntity
  8
01
  6
CONTINUOUS
100
AcDbLine
 10
474.1961252070405
 20
557.3563810190094
 30
0.0
 11
474.3512846328239
 21
557.201221593226
 31
0.0
1001
ACAD
1010
0.0
1020
0.0
1030
0.0
  0
LINE
  5
E5DB
330
18
100
AcDbEntity
  8
01
  6
CONTINUOUS
100
AcDbLine
 10
473.548310593826
 20
557.5551828261705
 30
0.0
 11
473.9022718267704
 21
557.201221593226
 31
0.0
1001
ACAD
1010
0.0
1020
0.0
1030
0.0
  0
LINE
  5
E5DC
330
18
100
AcDbEntity
  8
01
  6
CONTINUOUS
100
AcDbLine
 10
473.1290908198031
 20
557.5253897941399
 30
0.0
 11
473.4532590207169
 21
557.201221593226
 31
0.0
1001
ACAD
1010
0.0
1020
0.0
1030
0.0
  0
LINE
  5
E5DD
330
18
100
AcDbEntity
  8
01
  6
CONTINUOUS
100
AcDbLine
 10
472.7184636108774
 20
557.4870041970121
 30
0.0
 11
473.0042462146635
 21
557.201221593226
 31
0.0
1001
ACAD
1010
0.0
1020
0.0
1030
0.0
  0
LINE
  5
E5DE
330
18
100
AcDbEntity
  8
01
  6
CONTINUOUS
100
AcDbLine
 10
472.3492458253721
 20
557.4072091764639
 30
0.0
 11
472.55523340861
 21
557.201221593226
 31
0.0
1001
ACAD
1010
0.0
1020
0.0
1030
0.0
  0
LINE
  5
E5DF
330
18
100
AcDbEntity
  8
01
  6
CONTINUOUS
100
AcDbLine
 10
471.9800280398669
 20
557.3274141559158
 30
0.0
 11
472.1062206025566
 21
557.201221593226
 31
0.0
1001
ACAD
1010
0.0
1020
0.0
1030
0.0
  0
LINE
  5
E5E0
330
18
100
AcDbEntity
  8
01
  6
CONTINUOUS
100
AcDbLine
 10
471.6108102543616
 20
557.2476191353676
 30
0.0
 11
471.6572077965031
 21
557.201221593226
 31
0.0
1001
ACAD
1010
0.0
1020
0.0
1030
0.0
  0
LINE
  5
E5E1
330
18
100
AcDbEntity
  8
01
  6
CONTINUOUS
100
AcDbLine
 10
476.7274477020797
 20
557.2592879374565
 30
0.0
 11
476.6693813578491
 21
557.201221593226
 31
0.0
1001
ACAD
1010
0.0
1020
0.0
1030
0.0
  0
LINE
  5
E5E2
330
18
100
AcDbEntity
  8
01
  6
CONTINUOUS
100
AcDbLine
 10
476.3582299165744
 20
557.3390829580047
 30
0.0
 11
476.2203685517957
 21
557.201221593226
 31
0.0
1001
ACAD
1010
0.0
1020
0.0
1030
0.0
  0
LINE
  5
E5E3
330
18
100
AcDbEntity
  8
01
  6
CONTINUOUS
100
AcDbLine
 10
475.9890121310692
 20
557.4188779785529
 30
0.0
 11
475.7713557457423
 21
557.201221593226
 31
0.0
1001
ACAD
1010
0.0
1020
0.0
1030
0.0
  0
LINE
  5
E5E4
330
18
100
AcDbEntity
  8
01
  6
CONTINUOUS
100
AcDbLine
 10
475.6197943455638
 20
557.4986729991011
 30
0.0
 11
475.3223429396888
 21
557.201221593226
 31
0.0
1001
ACAD
1010
0.0
1020
0.0
1030
0.0
  0
LINE
  5
E5E5
330
18
100
AcDbEntity
  8
01
  6
CONTINUOUS
100
AcDbLine
 10
475.2018551100975
 20
557.5297465696882
 30
0.0
 11
474.8733301336353
 21
557.201221593226
 31
0.0
1001
ACAD
1010
0.0
1020
0.0
1030
0.0
  0
LINE
  5
E5E6
330
18
100
AcDbEntity
  8
01
  6
CONTINUOUS
100
AcDbLine
 10
474.7826353360746
 20
557.5595396017187
 30
0.0
 11
474.4243173275819
 21
557.201221593226
 31
0.0
1001
ACAD
1010
0.0
1020
0.0
1030
0.0
  0
LINE
  5
E5E7
330
18
100
AcDbEntity
  8
01
  6
CONTINUOUS
100
AcDbLine
 10
474.3634155620517
 20
557.5893326337492
 30
0.0
 11
474.1961252070405
 21
557.4220422787381
 31
0.0
1001
ACAD
1010
0.0
1020
0.0
1030
0.0
  0
LINE
  5
E5E8
330
18
100
AcDbEntity
  8
01
  6
CONTINUOUS
100
AcDbLine
 10
474.1961252070405
 20
557.4220422787381
 30
0.0
 11
473.9753045215284
 21
557.201221593226
 31
0.0
1001
ACAD
1010
0.0
1020
0.0
1030
0.0
  0
LINE
  5
E5E9
330
18
100
AcDbEntity
  8
01
  6
CONTINUOUS
100
AcDbLine
 10
473.9056481463765
 20
557.5805780241276
 30
0.0
 11
473.5262917154749
 21
557.201221593226
 31
0.0
1001
ACAD
1010
0.0
1020
0.0
1030
0.0
  0
LINE
  5
E5EA
330
18
100
AcDbEntity
  8
01
  6
CONTINUOUS
100
AcDbLine
 10
473.4222836857746
 20
557.5462263695791
 30
0.0
 11
473.0772789094215
 21
557.201221593226
 31
0.0
1001
ACAD
1010
0.0
1020
0.0
1030
0.0
  0
LINE
  5
E5EB
330
18
100
AcDbEntity
  8
01
  6
CONTINUOUS
100
AcDbLine
 10
472.9389192251726
 20
557.5118747150306
 30
0.0
 11
472.628266103368
 21
557.201221593226
 31
0.0
1001
ACAD
1010
0.0
1020
0.0
1030
0.0
  0
LINE
  5
E5EC
330
18
100
AcDbEntity
  8
01
  6
CONTINUOUS
100
AcDbLine
 10
472.3951648620616
 20
557.417133157973
 30
0.0
 11
472.1792532973146
 21
557.201221593226
 31
0.0
1001
ACAD
1010
0.0
1020
0.0
1030
0.0
  0
LINE
  5
E5ED
330
18
100
AcDbEntity
  8
01
  6
CONTINUOUS
100
AcDbLine
 10
471.8223574191531
 20
557.293338521118
 30
0.0
 11
471.7302404912611
 21
557.201221593226
 31
0.0
1001
ACAD
1010
0.0
1020
0.0
1030
0.0
  0
LINE
  5
E5EE
330
18
100
AcDbEntity
  8
1DIM
100
AcDbLine
 10
476.2734890851475
 20
425.6270345312589
 30
0.0
 11
475.0741113701342
 21
426.5262581643994
 31
0.0
  0
LINE
  5
E5EF
330
18
100
AcDbEntity
  8
1DIM
100
AcDbLine
 10
475.9733130071605
 20
427.7256414281468
 30
0.0
 11
474.9697967430051
 21
428.4780195402909
 31
0.0
  0
LINE
  5
E5F0
330
18
100
AcDbEntity
  8
1DIM
100
AcDbLine
 10
475.9733130071605
 20
427.7256414281468
 30
0.0
 11
475.0741113701342
 21
426.5262581643994
 31
0.0
  0
LINE
  5
E5F1
330
18
100
AcDbEntity
  8
1DIM
100
AcDbLine
 10
475.5211109730034
 20
424.6235182671035
 30
0.0
 11
476.2734890851475
 21
425.6270345312589
 31
0.0
  0
LINE
  5
E5F2
330
18
100
AcDbEntity
  8
1DIM
100
AcDbLine
 10
475.5211109730034
 20
424.6235182671035
 30
0.0
 11
474.3217347143759
 21
425.5227146522514
 31
0.0
  0
LINE
  5
E5F3
330
18
100
AcDbEntity
  8
1DIM
100
AcDbLine
 10
474.3217347143759
 20
425.5227146522514
 30
0.0
 11
473.4225278253977
 21
424.3233243832864
 31
0.0
  0
LINE
  5
E5F4
330
18
100
AcDbEntity
  8
1DIM
100
AcDbLine
 10
473.3181771918905
 20
426.27510181184
 30
0.0
 11
472.1187939281431
 21
427.1743034488663
 31
0.0
  0
LINE
  5
E5F5
330
18
100
AcDbEntity
  8
1DIM
100
AcDbLine
 10
473.3181771918905
 20
426.27510181184
 30
0.0
 11
472.4189640627758
 21
425.0757381070173
 31
0.0
  0
LINE
  5
E5F6
330
18
100
AcDbEntity
  8
1DIM
100
AcDbLine
 10
472.4189640627758
 20
425.0757381070173
 30
0.0
 11
473.4225278253977
 21
424.3233243832864
 31
0.0
  0
LINE
  5
E5F7
330
18
100
AcDbEntity
  8
1DIM
100
AcDbLine
 10
474.0705783618409
 20
427.278648830324
 30
0.0
 11
472.8712076518739
 21
428.1778672114882
 31
0.0
  0
LINE
  5
E5F8
330
18
100
AcDbEntity
  8
1DIM
100
AcDbLine
 10
472.8712076518739
 20
428.1778672114882
 30
0.0
 11
472.1187939281431
 21
427.1743034488663
 31
0.0
  0
LINE
  5
E5F9
330
18
100
AcDbEntity
  8
1DIM
100
AcDbLine
 10
474.9697967430051
 20
428.4780195402909
 30
0.0
 11
474.0705783618409
 21
427.278648830324
 31
0.0
  0
LINE
  5
E5FA
330
18
100
AcDbEntity
  8
1DIM
100
AcDbLine
 10
342.9561246060055
 20
496.4007024028305
 30
0.0
 11
342.9561246060055
 21
508.4154812451339
 31
0.0
1001
ACAD
1000
DSTYLE
1002
{
1070
   271
1070
     0
1002
}
  0
LINE
  5
E5FB
330
18
100
AcDbEntity
  8
1DIM
100
AcDbLine
 10
367.7561246060055
 20
496.4007024028305
 30
0.0
 11
367.7561246060055
 21
508.4154812451339
 31
0.0
1001
ACAD
1000
DSTYLE
1002
{
1070
   271
1070
     0
1002
}
  0
LINE
  5
E5FC
330
18
100
AcDbEntity
  8
1DIM
100
AcDbLine
 10
344.9561246060055
 20
507.4154812451339
 30
0.0
 11
365.7561246060055
 21
507.4154812451339
 31
0.0
1001
ACAD
1000
DSTYLE
1002
{
1070
   271
1070
     0
1002
}
  0
LINE
  5
E600
330
18
100
AcDbEntity
  8
1DIM
100
AcDbLine
 10
423.1961252070405
 20
496.4007024028305
 30
0.0
 11
423.1961252070405
 21
513.8938699543672
 31
0.0
  0
LINE
  5
E601
330
18
100
AcDbEntity
  8
1DIM
100
AcDbLine
 10
492.1961252070405
 20
467.1007024028305
 30
0.0
 11
492.1961252070405
 21
513.8938699543672
 31
0.0
  0
LINE
  5
E602
330
18
100
AcDbEntity
  8
1DIM
100
AcDbLine
 10
425.1961252070405
 20
512.8938699543672
 30
0.0
 11
490.1961252070405
 21
512.8938699543672
 31
0.0
  0
LINE
  5
E606
330
18
100
AcDbEntity
  8
1DIM
100
AcDbLine
 10
423.1961252070405
 20
453.2007024028306
 30
0.0
 11
423.1961252070405
 21
462.6277803265103
 31
0.0
  0
LINE
  5
E607
330
18
100
AcDbEntity
  8
1DIM
100
AcDbLine
 10
408.8961252070405
 20
452.9007024028306
 30
0.0
 11
408.8961252070405
 21
462.6277803265103
 31
0.0
  0
LINE
  5
E608
330
18
100
AcDbEntity
  8
1DIM
100
AcDbLine
 10
421.1961252070405
 20
461.6277803265103
 30
0.0
 11
410.8961252070405
 21
461.6277803265103
 31
0.0
  0
LINE
  5
E60C
330
18
100
AcDbEntity
  8
1DIM
100
AcDbLine
 10
350.3561246060054
 20
453.4007024028305
 30
0.0
 11
350.3561246060054
 21
460.4360486719542
 31
0.0
  0
LINE
  5
E60D
330
18
100
AcDbEntity
  8
1DIM
100
AcDbLine
 10
360.3561246060054
 20
453.4007024028305
 30
0.0
 11
360.3561246060054
 21
460.4360486719542
 31
0.0
  0
LINE
  5
E60E
330
18
100
AcDbEntity
  8
1DIM
100
AcDbLine
 10
352.3561246060054
 20
459.4360486719542
 30
0.0
 11
358.3561246060054
 21
459.4360486719542
 31
0.0
  0
LINE
  5
E612
330
18
100
AcDbEntity
  8
1DIM
100
AcDbLine
 10
360.3561246060054
 20
453.4007024028305
 30
0.0
 11
377.2525287002169
 21
453.4007024028305
 31
0.0
  0
LINE
  5
E613
330
18
100
AcDbEntity
  8
1DIM
100
AcDbLine
 10
360.3561246060055
 20
428.4007024028305
 30
0.0
 11
377.2525287002169
 21
428.4007024028305
 31
0.0
  0
LINE
  5
E614
330
18
100
AcDbEntity
  8
1DIM
100
AcDbLine
 10
376.2525287002169
 20
451.4007024028305
 30
0.0
 11
376.2525287002169
 21
430.4007024028305
 31
0.0
  0
LINE
  5
E618
330
18
100
AcDbEntity
  8
1DIM
100
AcDbLine
 10
474.1961252070405
 20
557.601221593226
 30
0.0
 11
502.6243588583789
 21
557.601221593226
 31
0.0
  0
LINE
  5
E619
330
18
100
AcDbEntity
  8
1DIM
100
AcDbLine
 10
491.9461252070406
 20
542.401221593226
 30
0.0
 11
502.6243588583789
 21
542.401221593226
 31
0.0
  0
LINE
  5
E61A
330
18
100
AcDbEntity
  8
1DIM
100
AcDbLine
 10
501.6243588583789
 20
555.601221593226
 30
0.0
 11
501.6243588583789
 21
544.401221593226
 31
0.0
  0
LINE
  5
E61E
330
18
100
AcDbEntity
  8
1DIM
100
AcDbLine
 10
424.6961252070405
 20
496.4007024028305
 30
0.0
 11
440.9466993162982
 21
496.4007024028305
 31
0.0
  0
LINE
  5
E61F
330
18
100
AcDbEntity
  8
1DIM
100
AcDbLine
 10
427.9159936223969
 20
468.9007024028305
 30
0.0
 11
440.9466993162982
 21
468.9007024028305
 31
0.0
  0
LINE
  5
E620
330
18
100
AcDbEntity
  8
1DIM
100
AcDbLine
 10
439.9466993162982
 20
494.4007024028305
 30
0.0
 11
439.9466993162982
 21
470.9007024028305
 31
0.0
  0
LINE
  5
E624
330
18
100
AcDbEntity
  8
1DIM
100
AcDbLine
 10
490.3961252070404
 20
468.9007024028305
 30
0.0
 11
508.0374580624657
 21
468.9007024028305
 31
0.0
  0
LINE
  5
E625
330
18
100
AcDbEntity
  8
1DIM
100
AcDbLine
 10
490.3961252070404
 20
418.9007024028306
 30
0.0
 11
508.0374580624657
 21
418.9007024028306
 31
0.0
  0
LINE
  5
E626
330
18
100
AcDbEntity
  8
1DIM
100
AcDbLine
 10
507.0374580624657
 20
466.9007024028305
 30
0.0
 11
507.0374580624657
 21
420.9007024028306
 31
0.0
  0
LINE
  5
E62A
330
18
100
AcDbEntity
  8
1DIM
100
AcDbLine
 10
423.1961252070405
 20
496.4007024028305
 30
0.0
 11
423.1961252070405
 21
506.5437930081827
 31
0.0
  0
LINE
  5
E62B
330
18
100
AcDbEntity
  8
1DIM
100
AcDbLine
 10
474.19612520704
 20
467.27070240283
 30
0.0
 11
474.19612520704
 21
506.5437930081827
 31
0.0
  0
LINE
  5
E62C
330
18
100
AcDbEntity
  8
1DIM
100
AcDbLine
 10
425.1961252070405
 20
505.5437930081827
 30
0.0
 11
472.19612520704
 21
505.5437930081827
 31
0.0
  0
LINE
  5
E630
330
18
100
AcDbEntity
  8
1DIM
100
AcDbLine
 10
349.8512762979302
 20
401.4007024028305
 30
0.0
 11
332.2745305349017
 21
401.4007024028305
 31
0.0
1001
ACAD
1000
DSTYLE
1002
{
1070
    79
1070
     2
1070
   179
1070
     2
1070
   272
1070
     2
1070
   341
1005
0
1002
}
  0
LINE
  5
E631
330
18
100
AcDbEntity
  8
1DIM
100
AcDbLine
 10
349.8512762979302
 20
486.4007024028305
 30
0.0
 11
332.2745305349017
 21
486.4007024028305
 31
0.0
1001
ACAD
1000
DSTYLE
1002
{
1070
    79
1070
     2
1070
   179
1070
     2
1070
   272
1070
     2
1070
   341
1005
0
1002
}
  0
LINE
  5
E632
330
18
100
AcDbEntity
  8
1DIM
100
AcDbLine
 10
333.2745305349017
 20
403.4007024028305
 30
0.0
 11
333.2745305349017
 21
484.4007024028305
 31
0.0
1001
ACAD
1000
DSTYLE
1002
{
1070
    79
1070
     2
1070
   179
1070
     2
1070
   272
1070
     2
1070
   341
1005
0
1002
}
  0
LINE
  5
E636
330
18
100
AcDbEntity
  8
1DIM
100
AcDbLine
 10
342.9561246060055
 20
391.4007024028305
 30
0.0
 11
324.0488275028165
 21
391.4007024028305
 31
0.0
1001
ACAD
1000
DSTYLE
1002
{
1070
    79
1070
     2
1070
   179
1070
     2
1070
   272
1070
     2
1070
   341
1005
0
1002
}
  0
LINE
  5
E637
330
18
100
AcDbEntity
  8
1DIM
100
AcDbLine
 10
342.9561246060055
 20
496.4007024028305
 30
0.0
 11
324.0488275028165
 21
496.4007024028305
 31
0.0
1001
ACAD
1000
DSTYLE
1002
{
1070
    79
1070
     2
1070
   179
1070
     2
1070
   272
1070
     2
1070
   341
1005
0
1002
}
  0
LINE
  5
E638
330
18
100
AcDbEntity
  8
1DIM
100
AcDbLine
 10
325.0488275028165
 20
393.4007024028305
 30
0.0
 11
325.0488275028165
 21
494.4007024028305
 31
0.0
1001
ACAD
1000
DSTYLE
1002
{
1070
    79
1070
     2
1070
   179
1070
     2
1070
   272
1070
     2
1070
   341
1005
0
1002
}
  0
LINE
  5
E63C
330
18
100
AcDbEntity
  8
1DIM
100
AcDbLine
 10
408.8961252070405
 20
440.8007024028306
 30
0.0
 11
396.2315476634571
 21
440.8007024028306
 31
0.0
1001
ACAD
1000
DSTYLE
1002
{
1070
    79
1070
     2
1070
   179
1070
     2
1070
   272
1070
     2
1070
   341
1005
0
1002
}
  0
LINE
  5
E63D
330
18
100
AcDbEntity
  8
1DIM
100
AcDbLine
 10
423.1961252070405
 20
496.4007024028305
 30
0.0
 11
396.2315476634571
 21
496.4007024028305
 31
0.0
1001
ACAD
1000
DSTYLE
1002
{
1070
    79
1070
     2
1070
   179
1070
     2
1070
   272
1070
     2
1070
   341
1005
0
1002
}
  0
LINE
  5
E63E
330
18
100
AcDbEntity
  8
1DIM
100
AcDbLine
 10
397.2315476634571
 20
442.8007024028306
 30
0.0
 11
397.2315476634571
 21
494.4007024028305
 31
0.0
1001
ACAD
1000
DSTYLE
1002
{
1070
    79
1070
     2
1070
   179
1070
     2
1070
   272
1070
     2
1070
   341
1005
0
1002
}
  0
LINE
  5
E642
330
18
100
AcDbEntity
  8
1DIM
100
AcDbLine
 10
408.8961252070405
 20
440.8007024028306
 30
0.0
 11
396.2315476634571
 21
440.8007024028306
 31
0.0
1001
ACAD
1000
DSTYLE
1002
{
1070
    79
1070
     2
1070
   179
1070
     2
1070
   272
1070
     2
1070
   341
1005
0
1002
}
  0
LINE
  5
E643
330
18
100
AcDbEntity
  8
1DIM
100
AcDbLine
 10
423.1961252070405
 20
391.4007024028305
 30
0.0
 11
396.2315476634571
 21
391.4007024028305
 31
0.0
1001
ACAD
1000
DSTYLE
1002
{
1070
    79
1070
     2
1070
   179
1070
     2
1070
   272
1070
     2
1070
   341
1005
0
1002
}
  0
LINE
  5
E644
330
18
100
AcDbEntity
  8
1DIM
100
AcDbLine
 10
397.2315476634571
 20
438.8007024028306
 30
0.0
 11
397.2315476634571
 21
393.4007024028305
 31
0.0
1001
ACAD
1000
DSTYLE
1002
{
1070
    79
1070
     2
1070
   179
1070
     2
1070
   272
1070
     2
1070
   341
1005
0
1002
}
  0
LINE
  5
E648
330
18
100
AcDbEntity
  8
1DIM
100
AcDbLine
 10
461.69612520704
 20
464.9957024027011
 30
0.0
 11
461.69612520704
 21
483.2361061945037
 31
0.0
1001
ACAD
1000
DSTYLE
1002
{
1070
    79
1070
     2
1070
   179
1070
     2
1070
   272
1070
     2
1070
   341
1005
0
1002
}
  0
LINE
  5
E649
330
18
100
AcDbEntity
  8
1DIM
100
AcDbLine
 10
486.69612520704
 20
464.9957024027011
 30
0.0
 11
486.69612520704
 21
483.2361061945037
 31
0.0
1001
ACAD
1000
DSTYLE
1002
{
1070
    79
1070
     2
1070
   179
1070
     2
1070
   272
1070
     2
1070
   341
1005
0
1002
}
  0
LINE
  5
E64A
330
18
100
AcDbEntity
  8
1DIM
100
AcDbLine
 10
463.69612520704
 20
482.2361061945037
 30
0.0
 11
484.69612520704
 21
482.2361061945037
 31
0.0
1001
ACAD
1000
DSTYLE
1002
{
1070
    79
1070
     2
1070
   179
1070
     2
1070
   272
1070
     2
1070
   341
1005
0
1002
}
  0
LINE
  5
E64E
330
18
100
AcDbEntity
  8
1DIM
100
AcDbLine
 10
472.1461252070405
 20
462.9507024028305
 30
0.0
 11
466.1695220539164
 21
462.9507024028305
 31
0.0
1001
ACAD
1000
DSTYLE
1002
{
1070
     3
1000
□<>
1070
    79
1070
     2
1070
   179
1070
     2
1070
   272
1070
     2
1070
   341
1005
0
1002
}
  0
LINE
  5
E64F
330
18
100
AcDbEntity
  8
1DIM
100
AcDbLine
 10
472.1461252070405
 20
458.8507024028305
 30
0.0
 11
466.1695220539164
 21
458.8507024028305
 31
0.0
1001
ACAD
1000
DSTYLE
1002
{
1070
     3
1000
□<>
1070
    79
1070
     2
1070
   179
1070
     2
1070
   272
1070
     2
1070
   341
1005
0
1002
}
  0
LINE
  5
E650
330
18
100
AcDbEntity
  8
1DIM
100
AcDbLine
 10
467.1695220539164
 20
464.9507024028305
 30
0.0
 11
467.1695220539164
 21
466.9507024028305
 31
0.0
1001
ACAD
1000
DSTYLE
1002
{
1070
     3
1000
□<>
1070
    79
1070
     2
1070
   179
1070
     2
1070
   272
1070
     2
1070
   341
1005
0
1002
}
  0
LINE
  5
E651
330
18
100
AcDbEntity
  8
1DIM
100
AcDbLine
 10
467.1695220539164
 20
456.8507024028305
 30
0.0
 11
467.1695220539164
 21
442.8840357361638
 31
0.0
1001
ACAD
1000
DSTYLE
1002
{
1070
     3
1000
□<>
1070
    79
1070
     2
1070
   179
1070
     2
1070
   272
1070
     2
1070
   341
1005
0
1002
}
  0
LINE
  5
E652
330
18
100
AcDbEntity
  8
1DIM
100
AcDbLine
 10
467.1695220539164
 20
462.9507024028305
 30
0.0
 11
467.1695220539164
 21
458.8507024028305
 31
0.0
1001
ACAD
1000
DSTYLE
1002
{
1070
     3
1000
□<>
1070
    79
1070
     2
1070
   179
1070
     2
1070
   272
1070
     2
1070
   341
1005
0
1002
}
  0
LINE
  5
E656
330
18
100
AcDbEntity
  8
1DIM
100
AcDbLine
 10
485.8724586876547
 20
460.0981605255163
 30
0.0
 11
487.5197917264262
 21
461.7032442801447
 31
0.0
1001
ACAD_DSTYLE_DIMRADIAL_EXTE
1070
   387
1070
     1
1070
   388
1040
0.0
1070
   390
1040
0.0
1001
ACAD
1000
DSTYLE
1002
{
1070
    79
1070
     2
1070
   179
1070
     2
1070
   272
1070
     2
1070
   341
1005
0
1002
}
  0
LINE
  5
E657
330
18
100
AcDbEntity
  8
1DIM
100
AcDbLine
 10
488.9522552384014
 20
463.0989692841694
 30
0.0
 11
505.7590829104562
 21
479.4747508828746
 31
0.0
1001
ACAD_DSTYLE_DIMRADIAL_EXTE
1070
   387
1070
     1
1070
   388
1040
0.0
1070
   390
1040
0.0
1001
ACAD
1000
DSTYLE
1002
{
1070
    79
1070
     2
1070
   179
1070
     2
1070
   272
1070
     2
1070
   341
1005
0
1002
}
  0
SOLID
  5
E65B
330
18
100
AcDbEntity
  8
1DIM
100
AcDbTrace
 10
456.839252346635
 20
423.3664026119744
 30
0.0
 11
456.2630233016305
 21
425.3103859449287
 31
0.0
 12
457.438585911647
 22
423.6583678878112
 32
0.0
 13
457.438585911647
 23
423.6583678878112
 33
0.0
1001
ACAD
1000
DSTYLE
1002
{
1070
    79
1070
     2
1070
   179
1070
     2
1070
   272
1070
     2
1070
   341
1005
0
1002
}
  0
LINE
  5
E65C
330
18
100
AcDbEntity
  8
1DIM
100
AcDbLine
 10
457.138919129141
 20
423.5123852498928
 30
0.0
 11
467.0645265113358
 21
403.1375319724631
 31
0.0
1001
ACAD
1000
DSTYLE
1002
{
1070
    79
1070
     2
1070
   179
1070
     2
1070
   272
1070
     2
1070
   341
1005
0
1002
}
  0
LINE
  5
E65D
330
18
100
AcDbEntity
  8
1DIM
100
AcDbLine
 10
467.0645265113358
 20
403.1375319724631
 30
0.0
 11
485.7478598446691
 21
403.1375319724631
 31
0.0
1001
ACAD
1000
DSTYLE
1002
{
1070
    79
1070
     2
1070
   179
1070
     2
1070
   272
1070
     2
1070
   341
1005
0
1002
}
  0
TEXT
  5
E65E
330
18
100
AcDbEntity
  8
1DIM
  6
CONTINUOUS
100
AcDbText
 10
469.5311931780024
 20
403.8375319724631
 30
0.0
 40
3.5
  1
スチール
100
AcDbText
  0
SOLID
  5
E65F
330
18
100
AcDbEntity
  8
1DIM
100
AcDbTrace
 10
364.1307331577527
 20
480.1947349760092
 30
0.0
 11
362.9419712684183
 21
478.5521893049311
 31
0.0
 12
363.533758243385
 22
480.4914931200593
 32
0.0
 13
363.533758243385
 23
480.4914931200593
 33
0.0
1001
ACAD
1000
DSTYLE
1002
{
1070
    79
1070
     2
1070
   179
1070
     2
1070
   272
1070
     2
1070
   341
1005
0
1002
}
  0
LINE
  5
E660
330
18
100
AcDbEntity
  8
1DIM
100
AcDbLine
 10
363.8322457005688
 20
480.3431140480342
 30
0.0
 11
375.331289677073
 21
503.4752198750071
 31
0.0
1001
ACAD
1000
DSTYLE
1002
{
1070
    79
1070
     2
1070
   179
1070
     2
1070
   272
1070
     2
1070
   341
1005
0
1002
}
  0
LINE
  5
E661
330
18
100
AcDbEntity
  8
1DIM
100
AcDbLine
 10
375.331289677073
 20
503.4752198750071
 30
0.0
 11
397.7479563437397
 21
503.4752198750071
 31
0.0
1001
ACAD
1000
DSTYLE
1002
{
1070
    79
1070
     2
1070
   179
1070
     2
1070
   272
1070
     2
1070
   341
1005
0
1002
}
  0
TEXT
  5
E662
330
18
100
AcDbEntity
  8
1DIM
  6
CONTINUOUS
100
AcDbText
 10
377.7979563437397
 20
504.1752198750071
 30
0.0
 40
3.5
  1
ステンレス
100
AcDbText
  0
SOLID
  5
E663
330
18
100
AcDbEntity
  8
1DIM
100
AcDbTrace
 10
412.9647130554442
 20
430.2429362046073
 30
0.0
 11
414.241887589204
 21
431.8177175613126
 31
0.0
 12
413.5444894162006
 22
429.9138407534801
 32
0.0
 13
413.5444894162006
 23
429.9138407534801
 33
0.0
1001
ACAD
1000
DSTYLE
1002
{
1070
    79
1070
     2
1070
   179
1070
     2
1070
   272
1070
     2
1070
   341
1005
0
1002
}
  0
LINE
  5
E664
330
18
100
AcDbEntity
  8
1DIM
100
AcDbLine
 10
413.2546012358224
 20
430.0783884790437
 30
0.0
 11
394.0393016978765
 21
396.2262753647648
 31
0.0
1001
ACAD
1000
DSTYLE
1002
{
1070
    79
1070
     2
1070
   179
1070
     2
1070
   272
1070
     2
1070
   341
1005
0
1002
}
  0
LINE
  5
E665
330
18
100
AcDbEntity
  8
1DIM
100
AcDbLine
 10
394.0393016978765
 20
396.2262753647648
 30
0.0
 11
371.6226350312098
 21
396.2262753647648
 31
0.0
1001
ACAD
1000
DSTYLE
1002
{
1070
    79
1070
     2
1070
   179
1070
     2
1070
   272
1070
     2
1070
   341
1005
0
1002
}
  0
TEXT
  5
E666
330
18
100
AcDbEntity
  8
1DIM
  6
CONTINUOUS
100
AcDbText
 10
371.3893016978765
 20
396.9262753647648
 30
0.0
 40
3.5
  1
ステンレス
100
AcDbText
  0
SOLID
  5
E667
330
18
100
AcDbEntity
  8
1DIM
100
AcDbTrace
 10
478.4167286331443
 20
465.335223338014
 30
0.0
 11
476.9551873798553
 21
463.9298734612768
 31
0.0
 12
477.8819372540247
 22
465.7332718592571
 32
0.0
 13
477.8819372540247
 23
465.7332718592571
 33
0.0
1001
ACAD
1000
DSTYLE
1002
{
1070
    79
1070
     2
1070
   179
1070
     2
1070
   272
1070
     2
1070
   341
1005
0
1002
}
  0
LINE
  5
E668
330
18
100
AcDbEntity
  8
1DIM
100
AcDbLine
 10
478.1493329435845
 20
465.5342475986355
 30
0.0
 11
496.8401013128846
 21
490.6459142914471
 31
0.0
1001
ACAD
1000
DSTYLE
1002
{
1070
    79
1070
     2
1070
   179
1070
     2
1070
   272
1070
     2
1070
   341
1005
0
1002
}
  0
LINE
  5
E669
330
18
100
AcDbEntity
  8
1DIM
100
AcDbLine
 10
496.8401013128846
 20
490.6459142914471
 30
0.0
 11
531.6234346462179
 21
490.6459142914471
 31
0.0
1001
ACAD
1000
DSTYLE
1002
{
1070
    79
1070
     2
1070
   179
1070
     2
1070
   272
1070
     2
1070
   341
1005
0
1002
}
  0
TEXT
  5
E66A
330
18
100
AcDbEntity
  8
1DIM
  6
CONTINUOUS
100
AcDbText
 10
499.4234346462179
 20
491.3459142914471
 30
0.0
 40
3.5
  1
亜鉛ダイキャスト
100
AcDbText
  0
LINE
  5
E66B
330
18
100
AcDbEntity
  8
1DIM
100
AcDbLine
 10
457.6011252071701
 20
460.900702402831
 30
0.0
 11
447.8297784530062
 21
460.900702402831
 31
0.0
1001
ACAD
1000
DSTYLE
1002
{
1070
    79
1070
     2
1070
   179
1070
     2
1070
   272
1070
     2
1070
   341
1005
0
1002
}
  0
LINE
  5
E66C
330
18
100
AcDbEntity
  8
1DIM
100
AcDbLine
 10
423.1961252070405
 20
496.4007024028305
 30
0.0
 11
449.8297784530062
 21
496.4007024028305
 31
0.0
1001
ACAD
1000
DSTYLE
1002
{
1070
    79
1070
     2
1070
   179
1070
     2
1070
   272
1070
     2
1070
   341
1005
0
1002
}
  0
LINE
  5
E66D
330
18
100
AcDbEntity
  8
1DIM
100
AcDbLine
 10
448.8297784530062
 20
462.900702402831
 30
0.0
 11
448.8297784530062
 21
494.4007024028305
 31
0.0
1001
ACAD
1000
DSTYLE
1002
{
1070
    79
1070
     2
1070
   179
1070
     2
1070
   272
1070
     2
1070
   341
1005
0
1002
}
  0
LINE
  5
E671
330
18
100
AcDbEntity
  8
1DIM
100
AcDbLine
 10
427.1961252070405
 20
391.9007024028306
 30
0.0
 11
427.1961252070405
 21
379.6169358054292
 31
0.0
1001
ACAD
1000
DSTYLE
1002
{
1070
    79
1070
     2
1070
   179
1070
     2
1070
   272
1070
     2
1070
   341
1005
0
1002
}
  0
LINE
  5
E672
330
18
100
AcDbEntity
  8
1DIM
100
AcDbLine
 10
423.1961252070405
 20
391.4007024028305
 30
0.0
 11
423.1961252070405
 21
379.6169358054292
 31
0.0
1001
ACAD
1000
DSTYLE
1002
{
1070
    79
1070
     2
1070
   179
1070
     2
1070
   272
1070
     2
1070
   341
1005
0
1002
}
  0
LINE
  5
E673
330
18
100
AcDbEntity
  8
1DIM
100
AcDbLine
 10
429.1961252070405
 20
380.6169358054292
 30
0.0
 11
431.1961252070405
 21
380.6169358054292
 31
0.0
1001
ACAD
1000
DSTYLE
1002
{
1070
    79
1070
     2
1070
   179
1070
     2
1070
   272
1070
     2
1070
   341
1005
0
1002
}
  0
LINE
  5
E674
330
18
100
AcDbEntity
  8
1DIM
100
AcDbLine
 10
421.1961252070405
 20
380.6169358054292
 30
0.0
 11
415.2961252070405
 21
380.6169358054292
 31
0.0
1001
ACAD
1000
DSTYLE
1002
{
1070
    79
1070
     2
1070
   179
1070
     2
1070
   272
1070
     2
1070
   341
1005
0
1002
}
  0
LINE
  5
E675
330
18
100
AcDbEntity
  8
1DIM
100
AcDbLine
 10
427.1961252070405
 20
380.6169358054292
 30
0.0
 11
423.1961252070405
 21
380.6169358054292
 31
0.0
1001
ACAD
1000
DSTYLE
1002
{
1070
    79
1070
     2
1070
   179
1070
     2
1070
   272
1070
     2
1070
   341
1005
0
1002
}
  0
LINE
  5
E679
330
18
100
AcDbEntity
  8
1DIM
100
AcDbLine
 10
244.1808891524919
 20
494.0775901465227
 30
0.0
 11
244.1808891524919
 21
507.7288577525199
 31
0.0
1001
ACAD
1000
DSTYLE
1002
{
1070
   271
1070
     0
1002
}
  0
LINE
  5
E67A
330
18
100
AcDbEntity
  8
1DIM
100
AcDbLine
 10
268.9808891524918
 20
494.0775901465227
 30
0.0
 11
268.9808891524918
 21
507.7288577525199
 31
0.0
1001
ACAD
1000
DSTYLE
1002
{
1070
   271
1070
     0
1002
}
  0
LINE
  5
E67B
330
18
100
AcDbEntity
  8
1DIM
100
AcDbLine
 10
246.1808891524919
 20
506.7288577525199
 30
0.0
 11
266.9808891524918
 21
506.7288577525199
 31
0.0
1001
ACAD
1000
DSTYLE
1002
{
1070
   271
1070
     0
1002
}
  0
LINE
  5
E67F
330
18
100
AcDbEntity
  8
1DIM
100
AcDbLine
 10
244.1808891524919
 20
494.0775901465227
 30
0.0
 11
227.850425410502
 21
494.0775901465227
 31
0.0
  0
LINE
  5
E680
330
18
100
AcDbEntity
  8
1DIM
100
AcDbLine
 10
244.1808891524919
 20
424.0775897465227
 30
0.0
 11
227.8504254105019
 21
424.0775897465227
 31
0.0
  0
LINE
  5
E681
330
18
100
AcDbEntity
  8
1DIM
100
AcDbLine
 10
228.850425410502
 20
492.0775901465227
 30
0.0
 11
228.8504254105019
 21
426.0775897465227
 31
0.0
  0
LINE
  5
E685
330
18
100
AcDbEntity
  8
1DIM
100
AcDbLine
 10
195.0623207382488
 20
476.6775905465227
 30
0.0
 11
195.0623207382488
 21
504.9708609693341
 31
0.0
  0
LINE
  5
E686
330
18
100
AcDbEntity
  8
1DIM
100
AcDbLine
 10
209.7623207382488
 20
494.0775905465226
 30
0.0
 11
209.7623207382488
 21
504.9708609693341
 31
0.0
  0
LINE
  5
E687
330
18
100
AcDbEntity
  8
1DIM
100
AcDbLine
 10
197.0623207382488
 20
503.9708609693341
 30
0.0
 11
207.7623207382488
 21
503.9708609693341
 31
0.0
  0
LINE
  5
E68B
330
18
100
AcDbEntity
  8
1DIM
100
AcDbLine
 10
195.4623207382488
 20
477.0775905465227
 30
0.0
 11
183.5196870741809
 21
477.0775905465227
 31
0.0
  0
LINE
  5
E68C
330
18
100
AcDbEntity
  8
1DIM
100
AcDbLine
 10
195.4623207382488
 20
441.0775895465227
 30
0.0
 11
183.5196870741809
 21
441.0775895465227
 31
0.0
  0
LINE
  5
E68D
330
18
100
AcDbEntity
  8
1DIM
100
AcDbLine
 10
184.5196870741809
 20
475.0775905465227
 30
0.0
 11
184.5196870741809
 21
443.0775895465227
 31
0.0
  0
LINE
  5
E691
330
18
100
AcDbEntity
  8
1DIM
100
AcDbLine
 10
246.1808891524919
 20
396.8016776868963
 30
0.0
 11
246.1808891524919
 21
383.6968188054261
 31
0.0
1001
ACAD
1000
DSTYLE
1002
{
1070
   271
1070
     0
1002
}
  0
LINE
  5
E692
330
18
100
AcDbEntity
  8
1DIM
100
AcDbLine
 10
266.9808901524918
 20
396.8016776868963
 30
0.0
 11
266.9808901524918
 21
383.6968188054261
 31
0.0
1001
ACAD
1000
DSTYLE
1002
{
1070
   271
1070
     0
1002
}
  0
LINE
  5
E693
330
18
100
AcDbEntity
  8
1DIM
100
AcDbLine
 10
248.1808891524919
 20
384.6968188054261
 30
0.0
 11
264.9808901524918
 21
384.6968188054261
 31
0.0
1001
ACAD
1000
DSTYLE
1002
{
1070
   271
1070
     0
1002
}
  0
LINE
  5
E697
330
18
100
AcDbEntity
  8
1DIM
100
AcDbLine
 10
262.3008917523618
 20
432.0775893165227
 30
0.0
 11
292.5419659016078
 21
432.0775893165227
 31
0.0
  0
LINE
  5
E698
330
18
100
AcDbEntity
  8
1DIM
100
AcDbLine
 10
262.3008917523618
 20
486.0775901465227
 30
0.0
 11
292.5419659016078
 21
486.0775901465227
 31
0.0
  0
LINE
  5
E699
330
18
100
AcDbEntity
  8
1DIM
100
AcDbLine
 10
291.5419659016078
 20
434.0775893165227
 30
0.0
 11
291.5419659016078
 21
484.0775901465227
 31
0.0
  0
LINE
  5
E69D
330
18
100
AcDbEntity
  8
1DIM
100
AcDbLine
 10
261.5808891524919
 20
443.0775891465227
 30
0.0
 11
285.5457503407697
 21
443.0775891465227
 31
0.0
  0
LINE
  5
E69E
330
18
100
AcDbEntity
  8
1DIM
100
AcDbLine
 10
261.5808891524919
 20
475.0775901465228
 30
0.0
 11
285.5457503407697
 21
475.0775901465228
 31
0.0
  0
LINE
  5
E69F
330
18
100
AcDbEntity
  8
1DIM
100
AcDbLine
 10
284.5457503407697
 20
445.0775891465227
 30
0.0
 11
284.5457503407697
 21
473.0775901465228
 31
0.0
  0
LINE
  5
E6A3
330
18
100
AcDbEntity
  8
1DIM
100
AcDbLine
 10
266.9808901524918
 20
396.8016776868963
 30
0.0
 11
266.9808901524918
 21
383.6968188054261
 31
0.0
  0
LINE
  5
E6A4
330
18
100
AcDbEntity
  8
1DIM
100
AcDbLine
 10
268.9808891524918
 20
409.6016776868963
 30
0.0
 11
268.9808891524918
 21
383.6968188054261
 31
0.0
  0
LINE
  5
E6A5
330
18
100
AcDbEntity
  8
1DIM
100
AcDbLine
 10
264.9808901524918
 20
384.6968188054261
 30
0.0
 11
262.9808901524918
 21
384.6968188054261
 31
0.0
  0
LINE
  5
E6A6
330
18
100
AcDbEntity
  8
1DIM
100
AcDbLine
 10
270.9808891524918
 20
384.6968188054261
 30
0.0
 11
276.7142224858252
 21
384.6968188054261
 31
0.0
  0
LINE
  5
E6A7
330
18
100
AcDbEntity
  8
1DIM
100
AcDbLine
 10
266.9808901524918
 20
384.6968188054261
 30
0.0
 11
268.9808891524918
 21
384.6968188054261
 31
0.0
  0
LINE
  5
E6AB
330
18
100
AcDbEntity
  8
1DIM
100
AcDbLine
 10
246.1808891524919
 20
396.8016776868963
 30
0.0
 11
246.1808891524919
 21
383.6968188054261
 31
0.0
  0
LINE
  5
E6AC
330
18
100
AcDbEntity
  8
1DIM
100
AcDbLine
 10
244.1808891524918
 20
409.6016776868963
 30
0.0
 11
244.1808891524918
 21
383.6968188054261
 31
0.0
  0
LINE
  5
E6AD
330
18
100
AcDbEntity
  8
1DIM
100
AcDbLine
 10
248.1808891524919
 20
384.6968188054261
 30
0.0
 11
250.1808891524919
 21
384.6968188054261
 31
0.0
  0
LINE
  5
E6AE
330
18
100
AcDbEntity
  8
1DIM
100
AcDbLine
 10
242.1808891524918
 20
384.6968188054261
 30
0.0
 11
236.4475558191585
 21
384.6968188054261
 31
0.0
  0
LINE
  5
E6AF
330
18
100
AcDbEntity
  8
1DIM
100
AcDbLine
 10
246.1808891524919
 20
384.6968188054261
 30
0.0
 11
244.1808891524918
 21
384.6968188054261
 31
0.0
  0
LINE
  5
E6B3
330
18
100
AcDbEntity
  8
1DIM
100
AcDbLine
 10
266.5808891524919
 20
409.2016776868963
 30
0.0
 11
283.3346610984412
 21
409.2016776868963
 31
0.0
  0
LINE
  5
E6B4
330
18
100
AcDbEntity
  8
1DIM
100
AcDbLine
 10
268.9808891524918
 20
411.1016776868963
 30
0.0
 11
283.3346610984412
 21
411.1016776868963
 31
0.0
  0
LINE
  5
E6B5
330
18
100
AcDbEntity
  8
1DIM
100
AcDbLine
 10
282.3346610984412
 20
407.2016776868963
 30
0.0
 11
282.3346610984412
 21
405.2016776868963
 31
0.0
  0
LINE
  5
E6B6
330
18
100
AcDbEntity
  8
1DIM
100
AcDbLine
 10
282.3346610984412
 20
413.1016776868963
 30
0.0
 11
282.3346610984412
 21
423.168344353563
 31
0.0
  0
LINE
  5
E6B7
330
18
100
AcDbEntity
  8
1DIM
100
AcDbLine
 10
282.3346610984412
 20
409.2016776868963
 30
0.0
 11
282.3346610984412
 21
411.1016776868963
 31
0.0
  0
LINE
  5
E6BB
330
18
100
AcDbEntity
  8
1DIM
100
AcDbLine
 10
266.5808891524919
 20
396.4016776868963
 30
0.0
 11
290.8347852987569
 21
396.4016776868963
 31
0.0
  0
LINE
  5
E6BC
330
18
100
AcDbEntity
  8
1DIM
100
AcDbLine
 10
268.9808891524918
 20
411.1016776868963
 30
0.0
 11
290.8347852987569
 21
411.1016776868963
 31
0.0
  0
LINE
  5
E6BD
330
18
100
AcDbEntity
  8
1DIM
100
AcDbLine
 10
289.8347852987569
 20
398.4016776868963
 30
0.0
 11
289.8347852987569
 21
409.1016776868963
 31
0.0
  0
LINE
  5
E6C1
330
18
100
AcDbEntity
  8
1DIM
100
AcDbLine
 10
263.0808891524919
 20
473.5775901465228
 30
0.0
 11
263.0808891524919
 21
460.0435180505902
 31
0.0
  0
LINE
  5
E6C2
330
18
100
AcDbEntity
  8
1DIM
100
AcDbLine
 10
250.0808891524919
 20
473.5775901465228
 30
0.0
 11
250.0808891524919
 21
460.0435180505902
 31
0.0
  0
LINE
  5
E6C3
330
18
100
AcDbEntity
  8
1DIM
100
AcDbLine
 10
261.0808891524919
 20
461.0435180505902
 30
0.0
 11
252.0808891524919
 21
461.0435180505902
 31
0.0
  0
LINE
  5
E6C8
330
18
100
AcDbEntity
  8
1DIM
100
AcDbLine
 10
245.0833019899293
 20
493.0189239671286
 30
0.0
 11
235.7896312196097
 21
512.2839261362491
 31
0.0
  0
LINE
  5
E6C9
330
18
100
AcDbEntity
  8
1DIM
100
AcDbLine
 10
235.7896312196097
 20
512.2839261362491
 30
0.0
 11
213.372964552943
 21
512.2839261362491
 31
0.0
  0
TEXT
  5
E6CA
330
18
100
AcDbEntity
  8
1DIM
  6
CONTINUOUS
100
AcDbText
 10
213.1396312196097
 20
512.9839261362491
 30
0.0
 40
3.5
  1
ステンレス
100
AcDbText
  0
LINE
  5
E6CC
330
18
100
AcDbEntity
  8
1DIM
100
AcDbLine
 10
198.1110326953618
 20
474.8763361025935
 30
0.0
 11
191.1583397832422
 21
494.3411842745602
 31
0.0
  0
LINE
  5
E6CD
330
18
100
AcDbEntity
  8
1DIM
100
AcDbLine
 10
191.1583397832422
 20
494.3411842745602
 30
0.0
 11
172.4750064499088
 21
494.3411842745602
 31
0.0
  0
TEXT
  5
E6CE
330
18
100
AcDbEntity
  8
1DIM
  6
CONTINUOUS
100
AcDbText
 10
172.2416731165755
 20
495.0411842745602
 30
0.0
 40
3.5
  1
スチール
100
AcDbText
  0
LINE
  5
E6CF
330
18
100
AcDbEntity
  8
1DIM
100
AcDbLine
 10
423.1961252070405
 20
391.4007024028305
 30
0.0
 11
423.1961252070405
 21
369.4007024028299
 31
0.0
1001
ACAD
1000
DSTYLE
1002
{
1070
   179
1070
     2
1070
    79
1070
     2
1070
   341
1005
0
1070
   272
1070
     2
1002
}
  0
LINE
  5
E6D0
330
18
100
AcDbEntity
  8
1DIM
100
AcDbLine
 10
427.9961252070401
 20
419.4007024028299
 30
0.0
 11
427.9961252070401
 21
369.4007024028299
 31
0.0
1001
ACAD
1000
DSTYLE
1002
{
1070
   179
1070
     2
1070
    79
1070
     2
1070
   341
1005
0
1070
   272
1070
     2
1002
}
  0
LINE
  5
E6D1
330
18
100
AcDbEntity
  8
1DIM
100
AcDbLine
 10
423.1961252070405
 20
370.4007024028299
 30
0.0
 11
410.4627918737071
 21
370.4007024028299
 31
0.0
1001
ACAD
1000
DSTYLE
1002
{
1070
   179
1070
     2
1070
    79
1070
     2
1070
   341
1005
0
1070
   272
1070
     2
1002
}
  0
LINE
  5
E6D2
330
18
100
AcDbEntity
  8
1DIM
100
AcDbLine
 10
423.1961252070405
 20
370.4007024028299
 30
0.0
 11
427.9961252070401
 21
370.4007024028299
 31
0.0
1001
ACAD
1000
DSTYLE
1002
{
1070
   179
1070
     2
1070
    79
1070
     2
1070
   341
1005
0
1070
   272
1070
     2
1002
}
  0
LINE
  5
E6D3
330
18
100
AcDbEntity
  8
1DIM
100
AcDbLine
 10
421.1961252070405
 20
370.4007024028299
 30
0.0
 11
419.1961252070405
 21
370.4007024028299
 31
0.0
1001
ACAD
1000
DSTYLE
1002
{
1070
   179
1070
     2
1070
    79
1070
     2
1070
   341
1005
0
1070
   272
1070
     2
1002
}
  0
LINE
  5
E6D4
330
18
100
AcDbEntity
  8
1DIM
100
AcDbLine
 10
429.9961252070401
 20
370.4007024028299
 30
0.0
 11
431.9961252070401
 21
370.4007024028299
 31
0.0
1001
ACAD
1000
DSTYLE
1002
{
1070
   179
1070
     2
1070
    79
1070
     2
1070
   341
1005
0
1070
   272
1070
     2
1002
}
  0
LINE
  5
E6D8
330
18
100
AcDbEntity
  8
0
  6
BYBLOCK
100
AcDbLine
 10
344.9561246060055
 20
506.879582865134
 30
0.0
 11
342.9561246060055
 21
507.4154812451339
 31
0.0
  0
LINE
  5
E6D9
330
18
100
AcDbEntity
  8
0
  6
BYBLOCK
100
AcDbLine
 10
342.9561246060055
 20
507.4154812451339
 30
0.0
 11
344.9561246060055
 21
507.9513796251339
 31
0.0
  0
LINE
  5
E6DA
330
18
100
AcDbEntity
  8
0
  6
BYBLOCK
100
AcDbLine
 10
342.9561246060055
 20
507.4154812451339
 30
0.0
 11
344.9561246060055
 21
507.4154812451339
 31
0.0
  0
LINE
  5
E6DB
330
18
100
AcDbEntity
  8
0
  6
BYBLOCK
100
AcDbLine
 10
365.7561246060055
 20
507.9513796251339
 30
0.0
 11
367.7561246060055
 21
507.4154812451339
 31
0.0
  0
LINE
  5
E6DC
330
18
100
AcDbEntity
  8
0
  6
BYBLOCK
100
AcDbLine
 10
367.7561246060055
 20
507.4154812451339
 30
0.0
 11
365.7561246060055
 21
506.879582865134
 31
0.0
  0
LINE
  5
E6DD
330
18
100
AcDbEntity
  8
0
  6
BYBLOCK
100
AcDbLine
 10
367.7561246060055
 20
507.4154812451339
 30
0.0
 11
365.7561246060055
 21
507.4154812451339
 31
0.0
  0
TEXT
  5
E6DE
330
18
100
AcDbEntity
  8
1DIM
  6
CONTINUOUS
100
AcDbText
 10
352.4394579393388
 20
508.115481245134
 30
0.0
 40
3.5
  1
25
100
AcDbText
1001
ACAD
1000
DSTYLE
1002
{
1070
   271
1070
     0
1002
}
  0
LINE
  5
E6DF
330
18
100
AcDbEntity
  8
0
  6
BYBLOCK
100
AcDbLine
 10
425.1961252070405
 20
512.3579715743672
 30
0.0
 11
423.1961252070405
 21
512.8938699543672
 31
0.0
  0
LINE
  5
E6E0
330
18
100
AcDbEntity
  8
0
  6
BYBLOCK
100
AcDbLine
 10
423.1961252070405
 20
512.8938699543672
 30
0.0
 11
425.1961252070405
 21
513.4297683343673
 31
0.0
  0
LINE
  5
E6E1
330
18
100
AcDbEntity
  8
0
  6
BYBLOCK
100
AcDbLine
 10
423.1961252070405
 20
512.8938699543672
 30
0.0
 11
425.1961252070405
 21
512.8938699543672
 31
0.0
  0
LINE
  5
E6E2
330
18
100
AcDbEntity
  8
0
  6
BYBLOCK
100
AcDbLine
 10
490.1961252070405
 20
513.4297683343673
 30
0.0
 11
492.1961252070405
 21
512.8938699543672
 31
0.0
  0
LINE
  5
E6E3
330
18
100
AcDbEntity
  8
0
  6
BYBLOCK
100
AcDbLine
 10
492.1961252070405
 20
512.8938699543672
 30
0.0
 11
490.1961252070405
 21
512.3579715743672
 31
0.0
  0
LINE
  5
E6E4
330
18
100
AcDbEntity
  8
0
  6
BYBLOCK
100
AcDbLine
 10
492.1961252070405
 20
512.8938699543672
 30
0.0
 11
490.1961252070405
 21
512.8938699543672
 31
0.0
  0
TEXT
  5
E6E5
330
18
100
AcDbEntity
  8
1DIM
  6
CONTINUOUS
100
AcDbText
 10
454.7664955774109
 20
513.5938699543673
 30
0.0
 40
3.5
  1
69
100
AcDbText
  0
LINE
  5
E6E6
330
18
100
AcDbEntity
  8
0
  6
BYBLOCK
100
AcDbLine
 10
421.1961252070405
 20
462.1636787065103
 30
0.0
 11
423.1961252070405
 21
461.6277803265103
 31
0.0
  0
LINE
  5
E6E7
330
18
100
AcDbEntity
  8
0
  6
BYBLOCK
100
AcDbLine
 10
423.1961252070405
 20
461.6277803265103
 30
0.0
 11
421.1961252070405
 21
461.0918819465103
 31
0.0
  0
LINE
  5
E6E8
330
18
100
AcDbEntity
  8
0
  6
BYBLOCK
100
AcDbLine
 10
423.1961252070405
 20
461.6277803265103
 30
0.0
 11
421.1961252070405
 21
461.6277803265103
 31
0.0
  0
LINE
  5
E6E9
330
18
100
AcDbEntity
  8
0
  6
BYBLOCK
100
AcDbLine
 10
410.8961252070405
 20
461.0918819465103
 30
0.0
 11
408.8961252070405
 21
461.6277803265103
 31
0.0
  0
LINE
  5
E6EA
330
18
100
AcDbEntity
  8
0
  6
BYBLOCK
100
AcDbLine
 10
408.8961252070405
 20
461.6277803265103
 30
0.0
 11
410.8961252070405
 21
462.1636787065103
 31
0.0
  0
LINE
  5
E6EB
330
18
100
AcDbEntity
  8
0
  6
BYBLOCK
100
AcDbLine
 10
408.8961252070405
 20
461.6277803265103
 30
0.0
 11
410.8961252070405
 21
461.6277803265103
 31
0.0
  0
TEXT
  5
E6EC
330
18
100
AcDbEntity
  8
1DIM
  6
CONTINUOUS
100
AcDbText
 10
411.3794585403738
 20
462.3277803265103
 30
0.0
 40
3.5
  1
14.3
100
AcDbText
  0
LINE
  5
E6ED
330
18
100
AcDbEntity
  8
0
  6
BYBLOCK
100
AcDbLine
 10
352.3561246060054
 20
458.9001502919542
 30
0.0
 11
350.3561246060054
 21
459.4360486719542
 31
0.0
  0
LINE
  5
E6EE
330
18
100
AcDbEntity
  8
0
  6
BYBLOCK
100
AcDbLine
 10
350.3561246060054
 20
459.4360486719542
 30
0.0
 11
352.3561246060054
 21
459.9719470519541
 31
0.0
  0
LINE
  5
E6EF
330
18
100
AcDbEntity
  8
0
  6
BYBLOCK
100
AcDbLine
 10
350.3561246060054
 20
459.4360486719542
 30
0.0
 11
352.3561246060054
 21
459.4360486719542
 31
0.0
  0
LINE
  5
E6F0
330
18
100
AcDbEntity
  8
0
  6
BYBLOCK
100
AcDbLine
 10
358.3561246060054
 20
459.9719470519541
 30
0.0
 11
360.3561246060054
 21
459.4360486719542
 31
0.0
  0
LINE
  5
E6F1
330
18
100
AcDbEntity
  8
0
  6
BYBLOCK
100
AcDbLine
 10
360.3561246060054
 20
459.4360486719542
 30
0.0
 11
358.3561246060054
 21
458.9001502919542
 31
0.0
  0
LINE
  5
E6F2
330
18
100
AcDbEntity
  8
0
  6
BYBLOCK
100
AcDbLine
 10
360.3561246060054
 20
459.4360486719542
 30
0.0
 11
358.3561246060054
 21
459.4360486719542
 31
0.0
  0
TEXT
  5
E6F3
330
18
100
AcDbEntity
  8
1DIM
  6
CONTINUOUS
100
AcDbText
 10
353.2415412726721
 20
460.1360486719541
 30
0.0
 40
3.5
  1
10
100
AcDbText
  0
LINE
  5
E6F4
330
18
100
AcDbEntity
  8
0
  6
BYBLOCK
100
AcDbLine
 10
375.7166303202169
 20
451.4007024028305
 30
0.0
 11
376.2525287002169
 21
453.4007024028305
 31
0.0
  0
LINE
  5
E6F5
330
18
100
AcDbEntity
  8
0
  6
BYBLOCK
100
AcDbLine
 10
376.2525287002169
 20
453.4007024028305
 30
0.0
 11
376.7884270802169
 21
451.4007024028305
 31
0.0
  0
LINE
  5
E6F6
330
18
100
AcDbEntity
  8
0
  6
BYBLOCK
100
AcDbLine
 10
376.2525287002169
 20
453.4007024028305
 30
0.0
 11
376.2525287002169
 21
451.4007024028305
 31
0.0
  0
LINE
  5
E6F7
330
18
100
AcDbEntity
  8
0
  6
BYBLOCK
100
AcDbLine
 10
376.7884270802169
 20
430.4007024028305
 30
0.0
 11
376.2525287002169
 21
428.4007024028305
 31
0.0
  0
LINE
  5
E6F8
330
18
100
AcDbEntity
  8
0
  6
BYBLOCK
100
AcDbLine
 10
376.2525287002169
 20
428.4007024028305
 30
0.0
 11
375.7166303202169
 21
430.4007024028305
 31
0.0
  0
LINE
  5
E6F9
330
18
100
AcDbEntity
  8
0
  6
BYBLOCK
100
AcDbLine
 10
376.2525287002169
 20
428.4007024028305
 30
0.0
 11
376.2525287002169
 21
430.4007024028305
 31
0.0
  0
TEXT
  5
E6FA
330
18
100
AcDbEntity
  8
1DIM
  6
CONTINUOUS
100
AcDbText
 10
375.5525287002167
 20
437.9840357361638
 30
0.0
 40
3.5
  1
25
 50
90.0
100
AcDbText
  0
LINE
  5
E6FB
330
18
100
AcDbEntity
  8
0
  6
BYBLOCK
100
AcDbLine
 10
501.0884604783789
 20
555.601221593226
 30
0.0
 11
501.6243588583789
 21
557.601221593226
 31
0.0
  0
LINE
  5
E6FC
330
18
100
AcDbEntity
  8
0
  6
BYBLOCK
100
AcDbLine
 10
501.6243588583789
 20
557.601221593226
 30
0.0
 11
502.1602572383788
 21
555.601221593226
 31
0.0
  0
LINE
  5
E6FD
330
18
100
AcDbEntity
  8
0
  6
BYBLOCK
100
AcDbLine
 10
501.6243588583789
 20
557.601221593226
 30
0.0
 11
501.6243588583789
 21
555.601221593226
 31
0.0
  0
LINE
  5
E6FE
330
18
100
AcDbEntity
  8
0
  6
BYBLOCK
100
AcDbLine
 10
502.1602572383788
 20
544.401221593226
 30
0.0
 11
501.6243588583789
 21
542.401221593226
 31
0.0
  0
LINE
  5
E6FF
330
18
100
AcDbEntity
  8
0
  6
BYBLOCK
100
AcDbLine
 10
501.6243588583789
 20
542.401221593226
 30
0.0
 11
501.0884604783789
 21
544.401221593226
 31
0.0
  0
LINE
  5
E700
330
18
100
AcDbEntity
  8
0
  6
BYBLOCK
100
AcDbLine
 10
501.6243588583789
 20
542.401221593226
 30
0.0
 11
501.6243588583789
 21
544.401221593226
 31
0.0
  0
TEXT
  5
E701
330
18
100
AcDbEntity
  8
1DIM
  6
CONTINUOUS
100
AcDbText
 10
500.9243588583787
 20
545.3224021487816
 30
0.0
 40
3.5
  1
15.5
 50
90.0
100
AcDbText
  0
LINE
  5
E702
330
18
100
AcDbEntity
  8
0
  6
BYBLOCK
100
AcDbLine
 10
439.4108009362982
 20
494.4007024028305
 30
0.0
 11
439.9466993162982
 21
496.4007024028305
 31
0.0
  0
LINE
  5
E703
330
18
100
AcDbEntity
  8
0
  6
BYBLOCK
100
AcDbLine
 10
439.9466993162982
 20
496.4007024028305
 30
0.0
 11
440.4825976962982
 21
494.4007024028305
 31
0.0
  0
LINE
  5
E704
330
18
100
AcDbEntity
  8
0
  6
BYBLOCK
100
AcDbLine
 10
439.9466993162982
 20
496.4007024028305
 30
0.0
 11
439.9466993162982
 21
494.4007024028305
 31
0.0
  0
LINE
  5
E705
330
18
100
AcDbEntity
  8
0
  6
BYBLOCK
100
AcDbLine
 10
440.4825976962982
 20
470.9007024028305
 30
0.0
 11
439.9466993162982
 21
468.9007024028305
 31
0.0
  0
LINE
  5
E706
330
18
100
AcDbEntity
  8
0
  6
BYBLOCK
100
AcDbLine
 10
439.9466993162982
 20
468.9007024028305
 30
0.0
 11
439.4108009362982
 21
470.9007024028305
 31
0.0
  0
LINE
  5
E707
330
18
100
AcDbEntity
  8
0
  6
BYBLOCK
100
AcDbLine
 10
439.9466993162982
 20
468.9007024028305
 30
0.0
 11
439.9466993162982
 21
470.9007024028305
 31
0.0
  0
TEXT
  5
E708
330
18
100
AcDbEntity
  8
1DIM
  6
CONTINUOUS
100
AcDbText
 10
439.2466993162981
 20
477.4007024028306
 30
0.0
 40
3.5
  1
27.5
 50
90.0
100
AcDbText
  0
LINE
  5
E709
330
18
100
AcDbEntity
  8
0
  6
BYBLOCK
100
AcDbLine
 10
506.5015596824657
 20
466.9007024028305
 30
0.0
 11
507.0374580624657
 21
468.9007024028305
 31
0.0
  0
LINE
  5
E70A
330
18
100
AcDbEntity
  8
0
  6
BYBLOCK
100
AcDbLine
 10
507.0374580624657
 20
468.9007024028305
 30
0.0
 11
507.5733564424657
 21
466.9007024028305
 31
0.0
  0
LINE
  5
E70B
330
18
100
AcDbEntity
  8
0
  6
BYBLOCK
100
AcDbLine
 10
507.0374580624657
 20
468.9007024028305
 30
0.0
 11
507.0374580624657
 21
466.9007024028305
 31
0.0
  0
LINE
  5
E70C
330
18
100
AcDbEntity
  8
0
  6
BYBLOCK
100
AcDbLine
 10
507.5733564424657
 20
420.9007024028306
 30
0.0
 11
507.0374580624657
 21
418.9007024028306
 31
0.0
  0
LINE
  5
E70D
330
18
100
AcDbEntity
  8
0
  6
BYBLOCK
100
AcDbLine
 10
507.0374580624657
 20
418.9007024028306
 30
0.0
 11
506.5015596824657
 21
420.9007024028306
 31
0.0
  0
LINE
  5
E70E
330
18
100
AcDbEntity
  8
0
  6
BYBLOCK
100
AcDbLine
 10
507.0374580624657
 20
418.9007024028306
 30
0.0
 11
507.0374580624657
 21
420.9007024028306
 31
0.0
  0
TEXT
  5
E70F
330
18
100
AcDbEntity
  8
1DIM
  6
CONTINUOUS
100
AcDbText
 10
506.3374580624655
 20
441.1906329583861
 30
0.0
 40
3.5
  1
50
 50
90.0
100
AcDbText
  0
LINE
  5
E710
330
18
100
AcDbEntity
  8
0
  6
BYBLOCK
100
AcDbLine
 10
425.1961252070405
 20
505.0078946281827
 30
0.0
 11
423.1961252070405
 21
505.5437930081827
 31
0.0
  0
LINE
  5
E711
330
18
100
AcDbEntity
  8
0
  6
BYBLOCK
100
AcDbLine
 10
423.1961252070405
 20
505.5437930081827
 30
0.0
 11
425.1961252070405
 21
506.0796913881827
 31
0.0
  0
LINE
  5
E712
330
18
100
AcDbEntity
  8
0
  6
BYBLOCK
100
AcDbLine
 10
423.1961252070405
 20
505.5437930081827
 30
0.0
 11
425.1961252070405
 21
505.5437930081827
 31
0.0
  0
LINE
  5
E713
330
18
100
AcDbEntity
  8
0
  6
BYBLOCK
100
AcDbLine
 10
472.19612520704
 20
506.0796913881827
 30
0.0
 11
474.19612520704
 21
505.5437930081827
 31
0.0
  0
LINE
  5
E714
330
18
100
AcDbEntity
  8
0
  6
BYBLOCK
100
AcDbLine
 10
474.19612520704
 20
505.5437930081827
 30
0.0
 11
472.19612520704
 21
505.0078946281827
 31
0.0
  0
LINE
  5
E715
330
18
100
AcDbEntity
  8
0
  6
BYBLOCK
100
AcDbLine
 10
474.19612520704
 20
505.5437930081827
 30
0.0
 11
472.19612520704
 21
505.5437930081827
 31
0.0
  0
TEXT
  5
E716
330
18
100
AcDbEntity
  8
1DIM
  6
CONTINUOUS
100
AcDbText
 10
441.2173057625958
 20
506.2437930081827
 30
0.0
 40
3.5
  1
B.S 51
100
AcDbText
  0
LINE
  5
E717
330
18
100
AcDbEntity
  8
0
  6
BYBLOCK
100
AcDbLine
 10
333.8104289149017
 20
403.4007024028305
 30
0.0
 11
333.2745305349017
 21
401.4007024028305
 31
0.0
  0
LINE
  5
E718
330
18
100
AcDbEntity
  8
0
  6
BYBLOCK
100
AcDbLine
 10
333.2745305349017
 20
401.4007024028305
 30
0.0
 11
332.7386321549017
 21
403.4007024028305
 31
0.0
  0
LINE
  5
E719
330
18
100
AcDbEntity
  8
0
  6
BYBLOCK
100
AcDbLine
 10
333.2745305349017
 20
401.4007024028305
 30
0.0
 11
333.2745305349017
 21
403.4007024028305
 31
0.0
  0
LINE
  5
E71A
330
18
100
AcDbEntity
  8
0
  6
BYBLOCK
100
AcDbLine
 10
332.7386321549017
 20
484.4007024028305
 30
0.0
 11
333.2745305349017
 21
486.4007024028305
 31
0.0
  0
LINE
  5
E71B
330
18
100
AcDbEntity
  8
0
  6
BYBLOCK
100
AcDbLine
 10
333.2745305349017
 20
486.4007024028305
 30
0.0
 11
333.8104289149017
 21
484.4007024028305
 31
0.0
  0
LINE
  5
E71C
330
18
100
AcDbEntity
  8
0
  6
BYBLOCK
100
AcDbLine
 10
333.2745305349017
 20
486.4007024028305
 30
0.0
 11
333.2745305349017
 21
484.4007024028305
 31
0.0
  0
TEXT
  5
E71D
330
18
100
AcDbEntity
  8
1DIM
  6
CONTINUOUS
100
AcDbText
 10
332.5745305349016
 20
440.9840357361638
 30
0.0
 40
3.5
  1
85
 50
90.0
100
AcDbText
1001
ACAD
1000
DSTYLE
1002
{
1070
    79
1070
     2
1070
   179
1070
     2
1070
   272
1070
     2
1070
   341
1005
0
1002
}
  0
LINE
  5
E71E
330
18
100
AcDbEntity
  8
0
  6
BYBLOCK
100
AcDbLine
 10
325.5847258828165
 20
393.4007024028305
 30
0.0
 11
325.0488275028165
 21
391.4007024028305
 31
0.0
  0
LINE
  5
E71F
330
18
100
AcDbEntity
  8
0
  6
BYBLOCK
100
AcDbLine
 10
325.0488275028165
 20
391.4007024028305
 30
0.0
 11
324.5129291228165
 21
393.4007024028305
 31
0.0
  0
LINE
  5
E720
330
18
100
AcDbEntity
  8
0
  6
BYBLOCK
100
AcDbLine
 10
325.0488275028165
 20
391.4007024028305
 30
0.0
 11
325.0488275028165
 21
393.4007024028305
 31
0.0
  0
LINE
  5
E721
330
18
100
AcDbEntity
  8
0
  6
BYBLOCK
100
AcDbLine
 10
324.5129291228165
 20
494.4007024028305
 30
0.0
 11
325.0488275028165
 21
496.4007024028305
 31
0.0
  0
LINE
  5
E722
330
18
100
AcDbEntity
  8
0
  6
BYBLOCK
100
AcDbLine
 10
325.0488275028165
 20
496.4007024028305
 30
0.0
 11
325.5847258828165
 21
494.4007024028305
 31
0.0
  0
LINE
  5
E723
330
18
100
AcDbEntity
  8
0
  6
BYBLOCK
100
AcDbLine
 10
325.0488275028165
 20
496.4007024028305
 30
0.0
 11
325.0488275028165
 21
494.4007024028305
 31
0.0
  0
TEXT
  5
E724
330
18
100
AcDbEntity
  8
1DIM
  6
CONTINUOUS
100
AcDbText
 10
324.3488275028163
 20
440.1090357361638
 30
0.0
 40
3.5
  1
105
 50
90.0
100
AcDbText
1001
ACAD
1000
DSTYLE
1002
{
1070
    79
1070
     2
1070
   179
1070
     2
1070
   272
1070
     2
1070
   341
1005
0
1002
}
  0
LINE
  5
E725
330
18
100
AcDbEntity
  8
0
  6
BYBLOCK
100
AcDbLine
 10
397.7674460434571
 20
442.8007024028306
 30
0.0
 11
397.2315476634571
 21
440.8007024028306
 31
0.0
  0
LINE
  5
E726
330
18
100
AcDbEntity
  8
0
  6
BYBLOCK
100
AcDbLine
 10
397.2315476634571
 20
440.8007024028306
 30
0.0
 11
396.6956492834572
 21
442.8007024028306
 31
0.0
  0
LINE
  5
E727
330
18
100
AcDbEntity
  8
0
  6
BYBLOCK
100
AcDbLine
 10
397.2315476634571
 20
440.8007024028306
 30
0.0
 11
397.2315476634571
 21
442.8007024028306
 31
0.0
  0
LINE
  5
E728
330
18
100
AcDbEntity
  8
0
  6
BYBLOCK
100
AcDbLine
 10
396.6956492834572
 20
494.4007024028305
 30
0.0
 11
397.2315476634571
 21
496.4007024028305
 31
0.0
  0
LINE
  5
E729
330
18
100
AcDbEntity
  8
0
  6
BYBLOCK
100
AcDbLine
 10
397.2315476634571
 20
496.4007024028305
 30
0.0
 11
397.7674460434571
 21
494.4007024028305
 31
0.0
  0
LINE
  5
E72A
330
18
100
AcDbEntity
  8
0
  6
BYBLOCK
100
AcDbLine
 10
397.2315476634571
 20
496.4007024028305
 30
0.0
 11
397.2315476634571
 21
494.4007024028305
 31
0.0
  0
TEXT
  5
E72B
330
18
100
AcDbEntity
  8
1DIM
  6
CONTINUOUS
100
AcDbText
 10
396.5315476634571
 20
463.3263968472751
 30
0.0
 40
3.5
  1
55.6
 50
90.0
100
AcDbText
1001
ACAD
1000
DSTYLE
1002
{
1070
    79
1070
     2
1070
   179
1070
     2
1070
   272
1070
     2
1070
   341
1005
0
1002
}
  0
LINE
  5
E72C
330
18
100
AcDbEntity
  8
0
  6
BYBLOCK
100
AcDbLine
 10
396.6956492834572
 20
438.8007024028306
 30
0.0
 11
397.2315476634571
 21
440.8007024028306
 31
0.0
  0
LINE
  5
E72D
330
18
100
AcDbEntity
  8
0
  6
BYBLOCK
100
AcDbLine
 10
397.2315476634571
 20
440.8007024028306
 30
0.0
 11
397.7674460434571
 21
438.8007024028306
 31
0.0
  0
LINE
  5
E72E
330
18
100
AcDbEntity
  8
0
  6
BYBLOCK
100
AcDbLine
 10
397.2315476634571
 20
440.8007024028306
 30
0.0
 11
397.2315476634571
 21
438.8007024028306
 31
0.0
  0
LINE
  5
E72F
330
18
100
AcDbEntity
  8
0
  6
BYBLOCK
100
AcDbLine
 10
397.7674460434571
 20
393.4007024028305
 30
0.0
 11
397.2315476634571
 21
391.4007024028305
 31
0.0
  0
LINE
  5
E730
330
18
100
AcDbEntity
  8
0
  6
BYBLOCK
100
AcDbLine
 10
397.2315476634571
 20
391.4007024028305
 30
0.0
 11
396.6956492834572
 21
393.4007024028305
 31
0.0
  0
LINE
  5
E731
330
18
100
AcDbEntity
  8
0
  6
BYBLOCK
100
AcDbLine
 10
397.2315476634571
 20
391.4007024028305
 30
0.0
 11
397.2315476634571
 21
393.4007024028305
 31
0.0
  0
TEXT
  5
E732
330
18
100
AcDbEntity
  8
1DIM
  6
CONTINUOUS
100
AcDbText
 10
396.5315476634571
 20
410.8498922176454
 30
0.0
 40
3.5
  1
49.4
 50
90.0
100
AcDbText
1001
ACAD
1000
DSTYLE
1002
{
1070
    79
1070
     2
1070
   179
1070
     2
1070
   272
1070
     2
1070
   341
1005
0
1002
}
  0
LINE
  5
E733
330
18
100
AcDbEntity
  8
0
  6
BYBLOCK
100
AcDbLine
 10
463.69612520704
 20
481.7002078145037
 30
0.0
 11
461.69612520704
 21
482.2361061945037
 31
0.0
  0
LINE
  5
E734
330
18
100
AcDbEntity
  8
0
  6
BYBLOCK
100
AcDbLine
 10
461.69612520704
 20
482.2361061945037
 30
0.0
 11
463.69612520704
 21
482.7720045745037
 31
0.0
  0
LINE
  5
E735
330
18
100
AcDbEntity
  8
0
  6
BYBLOCK
100
AcDbLine
 10
461.69612520704
 20
482.2361061945037
 30
0.0
 11
463.69612520704
 21
482.2361061945037
 31
0.0
  0
LINE
  5
E736
330
18
100
AcDbEntity
  8
0
  6
BYBLOCK
100
AcDbLine
 10
484.69612520704
 20
482.7720045745037
 30
0.0
 11
486.69612520704
 21
482.2361061945037
 31
0.0
  0
LINE
  5
E737
330
18
100
AcDbEntity
  8
0
  6
BYBLOCK
100
AcDbLine
 10
486.69612520704
 20
482.2361061945037
 30
0.0
 11
484.69612520704
 21
481.7002078145037
 31
0.0
  0
LINE
  5
E738
330
18
100
AcDbEntity
  8
0
  6
BYBLOCK
100
AcDbLine
 10
486.69612520704
 20
482.2361061945037
 30
0.0
 11
484.69612520704
 21
482.2361061945037
 31
0.0
  0
TEXT
  5
E739
330
18
100
AcDbEntity
  8
1DIM
  6
CONTINUOUS
100
AcDbText
 10
471.2794585403734
 20
482.9361061945037
 30
0.0
 40
3.5
  1
25
100
AcDbText
1001
ACAD
1000
DSTYLE
1002
{
1070
    79
1070
     2
1070
   179
1070
     2
1070
   272
1070
     2
1070
   341
1005
0
1002
}
  0
LINE
  5
E73A
330
18
100
AcDbEntity
  8
0
  6
BYBLOCK
100
AcDbLine
 10
467.7054204339163
 20
464.9507024028305
 30
0.0
 11
467.1695220539164
 21
462.9507024028305
 31
0.0
  0
LINE
  5
E73B
330
18
100
AcDbEntity
  8
0
  6
BYBLOCK
100
AcDbLine
 10
467.1695220539164
 20
462.9507024028305
 30
0.0
 11
466.6336236739164
 21
464.9507024028305
 31
0.0
  0
LINE
  5
E73C
330
18
100
AcDbEntity
  8
0
  6
BYBLOCK
100
AcDbLine
 10
467.1695220539164
 20
462.9507024028305
 30
0.0
 11
467.1695220539164
 21
464.9507024028305
 31
0.0
  0
LINE
  5
E73D
330
18
100
AcDbEntity
  8
0
  6
BYBLOCK
100
AcDbLine
 10
466.6336236739164
 20
456.8507024028305
 30
0.0
 11
467.1695220539164
 21
458.8507024028305
 31
0.0
  0
LINE
  5
E73E
330
18
100
AcDbEntity
  8
0
  6
BYBLOCK
100
AcDbLine
 10
467.1695220539164
 20
458.8507024028305
 30
0.0
 11
467.7054204339163
 21
456.8507024028305
 31
0.0
  0
LINE
  5
E73F
330
18
100
AcDbEntity
  8
0
  6
BYBLOCK
100
AcDbLine
 10
467.1695220539164
 20
458.8507024028305
 30
0.0
 11
467.1695220539164
 21
456.8507024028305
 31
0.0
  0
TEXT
  5
E740
330
18
100
AcDbEntity
  8
1DIM
  6
CONTINUOUS
100
AcDbText
 10
466.4695220539161
 20
443.7340357361639
 30
0.0
 40
3.5
  1
□4.1
 50
90.0
100
AcDbText
1001
ACAD
1000
DSTYLE
1002
{
1070
     3
1000
□<>
1070
    79
1070
     2
1070
   179
1070
     2
1070
   272
1070
     2
1070
   341
1005
0
1002
}
  0
LINE
  5
E741
330
18
100
AcDbEntity
  8
0
  6
BYBLOCK
100
AcDbLine
 10
486.2464420719459
 20
459.714333087778
 30
0.0
 11
484.4399951756795
 21
458.7024355214917
 31
0.0
  0
LINE
  5
E742
330
18
100
AcDbEntity
  8
0
  6
BYBLOCK
100
AcDbLine
 10
484.4399951756795
 20
458.7024355214917
 30
0.0
 11
485.4984753033636
 21
460.4819879632547
 31
0.0
  0
LINE
  5
E743
330
18
100
AcDbEntity
  8
0
  6
BYBLOCK
100
AcDbLine
 10
484.4399951756795
 20
458.7024355214917
 30
0.0
 11
485.8724586876547
 21
460.0981605255163
 31
0.0
  0
LINE
  5
E744
330
18
100
AcDbEntity
  8
0
  6
BYBLOCK
100
AcDbLine
 10
487.145808342135
 20
462.087071717883
 30
0.0
 11
488.9522552384014
 21
463.0989692841694
 31
0.0
  0
LINE
  5
E745
330
18
100
AcDbEntity
  8
0
  6
BYBLOCK
100
AcDbLine
 10
488.9522552384014
 20
463.0989692841694
 30
0.0
 11
487.8937751107173
 21
461.3194168424064
 31
0.0
  0
LINE
  5
E746
330
18
100
AcDbEntity
  8
0
  6
BYBLOCK
100
AcDbLine
 10
488.9522552384014
 20
463.0989692841694
 30
0.0
 11
487.5197917264262
 21
461.7032442801447
 31
0.0
  0
TEXT
  5
E747
330
18
100
AcDbEntity
  8
1DIM
  6
CONTINUOUS
100
AcDbText
 10
497.2400792866185
 20
472.1515721216213
 30
0.0
 40
3.5
  1
\U+22056.3
 50
44.25576281357078
100
AcDbText
1001
ACAD_DSTYLE_DIMRADIAL_EXTE
1070
   387
1070
     1
1070
   388
1040
0.0
1070
   390
1040
0.0
1001
ACAD
1000
DSTYLE
1002
{
1070
    79
1070
     2
1070
   179
1070
     2
1070
   272
1070
     2
1070
   341
1005
0
1002
}
  0
LINE
  5
E748
330
18
100
AcDbEntity
  8
0
  6
BYBLOCK
100
AcDbLine
 10
449.3656768330061
 20
462.900702402831
 30
0.0
 11
448.8297784530062
 21
460.900702402831
 31
0.0
  0
LINE
  5
E749
330
18
100
AcDbEntity
  8
0
  6
BYBLOCK
100
AcDbLine
 10
448.8297784530062
 20
460.900702402831
 30
0.0
 11
448.2938800730062
 21
462.900702402831
 31
0.0
  0
LINE
  5
E74A
330
18
100
AcDbEntity
  8
0
  6
BYBLOCK
100
AcDbLine
 10
448.8297784530062
 20
460.900702402831
 30
0.0
 11
448.8297784530062
 21
462.900702402831
 31
0.0
  0
LINE
  5
E74B
330
18
100
AcDbEntity
  8
0
  6
BYBLOCK
100
AcDbLine
 10
448.2938800730062
 20
494.4007024028305
 30
0.0
 11
448.8297784530062
 21
496.4007024028305
 31
0.0
  0
LINE
  5
E74C
330
18
100
AcDbEntity
  8
0
  6
BYBLOCK
100
AcDbLine
 10
448.8297784530062
 20
496.4007024028305
 30
0.0
 11
449.3656768330061
 21
494.4007024028305
 31
0.0
  0
LINE
  5
E74D
330
18
100
AcDbEntity
  8
0
  6
BYBLOCK
100
AcDbLine
 10
448.8297784530062
 20
496.4007024028305
 30
0.0
 11
448.8297784530062
 21
494.4007024028305
 31
0.0
  0
TEXT
  5
E74E
330
18
100
AcDbEntity
  8
1DIM
  6
CONTINUOUS
100
AcDbText
 10
448.1297784530061
 20
473.388549625053
 30
0.0
 40
3.5
  1
35.5
 50
90.0
100
AcDbText
1001
ACAD
1000
DSTYLE
1002
{
1070
    79
1070
     2
1070
   179
1070
     2
1070
   272
1070
     2
1070
   341
1005
0
1002
}
  0
LINE
  5
E74F
330
18
100
AcDbEntity
  8
0
  6
BYBLOCK
100
AcDbLine
 10
429.1961252070405
 20
380.0810374254292
 30
0.0
 11
427.1961252070405
 21
380.6169358054292
 31
0.0
  0
LINE
  5
E750
330
18
100
AcDbEntity
  8
0
  6
BYBLOCK
100
AcDbLine
 10
427.1961252070405
 20
380.6169358054292
 30
0.0
 11
429.1961252070405
 21
381.1528341854292
 31
0.0
  0
LINE
  5
E751
330
18
100
AcDbEntity
  8
0
  6
BYBLOCK
100
AcDbLine
 10
427.1961252070405
 20
380.6169358054292
 30
0.0
 11
429.1961252070405
 21
380.6169358054292
 31
0.0
  0
LINE
  5
E752
330
18
100
AcDbEntity
  8
0
  6
BYBLOCK
100
AcDbLine
 10
421.1961252070405
 20
381.1528341854292
 30
0.0
 11
423.1961252070405
 21
380.6169358054292
 31
0.0
  0
LINE
  5
E753
330
18
100
AcDbEntity
  8
0
  6
BYBLOCK
100
AcDbLine
 10
423.1961252070405
 20
380.6169358054292
 30
0.0
 11
421.1961252070405
 21
380.0810374254292
 31
0.0
  0
LINE
  5
E754
330
18
100
AcDbEntity
  8
0
  6
BYBLOCK
100
AcDbLine
 10
423.1961252070405
 20
380.6169358054292
 30
0.0
 11
421.1961252070405
 21
380.6169358054292
 31
0.0
  0
TEXT
  5
E755
330
18
100
AcDbEntity
  8
1DIM
  6
CONTINUOUS
100
AcDbText
 10
416.0794585403738
 20
381.3169358054292
 30
0.0
 40
3.5
  1
4
100
AcDbText
1001
ACAD
1000
DSTYLE
1002
{
1070
    79
1070
     2
1070
   179
1070
     2
1070
   272
1070
     2
1070
   341
1005
0
1002
}
  0
LINE
  5
E756
330
18
100
AcDbEntity
  8
0
  6
BYBLOCK
100
AcDbLine
 10
246.1808891524919
 20
506.1929593725199
 30
0.0
 11
244.1808891524919
 21
506.7288577525199
 31
0.0
  0
LINE
  5
E757
330
18
100
AcDbEntity
  8
0
  6
BYBLOCK
100
AcDbLine
 10
244.1808891524919
 20
506.7288577525199
 30
0.0
 11
246.1808891524919
 21
507.2647561325199
 31
0.0
  0
LINE
  5
E758
330
18
100
AcDbEntity
  8
0
  6
BYBLOCK
100
AcDbLine
 10
244.1808891524919
 20
506.7288577525199
 30
0.0
 11
246.1808891524919
 21
506.7288577525199
 31
0.0
  0
LINE
  5
E759
330
18
100
AcDbEntity
  8
0
  6
BYBLOCK
100
AcDbLine
 10
266.9808891524918
 20
507.2647561325199
 30
0.0
 11
268.9808891524918
 21
506.7288577525199
 31
0.0
  0
LINE
  5
E75A
330
18
100
AcDbEntity
  8
0
  6
BYBLOCK
100
AcDbLine
 10
268.9808891524918
 20
506.7288577525199
 30
0.0
 11
266.9808891524918
 21
506.1929593725199
 31
0.0
  0
LINE
  5
E75B
330
18
100
AcDbEntity
  8
0
  6
BYBLOCK
100
AcDbLine
 10
268.9808891524918
 20
506.7288577525199
 30
0.0
 11
266.9808891524918
 21
506.7288577525199
 31
0.0
  0
TEXT
  5
E75C
330
18
100
AcDbEntity
  8
1DIM
  6
CONTINUOUS
100
AcDbText
 10
253.6642224858252
 20
507.4288577525199
 30
0.0
 40
3.5
  1
25
100
AcDbText
1001
ACAD
1000
DSTYLE
1002
{
1070
   271
1070
     0
1002
}
  0
LINE
  5
E75D
330
18
100
AcDbEntity
  8
0
  6
BYBLOCK
100
AcDbLine
 10
228.314527030502
 20
492.0775901465227
 30
0.0
 11
228.850425410502
 21
494.0775901465227
 31
0.0
  0
LINE
  5
E75E
330
18
100
AcDbEntity
  8
0
  6
BYBLOCK
100
AcDbLine
 10
228.850425410502
 20
494.0775901465227
 30
0.0
 11
229.386323790502
 21
492.0775901465227
 31
0.0
  0
LINE
  5
E75F
330
18
100
AcDbEntity
  8
0
  6
BYBLOCK
100
AcDbLine
 10
228.850425410502
 20
494.0775901465227
 30
0.0
 11
228.850425410502
 21
492.0775901465227
 31
0.0
  0
LINE
  5
E760
330
18
100
AcDbEntity
  8
0
  6
BYBLOCK
100
AcDbLine
 10
229.3863237905019
 20
426.0775897465227
 30
0.0
 11
228.8504254105019
 21
424.0775897465227
 31
0.0
  0
LINE
  5
E761
330
18
100
AcDbEntity
  8
0
  6
BYBLOCK
100
AcDbLine
 10
228.8504254105019
 20
424.0775897465227
 30
0.0
 11
228.3145270305019
 21
426.0775897465227
 31
0.0
  0
LINE
  5
E762
330
18
100
AcDbEntity
  8
0
  6
BYBLOCK
100
AcDbLine
 10
228.8504254105019
 20
424.0775897465227
 30
0.0
 11
228.8504254105019
 21
426.0775897465227
 31
0.0
  0
TEXT
  5
E763
330
18
100
AcDbEntity
  8
1DIM
  6
CONTINUOUS
100
AcDbText
 10
228.1504254105018
 20
456.3796732798561
 30
0.0
 40
3.5
  1
70
 50
90.0
100
AcDbText
  0
LINE
  5
E764
330
18
100
AcDbEntity
  8
0
  6
BYBLOCK
100
AcDbLine
 10
197.0623207382488
 20
503.4349625893341
 30
0.0
 11
195.0623207382488
 21
503.9708609693341
 31
0.0
  0
LINE
  5
E765
330
18
100
AcDbEntity
  8
0
  6
BYBLOCK
100
AcDbLine
 10
195.0623207382488
 20
503.9708609693341
 30
0.0
 11
197.0623207382488
 21
504.5067593493341
 31
0.0
  0
LINE
  5
E766
330
18
100
AcDbEntity
  8
0
  6
BYBLOCK
100
AcDbLine
 10
195.0623207382488
 20
503.9708609693341
 30
0.0
 11
197.0623207382488
 21
503.9708609693341
 31
0.0
  0
LINE
  5
E767
330
18
100
AcDbEntity
  8
0
  6
BYBLOCK
100
AcDbLine
 10
207.7623207382488
 20
504.5067593493341
 30
0.0
 11
209.7623207382488
 21
503.9708609693341
 31
0.0
  0
LINE
  5
E768
330
18
100
AcDbEntity
  8
0
  6
BYBLOCK
100
AcDbLine
 10
209.7623207382488
 20
503.9708609693341
 30
0.0
 11
207.7623207382488
 21
503.4349625893341
 31
0.0
  0
LINE
  5
E769
330
18
100
AcDbEntity
  8
0
  6
BYBLOCK
100
AcDbLine
 10
209.7623207382488
 20
503.9708609693341
 30
0.0
 11
207.7623207382488
 21
503.9708609693341
 31
0.0
  0
TEXT
  5
E76A
330
18
100
AcDbEntity
  8
1DIM
  6
CONTINUOUS
100
AcDbText
 10
197.7456540715822
 20
504.6708609693341
 30
0.0
 40
3.5
  1
14.7
100
AcDbText
  0
LINE
  5
E76B
330
18
100
AcDbEntity
  8
0
  6
BYBLOCK
100
AcDbLine
 10
183.9837886941809
 20
475.0775905465227
 30
0.0
 11
184.5196870741809
 21
477.0775905465227
 31
0.0
  0
LINE
  5
E76C
330
18
100
AcDbEntity
  8
0
  6
BYBLOCK
100
AcDbLine
 10
184.5196870741809
 20
477.0775905465227
 30
0.0
 11
185.0555854541809
 21
475.0775905465227
 31
0.0
  0
LINE
  5
E76D
330
18
100
AcDbEntity
  8
0
  6
BYBLOCK
100
AcDbLine
 10
184.5196870741809
 20
477.0775905465227
 30
0.0
 11
184.5196870741809
 21
475.0775905465227
 31
0.0
  0
LINE
  5
E76E
330
18
100
AcDbEntity
  8
0
  6
BYBLOCK
100
AcDbLine
 10
185.0555854541809
 20
443.0775895465227
 30
0.0
 11
184.5196870741809
 21
441.0775895465227
 31
0.0
  0
LINE
  5
E76F
330
18
100
AcDbEntity
  8
0
  6
BYBLOCK
100
AcDbLine
 10
184.5196870741809
 20
441.0775895465227
 30
0.0
 11
183.9837886941809
 21
443.0775895465227
 31
0.0
  0
LINE
  5
E770
330
18
100
AcDbEntity
  8
0
  6
BYBLOCK
100
AcDbLine
 10
184.5196870741809
 20
441.0775895465227
 30
0.0
 11
184.5196870741809
 21
443.0775895465227
 31
0.0
  0
TEXT
  5
E771
330
18
100
AcDbEntity
  8
1DIM
  6
CONTINUOUS
100
AcDbText
 10
183.8196870741809
 20
456.1609233798561
 30
0.0
 40
3.5
  1
36
 50
90.0
100
AcDbText
  0
LINE
  5
E772
330
18
100
AcDbEntity
  8
0
  6
BYBLOCK
100
AcDbLine
 10
248.1808891524919
 20
384.1609204254261
 30
0.0
 11
246.1808891524919
 21
384.6968188054261
 31
0.0
  0
LINE
  5
E773
330
18
100
AcDbEntity
  8
0
  6
BYBLOCK
100
AcDbLine
 10
246.1808891524919
 20
384.6968188054261
 30
0.0
 11
248.1808891524919
 21
385.2327171854261
 31
0.0
  0
LINE
  5
E774
330
18
100
AcDbEntity
  8
0
  6
BYBLOCK
100
AcDbLine
 10
246.1808891524919
 20
384.6968188054261
 30
0.0
 11
248.1808891524919
 21
384.6968188054261
 31
0.0
  0
LINE
  5
E775
330
18
100
AcDbEntity
  8
0
  6
BYBLOCK
100
AcDbLine
 10
264.9808901524918
 20
385.2327171854261
 30
0.0
 11
266.9808901524918
 21
384.6968188054261
 31
0.0
  0
LINE
  5
E776
330
18
100
AcDbEntity
  8
0
  6
BYBLOCK
100
AcDbLine
 10
266.9808901524918
 20
384.6968188054261
 30
0.0
 11
264.9808901524918
 21
384.1609204254261
 31
0.0
  0
LINE
  5
E777
330
18
100
AcDbEntity
  8
0
  6
BYBLOCK
100
AcDbLine
 10
266.9808901524918
 20
384.6968188054261
 30
0.0
 11
264.9808901524918
 21
384.6968188054261
 31
0.0
  0
TEXT
  5
E778
330
18
100
AcDbEntity
  8
1DIM
  6
CONTINUOUS
100
AcDbText
 10
254.2475563191585
 20
385.3968188054261
 30
0.0
 40
3.5
  1
21
100
AcDbText
1001
ACAD
1000
DSTYLE
1002
{
1070
   271
1070
     0
1002
}
  0
LINE
  5
E779
330
18
100
AcDbEntity
  8
0
  6
BYBLOCK
100
AcDbLine
 10
292.0778642816078
 20
434.0775893165227
 30
0.0
 11
291.5419659016078
 21
432.0775893165227
 31
0.0
  0
LINE
  5
E77A
330
18
100
AcDbEntity
  8
0
  6
BYBLOCK
100
AcDbLine
 10
291.5419659016078
 20
432.0775893165227
 30
0.0
 11
291.0060675216078
 21
434.0775893165227
 31
0.0
  0
LINE
  5
E77B
330
18
100
AcDbEntity
  8
0
  6
BYBLOCK
100
AcDbLine
 10
291.5419659016078
 20
432.0775893165227
 30
0.0
 11
291.5419659016078
 21
434.0775893165227
 31
0.0
  0
LINE
  5
E77C
330
18
100
AcDbEntity
  8
0
  6
BYBLOCK
100
AcDbLine
 10
291.0060675216078
 20
484.0775901465227
 30
0.0
 11
291.5419659016078
 21
486.0775901465227
 31
0.0
  0
LINE
  5
E77D
330
18
100
AcDbEntity
  8
0
  6
BYBLOCK
100
AcDbLine
 10
291.5419659016078
 20
486.0775901465227
 30
0.0
 11
292.0778642816078
 21
484.0775901465227
 31
0.0
  0
LINE
  5
E77E
330
18
100
AcDbEntity
  8
0
  6
BYBLOCK
100
AcDbLine
 10
291.5419659016078
 20
486.0775901465227
 30
0.0
 11
291.5419659016078
 21
484.0775901465227
 31
0.0
  0
TEXT
  5
E77F
330
18
100
AcDbEntity
  8
1DIM
  6
CONTINUOUS
100
AcDbText
 10
290.8419659016077
 20
456.1487702870784
 30
0.0
 40
3.5
  1
54
 50
90.0
100
AcDbText
  0
LINE
  5
E780
330
18
100
AcDbEntity
  8
0
  6
BYBLOCK
100
AcDbLine
 10
285.0816487207697
 20
445.0775891465227
 30
0.0
 11
284.5457503407697
 21
443.0775891465227
 31
0.0
  0
LINE
  5
E781
330
18
100
AcDbEntity
  8
0
  6
BYBLOCK
100
AcDbLine
 10
284.5457503407697
 20
443.0775891465227
 30
0.0
 11
284.0098519607697
 21
445.0775891465227
 31
0.0
  0
LINE
  5
E782
330
18
100
AcDbEntity
  8
0
  6
BYBLOCK
100
AcDbLine
 10
284.5457503407697
 20
443.0775891465227
 30
0.0
 11
284.5457503407697
 21
445.0775891465227
 31
0.0
  0
LINE
  5
E783
330
18
100
AcDbEntity
  8
0
  6
BYBLOCK
100
AcDbLine
 10
284.0098519607697
 20
473.0775901465228
 30
0.0
 11
284.5457503407697
 21
475.0775901465228
 31
0.0
  0
LINE
  5
E784
330
18
100
AcDbEntity
  8
0
  6
BYBLOCK
100
AcDbLine
 10
284.5457503407697
 20
475.0775901465228
 30
0.0
 11
285.0816487207697
 21
473.0775901465228
 31
0.0
  0
LINE
  5
E785
330
18
100
AcDbEntity
  8
0
  6
BYBLOCK
100
AcDbLine
 10
284.5457503407697
 20
475.0775901465228
 30
0.0
 11
284.5457503407697
 21
473.0775901465228
 31
0.0
  0
TEXT
  5
E786
330
18
100
AcDbEntity
  8
1DIM
  6
CONTINUOUS
100
AcDbText
 10
283.8457503407696
 20
456.1609229798561
 30
0.0
 40
3.5
  1
32
 50
90.0
100
AcDbText
  0
LINE
  5
E787
330
18
100
AcDbEntity
  8
0
  6
BYBLOCK
100
AcDbLine
 10
264.9808901524918
 20
385.2327171854261
 30
0.0
 11
266.9808901524918
 21
384.6968188054261
 31
0.0
  0
LINE
  5
E788
330
18
100
AcDbEntity
  8
0
  6
BYBLOCK
100
AcDbLine
 10
266.9808901524918
 20
384.6968188054261
 30
0.0
 11
264.9808901524918
 21
384.1609204254261
 31
0.0
  0
LINE
  5
E789
330
18
100
AcDbEntity
  8
0
  6
BYBLOCK
100
AcDbLine
 10
266.9808901524918
 20
384.6968188054261
 30
0.0
 11
264.9808901524918
 21
384.6968188054261
 31
0.0
  0
LINE
  5
E78A
330
18
100
AcDbEntity
  8
0
  6
BYBLOCK
100
AcDbLine
 10
270.9808891524918
 20
384.1609204254261
 30
0.0
 11
268.9808891524918
 21
384.6968188054261
 31
0.0
  0
LINE
  5
E78B
330
18
100
AcDbEntity
  8
0
  6
BYBLOCK
100
AcDbLine
 10
268.9808891524918
 20
384.6968188054261
 30
0.0
 11
270.9808891524918
 21
385.2327171854261
 31
0.0
  0
LINE
  5
E78C
330
18
100
AcDbEntity
  8
0
  6
BYBLOCK
100
AcDbLine
 10
268.9808891524918
 20
384.6968188054261
 30
0.0
 11
270.9808891524918
 21
384.6968188054261
 31
0.0
  0
TEXT
  5
E78D
330
18
100
AcDbEntity
  8
1DIM
  6
CONTINUOUS
100
AcDbText
 10
273.6808891524918
 20
385.3968188054261
 30
0.0
 40
3.5
  1
2
100
AcDbText
  0
LINE
  5
E78E
330
18
100
AcDbEntity
  8
0
  6
BYBLOCK
100
AcDbLine
 10
248.1808891524919
 20
384.1609204254261
 30
0.0
 11
246.1808891524919
 21
384.6968188054261
 31
0.0
  0
LINE
  5
E78F
330
18
100
AcDbEntity
  8
0
  6
BYBLOCK
100
AcDbLine
 10
246.1808891524919
 20
384.6968188054261
 30
0.0
 11
248.1808891524919
 21
385.2327171854261
 31
0.0
  0
LINE
  5
E790
330
18
100
AcDbEntity
  8
0
  6
BYBLOCK
100
AcDbLine
 10
246.1808891524919
 20
384.6968188054261
 30
0.0
 11
248.1808891524919
 21
384.6968188054261
 31
0.0
  0
LINE
  5
E791
330
18
100
AcDbEntity
  8
0
  6
BYBLOCK
100
AcDbLine
 10
242.1808891524918
 20
385.2327171854261
 30
0.0
 11
244.1808891524918
 21
384.6968188054261
 31
0.0
  0
LINE
  5
E792
330
18
100
AcDbEntity
  8
0
  6
BYBLOCK
100
AcDbLine
 10
244.1808891524918
 20
384.6968188054261
 30
0.0
 11
242.1808891524918
 21
384.1609204254261
 31
0.0
  0
LINE
  5
E793
330
18
100
AcDbEntity
  8
0
  6
BYBLOCK
100
AcDbLine
 10
244.1808891524918
 20
384.6968188054261
 30
0.0
 11
242.1808891524918
 21
384.6968188054261
 31
0.0
  0
TEXT
  5
E794
330
18
100
AcDbEntity
  8
1DIM
  6
CONTINUOUS
100
AcDbText
 10
237.1475558191584
 20
385.3968188054261
 30
0.0
 40
3.5
  1
2
100
AcDbText
  0
LINE
  5
E795
330
18
100
AcDbEntity
  8
0
  6
BYBLOCK
100
AcDbLine
 10
281.7987627184412
 20
407.2016776868963
 30
0.0
 11
282.3346610984412
 21
409.2016776868963
 31
0.0
  0
LINE
  5
E796
330
18
100
AcDbEntity
  8
0
  6
BYBLOCK
100
AcDbLine
 10
282.3346610984412
 20
409.2016776868963
 30
0.0
 11
282.8705594784412
 21
407.2016776868963
 31
0.0
  0
LINE
  5
E797
330
18
100
AcDbEntity
  8
0
  6
BYBLOCK
100
AcDbLine
 10
282.3346610984412
 20
409.2016776868963
 30
0.0
 11
282.3346610984412
 21
407.2016776868963
 31
0.0
  0
LINE
  5
E798
330
18
100
AcDbEntity
  8
0
  6
BYBLOCK
100
AcDbLine
 10
282.8705594784412
 20
413.1016776868963
 30
0.0
 11
282.3346610984412
 21
411.1016776868963
 31
0.0
  0
LINE
  5
E799
330
18
100
AcDbEntity
  8
0
  6
BYBLOCK
100
AcDbLine
 10
282.3346610984412
 20
411.1016776868963
 30
0.0
 11
281.7987627184412
 21
413.1016776868963
 31
0.0
  0
LINE
  5
E79A
330
18
100
AcDbEntity
  8
0
  6
BYBLOCK
100
AcDbLine
 10
282.3346610984412
 20
411.1016776868963
 30
0.0
 11
282.3346610984412
 21
413.1016776868963
 31
0.0
  0
TEXT
  5
E79B
330
18
100
AcDbEntity
  8
1DIM
  6
CONTINUOUS
100
AcDbText
 10
281.634661098441
 20
416.2175341683779
 30
0.0
 40
3.5
  1
1.9
 50
90.0
100
AcDbText
  0
LINE
  5
E79C
330
18
100
AcDbEntity
  8
0
  6
BYBLOCK
100
AcDbLine
 10
290.3706836787568
 20
398.4016776868963
 30
0.0
 11
289.8347852987569
 21
396.4016776868963
 31
0.0
  0
LINE
  5
E79D
330
18
100
AcDbEntity
  8
0
  6
BYBLOCK
100
AcDbLine
 10
289.8347852987569
 20
396.4016776868963
 30
0.0
 11
289.2988869187569
 21
398.4016776868963
 31
0.0
  0
LINE
  5
E79E
330
18
100
AcDbEntity
  8
0
  6
BYBLOCK
100
AcDbLine
 10
289.8347852987569
 20
396.4016776868963
 30
0.0
 11
289.8347852987569
 21
398.4016776868963
 31
0.0
  0
LINE
  5
E79F
330
18
100
AcDbEntity
  8
0
  6
BYBLOCK
100
AcDbLine
 10
289.2988869187569
 20
409.1016776868963
 30
0.0
 11
289.8347852987569
 21
411.1016776868963
 31
0.0
  0
LINE
  5
E7A0
330
18
100
AcDbEntity
  8
0
  6
BYBLOCK
100
AcDbLine
 10
289.8347852987569
 20
411.1016776868963
 30
0.0
 11
290.3706836787568
 21
409.1016776868963
 31
0.0
  0
LINE
  5
E7A1
330
18
100
AcDbEntity
  8
0
  6
BYBLOCK
100
AcDbLine
 10
289.8347852987569
 20
411.1016776868963
 30
0.0
 11
289.8347852987569
 21
409.1016776868963
 31
0.0
  0
TEXT
  5
E7A2
330
18
100
AcDbEntity
  8
1DIM
  6
CONTINUOUS
100
AcDbText
 10
289.1347852987568
 20
400.4350110202297
 30
0.0
 40
3.5
  1
14.7
 50
90.0
100
AcDbText
  0
LINE
  5
E7A3
330
18
100
AcDbEntity
  8
0
  6
BYBLOCK
100
AcDbLine
 10
261.0808891524919
 20
461.5794164305902
 30
0.0
 11
263.0808891524919
 21
461.0435180505902
 31
0.0
  0
LINE
  5
E7A4
330
18
100
AcDbEntity
  8
0
  6
BYBLOCK
100
AcDbLine
 10
263.0808891524919
 20
461.0435180505902
 30
0.0
 11
261.0808891524919
 21
460.5076196705902
 31
0.0
  0
LINE
  5
E7A5
330
18
100
AcDbEntity
  8
0
  6
BYBLOCK
100
AcDbLine
 10
263.0808891524919
 20
461.0435180505902
 30
0.0
 11
261.0808891524919
 21
461.0435180505902
 31
0.0
  0
LINE
  5
E7A6
330
18
100
AcDbEntity
  8
0
  6
BYBLOCK
100
AcDbLine
 10
252.0808891524919
 20
460.5076196705902
 30
0.0
 11
250.0808891524919
 21
461.0435180505902
 31
0.0
  0
LINE
  5
E7A7
330
18
100
AcDbEntity
  8
0
  6
BYBLOCK
100
AcDbLine
 10
250.0808891524919
 20
461.0435180505902
 30
0.0
 11
252.0808891524919
 21
461.5794164305902
 31
0.0
  0
LINE
  5
E7A8
330
18
100
AcDbEntity
  8
0
  6
BYBLOCK
100
AcDbLine
 10
250.0808891524919
 20
461.0435180505902
 30
0.0
 11
252.0808891524919
 21
461.0435180505902
 31
0.0
  0
TEXT
  5
E7A9
330
18
100
AcDbEntity
  8
1DIM
  6
CONTINUOUS
100
AcDbText
 10
254.2475558191585
 20
461.7435180505902
 30
0.0
 40
3.5
  1
13
100
AcDbText
  0
LINE
  5
E7AA
330
18
100
AcDbEntity
  8
0
  6
BYBLOCK
100
AcDbLine
 10
245.5659716105236
 20
493.2517696478744
 30
0.0
 11
245.9522939086801
 21
491.2175764034569
 31
0.0
  0
LINE
  5
E7AB
330
18
100
AcDbEntity
  8
0
  6
BYBLOCK
100
AcDbLine
 10
245.9522939086801
 20
491.2175764034569
 30
0.0
 11
244.600632369335
 21
492.7860782863827
 31
0.0
  0
LINE
  5
E7AC
330
18
100
AcDbEntity
  8
0
  6
BYBLOCK
100
AcDbLine
 10
245.9522939086801
 20
491.2175764034569
 30
0.0
 11
245.0833019899293
 21
493.0189239671286
 31
0.0
  0
LINE
  5
E7AD
330
18
100
AcDbEntity
  8
0
  6
BYBLOCK
100
AcDbLine
 10
198.615702764238
 20
475.0566003399426
 30
0.0
 11
198.7837879940401
 21
472.9928817473993
 31
0.0
  0
LINE
  5
E7AE
330
18
100
AcDbEntity
  8
0
  6
BYBLOCK
100
AcDbLine
 10
198.7837879940401
 20
472.9928817473993
 30
0.0
 11
197.6063626264855
 21
474.6960718652444
 31
0.0
  0
LINE
  5
E7AF
330
18
100
AcDbEntity
  8
0
  6
BYBLOCK
100
AcDbLine
 10
198.7837879940401
 20
472.9928817473993
 30
0.0
 11
198.1110326953618
 21
474.8763361025935
 31
0.0
  0
LINE
  5
E7B0
330
18
100
AcDbEntity
  8
0
  6
BYBLOCK
100
AcDbLine
 10
421.1961252070405
 20
370.9366007828299
 30
0.0
 11
423.1961252070405
 21
370.4007024028299
 31
0.0
  0
LINE
  5
E7B1
330
18
100
AcDbEntity
  8
0
  6
BYBLOCK
100
AcDbLine
 10
423.1961252070405
 20
370.4007024028299
 30
0.0
 11
421.1961252070405
 21
369.86480402283
 31
0.0
  0
LINE
  5
E7B2
330
18
100
AcDbEntity
  8
0
  6
BYBLOCK
100
AcDbLine
 10
423.1961252070405
 20
370.4007024028299
 30
0.0
 11
421.1961252070405
 21
370.4007024028299
 31
0.0
  0
LINE
  5
E7B3
330
18
100
AcDbEntity
  8
0
  6
BYBLOCK
100
AcDbLine
 10
429.9961252070401
 20
369.86480402283
 30
0.0
 11
427.9961252070401
 21
370.4007024028299
 31
0.0
  0
LINE
  5
E7B4
330
18
100
AcDbEntity
  8
0
  6
BYBLOCK
100
AcDbLine
 10
427.9961252070401
 20
370.4007024028299
 30
0.0
 11
429.9961252070401
 21
370.9366007828299
 31
0.0
  0
LINE
  5
E7B5
330
18
100
AcDbEntity
  8
0
  6
BYBLOCK
100
AcDbLine
 10
427.9961252070401
 20
370.4007024028299
 30
0.0
 11
429.9961252070401
 21
370.4007024028299
 31
0.0
  0
TEXT
  5
E7B6
330
18
100
AcDbEntity
  8
1DIM
  6
CONTINUOUS
100
AcDbText
 10
411.3294585403738
 20
371.1007024028299
 30
0.0
 40
3.5
  1
4.8
100
AcDbText
1001
ACAD
1000
DSTYLE
1002
{
1070
   179
1070
     2
1070
    79
1070
     2
1070
   341
1005
0
1070
   272
1070
     2
1002
}
  0
VIEWPORT
  5
57
330
15
100
AcDbEntity
 67
     1
  8
0
100
AcDbViewport
 68
     1
 10
0.0
 20
0.0
 30
0.0
 40
551.8723404255319
 41
297.0
 68
     1
 69
     1
1001
ACAD
1000
MVIEW
1002
{
1070
    16
1010
0.0
1020
0.0
1030
0.0
1010
0.0
1020
0.0
1030
1.0
1040
0.0
1040
297.0
1040
-4.171999999999912
1040
12.23901669341836
1040
50.0
1040
0.0
1040
0.0
1070
    16
1070
   100
1070
     0
1070
     1
1070
     0
1070
     0
1070
     0
1070
     0
1040
0.0
1040
0.0
1040
0.0
1040
10.0
1040
10.0
1040
10.0
1040
10.0
1070
     0
1002
{
1002
}
1002
}
  0
ENDSEC
  0
SECTION
  2
OBJECTS
  0
DICTIONARY
  5
C
330
0
100
AcDbDictionary
  3
ACAD_CIP_PREVIOUS_PRODUCT_INFO
350
BE6E
  3
ACAD_COLOR
350
18D
  3
ACAD_GROUP
350
D
  3
ACAD_LAYOUT
350
18E
  3
ACAD_MATERIAL
350
18C
  3
ACAD_MLEADERSTYLE
350
153C
  3
ACAD_MLINESTYLE
350
1B
  3
ACAD_PLOTSETTINGS
350
18F
  3
ACAD_SCALELIST
350
151A
  3
ACAD_VISUALSTYLE
350
1509
  3
ACDBHEADERROUNDTRIPXREC
350
E7B8
  3
ACDBVARIABLEDICTIONARY
350
37
  3
CONTENTDICTIONARY
350
D8
  3
DRAWINGVARIABLESDICT
350
20
  3
DWGPROPS
350
E7BB
1001
ACAD
1000
TREAT_AS_HARD
1070
     0
  0
DICTIONARY
  5
1C5A
330
2
100
AcDbDictionary
  3
ACAD_LAYERSTATES
360
1C5B
1001
ACAD
1000
TREAT_AS_HARD
1070
     1
  0
DICTIONARY
  5
1545
330
E
100
AcDbDictionary
  3
ADSK_XREC_LAYER_RECONCILED
360
1546
1001
ACAD
1000
TREAT_AS_HARD
1070
     1
  0
DICTIONARY
  5
1547
330
29
100
AcDbDictionary
  3
ADSK_XREC_LAYER_RECONCILED
360
1548
1001
ACAD
1000
TREAT_AS_HARD
1070
     1
  0
DICTIONARY
  5
1549
330
31
100
AcDbDictionary
  3
ADSK_XREC_LAYER_RECONCILED
360
154A
1001
ACAD
1000
TREAT_AS_HARD
1070
     1
  0
DICTIONARY
  5
1559
330
243
100
AcDbDictionary
  3
ADSK_XREC_LAYER_RECONCILED
360
155A
1001
ACAD
1000
TREAT_AS_HARD
1070
     1
  0
DICTIONARY
  5
156F
330
24E
100
AcDbDictionary
  3
ADSK_XREC_LAYER_RECONCILED
360
1570
1001
ACAD
1000
TREAT_AS_HARD
1070
     1
  0
DICTIONARY
  5
6ED2
330
18
100
AcDbDictionary
  3
ACAD_SORTENTS
360
6ED3
1001
ACAD
1000
TREAT_AS_HARD
1070
     1
  0
DICTIONARY
  5
14C7
330
15
100
AcDbDictionary
  3
ACAD_SORTENTS
360
14C8
1001
ACAD
1000
TREAT_AS_HARD
1070
     1
  0
XRECORD
  5
BE6E
102
{ACAD_REACTORS
330
C
102
}
330
C
100
AcDbXrecord
300
ACDLT
300
2012
300
ACDLT_F_S
  0
DICTIONARY
  5
18D
102
{ACAD_REACTORS
330
C
102
}
330
C
100
AcDbDictionary
1001
ACAD
1000
TREAT_AS_HARD
1070
     0
  0
DICTIONARY
  5
D
102
{ACAD_REACTORS
330
C
102
}
330
C
100
AcDbDictionary
1001
ACAD
1000
TREAT_AS_HARD
1070
     0
  0
DICTIONARY
  5
18E
102
{ACAD_REACTORS
330
C
102
}
330
C
100
AcDbDictionary
1001
ACAD
1000
TREAT_AS_HARD
1070
     0
  0
DICTIONARY
  5
18C
102
{ACAD_REACTORS
330
C
102
}
330
C
100
AcDbDictionary
  3
BYBLOCK
350
14F9
  3
BYLAYER
350
14F1
  3
GLOBAL
350
1501
1001
ACAD
1000
TREAT_AS_HARD
1070
     0
  0
DICTIONARY
  5
153C
102
{ACAD_REACTORS
330
C
102
}
330
C
100
AcDbDictionary
  3
STANDARD
350
153D
1001
ACAD
1000
TREAT_AS_HARD
1070
     0
  0
DICTIONARY
  5
1B
102
{ACAD_REACTORS
330
C
102
}
330
C
100
AcDbDictionary
  3
STANDARD
350
1C
1001
ACAD
1000
TREAT_AS_HARD
1070
     0
  0
DICTIONARY
  5
18F
102
{ACAD_REACTORS
330
C
102
}
330
C
100
AcDbDictionary
1001
ACAD
1000
TREAT_AS_HARD
1070
     0
  0
DICTIONARY
  5
151A
102
{ACAD_REACTORS
330
C
102
}
330
C
100
AcDbDictionary
  3
A0
350
151B
  3
A1
350
151C
  3
A2
350
151D
  3
A3
350
151E
  3
A4
350
151F
  3
A5
350
1520
  3
A6
350
1521
  3
A7
350
1522
  3
A8
350
1523
  3
A9
350
1524
  3
B0
350
1525
  3
B1
350
1526
  3
B2
350
1527
  3
B3
350
1528
  3
B4
350
1529
  3
B5
350
152A
  3
B6
350
152B
  3
B7
350
152C
  3
B8
350
152D
  3
B9
350
152E
  3
C0
350
152F
  3
C1
350
1530
  3
C2
350
1531
  3
C3
350
1532
  3
C4
350
1533
  3
C5
350
1534
  3
C6
350
1535
  3
C7
350
1536
  3
C8
350
1537
  3
C9
350
1538
  3
D0
350
1539
  3
D1
350
153A
  3
D2
350
153B
1001
ACAD
1000
TREAT_AS_HARD
1070
     0
  0
DICTIONARY
  5
1509
102
{ACAD_REACTORS
330
C
102
}
330
C
100
AcDbDictionary
  3
2DWIREFRAME
350
150F
  3
3D_HIDDEN
350
1511
  3
3DWIREFRAME
350
1510
  3
BASIC
350
150E
  3
BRIGHTEN
350
1515
  3
COLORCHANGE
350
1519
  3
CONCEPTUAL
350
1512
  3
DIM
350
1514
  3
EDGECOLOROFF
350
BE68
  3
FACEPATTERN
350
1518
  3
FLAT
350
150A
  3
FLATWITHEDGES
350
150B
  3
GOURAUD
350
150C
  3
GOURAUDWITHEDGES
350
150D
  3
HIDDEN
350
BE60
  3
JITTEROFF
350
BE66
  3
LINEPATTERN
350
1517
  3
MODELING
350
DB81
  3
OVERHANGOFF
350
BE67
  3
REALISTIC
350
1513
  3
SHADED
350
BE65
  3
SHADED_WITH_EDGES
350
BE64
  3
SHADES_OF_GRAY
350
BE61
  3
SKETCHY
350
BE62
  3
THICKEN
350
1516
  3
WIREFRAME
350
BE5F
  3
X-RAY
350
BE63
1001
ACAD
1000
TREAT_AS_HARD
1070
     0
  0
DICTIONARY
  5
E7B8
102
{ACAD_REACTORS
330
C
102
}
330
C
100
AcDbDictionary
  3
COLORDICT
350
E7B9
  3
MATERIALDICT
350
E7BA
1001
ACAD
1000
TREAT_AS_HARD
1070
     0
  0
DICTIONARY
  5
37
102
{ACAD_REACTORS
330
C
102
}
330
C
100
AcDbDictionary
  3
CANNOSCALE
350
DBDA
  3
CMLEADERSTYLE
350
6D3A
  3
CTABLESTYLE
350
2A8
  3
DIMADEC
350
38
  3
DIMASSOC
350
1CE
  3
HIDETEXT
350
E7B7
  3
INDEXCTL
350
6D3D
  3
LAYEREVAL
350
C576
  3
LAYERNOTIFY
350
C577
  3
LIGHTINGUNITS
350
C575
  3
MSLTSCALE
350
C574
  3
PROJECTNAME
350
1CF
  3
SORTENTS
350
6D3C
  3
XCLIPFRAME
350
DB80
1001
ACAD
1000
TREAT_AS_HARD
1070
     0
  0
DICTIONARY
  5
D8
102
{ACAD_REACTORS
330
C
102
}
330
C
100
AcDbDictionary
1001
ACAD
1000
TREAT_AS_HARD
1070
     0
  0
DICTIONARY
  5
20
102
{ACAD_REACTORS
330
C
102
}
330
C
100
AcDbDictionary
1001
DRAWINGVARIABLESXDATA
1000
POLARANG
1000
0.261799387799149410000000
1000
POLARMODE
1000
1
1000
POLARSTYLE
1000
1
1001
ACAD
1000
TREAT_AS_HARD
1070
     0
  0
XRECORD
  5
E7BB
102
{ACAD_REACTORS
330
C
102
}
330
C
100
AcDbXrecord
  1
DWGPROPS COOKIE
  2

  3

  4

  6

  7

  8
3969
  9

300
=
301
=
302
=
303
=
304
=
305
=
306
=
307
=
308
=
309
=
 40
0.0
 41
2451318.246352917
 42
2459172.211328183
  1

 90
        0
  0
DICTIONARY
  5
1C5B
102
{ACAD_REACTORS
330
1C5A
102
}
330
1C5A
100
AcDbDictionary
  3
_LAYISO_STATE
350
CB56
1001
ACLAYERTOOLS
1000
190
1000
0
1001
ACAD
1000
TREAT_AS_HARD
1070
     0
  0
ACAD_PROXY_OBJECT
  5
1546
102
{ACAD_REACTORS
330
1545
102
}
330
1545
100
AcDbZombieObject
 90
      499
 91
      518
 93
       34
310
40C8804040
  0
ACAD_PROXY_OBJECT
  5
1548
102
{ACAD_REACTORS
330
1547
102
}
330
1547
100
AcDbZombieObject
 90
      499
 91
      518
 93
       34
310
40C8804040
  0
ACAD_PROXY_OBJECT
  5
154A
102
{ACAD_REACTORS
330
1549
102
}
330
1549
100
AcDbZombieObject
 90
      499
 91
      518
 93
       34
310
40C8804040
  0
ACAD_PROXY_OBJECT
  5
155A
102
{ACAD_REACTORS
330
1559
102
}
330
1559
100
AcDbZombieObject
 90
      499
 91
      518
 93
       34
310
40C8804040
  0
ACAD_PROXY_OBJECT
  5
1570
102
{ACAD_REACTORS
330
156F
102
}
330
156F
100
AcDbZombieObject
 90
      499
 91
      518
 93
       34
310
40C8804040
  0
SORTENTSTABLE
  5
6ED3
102
{ACAD_REACTORS
330
6ED2
102
}
330
6ED2
100
AcDbSortentsTable
330
18
331
BAC9
  5
BAF9
331
C0AA
  5
C0AE
331
C0AB
  5
C0AF
331
C0AC
  5
C0B0
331
C0AD
  5
C0B1
331
C0AE
  5
C0B2
331
C0AF
  5
C0B3
331
C0B0
  5
C0B4
331
C0B1
  5
C0B5
331
C0B2
  5
C0B6
331
C0B3
  5
C0B7
331
C0B4
  5
C0B8
331
C0B5
  5
C0B9
331
C0B6
  5
C0BA
331
C0B7
  5
C0BB
331
C0B8
  5
C0BC
331
C0B9
  5
C0BD
331
C0BA
  5
C0BE
331
C0BB
  5
C0BF
331
C0BC
  5
C0C0
331
C0BD
  5
C0C1
331
C0BE
  5
C0C2
331
C0BF
  5
C0C3
331
C0C0
  5
C0C4
331
C0C1
  5
C0C5
331
C0C2
  5
C0C6
331
C0C3
  5
C0C7
331
C0C4
  5
C0C8
331
C0C5
  5
C0C9
331
C0C6
  5
C0CA
331
C0C7
  5
C0CB
331
C0C8
  5
C0CC
331
C0C9
  5
C0CD
331
C0CA
  5
C0CE
331
C0CB
  5
C0CF
331
C0CC
  5
C0D0
331
C0CD
  5
C0D1
331
C0CE
  5
C0D2
331
C0CF
  5
C0D3
331
C0D0
  5
C0D5
331
C0D1
  5
C0D6
331
C0D2
  5
C0D8
331
C0D3
  5
C0DA
331
C0D6
  5
C0DD
331
C0D8
  5
C0DE
331
C0DA
  5
C0E0
331
C0DB
  5
C0E1
331
C0DD
  5
C0E2
331
C0DE
  5
C0E8
331
C0E0
  5
C0E9
331
C0E2
  5
C0EA
331
C0E3
  5
C118
331
C0EA
  5
C11A
331
C117
  5
C11B
331
C118
  5
C11E
331
C119
  5
C11F
331
C11A
  5
C120
331
C11B
  5
C123
331
C11E
  5
C125
331
C11F
  5
C126
331
C120
  5
C128
331
C123
  5
C12A
331
C125
  5
C12B
331
C127
  5
C12C
331
C128
  5
C12F
331
C129
  5
C130
331
C12A
  5
C132
331
C12B
  5
C133
331
C12C
  5
C135
331
C12F
  5
C136
331
C130
  5
C137
331
0
  5
C138
331
C133
  5
C16E
331
C135
  5
C16F
331
C136
  5
C17B
331
C137
  5
C17C
331
C138
  5
C17D
331
C139
  5
C17E
331
C13A
  5
C17F
331
C13B
  5
C180
331
C13C
  5
C181
331
C13D
  5
C182
331
C13E
  5
C184
331
C144
  5
C185
331
C147
  5
C1A2
331
C148
  5
C1A3
331
C14C
  5
C1A5
331
C14D
  5
C1A7
331
C14E
  5
C1B7
331
C14F
  5
C1B8
331
C150
  5
C1B9
331
C151
  5
C1BA
331
C152
  5
C1BB
331
C153
  5
C1BC
331
C154
  5
C1BD
331
C155
  5
C1BE
331
C156
  5
C1C1
331
C157
  5
C1C5
331
C169
  5
C1C6
331
C16A
  5
C1C7
331
C16B
  5
C1C8
331
C16C
  5
C1CA
331
C16D
  5
C1CB
331
C16E
  5
C1CD
331
C17A
  5
C1CE
331
C17B
  5
C1CF
331
C17C
  5
C1D0
331
C17D
  5
C1D5
331
C17E
  5
C1FB
331
C17F
  5
C1FC
331
C180
  5
C1FD
331
C181
  5
C1FE
331
C183
  5
C200
331
C184
  5
C201
331
C1A1
  5
C202
331
C1A2
  5
C203
331
C1A3
  5
C204
331
C1A5
  5
C206
331
C1B6
  5
C207
331
C1B7
  5
C20A
331
C1B8
  5
C20B
331
C1B9
  5
C21E
331
C1BA
  5
C21F
331
C1BB
  5
C220
331
C1BC
  5
C221
331
C1BD
  5
C222
331
C1BE
  5
C225
331
C1C1
  5
C22D
331
C1C4
  5
C22F
331
C1C5
  5
C230
331
C1C6
  5
C487
331
C1C8
  5
C570
331
C1CA
  5
C571
331
C1CB
  5
C572
331
C1CC
  5
C573
331
C1CD
  5
C761
331
C1CF
  5
CB2E
331
C1F7
  5
CB31
331
C1F8
  5
CB32
331
C1F9
  5
CB33
331
C1FA
  5
CB34
331
C1FD
  5
CB36
331
C1FE
  5
CB37
331
C1FF
  5
CB38
331
C200
  5
CBAD
331
C201
  5
CBBA
331
C202
  5
CBD3
331
C205
  5
CBD4
331
C206
  5
CBD5
331
C207
  5
CBD8
331
0
  5
CBD9
331
0
  5
CBDA
331
0
  5
CBDB
331
0
  5
CBE8
331
0
  5
CC02
331
C220
  5
E5D5
331
0
  5
CC1C
331
0
  5
CC1E
331
0
  5
CC1F
331
0
  5
CC20
331
C482
  5
E619
331
C483
  5
E61A
331
C484
  5
E61B
331
C485
  5
E61C
331
C486
  5
E61D
331
0
  5
D0EC
331
0
  5
D0ED
331
C570
  5
C22E
331
C572
  5
C55A
331
C761
  5
C129
331
CB2E
  5
E638
331
CB31
  5
E639
331
CB32
  5
E63A
331
CB33
  5
E63B
331
CB34
  5
E63C
331
CB35
  5
E63D
331
CB36
  5
E63E
331
CB37
  5
E63F
331
CB38
  5
E640
331
0
  5
D63B
331
0
  5
D63C
331
CBD3
  5
E655
331
CBD4
  5
E656
331
CBD5
  5
E657
331
CBD6
  5
E658
331
CBD7
  5
E659
331
0
  5
CC1D
331
CBD9
  5
E66C
331
CBDA
  5
E66D
331
0
  5
D79D
331
0
  5
D79E
331
0
  5
D79F
331
0
  5
D7A0
331
0
  5
D7A1
331
0
  5
D7A2
331
0
  5
D7A3
331
0
  5
D7A4
331
0
  5
D7A5
331
0
  5
D7A6
331
0
  5
D7A7
331
0
  5
D7A8
331
0
  5
D7A9
331
D62F
  5
E6D3
331
D630
  5
E6D4
331
D631
  5
E6D8
331
D632
  5
E6D9
331
D633
  5
E6DA
331
D634
  5
E6DB
331
D635
  5
E6DC
331
D636
  5
E6DD
331
D637
  5
E6DE
331
D638
  5
E6DF
331
D639
  5
E6E0
331
D63A
  5
E6E1
331
D63B
  5
E6E2
331
D63C
  5
E6E3
331
D63D
  5
E6E4
331
D63E
  5
E6E5
331
D63F
  5
E6E6
331
D640
  5
E6E7
331
D641
  5
E6E8
331
D642
  5
E6E9
331
D643
  5
C0AD
331
D644
  5
C0AC
331
D645
  5
CBD6
331
D650
  5
CBD7
331
D651
  5
C0AB
331
D652
  5
CB35
331
D653
  5
C0AA
331
D798
  5
E6EA
331
D799
  5
E6EB
331
D79A
  5
E6EC
331
D79B
  5
E6ED
331
D79C
  5
E6EE
331
D79D
  5
E6EF
331
D79E
  5
E6F0
331
D79F
  5
E6F1
331
D7A0
  5
E6F2
331
D7A1
  5
E6F3
331
D7A2
  5
E6F4
331
D7A3
  5
E6F5
331
D7A4
  5
E6F6
331
D7A5
  5
E6F7
331
D7A6
  5
E6F8
331
D7A7
  5
E6F9
331
D7A8
  5
E6FA
331
D7A9
  5
E6FB
331
D7AA
  5
E6FC
331
D7AB
  5
E6FD
331
D7AC
  5
E6FE
331
D7AD
  5
E6FF
331
D7AE
  5
E700
331
D7AF
  5
E701
331
D7B0
  5
E702
331
D7B1
  5
E703
331
D7B2
  5
E704
331
D7B3
  5
E705
331
D7B4
  5
E706
331
0
  5
D7E1
331
0
  5
D7E2
331
0
  5
D7E3
331
0
  5
E594
331
0
  5
E5D4
331
D7C0
  5
E739
331
D7C1
  5
E73A
331
D7C2
  5
E73B
331
D7C3
  5
E73C
331
D7C4
  5
E73D
331
D7C5
  5
E73E
331
D7C6
  5
E73F
331
D7C7
  5
E740
331
D7C8
  5
E741
331
D7C9
  5
E742
331
D7CA
  5
E743
331
D7CB
  5
E744
331
D7CC
  5
E745
331
D7CD
  5
E746
331
D7CE
  5
E747
331
D7CF
  5
E748
331
D7D0
  5
E749
331
D7D1
  5
E74A
331
D7D2
  5
E74B
331
D7D3
  5
E74C
331
D7D4
  5
E74D
331
D7D5
  5
E74E
331
D7D6
  5
E74F
331
D7D7
  5
E750
331
D7D8
  5
E751
331
0
  5
E5EE
331
0
  5
E5EF
331
0
  5
E5F0
331
0
  5
E5F1
331
0
  5
E5F2
331
0
  5
E5F3
331
0
  5
E5F4
331
0
  5
E5F5
331
0
  5
E5F6
331
0
  5
E5F7
331
0
  5
E5F8
331
0
  5
E5F9
331
E5D4
  5
C139
331
E5D5
  5
C13A
331
E5D6
  5
C13B
331
E5D7
  5
C13C
331
E5D8
  5
C13D
331
E5D9
  5
C13E
331
E5DA
  5
C144
331
E5DB
  5
C147
331
E5DC
  5
C148
331
E5DD
  5
C149
331
E5DE
  5
C14D
331
E5DF
  5
C14E
331
E5E0
  5
C14F
331
E5E1
  5
C150
331
E5E2
  5
C151
331
E5E3
  5
C152
331
E5E4
  5
C153
331
E5E5
  5
C154
331
E5E6
  5
C155
331
E5E7
  5
C156
331
E5E8
  5
C157
331
E5E9
  5
C158
331
E5EA
  5
C16A
331
E5EB
  5
C16B
331
E5EC
  5
C16C
331
E5ED
  5
C16D
331
E5EE
  5
E65A
331
E5EF
  5
E65B
331
E5F0
  5
E65C
331
E5F1
  5
E65D
331
E5F2
  5
E65E
331
E5F3
  5
E65F
331
E5F4
  5
E660
331
E5F5
  5
E661
331
E5F6
  5
E662
331
E5F7
  5
E666
331
E5F8
  5
E667
331
E5F9
  5
E668
331
E5FA
  5
CC1B
331
E5FB
  5
CC21
331
E5FC
  5
CC22
331
0
  5
CC86
331
0
  5
CC93
331
0
  5
D0EB
331
E600
  5
D641
331
E601
  5
D642
331
E602
  5
D646
331
0
  5
D0F1
331
0
  5
D0F2
331
0
  5
D637
331
E606
  5
D7AE
331
E607
  5
D7AF
331
E608
  5
D7B3
331
0
  5
D63D
331
0
  5
D63E
331
0
  5
D63F
331
E60C
  5
D7C7
331
E60D
  5
D7C8
331
E60E
  5
D7C9
331
0
  5
D643
331
0
  5
D644
331
0
  5
D645
331
E612
  5
D7D7
331
E613
  5
D7D8
331
E614
  5
D7D9
331
0
  5
D652
331
0
  5
D653
331
0
  5
D798
331
E618
  5
E5D9
331
E619
  5
E5DA
331
E61A
  5
E5DB
331
0
  5
D7AA
331
0
  5
D7AB
331
0
  5
D7AC
331
E61E
  5
E5E6
331
E61F
  5
E5E7
331
E620
  5
E5E8
331
0
  5
D7B0
331
0
  5
D7B1
331
0
  5
D7B2
331
E624
  5
E5FC
331
E625
  5
E5FD
331
E626
  5
E5FE
331
0
  5
D7B6
331
0
  5
D7B7
331
0
  5
D7BA
331
E62A
  5
E60C
331
E62B
  5
E60D
331
E62C
  5
E611
331
0
  5
D7C2
331
0
  5
D7C3
331
0
  5
D7C4
331
E630
  5
E61E
331
E631
  5
E61F
331
E632
  5
E620
331
0
  5
D7CD
331
0
  5
D7CE
331
0
  5
D7CF
331
E636
  5
E62B
331
E637
  5
E62F
331
E638
  5
E630
331
0
  5
D7D3
331
0
  5
D7D4
331
0
  5
D7D5
331
E63C
  5
E641
331
E63D
  5
E642
331
E63E
  5
E643
331
0
  5
E5D6
331
0
  5
E5D7
331
0
  5
E5D8
331
E642
  5
E64B
331
E643
  5
E64C
331
E644
  5
E64D
331
0
  5
E5DC
331
0
  5
E5DD
331
0
  5
E5DE
331
E648
  5
E66E
331
E649
  5
E672
331
E64A
  5
E673
331
0
  5
E601
331
0
  5
E602
331
0
  5
E603
331
E64E
  5
E681
331
E64F
  5
E682
331
E650
  5
E683
331
E651
  5
E684
331
E652
  5
E685
331
0
  5
E609
331
0
  5
E60A
331
0
  5
E60B
331
E656
  5
E68D
331
E657
  5
E68E
331
0
  5
E60E
331
0
  5
E60F
331
0
  5
E610
331
E65B
  5
E696
331
E65C
  5
E697
331
E65D
  5
E698
331
E65E
  5
E699
331
E65F
  5
E69D
331
E660
  5
E69E
331
E661
  5
E69F
331
E662
  5
E6A3
331
E663
  5
E6A4
331
E664
  5
E6A5
331
E665
  5
E6A6
331
E666
  5
E6A7
331
E667
  5
E6AB
331
E668
  5
E6AC
331
E669
  5
E6AD
331
E66A
  5
E6AE
331
E66B
  5
E6AF
331
E66C
  5
E6B3
331
E66D
  5
E6B4
331
0
  5
E624
331
0
  5
E625
331
0
  5
E626
331
E671
  5
E6C2
331
E672
  5
E6C3
331
E673
  5
E6C8
331
E674
  5
E6C9
331
E675
  5
E6CA
331
0
  5
E62C
331
0
  5
E62D
331
0
  5
E62E
331
E679
  5
E707
331
E67A
  5
E708
331
E67B
  5
E709
331
0
  5
E663
331
0
  5
E664
331
0
  5
E665
331
E67F
  5
E711
331
E680
  5
E712
331
E681
  5
E713
331
0
  5
E669
331
0
  5
E66A
331
0
  5
E66B
331
E685
  5
E71B
331
E686
  5
E71C
331
E687
  5
E71D
331
0
  5
E66F
331
0
  5
E670
331
0
  5
E671
331
E68B
  5
E725
331
E68C
  5
E726
331
E68D
  5
E727
331
0
  5
E675
331
0
  5
E676
331
0
  5
E677
331
E691
  5
E72F
331
E692
  5
E730
331
E693
  5
E731
331
0
  5
E67B
331
0
  5
E67C
331
0
  5
E67D
331
E697
  5
E752
331
E698
  5
E753
331
E699
  5
E754
331
E69D
  5
E75C
331
E69E
  5
E75D
331
E69F
  5
E75E
331
E6A3
  5
E766
331
E6A4
  5
E767
331
E6A5
  5
E768
331
E6A6
  5
E769
331
E6A7
  5
E76A
331
E6AB
  5
E772
331
E6AC
  5
E773
331
E6AD
  5
E774
331
E6AE
  5
E775
331
E6AF
  5
E776
331
E6B3
  5
E77E
331
E6B4
  5
E77F
331
E6B5
  5
E780
331
E6B6
  5
E781
331
E6B7
  5
E782
331
E6BB
  5
E78A
331
E6BC
  5
E78B
331
E6BD
  5
E78C
331
E6C1
  5
E794
331
E6C2
  5
E795
331
E6C3
  5
E796
331
E6C8
  5
E7A1
331
E6C9
  5
E7A2
331
E6CA
  5
E7A3
331
E6CC
  5
E7A7
331
E6CD
  5
E7A8
331
E6CE
  5
E7A9
331
E6CF
  5
E7AA
331
E6D0
  5
E7AB
331
E6D1
  5
E7AC
331
E6D2
  5
E7AD
331
E6D3
  5
E7AE
331
E6D4
  5
E7AF
331
E6D8
  5
D0EE
331
E6D9
  5
D0EF
331
E6DA
  5
D0F0
331
E6DB
  5
D638
331
E6DC
  5
D639
331
E6DD
  5
D63A
331
E6DE
  5
D640
331
E6DF
  5
D650
331
E6E0
  5
D651
331
E6E1
  5
D799
331
E6E2
  5
D79A
331
E6E3
  5
D79B
331
E6E4
  5
D79C
331
E6E5
  5
D7AD
331
E6E6
  5
D7B4
331
E6E7
  5
D7B5
331
E6E8
  5
D7BD
331
E6E9
  5
D7C0
331
E6EA
  5
D7C1
331
E6EB
  5
D7C5
331
E6EC
  5
D7C6
331
E6ED
  5
D7CA
331
E6EE
  5
D7CB
331
E6EF
  5
D7CC
331
E6F0
  5
D7D0
331
E6F1
  5
D7D1
331
E6F2
  5
D7D2
331
E6F3
  5
D7D6
331
E6F4
  5
D7DA
331
E6F5
  5
D7DB
331
E6F6
  5
D7DC
331
E6F7
  5
D7DD
331
E6F8
  5
D7DE
331
E6F9
  5
D7DF
331
E6FA
  5
D7E0
331
E6FB
  5
E5DF
331
E6FC
  5
E5E0
331
E6FD
  5
E5E1
331
E6FE
  5
E5E2
331
E6FF
  5
E5E3
331
E700
  5
E5E4
331
E701
  5
E5E5
331
E702
  5
E5E9
331
E703
  5
E5EA
331
E704
  5
E5EB
331
E705
  5
E5EC
331
E706
  5
E5ED
331
E707
  5
E5FA
331
E708
  5
E5FB
331
E709
  5
E5FF
331
E70A
  5
E600
331
E70B
  5
E604
331
E70C
  5
E605
331
E70D
  5
E606
331
E70E
  5
E607
331
E70F
  5
E608
331
E710
  5
E612
331
E711
  5
E613
331
E712
  5
E614
331
E713
  5
E615
331
E714
  5
E616
331
E715
  5
E617
331
E716
  5
E618
331
E717
  5
E621
331
E718
  5
E622
331
E719
  5
E623
331
E71A
  5
E627
331
E71B
  5
E628
331
E71C
  5
E629
331
E71D
  5
E62A
331
E71E
  5
E631
331
E71F
  5
E632
331
E720
  5
E633
331
E721
  5
E634
331
E722
  5
E635
331
E723
  5
E636
331
E724
  5
E637
331
E725
  5
E644
331
E726
  5
E645
331
E727
  5
E646
331
E728
  5
E647
331
E729
  5
E648
331
E72A
  5
E649
331
E72B
  5
E64A
331
E72C
  5
E64E
331
E72D
  5
E64F
331
E72E
  5
E650
331
E72F
  5
E651
331
E730
  5
E652
331
E731
  5
E653
331
E732
  5
E654
331
E733
  5
E674
331
E734
  5
E678
331
E735
  5
E679
331
E736
  5
E67A
331
E737
  5
E67E
331
E738
  5
E67F
331
E739
  5
E680
331
E73A
  5
E686
331
E73B
  5
E687
331
E73C
  5
E688
331
E73D
  5
E689
331
E73E
  5
E68A
331
E73F
  5
E68B
331
E740
  5
E68C
331
E741
  5
E68F
331
E742
  5
E690
331
E743
  5
E691
331
E744
  5
E692
331
E745
  5
E693
331
E746
  5
E694
331
E747
  5
E695
331
E748
  5
E6B5
331
E749
  5
E6B6
331
E74A
  5
E6B7
331
E74B
  5
E6BB
331
E74C
  5
E6BC
331
E74D
  5
E6BD
331
E74E
  5
E6C1
331
E74F
  5
E6CC
331
E750
  5
E6CD
331
E751
  5
E6CE
331
E752
  5
E6CF
331
E753
  5
E6D0
331
E754
  5
E6D1
331
E755
  5
E6D2
331
E756
  5
E70A
331
E757
  5
E70B
331
E758
  5
E70C
331
E759
  5
E70D
331
E75A
  5
E70E
331
E75B
  5
E70F
331
E75C
  5
E710
331
E75D
  5
E714
331
E75E
  5
E715
331
E75F
  5
E716
331
E760
  5
E717
331
E761
  5
E718
331
E762
  5
E719
331
E763
  5
E71A
331
E764
  5
E71E
331
E765
  5
E71F
331
E766
  5
E720
331
E767
  5
E721
331
E768
  5
E722
331
E769
  5
E723
331
E76A
  5
E724
331
E76B
  5
E728
331
E76C
  5
E729
331
E76D
  5
E72A
331
E76E
  5
E72B
331
E76F
  5
E72C
331
E770
  5
E72D
331
E771
  5
E72E
331
E772
  5
E732
331
E773
  5
E733
331
E774
  5
E734
331
E775
  5
E735
331
E776
  5
E736
331
E777
  5
E737
331
E778
  5
E738
331
E779
  5
E755
331
E77A
  5
E756
331
E77B
  5
E757
331
E77C
  5
E758
331
E77D
  5
E759
331
E77E
  5
E75A
331
E77F
  5
E75B
331
E780
  5
E75F
331
E781
  5
E760
331
E782
  5
E761
331
E783
  5
E762
331
E784
  5
E763
331
E785
  5
E764
331
E786
  5
E765
331
E787
  5
E76B
331
E788
  5
E76C
331
E789
  5
E76D
331
E78A
  5
E76E
331
E78B
  5
E76F
331
E78C
  5
E770
331
E78D
  5
E771
331
E78E
  5
E777
331
E78F
  5
E778
331
E790
  5
E779
331
E791
  5
E77A
331
E792
  5
E77B
331
E793
  5
E77C
331
E794
  5
E77D
331
E795
  5
E783
331
E796
  5
E784
331
E797
  5
E785
331
E798
  5
E786
331
E799
  5
E787
331
E79A
  5
E788
331
E79B
  5
E789
331
E79C
  5
E78D
331
E79D
  5
E78E
331
E79E
  5
E78F
331
E79F
  5
E790
331
E7A0
  5
E791
331
E7A1
  5
E792
331
E7A2
  5
E793
331
E7A3
  5
E797
331
E7A4
  5
E798
331
E7A5
  5
E799
331
E7A6
  5
E79A
331
E7A7
  5
E79B
331
E7A8
  5
E79C
331
E7A9
  5
E79D
331
E7AA
  5
E79E
331
E7AB
  5
E79F
331
E7AC
  5
E7A0
331
E7AD
  5
E7A4
331
E7AE
  5
E7A5
331
E7AF
  5
E7A6
  0
SORTENTSTABLE
  5
14C8
102
{ACAD_REACTORS
330
14C7
102
}
330
14C7
100
AcDbSortentsTable
330
15
331
57
  5
57
  0
MATERIAL
  5
14F9
102
{ACAD_REACTORS
330
18C
102
}
102
{ACAD_XDICTIONARY
360
E956
102
}
330
18C
100
AcDbMaterial
  1
BYBLOCK
 72
     0
 73
     2
 43
0.0208333333333333
 43
0.0
 43
0.0
 43
0.0
 43
0.0
 43
0.0208333333333333
 43
0.0
 43
0.0
 43
0.0
 43
0.0
 43
1.0
 43
0.0
 43
0.0
 43
0.0
 43
0.0
 43
1.0
 77
     0
 78
     2
 47
0.0208333333333333
 47
0.0
 47
0.0
 47
0.0
 47
0.0
 47
0.0208333333333333
 47
0.0
 47
0.0
 47
0.0
 47
0.0
 47
1.0
 47
0.0
 47
0.0
 47
0.0
 47
0.0
 47
1.0
171
     0
172
     2
 49
0.0208333333333333
 49
0.0
 49
0.0
 49
0.0
 49
0.0
 49
0.0208333333333333
 49
0.0
 49
0.0
 49
0.0
 49
0.0
 49
1.0
 49
0.0
 49
0.0
 49
0.0
 49
0.0
 49
1.0
175
     0
176
     2
142
0.0208333333333333
142
0.0
142
0.0
142
0.0
142
0.0
142
0.0208333333333333
142
0.0
142
0.0
142
0.0
142
0.0
142
1.0
142
0.0
142
0.0
142
0.0
142
0.0
142
1.0
179
     0
270
     2
144
0.0208333333333333
144
0.0
144
0.0
144
0.0
144
0.0
144
0.0208333333333333
144
0.0
144
0.0
144
0.0
144
0.0
144
1.0
144
0.0
144
0.0
144
0.0
144
0.0
144
1.0
274
     2
147
0.0208333333333333
147
0.0
147
0.0
147
0.0
147
0.0
147
0.0208333333333333
147
0.0
147
0.0
147
0.0
147
0.0
147
1.0
147
0.0
147
0.0
147
0.0
147
0.0
147
1.0
  0
MATERIAL
  5
14F1
102
{ACAD_REACTORS
330
18C
102
}
102
{ACAD_XDICTIONARY
360
E958
102
}
330
18C
100
AcDbMaterial
  1
BYLAYER
 72
     0
 73
     2
 43
0.0208333333333333
 43
0.0
 43
0.0
 43
0.0
 43
0.0
 43
0.0208333333333333
 43
0.0
 43
0.0
 43
0.0
 43
0.0
 43
1.0
 43
0.0
 43
0.0
 43
0.0
 43
0.0
 43
1.0
 77
     0
 78
     2
 47
0.0208333333333333
 47
0.0
 47
0.0
 47
0.0
 47
0.0
 47
0.0208333333333333
 47
0.0
 47
0.0
 47
0.0
 47
0.0
 47
1.0
 47
0.0
 47
0.0
 47
0.0
 47
0.0
 47
1.0
171
     0
172
     2
 49
0.0208333333333333
 49
0.0
 49
0.0
 49
0.0
 49
0.0
 49
0.0208333333333333
 49
0.0
 49
0.0
 49
0.0
 49
0.0
 49
1.0
 49
0.0
 49
0.0
 49
0.0
 49
0.0
 49
1.0
175
     0
176
     2
142
0.0208333333333333
142
0.0
142
0.0
142
0.0
142
0.0
142
0.0208333333333333
142
0.0
142
0.0
142
0.0
142
0.0
142
1.0
142
0.0
142
0.0
142
0.0
142
0.0
142
1.0
179
     0
270
     2
144
0.0208333333333333
144
0.0
144
0.0
144
0.0
144
0.0
144
0.0208333333333333
144
0.0
144
0.0
144
0.0
144
0.0
144
1.0
144
0.0
144
0.0
144
0.0
144
0.0
144
1.0
274
     2
147
0.0208333333333333
147
0.0
147
0.0
147
0.0
147
0.0
147
0.0208333333333333
147
0.0
147
0.0
147
0.0
147
0.0
147
1.0
147
0.0
147
0.0
147
0.0
147
0.0
147
1.0
  0
MATERIAL
  5
1501
102
{ACAD_REACTORS
330
18C
102
}
102
{ACAD_XDICTIONARY
360
E95A
102
}
330
18C
100
AcDbMaterial
  1
GLOBAL
 72
     0
 73
     2
 43
0.0208333333333333
 43
0.0
 43
0.0
 43
0.0
 43
0.0
 43
0.0208333333333333
 43
0.0
 43
0.0
 43
0.0
 43
0.0
 43
1.0
 43
0.0
 43
0.0
 43
0.0
 43
0.0
 43
1.0
 77
     0
 78
     2
 47
0.0208333333333333
 47
0.0
 47
0.0
 47
0.0
 47
0.0
 47
0.0208333333333333
 47
0.0
 47
0.0
 47
0.0
 47
0.0
 47
1.0
 47
0.0
 47
0.0
 47
0.0
 47
0.0
 47
1.0
171
     0
172
     2
 49
0.0208333333333333
 49
0.0
 49
0.0
 49
0.0
 49
0.0
 49
0.0208333333333333
 49
0.0
 49
0.0
 49
0.0
 49
0.0
 49
1.0
 49
0.0
 49
0.0
 49
0.0
 49
0.0
 49
1.0
175
     0
176
     2
142
0.0208333333333333
142
0.0
142
0.0
142
0.0
142
0.0
142
0.0208333333333333
142
0.0
142
0.0
142
0.0
142
0.0
142
1.0
142
0.0
142
0.0
142
0.0
142
0.0
142
1.0
179
     0
270
     2
144
0.0208333333333333
144
0.0
144
0.0
144
0.0
144
0.0
144
0.0208333333333333
144
0.0
144
0.0
144
0.0
144
0.0
144
1.0
144
0.0
144
0.0
144
0.0
144
0.0
144
1.0
274
     2
147
0.0208333333333333
147
0.0
147
0.0
147
0.0
147
0.0
147
0.0208333333333333
147
0.0
147
0.0
147
0.0
147
0.0
147
1.0
147
0.0
147
0.0
147
0.0
147
0.0
147
1.0
  0
ACAD_PROXY_OBJECT
  5
153D
102
{ACAD_REACTORS
330
153C
102
}
330
153C
100
AcDbZombieObject
 90
      499
 91
      511
 93
      610
310
40901902A4063FBFFFFFE000000000000002040AD7A3703D0AD73F4214DD185B99185C990000000000000104090141901A00000000000004100000000000000041025764000000000000300FC0
340
12
340
0
340
F
340
0
 94
        0
1001
ACAD_MLEADERVER
1070
     2
  0
MLINESTYLE
  5
1C
102
{ACAD_REACTORS
330
1B
102
}
330
1B
100
AcDbMlineStyle
  2
STANDARD
 70
     0
  3

 62
   256
 51
90.0
 52
90.0
 71
     2
 49
0.5
 62
   256
  6
BYLAYER
 49
-0.5
 62
   256
  6
BYLAYER
  0
ACAD_PROXY_OBJECT
  5
151B
102
{ACAD_REACTORS
330
151A
102
}
330
151A
100
AcDbZombieObject
 90
      499
 91
      510
 93
       41
310
903313A31580
  0
ACAD_PROXY_OBJECT
  5
151C
102
{ACAD_REACTORS
330
151A
102
}
330
151A
100
AcDbZombieObject
 90
      499
 91
      510
 93
      105
310
903313A324000000000000004000
  0
ACAD_PROXY_OBJECT
  5
151D
102
{ACAD_REACTORS
330
151A
102
}
330
151A
100
AcDbZombieObject
 90
      499
 91
      510
 93
      105
310
903313A344000000000000104000
  0
ACAD_PROXY_OBJECT
  5
151E
102
{ACAD_REACTORS
330
151A
102
}
330
151A
100
AcDbZombieObject
 90
      499
 91
      510
 93
      105
310
903313A354000000000000144000
  0
ACAD_PROXY_OBJECT
  5
151F
102
{ACAD_REACTORS
330
151A
102
}
330
151A
100
AcDbZombieObject
 90
      499
 91
      510
 93
      105
310
903313A384000000000000204000
  0
ACAD_PROXY_OBJECT
  5
1520
102
{ACAD_REACTORS
330
151A
102
}
330
151A
100
AcDbZombieObject
 90
      499
 91
      510
 93
      113
310
904313A31304000000000000244000
  0
ACAD_PROXY_OBJECT
  5
1521
102
{ACAD_REACTORS
330
151A
102
}
330
151A
100
AcDbZombieObject
 90
      499
 91
      510
 93
      113
310
904313A31364000000000000304000
  0
ACAD_PROXY_OBJECT
  5
1522
102
{ACAD_REACTORS
330
151A
102
}
330
151A
100
AcDbZombieObject
 90
      499
 91
      510
 93
      113
310
904313A32304000000000000344000
  0
ACAD_PROXY_OBJECT
  5
1523
102
{ACAD_REACTORS
330
151A
102
}
330
151A
100
AcDbZombieObject
 90
      499
 91
      510
 93
      113
310
904313A333040000000000003E4000
  0
ACAD_PROXY_OBJECT
  5
1524
102
{ACAD_REACTORS
330
151A
102
}
330
151A
100
AcDbZombieObject
 90
      499
 91
      510
 93
      113
310
904313A34304000000000000444000
  0
ACAD_PROXY_OBJECT
  5
1525
102
{ACAD_REACTORS
330
151A
102
}
330
151A
100
AcDbZombieObject
 90
      499
 91
      510
 93
      113
310
904313A35304000000000000494000
  0
ACAD_PROXY_OBJECT
  5
1526
102
{ACAD_REACTORS
330
151A
102
}
330
151A
100
AcDbZombieObject
 90
      499
 91
      510
 93
      121
310
905313A3130304000000000000594000
  0
ACAD_PROXY_OBJECT
  5
1527
102
{ACAD_REACTORS
330
151A
102
}
330
151A
100
AcDbZombieObject
 90
      499
 91
      510
 93
      105
310
903323A310000000000000010100
  0
ACAD_PROXY_OBJECT
  5
1528
102
{ACAD_REACTORS
330
151A
102
}
330
151A
100
AcDbZombieObject
 90
      499
 91
      510
 93
      105
310
903343A310000000000000410100
  0
ACAD_PROXY_OBJECT
  5
1529
102
{ACAD_REACTORS
330
151A
102
}
330
151A
100
AcDbZombieObject
 90
      499
 91
      510
 93
      105
310
903383A310000000000000810100
  0
ACAD_PROXY_OBJECT
  5
152A
102
{ACAD_REACTORS
330
151A
102
}
330
151A
100
AcDbZombieObject
 90
      499
 91
      510
 93
      113
310
90431303A310000000000000910100
  0
ACAD_PROXY_OBJECT
  5
152B
102
{ACAD_REACTORS
330
151A
102
}
330
151A
100
AcDbZombieObject
 90
      499
 91
      510
 93
      121
310
9053130303A310000000000001650100
  0
ACAD_PROXY_OBJECT
  5
152C
102
{ACAD_REACTORS
330
151A
102
}
330
151A
100
AcDbZombieObject
 90
      499
 91
      510
 93
      257
310
90E312F31323822203D2031272D3022000000000000200FC000000000000284000
  0
ACAD_PROXY_OBJECT
  5
152D
102
{ACAD_REACTORS
330
151A
102
}
330
151A
100
AcDbZombieObject
 90
      499
 91
      510
 93
      249
310
90D312F363422203D2031272D3022000000000000240FC000000000000284000
  0
ACAD_PROXY_OBJECT
  5
152E
102
{ACAD_REACTORS
330
151A
102
}
330
151A
100
AcDbZombieObject
 90
      499
 91
      510
 93
      249
310
90D312F333222203D2031272D3022000000000000280FC000000000000284000
  0
ACAD_PROXY_OBJECT
  5
152F
102
{ACAD_REACTORS
330
151A
102
}
330
151A
100
AcDbZombieObject
 90
      499
 91
      510
 93
      249
310
90D312F313622203D2031272D30220000000000002C0FC000000000000284000
  0
ACAD_PROXY_OBJECT
  5
1530
102
{ACAD_REACTORS
330
151A
102
}
330
151A
100
AcDbZombieObject
 90
      499
 91
      510
 93
      249
310
90D332F333222203D2031272D30220000000000002E0FC000000000000284000
  0
ACAD_PROXY_OBJECT
  5
1531
102
{ACAD_REACTORS
330
151A
102
}
330
151A
100
AcDbZombieObject
 90
      499
 91
      510
 93
      241
310
90C312F3822203D2031272D3022000000000000300FC000000000000284000
  0
ACAD_PROXY_OBJECT
  5
1532
102
{ACAD_REACTORS
330
151A
102
}
330
151A
100
AcDbZombieObject
 90
      499
 91
      510
 93
      249
310
90D332F313622203D2031272D3022000000000000320FC000000000000284000
  0
ACAD_PROXY_OBJECT
  5
1533
102
{ACAD_REACTORS
330
151A
102
}
330
151A
100
AcDbZombieObject
 90
      499
 91
      510
 93
      241
310
90C312F3422203D2031272D3022000000000000340FC000000000000284000
  0
ACAD_PROXY_OBJECT
  5
1534
102
{ACAD_REACTORS
330
151A
102
}
330
151A
100
AcDbZombieObject
 90
      499
 91
      510
 93
      241
310
90C332F3822203D2031272D3022000000000000360FC000000000000284000
  0
ACAD_PROXY_OBJECT
  5
1535
102
{ACAD_REACTORS
330
151A
102
}
330
151A
100
AcDbZombieObject
 90
      499
 91
      510
 93
      241
310
90C312F3222203D2031272D3022000000000000380FC000000000000284000
  0
ACAD_PROXY_OBJECT
  5
1536
102
{ACAD_REACTORS
330
151A
102
}
330
151A
100
AcDbZombieObject
 90
      499
 91
      510
 93
      241
310
90C332F3422203D2031272D30220000000000003A0FC000000000000284000
  0
ACAD_PROXY_OBJECT
  5
1537
102
{ACAD_REACTORS
330
151A
102
}
330
151A
100
AcDbZombieObject
 90
      499
 91
      510
 93
      161
310
90A3122203D2031272D30224000000000000284000
  0
ACAD_PROXY_OBJECT
  5
1538
102
{ACAD_REACTORS
330
151A
102
}
330
151A
100
AcDbZombieObject
 90
      499
 91
      510
 93
      257
310
90E312D312F3222203D2031272D30220000000000003E0FC000000000000284000
  0
ACAD_PROXY_OBJECT
  5
1539
102
{ACAD_REACTORS
330
151A
102
}
330
151A
100
AcDbZombieObject
 90
      499
 91
      510
 93
      225
310
90A3322203D2031272D302200000000000002100000000000000284000
  0
ACAD_PROXY_OBJECT
  5
153A
102
{ACAD_REACTORS
330
151A
102
}
330
151A
100
AcDbZombieObject
 90
      499
 91
      510
 93
      225
310
90A3622203D2031272D302200000000000006100000000000000284000
  0
ACAD_PROXY_OBJECT
  5
153B
102
{ACAD_REACTORS
330
151A
102
}
330
151A
100
AcDbZombieObject
 90
      499
 91
      510
 93
      249
310
90D31272D3022203D2031272D30220000000000000A100000000000000284000
  0
ACAD_PROXY_OBJECT
  5
150F
102
{ACAD_REACTORS
330
1509
102
}
330
1509
100
AcDbZombieObject
 90
      499
 91
      509
 93
      436
310
42CC9915DA5C99599C985B595049028333333333333E3BF0000000000000FB0107901411070040501600405405064090741402480A0340
1001
ACAD
1000
AcDbSavedByObjectVersion
1070
     0
  0
ACAD_PROXY_OBJECT
  5
1511
102
{ACAD_REACTORS
330
1509
102
}
330
1509
100
AcDbZombieObject
 90
      499
 91
      509
 93
      500
310
424CD108121A5919195B90640502408333333333333E3BF0000000000000FB01079024090700405020000000000001110200405405064090740C02480A0340
1001
ACAD
1000
AcDbSavedByObjectVersion
1070
     0
  0
ACAD_PROXY_OBJECT
  5
1510
102
{ACAD_REACTORS
330
1509
102
}
330
1509
100
AcDbZombieObject
 90
      499
 91
      509
 93
      436
310
42CCD915DA5C99599C985B595059028333333333333E3BF0000000000000FB0107901411070040501600405405064090741402480A0340
1001
ACAD
1000
AcDbSavedByObjectVersion
1070
     0
  0
ACAD_PROXY_OBJECT
  5
150E
102
{ACAD_REACTORS
330
1509
102
}
330
1509
100
AcDbZombieObject
 90
      499
 91
      509
 93
      388
310
4150985CDA58D07406404333333333333E3BF0000000000000FB0107A41107004050150841D405064090741402480A0350
1001
ACAD
1000
AcDbSavedByObjectVersion
1070
     0
  0
ACAD_PROXY_OBJECT
  5
1515
102
{ACAD_REACTORS
330
1509
102
}
330
1509
100
AcDbZombieObject
 90
      499
 91
      509
 93
      428
310
42109C9A59DA1D195B90C409028333333333333E3BF0000000000000FB010790141107004050150841D405064090741402480A029950
1001
ACAD
1000
AcDbSavedByObjectVersion
1070
     0
  0
ACAD_PROXY_OBJECT
  5
1519
102
{ACAD_REACTORS
330
1509
102
}
330
1509
100
AcDbZombieObject
 90
      499
 91
      509
 93
      452
310
42D0DBDB1BDC90DA185B99D95104090240C333333333333E3BF0000000000000FB0108901411070040501508421405064090741402480A0350
1001
ACAD
1000
AcDbSavedByObjectVersion
1070
     0
  0
ACAD_PROXY_OBJECT
  5
1512
102
{ACAD_REACTORS
330
1509
102
}
330
1509
100
AcDbZombieObject
 90
      499
 91
      509
 93
      500
310
4290DBDB98D95C1D1D585B10940D028333333333333E3BF0000000000000FB0107902409070040501000000000000111010841D405064090740C02480A0340
1001
ACAD
1000
AcDbSavedByObjectVersion
1070
     0
  0
ACAD_PROXY_OBJECT
  5
1514
102
{ACAD_REACTORS
330
1509
102
}
330
1509
100
AcDbZombieObject
 90
      499
 91
      509
 93
      412
310
40D11A5B50B409028333333333333E3BF0000000000000FB010790141107004050150841D405064090741402480A02677FFFFFD0
1001
ACAD
1000
AcDbSavedByObjectVersion
1070
     0
  0
ACAD_PROXY_OBJECT
  5
BE68
102
{ACAD_REACTORS
330
1509
102
}
330
1509
100
AcDbZombieObject
 90
      499
 91
      509
 93
      452
310
43115919D950DBDB1BDC93D999916409028333333333333E3BF0000000000000FB010790141107004050150841D405064090741402480A0350
1001
ACAD
1000
AcDbSavedByObjectVersion
1070
     0
  0
ACAD_PROXY_OBJECT
  5
1518
102
{ACAD_REACTORS
330
1509
102
}
330
1509
100
AcDbZombieObject
 90
      499
 91
      509
 93
      444
310
42D19858D95C185D1D195C9B90F409028333333333333E3BF0000000000000FB010790141107004050150841D405064090741402480A0350
1001
ACAD
1000
AcDbSavedByObjectVersion
1070
     0
  0
ACAD_PROXY_OBJECT
  5
150A
102
{ACAD_REACTORS
330
1509
102
}
330
1509
100
AcDbZombieObject
 90
      499
 91
      509
 93
      388
310
41119B185D240901404333333333333E3BF0000000000000F9010740A41107004050150841D405064090741402480A1B50
1001
ACAD
1000
AcDbSavedByObjectVersion
1070
     0
  0
ACAD_PROXY_OBJECT
  5
150B
102
{ACAD_REACTORS
330
1509
102
}
330
1509
100
AcDbZombieObject
 90
      499
 91
      509
 93
      476
310
43519B185D15DA5D1A115919D95CD0140901404333333333333E3BF0000000000000F9010740901411070040501600405405064090741402480A1B50
1001
ACAD
1000
AcDbSavedByObjectVersion
1070
     0
  0
ACAD_PROXY_OBJECT
  5
150C
102
{ACAD_REACTORS
330
1509
102
}
330
1509
100
AcDbZombieObject
 90
      499
 91
      509
 93
      412
310
41D1DBDD5C985D5910240902404333333333333E3BF0000000000000F9010740A411070040501641D405064090741402480A1B50
1001
ACAD
1000
AcDbSavedByObjectVersion
1070
     0
  0
ACAD_PROXY_OBJECT
  5
150D
102
{ACAD_REACTORS
330
1509
102
}
330
1509
100
AcDbZombieObject
 90
      499
 91
      509
 93
      500
310
4411DBDD5C985D5915DA5D1A115919D95CD0340902404333333333333E3BF0000000000000F9010740901411070040501600405405064090741402480A1B50
1001
ACAD
1000
AcDbSavedByObjectVersion
1070
     0
  0
ACAD_PROXY_OBJECT
  5
BE60
102
{ACAD_REACTORS
330
1509
102
}
330
1509
100
AcDbZombieObject
 90
      499
 91
      509
 93
      476
310
41921A5919195B90640502408333333333333E3BF0000000000000FB01079024090700405020000000000001110200405405064090740C02480A0340
1001
ACAD
1000
AcDbSavedByObjectVersion
1070
     0
  0
ACAD_PROXY_OBJECT
  5
BE66
102
{ACAD_REACTORS
330
1509
102
}
330
1509
100
AcDbZombieObject
 90
      499
 91
      509
 93
      428
310
42529A5D1D195C93D999914409028333333333333E3BF0000000000000FB010790141107004050150A41D405064090741402480A0350
1001
ACAD
1000
AcDbSavedByObjectVersion
1070
     0
  0
ACAD_PROXY_OBJECT
  5
1517
102
{ACAD_REACTORS
330
1509
102
}
330
1509
100
AcDbZombieObject
 90
      499
 91
      509
 93
      444
310
42D31A5B995C185D1D195C9B90E409028333333333333E3BF0000000000000FB010790141107004050750841D405064090741402483A0350
1001
ACAD
1000
AcDbSavedByObjectVersion
1070
     0
  0
ACAD_PROXY_OBJECT
  5
DB81
102
{ACAD_REACTORS
330
1509
102
}
330
1509
100
AcDbZombieObject
 90
      499
 91
      509
 93
      484
310
42135BD9195B1A5B99D0A409038333333333333E33F0000000000000F901074090290700405010000000000201990108421405064090741402480A1B40
1001
ACAD
1000
AcDbSavedByObjectVersion
1070
     0
  0
ACAD_PROXY_OBJECT
  5
BE67
102
{ACAD_REACTORS
330
1509
102
}
330
1509
100
AcDbZombieObject
 90
      499
 91
      509
 93
      444
310
42D3DD995C9A185B99D3D999915409028333333333333E3BF0000000000000FB010790141107004050150941D405064090741402480A0350
1001
ACAD
1000
AcDbSavedByObjectVersion
1070
     0
  0
ACAD_PROXY_OBJECT
  5
1513
102
{ACAD_REACTORS
330
1509
102
}
330
1509
100
AcDbZombieObject
 90
      499
 91
      509
 93
      420
310
425499585B1A5CDD1A58D08409028333333333333E3BF0000000000000FB01079019070040501508421405064090741402480A1B40
1001
ACAD
1000
AcDbSavedByObjectVersion
1070
     0
  0
ACAD_PROXY_OBJECT
  5
BE65
102
{ACAD_REACTORS
330
1509
102
}
330
1509
100
AcDbZombieObject
 90
      499
 91
      509
 93
      420
310
4194DA1859195911B40902404333333333333E3BF0000000000000F9010740A41107004050150800405405064090840C02480A0B40
1001
ACAD
1000
AcDbSavedByObjectVersion
1070
     0
  0
ACAD_PROXY_OBJECT
  5
BE64
102
{ACAD_REACTORS
330
1509
102
}
330
1509
100
AcDbZombieObject
 90
      499
 91
      509
 93
      516
310
4454DA18591959081DDA5D1A08195919D95CD1A40902404333333333333E3BF0000000000000F901074090142907004050250800405405064090740C02480A0B40
1001
ACAD
1000
AcDbSavedByObjectVersion
1070
     0
  0
ACAD_PROXY_OBJECT
  5
BE61
102
{ACAD_REACTORS
330
1509
102
}
330
1509
100
AcDbZombieObject
 90
      499
 91
      509
 93
      532
310
4394DA1859195CC81BD98811DC985E5174090240C333333333333E3BF0000000000000FB01079024090741D01000000000000111010841D405064090740C02480A0340
1001
ACAD
1000
AcDbSavedByObjectVersion
1070
     0
  0
ACAD_PROXY_OBJECT
  5
BE62
102
{ACAD_REACTORS
330
1509
102
}
330
1509
100
AcDbZombieObject
 90
      499
 91
      509
 93
      476
310
41D4DAD95D18DA1E51840502408333333333333E3BF0000000000000FB01079024090741D01000000000000111010B41D405064090741802480A0340
1001
ACAD
1000
AcDbSavedByObjectVersion
1070
     0
  0
ACAD_PROXY_OBJECT
  5
1516
102
{ACAD_REACTORS
330
1509
102
}
330
1509
100
AcDbZombieObject
 90
      499
 91
      509
 93
      412
310
41D51A1A58DAD95B90D409028333333333333E3BF0000000000000FB010790141107004050150C41D405064090741402480A0350
1001
ACAD
1000
AcDbSavedByObjectVersion
1070
     0
  0
ACAD_PROXY_OBJECT
  5
BE5F
102
{ACAD_REACTORS
330
1509
102
}
330
1509
100
AcDbZombieObject
 90
      499
 91
      509
 93
      420
310
4255DA5C99599C985B595059028333333333333E3BF0000000000000FB0107901411070040501600405405064090740C02480A0340
1001
ACAD
1000
AcDbSavedByObjectVersion
1070
     0
  0
ACAD_PROXY_OBJECT
  5
BE63
102
{ACAD_REACTORS
330
1509
102
}
330
1509
100
AcDbZombieObject
 90
      499
 91
      509
 93
      404
310
41560B54985E51940902404000000000000E03F0000000000000FB010740501907004050150841D405064090740C02480A1B40
1001
ACAD
1000
AcDbSavedByObjectVersion
1070
     0
  0
XRECORD
  5
E7B9
102
{ACAD_REACTORS
330
E7B8
102
}
330
E7B8
100
AcDbXrecord
340
18D
  0
XRECORD
  5
E7BA
102
{ACAD_REACTORS
330
E7B8
102
}
330
E7B8
100
AcDbXrecord
340
18C
  0
DICTIONARYVAR
  5
DBDA
102
{ACAD_REACTORS
330
37
102
}
330
37
100
DictionaryVariables
280
     0
  1
1:1
  0
DICTIONARYVAR
  5
6D3A
102
{ACAD_REACTORS
330
37
102
}
330
37
100
DictionaryVariables
280
     0
  1
Standard
  0
DICTIONARYVAR
  5
2A8
102
{ACAD_REACTORS
330
37
102
}
330
37
100
DictionaryVariables
280
     0
  1
Standard
  0
DICTIONARYVAR
  5
38
102
{ACAD_REACTORS
330
37
102
}
330
37
100
DictionaryVariables
280
     0
  1
-1
  0
DICTIONARYVAR
  5
1CE
102
{ACAD_REACTORS
330
37
102
}
330
37
100
DictionaryVariables
280
     0
  1
2
  0
DICTIONARYVAR
  5
E7B7
102
{ACAD_REACTORS
330
37
102
}
330
37
100
DictionaryVariables
280
     0
  1
1
  0
DICTIONARYVAR
  5
6D3D
102
{ACAD_REACTORS
330
37
102
}
330
37
100
DictionaryVariables
280
     0
  1
0
  0
DICTIONARYVAR
  5
C576
102
{ACAD_REACTORS
330
37
102
}
330
37
100
DictionaryVariables
280
     0
  1
1
  0
DICTIONARYVAR
  5
C577
102
{ACAD_REACTORS
330
37
102
}
330
37
100
DictionaryVariables
280
     0
  1
15
  0
DICTIONARYVAR
  5
C575
102
{ACAD_REACTORS
330
37
102
}
330
37
100
DictionaryVariables
280
     0
  1
0
  0
DICTIONARYVAR
  5
C574
102
{ACAD_REACTORS
330
37
102
}
330
37
100
DictionaryVariables
280
     0
  1
0
  0
DICTIONARYVAR
  5
1CF
102
{ACAD_REACTORS
330
37
102
}
330
37
100
DictionaryVariables
280
     0
  1

  0
DICTIONARYVAR
  5
6D3C
102
{ACAD_REACTORS
330
37
102
}
330
37
100
DictionaryVariables
280
     0
  1
127
  0
DICTIONARYVAR
  5
DB80
102
{ACAD_REACTORS
330
37
102
}
330
37
100
DictionaryVariables
280
     0
  1
2
  0
ACAD_PROXY_OBJECT
  5
CB56
102
{ACAD_REACTORS
330
1C5B
102
}
102
{ACAD_XDICTIONARY
360
CB57
102
}
330
1C5B
100
AcDbZombieObject
 90
      499
 91
      518
 93
    14994
310
1381C00016C005C080000B404000098880400B804100098C511253528070AE8000000000001680020000000F8001C01C807F7FD2C045000000000000000040010009A41197CDEE00400000001280706E8000000000001680020000000F8037401C807F7FD2C070EE8000000000000040018009A41197CC8C8C6E0040000000
310
1280702E8000000000001680020000000F8001C01C807F7FD2C045000000000000000040010009A41197CDEE004000000012806FEE8000000000001680020000000F803F001C807F7FD2C045000000000000000040018009A41197CC8D4CAE0040000000128040000000000000001680020000000F803F801C80434012C040
310
000000000000000040018009A41197CC8D4D2E0040000000128040000000000000001680020000000F8037401C807F7FD2C045000000000000000040018009A41197CC8C8C6E0040000000128040000000000000001680020000000F8028401C807F7FD2C045000000000000000040018009A41197CC4D8C6E004000000012
310
8040000000000000001680020000000F8021001C807F7FD2C045000000000000000040018009A41197CC4CCCAE0040000000128040000000000000001680020000000F8017401C807F7FD2C045000000000000000040014009A41197CE4CEE0040000000128040000000000000001680020000000F8014401C807F7FD2C045
310
000000000000000040014009A41197CE0C6E0040000000128040000000000000001680020000000F800A801C807F7FD2C045000000000000000040014009A41197CD0CAE0040000000128040000000000000001680020000000F800A001C807F7FD2C045000000000000000040014009A41197CD0C2E004000000012804000
310
0000000000001680020000000F803C401C807F7FD2C045000000000000000040018009A41197CC8D0C6E0040000000128040000000000000001680020000000F8002801C807F7FD2C045000000000000000040014009A41197CC4C2E0040000000128040000000000000001680020000000F8007801C807F7FD2C045000000
310
000000000040014009A41197CCCC2E0040000000128040000000000000001680020000000F8001C01C807F7FD2C045000000000000000040010009A41197CDEE004000000012805C008000000000001680000000000F8001C01C807F7FD2C045000000000000000040010009A41197CDEE0040000000128040000000000000
310
001680020000000F803F001C804F0012C045000000000000000040018009A41197CC8D4CAE0040000000128054C08000000000001680020000000F8002001C80448012C04E008000000000000040010009A41197CE2E0040000000128040000000000000001680020000000F8002001C80448012C045000000000000000040
310
010009A41197CE2E0040000000128053808000000000001680020000000F8002001C80448012C045000000000000000040010009A41197CE2E0040000000128040000000000000001680020000000F8003C01C80478012C045000000000000000040014009A41197CC4D6E0040000000128040000000000000001680020000
310
000F8017C01C80478012C045000000000000000040014009A41197CE4D6E0040000000128040000000000000001680020000000F8023C01C80478012C045000000000000000040018009A41197CC4D0CEE0040000000128040000000000000001680020000000F8001801C80478012C045000000000000000040010009A411
310
97CDAE0040000000128040000000000000001680020000000F8001401C80478012C045000000000000000040010009A41197CD6E0040000000128040000000000000001680020000000F8001001C80478012C045000000000000000040010009A41197CD2E0040000000128040000000000000001680020000000F8000C01C
310
80478012C045000000000000000040010009A41197CCEE0040000000128040000000000000001680020000000F8000801C80478012C045000000000000000040010009A41197CCAE0040000000128050C08000000000001680020000000F8000401C80478012C045000000000000000040010009A41197CC6E004000000012
310
8040000000000000001680020000000F8001C01C807F7FD2C045000000000000000040010009A41197CDEE004000000012804D000000000000001680020000000F803F401C80434012C045000000000000000040018009A41197CC8D4CEE004000000012804CC00000000000001680024000000F8000401C807F7FD2C04500
310
0000000000000040010009A41197CC6E0040000000128040000000000000001680020000000F8037401C80448012C045000000000000000040018009A41197CC8C8C6E004000000012804C400000000000001680020000000F8032401C80464012C045000000000000000040018009A41197CC8C0C6E004000000012804A40
310
0000000000001680020000000F8037401C80448012C045000000000000000040018009A41197CC8C8C6E0040000000128043800000000000001680020000000F8001C01C80478012C045000000000000000040010009A41197CDEE004000000000
  0
DICTIONARY
  5
E956
330
14F9
100
AcDbDictionary
  3
ACAD_XREC_ROUNDTRIP
360
E957
1001
ACAD
1000
TREAT_AS_HARD
1070
     1
  0
DICTIONARY
  5
E958
330
14F1
100
AcDbDictionary
  3
ACAD_XREC_ROUNDTRIP
360
E959
1001
ACAD
1000
TREAT_AS_HARD
1070
     1
  0
DICTIONARY
  5
E95A
330
1501
100
AcDbDictionary
  3
ACAD_XREC_ROUNDTRIP
360
E95B
1001
ACAD
1000
TREAT_AS_HARD
1070
     1
  0
DICTIONARY
  5
CB57
330
CB56
100
AcDbDictionary
  3
ACADLAYERSTATEANNOSCALE
360
CB58
1001
ACAD
1000
TREAT_AS_HARD
1070
     1
  0
XRECORD
  5
E957
102
{ACAD_REACTORS
330
E956
102
}
330
E956
100
AcDbXrecord
102
MATERIAL
148
0.0
149
0.0
149
0.0
 93
        0
 94
      127
282
     0
 72
     0
 77
     0
171
     0
175
     0
179
     0
273
     0
  0
XRECORD
  5
E959
102
{ACAD_REACTORS
330
E958
102
}
330
E958
100
AcDbXrecord
102
MATERIAL
148
0.0
149
0.0
149
0.0
 93
        0
 94
      127
282
     0
 72
     0
 77
     0
171
     0
175
     0
179
     0
273
     0
  0
XRECORD
  5
E95B
102
{ACAD_REACTORS
330
E95A
102
}
330
E95A
100
AcDbXrecord
102
MATERIAL
148
0.0
149
0.0
149
0.0
 93
        0
 94
      127
282
     0
 72
     0
 77
     0
171
     0
175
     0
179
     0
273
     0
  0
XRECORD
  5
CB58
102
{ACAD_REACTORS
330
CB57
102
}
330
CB57
100
AcDbXrecord
330
151B
  0
ENDSEC
  0
EOF
