  0
SECTION
  2
HEADER
  9
$ACADVER
  1
AC1009
  9
$INSBASE
 10
0.0
 20
0.0
 30
0.0
  9
$EXTMIN
 10
284.22938178618489
 20
80.909572105923587
 30
0.0
  9
$EXTMAX
 10
403.9218547432983
 20
201.3717176963404
 30
0.0
  9
$LIMMIN
 10
0.0
 20
0.0
  9
$LIMMAX
 10
420.0
 20
297.0
  9
$ORTHOMODE
 70
     0
  9
$REGENMODE
 70
     1
  9
$FILLMODE
 70
     1
  9
$QTEXTMODE
 70
     0
  9
$MIRRTEXT
 70
     1
  9
$DRAGMODE
 70
     2
  9
$LTSCALE
 40
0.5
  9
$OSMODE
 70
  2175
  9
$ATTMODE
 70
     1
  9
$TEXTSIZE
 40
4.0
  9
$TRACEWID
 40
1.0
  9
$TEXTSTYLE
  7
STANDARD
  9
$CLAYER
  8
1TEXT
  9
$CELTYPE
  6
BYLAYER
  9
$CECOLOR
 62
   256
  9
$DIMSCALE
 40
0.5
  9
$DIMASZ
 40
2.0
  9
$DIMEXO
 40
0.0
  9
$DIMDLI
 40
7.0
  9
$DIMRND
 40
0.0
  9
$DIMDLE
 40
0.0
  9
$DIMEXE
 40
1.0
  9
$DIMTP
 40
0.0
  9
$DIMTM
 40
0.0
  9
$DIMTXT
 40
3.5
  9
$DIMCEN
 40
0.0
  9
$DIMTSZ
 40
0.0
  9
$DIMTOL
 70
     0
  9
$DIMLIM
 70
     0
  9
$DIMTIH
 70
     0
  9
$DIMTOH
 70
     0
  9
$DIMSE1
 70
     0
  9
$DIMSE2
 70
     0
  9
$DIMTAD
 70
     1
  9
$DIMZIN
 70
     8
  9
$DIMBLK
  1

  9
$DIMASO
 70
     1
  9
$DIMSHO
 70
     1
  9
$DIMPOST
  1
 
  9
$DIMAPOST
  1

  9
$DIMALT
 70
     0
  9
$DIMALTD
 70
     2
  9
$DIMALTF
 40
25.399999999999999
  9
$DIMLFAC
 40
1.0
  9
$DIMTOFL
 70
     1
  9
$DIMTVP
 40
0.0
  9
$DIMTIX
 70
     0
  9
$DIMSOXD
 70
     0
  9
$DIMSAH
 70
     1
  9
$DIMBLK1
  1
OPEN30
  9
$DIMBLK2
  1
OPEN30
  9
$DIMSTYLE
  2
NEWX10
  9
$DIMCLRD
 70
   256
  9
$DIMCLRE
 70
   256
  9
$DIMCLRT
 70
   201
  9
$DIMTFAC
 40
0.7
  9
$DIMGAP
 40
0.7
  9
$LUNITS
 70
     2
  9
$LUPREC
 70
     4
  9
$SKETCHINC
 40
1.0
  9
$FILLETRAD
 40
2.0
  9
$AUNITS
 70
     0
  9
$AUPREC
 70
     2
  9
$MENU
  1
acad
  9
$ELEVATION
 40
0.0
  9
$PELEVATION
 40
0.0
  9
$THICKNESS
 40
0.0
  9
$LIMCHECK
 70
     0
  9
$BLIPMODE
 70
     0
  9
$CHAMFERA
 40
10.0
  9
$CHAMFERB
 40
10.0
  9
$SKPOLY
 70
     0
  9
$TDCREATE
 40
2451318.621352917
  9
$TDUPDATE
 40
2454537.432071574
  9
$TDINDWG
 40
0.6724968287000001
  9
$TDUSRTIMER
 40
0.6724968287000001
  9
$USRTIMER
 70
     1
  9
$ANGBASE
 50
0.0
  9
$ANGDIR
 70
     0
  9
$PDMODE
 70
     0
  9
$PDSIZE
 40
0.0
  9
$PLINEWID
 40
0.0
  9
$COORDS
 70
     2
  9
$SPLFRAME
 70
     0
  9
$SPLINETYPE
 70
     6
  9
$SPLINESEGS
 70
     8
  9
$ATTDIA
 70
     0
  9
$ATTREQ
 70
     1
  9
$HANDLING
 70
     1
  9
$HANDSEED
  5
9EF7
  9
$SURFTAB1
 70
     6
  9
$SURFTAB2
 70
     6
  9
$SURFTYPE
 70
     6
  9
$SURFU
 70
     6
  9
$SURFV
 70
     6
  9
$UCSNAME
  2

  9
$UCSORG
 10
0.0
 20
0.0
 30
0.0
  9
$UCSXDIR
 10
1.0
 20
0.0
 30
0.0
  9
$UCSYDIR
 10
0.0
 20
1.0
 30
0.0
  9
$PUCSNAME
  2

  9
$PUCSORG
 10
0.0
 20
0.0
 30
0.0
  9
$PUCSXDIR
 10
1.0
 20
0.0
 30
0.0
  9
$PUCSYDIR
 10
0.0
 20
1.0
 30
0.0
  9
$USERI1
 70
     0
  9
$USERI2
 70
     0
  9
$USERI3
 70
     0
  9
$USERI4
 70
     0
  9
$USERI5
 70
     0
  9
$USERR1
 40
0.0
  9
$USERR2
 40
0.0
  9
$USERR3
 40
0.0
  9
$USERR4
 40
0.0
  9
$USERR5
 40
7.5
  9
$WORLDVIEW
 70
     1
  9
$SHADEDGE
 70
     3
  9
$SHADEDIF
 70
    70
  9
$TILEMODE
 70
     1
  9
$MAXACTVP
 70
    48
  9
$PLIMCHECK
 70
     0
  9
$PEXTMIN
 10
1.0000000000000000E+020
 20
1.0000000000000000E+020
 30
1.0000000000000000E+020
  9
$PEXTMAX
 10
-1.0000000000000000E+020
 20
-1.0000000000000000E+020
 30
-1.0000000000000000E+020
  9
$PLIMMIN
 10
0.0
 20
0.0
  9
$PLIMMAX
 10
420.0
 20
297.0
  9
$UNITMODE
 70
     0
  9
$VISRETAIN
 70
     1
  9
$PLINEGEN
 70
     0
  9
$PSLTSCALE
 70
     1
  0
ENDSEC
  0
SECTION
  2
TABLES
  0
TABLE
  2
VPORT
 70
     4
  0
VPORT
  2
*ACTIVE
 70
     0
 10
0.0
 20
0.0
 11
1.0
 21
1.0
 12
344.06982535271669
 22
141.14705726253689
 13
0.0
 23
0.0
 14
10.0
 24
10.0
 15
10.0
 25
10.0
 16
0.0
 26
0.0
 36
1.0
 17
0.0
 27
0.0
 37
0.0
 40
127.8446566881821
 41
1.508086253369272
 42
50.0
 43
0.0
 44
0.0
 50
0.0
 51
0.0
 71
     0
 72
   100
 73
     1
 74
     1
 75
     0
 76
     0
 77
     0
 78
     0
  0
ENDTAB
  0
TABLE
  2
LTYPE
 70
    15
  0
LTYPE
  2
CONTINUOUS
 70
     0
  3
Solid line
 72
    65
 73
     0
 40
0.0
  0
LTYPE
  2
CENTER2
 70
     0
  3
Center (.5x) ___ _ ___ _ ___ _ ___ _ ___ _ ___
 72
    65
 73
     4
 40
28.574999999999999
 49
19.050000000000001
 49
-3.1749999999999989
 49
3.1749999999999989
 49
-3.1749999999999989
  0
LTYPE
  2
XREF1|CENTER2
 70
    48
  3
Center (.5x) ___ _ ___ _ ___ _ ___ _ ___ _ ___
 72
    65
 73
     4
 40
28.574999999999999
 49
19.050000000000001
 49
-3.1749999999999989
 49
3.1749999999999989
 49
-3.1749999999999989
  0
LTYPE
  2
PHANTOM2
 70
     0
  3
Phantom (.5x) ___ _ _ ___ _ _ ___ _ _ ___ _ _
 72
    65
 73
     6
 40
31.75
 49
15.875
 49
-3.1749999999999989
 49
3.1749999999999989
 49
-3.1749999999999989
 49
3.1749999999999989
 49
-3.1749999999999989
  0
LTYPE
  2
A3WAKUDAKE|CENTER2
 70
    48
  3
Center (.5x) ___ _ ___ _ ___ _ ___ _ ___ _ ___
 72
    65
 73
     4
 40
28.574999999999999
 49
19.050000000000001
 49
-3.1749999999999989
 49
3.1749999999999989
 49
-3.1749999999999989
  0
ENDTAB
  0
TABLE
  2
LAYER
 70
    54
  0
LAYER
  2
0
 70
     0
 62
     7
  6
CONTINUOUS
  0
LAYER
  2
1CENTER
 70
     0
 62
     7
  6
CENTER2
  0
LAYER
  2
1TEXT
 70
     0
 62
     7
  6
CONTINUOUS
  0
LAYER
  2
1DIM
 70
     0
 62
     7
  6
CONTINUOUS
  0
LAYER
  2
1PHANTOM
 70
     0
 62
     7
  6
PHANTOM2
  0
LAYER
  2
1HATCH
 70
     0
 62
     7
  6
CONTINUOUS
  0
LAYER
  2
01
 70
     0
 62
     1
  6
CONTINUOUS
  0
LAYER
  2
XREF1|1CENTER
 70
    48
 62
     7
  6
XREF1|CENTER2
  0
LAYER
  2
A3WAKUDAKE|THICK
 70
    48
 62
     7
  6
CONTINUOUS
  0
LAYER
  2
A3WAKUDAKE|POINT
 70
    48
 62
     7
  6
CONTINUOUS
  0
LAYER
  2
A3WAKUDAKE|1CENTER
 70
    48
 62
     7
  6
A3WAKUDAKE|CENTER2
  0
LAYER
  2
A3WAKUDAKE|0-6
 70
    48
 62
     7
  6
CONTINUOUS
  0
LAYER
  2
A3WAKUDAKE|1DIM
 70
    48
 62
     7
  6
CONTINUOUS
  0
ENDTAB
  0
TABLE
  2
STYLE
 70
    20
  0
STYLE
  2
STANDARD
 70
     0
 40
0.0
 41
1.0
 50
0.0
 71
     0
 42
4.0
  3
txt.shx
  4
extfont.shx
  0
ENDTAB
  0
TABLE
  2
VIEW
 70
     0
  0
ENDTAB
  0
TABLE
  2
UCS
 70
     0
  0
ENDTAB
  0
TABLE
  2
APPID
 70
     7
  0
APPID
  2
ACAD
 70
     0
  0
APPID
  2
DRAWINGVARIABLESXDATA
 70
     0
  0
APPID
  2
CONTENTTABDATA
 70
     0
  0
APPID
  2
CONTENTCURRENTTAB
 70
     0
  0
APPID
  2
CONTENTBLOCKDESCRIPTION
 70
     0
  0
APPID
  2
CONTENTBLOCKICON
 70
     0
  0
APPID
  2
CONTENTLONGBLOCKNAME
 70
     0
  0
ENDTAB
  0
TABLE
  2
DIMSTYLE
 70
     8
  0
DIMSTYLE
  2
NEWX10
 70
     0
  3
 
  4

  5

  6
OPEN30
  7
OPEN30
 40
1.0
 41
2.0
 42
0.0
 43
7.0
 44
1.0
 45
0.0
 46
0.0
 47
0.0
 48
0.0
140
3.5
141
0.0
142
0.0
143
25.399999999999999
144
1.0
145
0.0
146
0.7
147
0.7
 71
     0
 72
     0
 73
     0
 74
     0
 75
     0
 76
     0
 77
     1
 78
     8
170
     0
171
     2
172
     1
173
     1
174
     0
175
     0
176
   256
177
   256
178
   201
  0
ENDTAB
  0
ENDSEC
  0
SECTION
  2
BLOCKS
  0
BLOCK
  8
0
  2
$MODEL_SPACE
 70
     0
 10
0.0
 20
0.0
 30
0.0
  3
$MODEL_SPACE
  1

  0
ENDBLK
  5
1A
  8
0
  0
BLOCK
 67
     1
  8
0
  2
$PAPER_SPACE
 70
     0
 10
0.0
 20
0.0
 30
0.0
  3
$PAPER_SPACE
  1

  0
ENDBLK
  5
17
 67
     1
  8
0
  0
BLOCK
  8
0
  2
_OPEN30
 70
     0
 10
0.0
 20
0.0
 30
0.0
  3
_OPEN30
  1

  0
LINE
  5
44
  8
0
  6
BYBLOCK
 62
     0
 10
-1.0
 20
0.26794919
 30
0.0
 11
0.0
 21
0.0
 31
0.0
  0
LINE
  5
45
  8
0
  6
BYBLOCK
 62
     0
 10
0.0
 20
0.0
 30
0.0
 11
-1.0
 21
-0.26794919
 31
0.0
  0
LINE
  5
46
  8
0
  6
BYBLOCK
 62
     0
 10
0.0
 20
0.0
 30
0.0
 11
-1.0
 21
0.0
 31
0.0
  0
ENDBLK
  5
47
  8
0
  0
BLOCK
  8
0
  2
XREF1
 70
    36
 10
0.0
 20
0.0
 30
0.0
  3
XREF1
  1
D:\ACLT\FORMAT\KAWAJUN(9)図面用.dwg
  0
ENDBLK
  5
5D
  8
0
  0
BLOCK
  8
0
  2
A3WAKUDAKE
 70
    36
 10
0.0
 20
0.0
 30
0.0
  3
A3WAKUDAKE
  1
D:\ACLT\FORMAT\A3WAKUdake.dwg
  0
ENDBLK
  5
9C30
  8
0
  0
BLOCK
  8
0
  2
*U103
 70
     1
 10
0.0
 20
0.0
 30
0.0
  3
*U103
  1

  0
TEXT
  5
9D5C
  8
1DIM
 62
   201
 10
8.9421527794789952
 20
19.28502887997486
 30
0.0
 40
2.0
  1
枠
  0
TEXT
  5
9D5D
  8
1DIM
 62
   201
 10
7.0754861128123281
 20
15.951695546641529
 30
0.0
 40
2.0
  1
φ5
  0
TEXT
  5
9D5E
  8
1DIM
 62
   201
 10
4.7421527794789951
 20
12.618362213308201
 30
0.0
 40
2.0
  1
凹0.3
  0
ENDBLK
  5
9D60
  8
0
  0
BLOCK
  8
0
  2
*U104
 70
     1
 10
0.0
 20
0.0
 30
0.0
  3
*U104
  1

  0
INSERT
  5
9D62
  8
1DIM
  2
_OPEN30
 10
15.7596378547928
 20
22.66732373158607
 30
0.0
 41
2.0
 42
2.0
 43
2.0
 50
70.421758065850824
  0
POLYLINE
  5
9D63
  8
1DIM
 66
     1
 10
0.0
 20
0.0
 30
0.0
  0
VERTEX
  5
9D64
  8
1DIM
 10
15.08945025607485
 20
20.782954186479621
 30
0.0
  0
VERTEX
  5
9D65
  8
1DIM
 10
11.82176183806059
 20
11.59517967441405
 30
0.0
  0
VERTEX
  5
9D66
  8
1DIM
 10
2.3789046952034472
 20
11.59517967441405
 30
0.0
  0
SEQEND
  5
9D67
  8
1DIM
  0
ENDBLK
  5
9D69
  8
0
  0
BLOCK
  8
0
  2
*U105
 70
     1
 10
0.0
 20
0.0
 30
0.0
  3
*U105
  1

  0
TEXT
  5
9D6B
  8
1TEXT
 62
   201
 10
21.614708261897249
 20
22.40123725944045
 30
0.0
 40
2.0
  1
二文字
  0
TEXT
  5
9D6C
  8
1TEXT
 62
   201
 10
21.614708261897249
 20
19.067903926107121
 30
0.0
 40
2.0
  1
(別途指定)
  0
TEXT
  5
9D6D
  8
1TEXT
 62
   201
 10
21.614708261897249
 20
15.73457059277378
 30
0.0
 40
2.0
  1
天地 約1.8
  0
TEXT
  5
9D6E
  8
1TEXT
 62
   201
 10
21.614708261897249
 20
12.40123725944045
 30
0.0
 40
2.0
  1
凸0.2
  0
ENDBLK
  5
9D70
  8
0
  0
BLOCK
  8
0
  2
*U106
 70
     1
 10
0.0
 20
0.0
 30
0.0
  3
*U106
  1

  0
INSERT
  5
9D72
  8
1DIM
  2
_OPEN30
 10
17.67837950277044
 20
23.814784120433622
 30
0.0
 50
104.6424831439607
  0
POLYLINE
  5
9D73
  8
1DIM
 66
     1
 10
0.0
 20
0.0
 30
0.0
  0
VERTEX
  5
9D74
  8
1DIM
 10
17.93116631969011
 20
22.847262118000788
 30
0.0
  0
VERTEX
  5
9D75
  8
1DIM
 10
20.917035786052931
 20
11.4190775302876
 30
0.0
  0
VERTEX
  5
9D76
  8
1DIM
 10
35.143226262243402
 20
11.4190775302876
 30
0.0
  0
SEQEND
  5
9D77
  8
1DIM
  0
ENDBLK
  5
9D79
  8
0
  0
BLOCK
  8
0
  2
*U107
 70
     1
 10
0.0
 20
0.0
 30
0.0
  3
*U107
  1

  0
TEXT
  5
9D7C
  8
1TEXT
 10
14.974546900029839
 20
24.099474601297931
 30
0.0
 40
1.8
  1
XY
  0
ENDBLK
  5
9D7E
  8
0
  0
BLOCK
  8
0
  2
*U108
 70
     1
 10
0.0
 20
0.0
 30
0.0
  3
*U108
  1

  0
TEXT
  5
9D80
  8
0
 62
   201
 10
20.49659518545084
 20
30.584013016635211
 30
0.0
 40
3.5
  1
φ5
 50
48.830317366505049
  0
ENDBLK
  5
9D82
  8
0
  0
BLOCK
  8
0
  2
*U109
 70
     1
 10
0.0
 20
0.0
 30
0.0
  3
*U109
  1

  0
TEXT
  5
9D88
  8
1DIM
 62
   201
 10
-58.775583965802973
 20
111.6782997146984
 30
0.0
 40
3.5
  1
φ6
 50
90.0
  0
ENDBLK
  5
9D8A
  8
0
  0
BLOCK
  8
0
  2
*U110
 70
     1
 10
0.0
 20
0.0
 30
0.0
  3
*U110
  1

  0
TEXT
  5
9D8C
  8
1DIM
 62
   201
 10
-21.578793551710461
 20
110.59501291726311
 30
0.0
 40
3.5
  1
φ4
 50
90.0
  0
ENDBLK
  5
9D8E
  8
0
  0
BLOCK
  8
0
  2
*U111
 70
     1
 10
0.0
 20
0.0
 30
0.0
  3
*U111
  1

  0
TEXT
  5
9D90
  8
1DIM
 62
   201
 10
-44.520913083365649
 20
116.6151072541689
 30
0.0
 40
3.5
  1
16 
  0
ENDBLK
  5
9D92
  8
0
  0
BLOCK
  8
0
  2
*U112
 70
     1
 10
0.0
 20
0.0
 30
0.0
  3
*U112
  1

  0
TEXT
  5
9D94
  8
1DIM
 62
   201
 10
158.04723752591559
 20
-11.40269860280341
 30
0.0
 40
3.5
  1
8 
  0
ENDBLK
  5
9D96
  8
0
  0
BLOCK
  8
0
  2
*U113
 70
     1
 10
0.0
 20
0.0
 30
0.0
  3
*U113
  1

  0
TEXT
  5
9D98
  8
1DIM
 62
   201
 10
170.5722665914588
 20
-12.19233129498561
 30
0.0
 40
3.5
  1
2 
 50
90.0
  0
ENDBLK
  5
9D9A
  8
0
  0
BLOCK
  8
0
  2
*U114
 70
     1
 10
0.0
 20
0.0
 30
0.0
  3
*U114
  1

  0
TEXT
  5
9D9C
  8
1DIM
 62
   201
 10
163.2518242259346
 20
22.02296319502905
 30
0.0
 40
3.5
  1
8 
  0
ENDBLK
  5
9D9E
  8
0
  0
BLOCK
  8
0
  2
*U115
 70
     1
 10
0.0
 20
0.0
 30
0.0
  3
*U115
  1

  0
TEXT
  5
9DA0
  8
1DIM
 62
   201
 10
175.25296370997239
 20
23.386071880029519
 30
0.0
 40
3.5
  1
2 
 50
90.0
  0
ENDBLK
  5
9DA2
  8
0
  0
BLOCK
  8
0
  2
*U116
 70
     1
 10
0.0
 20
0.0
 30
0.0
  3
*U116
  1

  0
TEXT
  5
9DAC
  8
1DIM
 62
   201
 10
754.31006530085824
 20
174.20908440673281
 30
0.0
 40
1.75
  1
7.5 
  0
ENDBLK
  5
9DAE
  8
0
  0
BLOCK
  8
0
  2
*U117
 70
     1
 10
0.0
 20
0.0
 30
0.0
  3
*U117
  1

  0
TEXT
  5
9DB0
  8
1DIM
 62
   201
 10
768.11388816704573
 20
165.9819010733994
 30
0.0
 40
1.75
  1
1.5 
 50
90.0
  0
ENDBLK
  5
9DB2
  8
0
  0
BLOCK
  8
0
  2
*U118
 70
     1
 10
0.0
 20
0.0
 30
0.0
  3
*U118
  1

  0
TEXT
  5
9DB4
  8
1DIM
 62
   201
 10
341.28261437311011
 20
108.49693825857361
 30
0.0
 40
1.75
  1
90° 
 50
314.999984481848
  0
TEXT
  5
9DB5
  8
1DIM
 62
   201
 10
345.96424935277349
 20
104.1865319036032
 30
0.0
 40
1.2250000000000001
  1
±0.1° 
 50
314.999984481848
  0
ENDBLK
  5
9DB7
  8
0
  0
BLOCK
  8
0
  2
*U119
 70
     1
 10
0.0
 20
0.0
 30
0.0
  3
*U119
  1

  0
TEXT
  5
9DB9
  8
1DIM
 62
   201
 10
292.57215334663738
 20
93.956769635766193
 30
0.0
 40
1.75
  1
90° 
 50
90.0
  0
ENDBLK
  5
9DBB
  8
0
  0
BLOCK
  8
0
  2
*U120
 70
     1
 10
0.0
 20
0.0
 30
0.0
  3
*U120
  1

  0
TEXT
  5
9DBD
  8
1DIM
 62
   201
 10
361.31032933275611
 20
154.634084406733
 30
0.0
 40
1.75
  1
90° 
 50
90.0
  0
ENDBLK
  5
9DBF
  8
0
  0
BLOCK
  8
0
  2
*U121
 70
     1
 10
0.0
 20
0.0
 30
0.0
  3
*U121
  1

  0
TEXT
  5
9DC1
  8
1DIM
 62
   201
 10
383.27694624276569
 20
154.2664145851935
 30
0.0
 40
1.75
  1
120° 
  0
ENDBLK
  5
9DC3
  8
0
  0
BLOCK
  8
0
  2
*U122
 70
     1
 10
0.0
 20
0.0
 30
0.0
  3
*U122
  1

  0
TEXT
  5
9DC5
  8
1DIM
 62
   201
 10
361.43016200014353
 20
164.3840959655281
 30
0.0
 40
1.75
  1
90° 
 50
90.0
  0
ENDBLK
  5
9DC7
  8
0
  0
BLOCK
  8
0
  2
*U123
 70
     1
 10
0.0
 20
0.0
 30
0.0
  3
*U123
  1

  0
TEXT
  5
9DC9
  8
1DIM
 62
   201
 10
315.3449894215106
 20
96.881355707869517
 30
0.0
 40
1.75
  1
90° 
  0
ENDBLK
  5
9DCB
  8
0
  0
BLOCK
  8
0
  2
*U124
 70
     1
 10
0.0
 20
0.0
 30
0.0
  3
*U124
  1

  0
TEXT
  5
9DCD
  8
1DIM
 62
   201
 10
315.21584858533703
 20
185.24266393406819
 30
0.0
 40
1.75
  1
4-R2 R3
 50
38.046600939730318
  0
ENDBLK
  5
9DCF
  8
0
  0
BLOCK
  8
0
  2
*U125
 70
     1
 10
0.0
 20
0.0
 30
0.0
  3
*U125
  1

  0
TEXT
  5
9DD1
  8
1DIM
 62
   201
 10
302.97610724198171
 20
189.2770605024032
 30
0.0
 40
1.75
  1
4-R1
 50
47.525294438663231
  0
TEXT
  5
9DD2
  8
1DIM
 62
   201
 10
304.24108431147067
 20
186.3394707236711
 30
0.0
 40
1.75
  1
4-R0.5 
 50
47.525294438663231
  0
ENDBLK
  5
9DD4
  8
0
  0
BLOCK
  8
0
  2
*U126
 70
     1
 10
0.0
 20
0.0
 30
0.0
  3
*U126
  1

  0
TEXT
  5
9DD6
  8
1DIM
 62
   201
 10
314.46057765388559
 20
87.400608275034074
 30
0.0
 40
1.75
  1
周R1 
 50
49.225031455289262
  0
ENDBLK
  5
9DD8
  8
0
  0
BLOCK
  8
0
  2
*U127
 70
     1
 10
0.0
 20
0.0
 30
0.0
  3
*U127
  1

  0
TEXT
  5
9DDA
  8
1DIM
 62
   201
 10
373.13605591920168
 20
172.04260239345641
 30
0.0
 40
1.75
  1
R0.5 
 50
43.172939839495349
  0
ENDBLK
  5
9DDC
  8
0
  0
BLOCK
  8
0
  2
*U128
 70
     1
 10
0.0
 20
0.0
 30
0.0
  3
*U128
  1

  0
TEXT
  5
9DDE
  8
1DIM
 62
   201
 10
317.30211025601159
 20
85.389274264440473
 30
0.0
 40
1.75
  1
周R0.5 
 50
47.764149415049197
  0
ENDBLK
  5
9DE0
  8
0
  0
BLOCK
  8
0
  2
*U129
 70
     1
 10
0.0
 20
0.0
 30
0.0
  3
*U129
  1

  0
TEXT
  5
9DE2
  8
1DIM
 62
   201
 10
313.5035514112019
 20
106.0737561738958
 30
0.0
 40
1.75
  1
R3 
 50
39.957068247262548
  0
ENDBLK
  5
9DE4
  8
0
  0
BLOCK
  8
0
  2
*U130
 70
     1
 10
0.0
 20
0.0
 30
0.0
  3
*U130
  1

  0
TEXT
  5
9DE6
  8
1DIM
 62
   201
 10
285.66516905455438
 20
159.55728892411119
 30
0.0
 40
1.75
  1
4-R0.8 
 50
24.114567301701641
  0
ENDBLK
  5
9DE8
  8
0
  0
BLOCK
  8
0
  2
*U131
 70
     1
 10
0.0
 20
0.0
 30
0.0
  3
*U131
  1

  0
TEXT
  5
9DEA
  8
1DIM
 62
   201
 10
417.28803559823172
 20
165.3671146869716
 30
0.0
 40
1.75
  1
(φ8)
 50
29.225278015195521
  0
ENDBLK
  5
9DEC
  8
0
  0
BLOCK
  8
0
  2
*U132
 70
     1
 10
0.0
 20
0.0
 30
0.0
  3
*U132
  1

  0
TEXT
  5
9DEE
  8
1DIM
 62
   201
 10
313.6382571348006
 20
144.26161325553559
 30
0.0
 40
1.75
  1
φ6.2
 50
325.19670211224951
  0
ENDBLK
  5
9DF0
  8
0
  0
BLOCK
  8
0
  2
*U133
 70
     1
 10
0.0
 20
0.0
 30
0.0
  3
*U133
  1

  0
TEXT
  5
9DF2
  8
1DIM
 62
   201
 10
287.88554354782661
 20
156.46238260425119
 30
0.0
 40
1.75
  1
φ20
 50
30.93492757585766
  0
TEXT
  5
9DF3
  8
1DIM
 62
   201
 10
291.8840144547388
 20
160.11686394622009
 30
0.0
 40
1.2250000000000001
  1
 0
 50
30.93492757585766
  0
TEXT
  5
9DF4
  8
1DIM
 62
   201
 10
292.7236527036074
 20
158.715869517675
 30
0.0
 40
1.2250000000000001
  1
-0.2
 50
30.93492757585766
  0
ENDBLK
  5
9DF6
  8
0
  0
BLOCK
  8
0
  2
*U134
 70
     1
 10
0.0
 20
0.0
 30
0.0
  3
*U134
  1

  0
TEXT
  5
9DF8
  8
1DIM
 62
   201
 10
289.26186515373212
 20
176.04877056710441
 30
0.0
 40
1.75
  1
□8 
 50
44.999967082199049
  0
TEXT
  5
9DF9
  8
1DIM
 62
   201
 10
291.96360474255067
 20
180.27667831073541
 30
0.0
 40
1.2250000000000001
  1
 0 
 50
44.999967082199049
  0
TEXT
  5
9DFA
  8
1DIM
 62
   201
 10
293.11854515494713
 20
179.12173657125621
 30
0.0
 40
1.2250000000000001
  1
-0.07 
 50
44.999967082199049
  0
ENDBLK
  5
9DFC
  8
0
  0
BLOCK
  8
0
  2
*U135
 70
     1
 10
0.0
 20
0.0
 30
0.0
  3
*U135
  1

  0
TEXT
  5
9DFE
  8
1DIM
 62
   201
 10
388.87705793276319
 20
163.51960107339971
 30
0.0
 40
1.75
  1
1.5 
 50
90.0
  0
ENDBLK
  5
9E00
  8
0
  0
BLOCK
  8
0
  2
*U136
 70
     1
 10
0.0
 20
0.0
 30
0.0
  3
*U136
  1

  0
TEXT
  5
9E02
  8
1DIM
 62
   201
 10
378.73637917466692
 20
-9.7189319048886134
 30
0.0
 40
3.5
  1
φ6
 50
90.0
  0
ENDBLK
  5
9E04
  8
0
  0
BLOCK
  8
0
  2
*U137
 70
     1
 10
0.0
 20
0.0
 30
0.0
  3
*U137
  1

  0
TEXT
  5
9E06
  8
1DIM
 62
   201
 10
293.55744821678741
 20
196.1478668439515
 30
0.0
 40
1.75
  1
P=7.5 
  0
ENDBLK
  5
9E08
  8
0
  0
BLOCK
  8
0
  2
*U138
 70
     1
 10
0.0
 20
0.0
 30
0.0
  3
*U138
  1

  0
TEXT
  5
9E0A
  8
1DIM
 62
   201
 10
279.74569507975542
 20
125.17902568729551
 30
0.0
 40
1.75
  1
6.47 
 50
359.9998207016767
  0
TEXT
  5
9E0B
  8
1DIM
 62
   201
 10
286.62903179014103
 20
126.2581708136247
 30
0.0
 40
1.2250000000000001
  1
+0.12 
 50
359.9998207016767
  0
TEXT
  5
9E0C
  8
1DIM
 62
   201
 10
286.62902667887568
 20
124.62483748029941
 30
0.0
 40
1.2250000000000001
  1
-0.33 
 50
359.9998207016767
  0
TEXT
  5
9E0D
  8
1DIM
 62
   201
 10
291.73319507969671
 20
125.1789881742594
 30
0.0
 40
1.75
  1
（参考寸法）
 50
359.9998207016767
  0
ENDBLK
  5
9E0F
  8
0
  0
BLOCK
  8
0
  2
*U139
 70
     1
 10
0.0
 20
0.0
 30
0.0
  3
*U139
  1

  0
TEXT
  5
9E11
  8
1DIM
 62
   201
 10
293.46232823073808
 20
128.7505673862394
 30
0.0
 40
1.75
  1
6.8 
 50
359.9998207016767
  0
TEXT
  5
9E12
  8
1DIM
 62
   201
 10
298.59566494113233
 20
129.82971798892419
 30
0.0
 40
1.2250000000000001
  1
 0 
 50
359.9998207016767
  0
TEXT
  5
9E13
  8
1DIM
 62
   201
 10
298.59565982986697
 20
128.19638465559891
 30
0.0
 40
1.2250000000000001
  1
-0.25 
 50
359.9998207016767
  0
ENDBLK
  5
9E15
  8
0
  0
BLOCK
  8
0
  2
*U140
 70
     1
 10
0.0
 20
0.0
 30
0.0
  3
*U140
  1

  0
TEXT
  5
9E17
  8
1DIM
 62
   201
 10
329.73640045240978
 20
95.615040542234723
 30
0.0
 40
1.75
  1
31 
 50
90.0
  0
ENDBLK
  5
9E19
  8
0
  0
BLOCK
  8
0
  2
*U141
 70
     1
 10
0.0
 20
0.0
 30
0.0
  3
*U141
  1

  0
TEXT
  5
9E1B
  8
1DIM
 62
   201
 10
325.40938701828219
 20
93.771290542234709
 30
0.0
 40
1.75
  1
29 
 50
90.0
  0
TEXT
  5
9E1C
  8
1DIM
 62
   201
 10
324.33022035161548
 20
98.321290542234721
 30
0.0
 40
1.2250000000000001
  1
+0.5 
 50
90.0
  0
TEXT
  5
9E1D
  8
1DIM
 62
   201
 10
325.96355368494892
 20
98.321290542234721
 30
0.0
 40
1.2250000000000001
  1
 0 
 50
90.0
  0
ENDBLK
  5
9E1F
  8
0
  0
BLOCK
  8
0
  2
*U142
 70
     1
 10
0.0
 20
0.0
 30
0.0
  3
*U142
  1

  0
TEXT
  5
9E21
  8
1DIM
 62
   201
 10
285.64795518145922
 20
97.442026477959118
 30
0.0
 40
1.75
  1
*14.5 
 50
90.0
  0
ENDBLK
  5
9E23
  8
0
  0
BLOCK
  8
0
  2
*U143
 70
     1
 10
0.0
 20
0.0
 30
0.0
  3
*U143
  1

  0
TEXT
  5
9E25
  8
1DIM
 62
   201
 10
308.78662644224931
 20
76.376257101445248
 30
0.0
 40
1.75
  1
0.6 
  0
ENDBLK
  5
9E27
  8
0
  0
BLOCK
  8
0
  2
*U144
 70
     1
 10
0.0
 20
0.0
 30
0.0
  3
*U144
  1

  0
TEXT
  5
9E29
  8
1DIM
 62
   201
 10
319.06609223349039
 20
76.582448880440353
 30
0.0
 40
1.75
  1
0.3 
 50
90.0
  0
ENDBLK
  5
9E2B
  8
0
  0
BLOCK
  8
0
  2
*U145
 70
     1
 10
0.0
 20
0.0
 30
0.0
  3
*U145
  1

  0
TEXT
  5
9E2D
  8
1DIM
 62
   201
 10
325.40938701828219
 20
71.13382311642178
 30
0.0
 40
1.75
  1
t2 
 50
90.0
  0
TEXT
  5
9E2E
  8
1DIM
 62
   201
 10
324.33022035161548
 20
75.683823116421777
 30
0.0
 40
1.2250000000000001
  1
 0 
 50
90.0
  0
TEXT
  5
9E2F
  8
1DIM
 62
   201
 10
325.96355368494892
 20
75.683823116421777
 30
0.0
 40
1.2250000000000001
  1
-0.2 
 50
90.0
  0
ENDBLK
  5
9E31
  8
0
  0
BLOCK
  8
0
  2
*U146
 70
     1
 10
0.0
 20
0.0
 30
0.0
  3
*U146
  1

  0
TEXT
  5
9E33
  8
1DIM
 62
   201
 10
288.85805927990492
 20
91.552641974287354
 30
0.0
 40
1.75
  1
(10.85)
 50
90.0
  0
ENDBLK
  5
9E35
  8
0
  0
BLOCK
  8
0
  2
*U147
 70
     1
 10
0.0
 20
0.0
 30
0.0
  3
*U147
  1

  0
TEXT
  5
9E37
  8
1DIM
 62
   201
 10
296.28555592409373
 20
120.7818848111351
 30
0.0
 40
1.75
  1
φ8
  0
ENDBLK
  5
9E39
  8
0
  0
BLOCK
  8
0
  2
*U148
 70
     1
 10
0.0
 20
0.0
 30
0.0
  3
*U148
  1

  0
TEXT
  5
9E3B
  8
1DIM
 62
   201
 10
325.50520289437441
 20
118.3915508881454
 30
0.0
 40
1.75
  1
(4)
 50
90.0
  0
ENDBLK
  5
9E3D
  8
0
  0
BLOCK
  8
0
  2
*U149
 70
     1
 10
0.0
 20
0.0
 30
0.0
  3
*U149
  1

  0
TEXT
  5
9E3F
  8
1DIM
 62
   201
 10
327.83089209674893
 20
163.5840804067328
 30
0.0
 40
1.75
  1
27.8 
 50
90.0
  0
ENDBLK
  5
9E41
  8
0
  0
BLOCK
  8
0
  2
*U150
 70
     1
 10
0.0
 20
0.0
 30
0.0
  3
*U150
  1

  0
TEXT
  5
9E43
  8
1DIM
 62
   201
 10
330.86759275883242
 20
162.19866374006619
 30
0.0
 40
1.75
  1
34 
 50
90.0
  0
TEXT
  5
9E44
  8
1DIM
 62
   201
 10
329.78842609216582
 20
166.74866374006621
 30
0.0
 40
1.2250000000000001
  1
 0 
 50
90.0
  0
TEXT
  5
9E45
  8
1DIM
 62
   201
 10
331.42175942549909
 20
166.74866374006621
 30
0.0
 40
1.2250000000000001
  1
-0.2 
 50
90.0
  0
ENDBLK
  5
9E47
  8
0
  0
BLOCK
  8
0
  2
*U151
 70
     1
 10
0.0
 20
0.0
 30
0.0
  3
*U151
  1

  0
TEXT
  5
9E49
  8
1DIM
 62
   201
 10
335.27862007156961
 20
159.80116774006271
 30
0.0
 40
1.75
  1
38 36 
 50
90.0
  0
TEXT
  5
9E4A
  8
1DIM
 62
   201
 10
335.01612007156962
 20
168.9011677400627
 30
0.0
 40
1.2250000000000001
  1
±0.2 
 50
90.0
  0
ENDBLK
  5
9E4C
  8
0
  0
BLOCK
  8
0
  2
*U152
 70
     1
 10
0.0
 20
0.0
 30
0.0
  3
*U152
  1

  0
TEXT
  5
9E4E
  8
1DIM
 62
   201
 10
324.45622516481342
 20
162.1257510733997
 30
0.0
 40
1.75
  1
P=19.5 
 50
90.0
  0
ENDBLK
  5
9E50
  8
0
  0
BLOCK
  8
0
  2
*U153
 70
     1
 10
0.0
 20
0.0
 30
0.0
  3
*U153
  1

  0
TEXT
  5
9E52
  8
1DIM
 62
   201
 10
293.74671908718221
 20
153.22574297339949
 30
0.0
 40
1.75
  1
3 
 50
90.0
  0
ENDBLK
  5
9E54
  8
0
  0
BLOCK
  8
0
  2
*U154
 70
     1
 10
0.0
 20
0.0
 30
0.0
  3
*U154
  1

  0
TEXT
  5
9E56
  8
1DIM
 62
   201
 10
302.18869671678732
 20
136.09217177017661
 30
0.0
 40
1.75
  1
16 
  0
TEXT
  5
9E57
  8
1DIM
 62
   201
 10
306.1553633834539
 20
137.1713384368432
 30
0.0
 40
1.2250000000000001
  1
 0 
  0
TEXT
  5
9E58
  8
1DIM
 62
   201
 10
306.1553633834539
 20
135.5380051035099
 30
0.0
 40
1.2250000000000001
  1
-0.2 
  0
ENDBLK
  5
9E5A
  8
0
  0
BLOCK
  8
0
  2
*U155
 70
     1
 10
0.0
 20
0.0
 30
0.0
  3
*U155
  1

  0
TEXT
  5
9E5C
  8
1DIM
 62
   201
 10
317.3247318865952
 20
178.88764016716081
 30
0.0
 40
1.75
  1
3 
  0
ENDBLK
  5
9E5E
  8
0
  0
BLOCK
  8
0
  2
*U156
 70
     1
 10
0.0
 20
0.0
 30
0.0
  3
*U156
  1

  0
TEXT
  5
9E60
  8
1DIM
 62
   201
 10
320.88576871779378
 20
161.97991306506091
 30
0.0
 40
1.75
  1
(10.65)
 50
90.0
  0
ENDBLK
  5
9E62
  8
0
  0
BLOCK
  8
0
  2
*U157
 70
     1
 10
0.0
 20
0.0
 30
0.0
  3
*U157
  1

  0
TEXT
  5
9E64
  8
1DIM
 62
   201
 10
358.69527965481768
 20
146.05075107339971
 30
0.0
 40
1.75
  1
φ6.5
 50
90.0
  0
ENDBLK
  5
9E66
  8
0
  0
BLOCK
  8
0
  2
*U158
 70
     1
 10
0.0
 20
0.0
 30
0.0
  3
*U158
  1

  0
TEXT
  5
9E68
  8
1DIM
 62
   201
 10
377.14288416225418
 20
147.2007510733998
 30
0.0
 40
1.75
  1
φ4.2
 50
90.0
  0
ENDBLK
  5
9E6A
  8
0
  0
BLOCK
  8
0
  2
*U159
 70
     1
 10
0.0
 20
0.0
 30
0.0
  3
*U159
  1

  0
TEXT
  5
9E6C
  8
1DIM
 62
   201
 10
363.37275402336292
 20
143.8883674174688
 30
0.0
 40
1.75
  1
0.5 
  0
ENDBLK
  5
9E6E
  8
0
  0
BLOCK
  8
0
  2
*U160
 70
     1
 10
0.0
 20
0.0
 30
0.0
  3
*U160
  1

  0
TEXT
  5
9E70
  8
1DIM
 62
   201
 10
373.61442069002959
 20
188.2459691244959
 30
0.0
 40
1.75
  1
(0.87)
  0
ENDBLK
  5
9E72
  8
0
  0
BLOCK
  8
0
  2
*U161
 70
     1
 10
0.0
 20
0.0
 30
0.0
  3
*U161
  1

  0
TEXT
  5
9E74
  8
1DIM
 62
   201
 10
374.23946955201001
 20
177.7877177538833
 30
0.0
 40
1.75
  1
0.5 
  0
ENDBLK
  5
9E76
  8
0
  0
BLOCK
  8
0
  2
*U162
 70
     1
 10
0.0
 20
0.0
 30
0.0
  3
*U162
  1

  0
TEXT
  5
9E78
  8
1DIM
 62
   201
 10
363.1888529140632
 20
186.03887162403441
 30
0.0
 40
1.75
  1
0.3 
  0
ENDBLK
  5
9E7A
  8
0
  0
BLOCK
  8
0
  2
*U163
 70
     1
 10
0.0
 20
0.0
 30
0.0
  3
*U163
  1

  0
TEXT
  5
9E7C
  8
1DIM
 62
   201
 10
365.89936812747789
 20
175.1806886111786
 30
0.0
 40
1.75
  1
0.6 
 50
90.0
  0
ENDBLK
  5
9E7E
  8
0
  0
BLOCK
  8
0
  2
*U164
 70
     1
 10
0.0
 20
0.0
 30
0.0
  3
*U164
  1

  0
TEXT
  5
9E80
  8
1DIM
 62
   201
 10
379.58578106658558
 20
159.96741774006611
 30
0.0
 40
1.75
  1
φ3
 50
90.0
  0
ENDBLK
  5
9E82
  8
0
  0
BLOCK
  8
0
  2
*U165
 70
     1
 10
0.0
 20
0.0
 30
0.0
  3
*U165
  1

  0
TEXT
  5
9E84
  8
1DIM
 62
   201
 10
380.71369479254582
 20
172.3757510690979
 30
0.0
 40
1.75
  1
φ1
 50
90.0
  0
ENDBLK
  5
9E86
  8
0
  0
BLOCK
  8
0
  2
*U166
 70
     1
 10
0.0
 20
0.0
 30
0.0
  3
*U166
  1

  0
TEXT
  5
9E88
  8
1DIM
 62
   201
 10
413.45621409649112
 20
-8.6355520356572484
 30
0.0
 40
3.5
  1
φ4
 50
90.0
  0
ENDBLK
  5
9E8A
  8
0
  0
BLOCK
  8
0
  2
*U167
 70
     1
 10
0.0
 20
0.0
 30
0.0
  3
*U167
  1

  0
TEXT
  5
9E8C
  8
1DIM
 62
   201
 10
394.28319762289618
 20
-29.69094637277674
 30
0.0
 40
3.5
  1
16 
  0
ENDBLK
  5
9E8E
  8
0
  0
BLOCK
  8
0
  2
*U168
 70
     1
 10
0.0
 20
0.0
 30
0.0
  3
*U168
  1

  0
TEXT
  5
9E90
  8
1DIM
 62
   201
 10
399.88088079895078
 20
153.2034764568387
 30
0.0
 40
1.75
  1
7.5 
  0
ENDBLK
  5
9E92
  8
0
  0
BLOCK
  8
0
  2
*U169
 70
     1
 10
0.0
 20
0.0
 30
0.0
  3
*U169
  1

  0
TEXT
  5
9E94
  8
1DIM
 62
   201
 10
429.11541796469447
 20
158.20052165226909
 30
0.0
 40
1.75
  1
P=7 
  0
ENDBLK
  5
9E96
  8
0
  0
BLOCK
  8
0
  2
*U170
 70
     1
 10
0.0
 20
0.0
 30
0.0
  3
*U170
  1

  0
TEXT
  5
9E98
  8
1DIM
 62
   201
 10
446.88163915268188
 20
170.02990170808141
 30
0.0
 40
1.75
  1
P=7 
 50
90.0
  0
ENDBLK
  5
9E9A
  8
0
  0
BLOCK
  8
0
  2
*U171
 70
     1
 10
0.0
 20
0.0
 30
0.0
  3
*U171
  1

  0
TEXT
  5
9E9C
  8
1DIM
 62
   201
 10
304.15744821678737
 20
138.6596029477993
 30
0.0
 40
1.75
  1
7.5 
  0
ENDBLK
  5
9E9E
  8
0
  0
BLOCK
  8
0
  2
*U172
 70
     1
 10
0.0
 20
0.0
 30
0.0
  3
*U172
  1

  0
TEXT
  5
9EA0
  8
1DIM
 62
   201
 10
291.24600836484802
 20
163.87575107339961
 30
0.0
 40
1.75
  1
19.5 
 50
90.0
  0
ENDBLK
  5
9EA2
  8
0
  0
BLOCK
  8
0
  2
*U173
 70
     1
 10
0.0
 20
0.0
 30
0.0
  3
*U173
  1

  0
TEXT
  5
9EA4
  8
1DIM
 62
   201
 10
291.24600836484802
 20
177.45908380902901
 30
0.0
 40
1.75
  1
8.25 
 50
90.0
  0
ENDBLK
  5
9EA6
  8
0
  0
BLOCK
  8
0
  2
*U174
 70
     1
 10
0.0
 20
0.0
 30
0.0
  3
*U174
  1

  0
TEXT
  5
9EA8
  8
1DIM
 62
   201
 10
290.47186672576828
 20
168.45908440673281
 30
0.0
 40
1.75
  1
9.75 
 50
90.0
  0
ENDBLK
  5
9EAA
  8
0
  0
BLOCK
  8
0
  2
*U175
 70
     1
 10
0.0
 20
0.0
 30
0.0
  3
*U175
  1

  0
TEXT
  5
9EAC
  8
1DIM
 62
   201
 10
290.47186672576828
 20
158.7090844067329
 30
0.0
 40
1.75
  1
9.75 
 50
90.0
  0
ENDBLK
  5
9EAE
  8
0
  0
BLOCK
  8
0
  2
*U176
 70
     1
 10
0.0
 20
0.0
 30
0.0
  3
*U176
  1

  0
TEXT
  5
9EB0
  8
1DIM
 62
   201
 10
311.04911488345402
 20
144.05188833188521
 30
0.0
 40
1.75
  1
3.75 
  0
ENDBLK
  5
9EB2
  8
0
  0
BLOCK
  8
0
  2
*U177
 70
     1
 10
0.0
 20
0.0
 30
0.0
  3
*U177
  1

  0
TEXT
  5
9EB4
  8
1DIM
 62
   201
 10
295.51578155012078
 20
144.05188833188521
 30
0.0
 40
1.75
  1
3.75 
  0
ENDBLK
  5
9EB6
  8
0
  0
BLOCK
  8
0
  2
*U178
 70
     1
 10
0.0
 20
0.0
 30
0.0
  3
*U178
  1

  0
TEXT
  5
9EB8
  8
1DIM
 62
   201
 10
289.85606395695402
 20
163.87575107339961
 30
0.0
 40
1.75
  1
19.5 
 50
90.0
  0
ENDBLK
  5
9EBA
  8
0
  0
BLOCK
  8
0
  2
*U179
 70
     1
 10
0.0
 20
0.0
 30
0.0
  3
*U179
  1

  0
TEXT
  5
9EBC
  8
1DIM
 62
   201
 10
304.15744821678737
 20
143.07906278581629
 30
0.0
 40
1.75
  1
7.5 
  0
ENDBLK
  5
9EBE
  8
0
  0
BLOCK
  8
0
  2
*U180
 70
     1
 10
0.0
 20
0.0
 30
0.0
  3
*U180
  1

  0
TEXT
  5
9EC0
  8
1DIM
 62
   201
 10
304.59494821678737
 20
139.4990865856889
 30
0.0
 40
1.75
  1
20 
  0
ENDBLK
  5
9EC2
  8
0
  0
BLOCK
  8
0
  2
*U181
 70
     1
 10
0.0
 20
0.0
 30
0.0
  3
*U181
  1

  0
TEXT
  5
9EC4
  8
1DIM
 62
   201
 10
285.97938178618489
 20
164.75075107340001
 30
0.0
 40
1.75
  1
36 
 50
90.0
  0
ENDBLK
  5
9EC6
  8
0
  0
BLOCK
  8
0
  2
*U182
 70
     1
 10
0.0
 20
0.0
 30
0.0
  3
*U182
  1

  0
TEXT
  5
9EC8
  8
1DIM
 62
   201
 10
342.10204825711207
 20
139.4990865856889
 30
0.0
 40
1.75
  1
31 
  0
ENDBLK
  5
9ECA
  8
0
  0
BLOCK
  8
0
  2
*U183
 70
     1
 10
0.0
 20
0.0
 30
0.0
  3
*U183
  1

  0
TEXT
  5
9ECC
  8
1DIM
 62
   201
 10
364.60199861658191
 20
139.4990865856889
 30
0.0
 40
1.75
  1
14 
  0
ENDBLK
  5
9ECE
  8
0
  0
BLOCK
  8
0
  2
*U184
 70
     1
 10
0.0
 20
0.0
 30
0.0
  3
*U184
  1

  0
TEXT
  5
9ED0
  8
1DIM
 62
   201
 10
293.26578155012072
 20
191.53320958149069
 30
0.0
 40
1.75
  1
(3.75)
  0
ENDBLK
  5
9ED2
  8
0
  0
BLOCK
  8
0
  2
*U185
 70
     1
 10
0.0
 20
0.0
 30
0.0
  3
*U185
  1

  0
TEXT
  5
9ED4
  8
1DIM
 62
   201
 10
321.38970614007962
 20
167.29241774006621
 30
0.0
 40
1.75
  1
(9.75)
 50
90.0
  0
ENDBLK
  5
9ED6
  8
0
  0
BLOCK
  8
0
  2
*U186
 70
     1
 10
0.0
 20
0.0
 30
0.0
  3
*U186
  1

  0
TEXT
  5
9ED8
  8
1DIM
 62
   201
 10
272.7075780019448
 20
69.140968592648989
 30
0.0
 40
1.75
  1
φ6
  0
ENDBLK
  5
9EDA
  8
0
  0
BLOCK
  8
0
  2
*U187
 70
     1
 10
0.0
 20
0.0
 30
0.0
  3
*U187
  1

  0
TEXT
  5
9EDC
  8
1DIM
 62
   201
 10
272.70762453784278
 20
40.535213453687248
 30
0.0
 40
1.75
  1
φ4
  0
ENDBLK
  5
9EDE
  8
0
  0
BLOCK
  8
0
  2
*U188
 70
     1
 10
0.0
 20
0.0
 30
0.0
  3
*U188
  1

  0
TEXT
  5
9EE0
  8
1DIM
 62
   201
 10
264.92167441997083
 20
53.202320720464122
 30
0.0
 40
1.75
  1
16 
 50
90.0
  0
ENDBLK
  5
9EE2
  8
0
  0
BLOCK
  8
0
  2
*U189
 70
     1
 10
0.0
 20
0.0
 30
0.0
  3
*U189
  1

  0
TEXT
  5
9EE4
  8
1DIM
 62
   201
 10
-44.520913083365649
 20
116.6151072541689
 30
0.0
 40
3.5
  1
16 
  0
ENDBLK
  5
9EE6
  8
0
  0
BLOCK
  8
0
  2
*U190
 70
     1
 10
0.0
 20
0.0
 30
0.0
  3
*U190
  1

  0
TEXT
  5
9EE8
  8
1DIM
 62
   201
 10
379.0436572848601
 20
38.794448390567439
 30
0.0
 40
3.5
  1
16 
  0
ENDBLK
  5
9EEA
  8
0
  0
BLOCK
  8
0
  2
*U191
 70
     1
 10
0.0
 20
0.0
 30
0.0
  3
*U191
  1

  0
TEXT
  5
9EEC
  8
1DIM
 62
   201
 10
352.33433480608102
 20
92.336645101463745
 30
0.0
 40
1.75
  1
φ6
 50
90.0
  0
ENDBLK
  5
9EEE
  8
0
  0
BLOCK
  8
0
  2
*U192
 70
     1
 10
0.0
 20
0.0
 30
0.0
  3
*U192
  1

  0
TEXT
  5
9EF0
  8
1DIM
 62
   201
 10
380.94008994504281
 20
92.336691637361767
 30
0.0
 40
1.75
  1
φ4
 50
90.0
  0
ENDBLK
  5
9EF2
  8
0
  0
BLOCK
  8
0
  2
*U193
 70
     1
 10
0.0
 20
0.0
 30
0.0
  3
*U193
  1

  0
TEXT
  5
9EF4
  8
1DIM
 62
   201
 10
365.9396493449326
 20
85.250741519489694
 30
0.0
 40
1.75
  1
16 
  0
ENDBLK
  5
9EF6
  8
0
  0
ENDSEC
  0
SECTION
  2
ENTITIES
  0
LINE
  5
42F
  8
01
 10
297.90744521678738
 20
160.20907640673281
 30
0.0
 11
297.90744521678738
 21
150.2090856021394
 31
0.0
  0
LINE
  5
430
  8
01
 10
313.90744821678737
 20
160.20907640673281
 30
0.0
 11
313.90744821678737
 21
150.20908560213761
 31
0.0
  0
ARC
  5
435
  8
01
 10
305.90744821678737
 20
166.20908440673281
 30
0.0
 40
10.0
 50
143.1301
 51
216.86989700000001
  0
LINE
  5
437
  8
01
 10
297.90744521678738
 20
182.2090832113262
 30
0.0
 11
297.90744521678738
 21
172.20908440673281
 31
0.0
  0
LINE
  5
438
  8
01
 10
313.90744821678749
 20
182.20908321132791
 30
0.0
 11
313.90744821678737
 21
172.20908440673281
 31
0.0
  0
ARC
  5
43C
  8
01
 10
305.90744821678737
 20
183.20908440673281
 30
0.0
 40
3.0999998999999989
 50
180.0
 51
0.0000100000000141
  0
LINE
  5
43E
  8
01
 10
302.80743921678737
 20
183.7090808902843
 30
0.0
 11
302.80743921678737
 21
183.20908440673281
 31
0.0
  0
LINE
  5
43F
  8
01
 10
309.0074482167874
 20
183.70908089028359
 30
0.0
 11
309.0074482167874
 21
183.20908440673281
 31
0.0
  0
ARC
  5
446
  8
01
 10
305.90744821678737
 20
166.20908440673281
 30
0.0
 40
10.0
 50
323.13009999999991
 51
36.869900000000001
  0
ARC
  5
451
  8
01
 10
305.90744821678732
 20
149.20907640673281
 30
0.0
 40
3.0999998999999989
 50
0.0000100000000141
 51
180.0000006832467
  0
LINE
  5
453
  8
01
 10
302.80743921678737
 20
148.7090879231813
 30
0.0
 11
302.80743921678737
 21
149.20907640673281
 31
0.0
  0
LINE
  5
455
  8
01
 10
309.0074482167874
 20
148.70908792318201
 30
0.0
 11
309.0074482167874
 21
149.20907640673281
 31
0.0
  0
LINE
  5
822
  8
01
 10
306.47313339173189
 20
161.1179100816658
 30
0.0
 11
310.99862196730771
 21
165.64339465715
 31
0.0
  0
LINE
  5
823
  8
01
 10
300.81627446720432
 20
165.6433946561279
 30
0.0
 11
305.34176304184967
 21
161.11791008166159
 31
0.0
  0
ARC
  5
826
  8
01
 10
305.90744821678737
 20
161.6835957566214
 30
0.0
 40
0.8
 50
225.00002532244079
 51
314.99997467861789
  0
LINE
  5
827
  8
01
 10
300.81627454267277
 20
166.77476608149419
 30
0.0
 11
305.34176312526762
 21
171.30024945678269
 31
0.0
  0
ARC
  5
829
  8
01
 10
301.3819596421539
 20
166.2090803310769
 30
0.0
 40
0.8
 50
134.99996703476731
 51
225.00002532138211
  0
LINE
  5
82A
  8
01
 10
306.47313332516649
 20
171.30024945678269
 30
0.0
 11
310.99862189277547
 21
166.77476608157909
 31
0.0
  0
ARC
  5
82E
  8
01
 10
305.90744822521702
 20
170.73456370683371
 30
0.0
 40
0.8
 50
45.000032917800951
 51
134.99996708219899
  0
ARC
  5
82F
  8
01
 10
310.43293679235768
 20
166.20908033209841
 30
0.0
 40
0.8
 50
314.99997467867809
 51
45.000032870365942
  0
CIRCLE
  5
3411
  8
1DIM
 10
305.90744822149179
 20
166.20908002929471
 30
0.0
 40
4.0000020349621899
  0
LINE
  5
4BD7
  8
1DIM
 10
305.60744821678742
 20
180.12363478309609
 30
0.0
 11
305.60744821678742
 21
177.1164660221628
 31
0.0
  0
LINE
  5
4BD8
  8
1DIM
 10
306.20744821678738
 20
180.12363478309609
 30
0.0
 11
306.20744821678738
 21
177.1164660221628
 31
0.0
  0
LINE
  5
4BDB
  8
1DIM
 10
305.6074482167873
 20
155.30169479130271
 30
0.0
 11
305.6074482167873
 21
152.2945260303695
 31
0.0
  0
LINE
  5
4BDC
  8
1DIM
 10
306.20744821678733
 20
155.30169479130271
 30
0.0
 11
306.20744821678733
 21
152.2945260303695
 31
0.0
  0
ARC
  5
4BDE
  8
1DIM
 10
305.90744821678737
 20
149.20907640673281
 30
0.0
 40
6.0999999000000003
 50
87.181037579169868
 51
92.818962420831184
  0
ARC
  5
4BDF
  8
1DIM
 10
305.90744821678737
 20
183.20908440673281
 30
0.0
 40
6.0999999000000003
 50
267.1810375791693
 51
272.8189624208307
  0
LINE
  5
4BE2
  8
1DIM
 10
315.9029472038315
 20
166.5090844067328
 30
0.0
 11
312.90101669074971
 21
166.5090844067328
 31
0.0
  0
LINE
  5
4BE3
  8
1DIM
 10
315.9029472038315
 20
165.9090844067328
 30
0.0
 11
312.90101669074971
 21
165.9090844067328
 31
0.0
  0
ARC
  5
4BE4
  8
1DIM
 10
305.90744821678737
 20
166.20908440673281
 30
0.0
 40
6.9999999999999849
 50
177.54371427641809
 51
182.4562857235816
  0
ARC
  5
4BE5
  8
1DIM
 10
305.90744821678737
 20
166.20908440673281
 30
0.0
 40
6.9999999999999849
 50
357.54371427641843
 51
2.4562857235823028
  0
LINE
  5
4BE8
  8
1DIM
 10
298.91387974282497
 20
165.9090844067328
 30
0.0
 11
295.91194922974319
 21
165.9090844067328
 31
0.0
  0
LINE
  5
4BE9
  8
1DIM
 10
298.91387974282497
 20
166.5090844067328
 30
0.0
 11
295.91194922974319
 21
166.5090844067328
 31
0.0
  0
LINE
  5
5702
  8
01
 10
311.23299964753107
 20
130.7241503865904
 30
0.0
 11
311.23299964753107
 21
104.049638163753
 31
0.0
  0
LINE
  5
5703
  8
01
 10
300.58203169731888
 20
130.7241820097135
 30
0.0
 11
300.58203169731911
 21
120.97460296370809
 31
0.0
  0
LINE
  5
570A
  8
01
 10
296.40744821678737
 20
103.049638163753
 30
0.0
 11
315.40744821678749
 21
103.049638163753
 31
0.0
  0
LINE
  5
570B
  8
01
 10
315.90744821678737
 20
101.049638163753
 30
0.0
 11
295.90744821678737
 21
101.049638163753
 31
0.0
  0
ARC
  5
570D
  8
01
 10
296.40744821678737
 20
102.549638163753
 30
0.0
 40
0.5
 50
89.999999999999957
 51
180.0
  0
LINE
  5
570E
  8
01
 10
295.90744821678737
 20
101.0496381637531
 30
0.0
 11
295.90744821678737
 21
102.549638163753
 31
0.0
  0
LINE
  5
570F
  8
1DIM
 10
305.90745977558259
 20
102.749638163753
 30
0.0
 11
306.20745977558272
 21
103.049638163753
 31
0.0
  0
LINE
  5
5710
  8
1DIM
 10
305.90745977558259
 20
102.749638163753
 30
0.0
 11
305.60745977558258
 21
103.049638163753
 31
0.0
  0
ARC
  5
5715
  8
01
 10
315.40744821678749
 20
102.549638163753
 30
0.0
 40
0.5
 50
0.0
 51
89.999999999999943
  0
LINE
  5
5716
  8
01
 10
315.90744821678737
 20
101.049638163753
 30
0.0
 11
315.90744821678737
 21
102.549638163753
 31
0.0
  0
LINE
  5
571E
  8
1DIM
 10
300.58203169731888
 20
130.7241820097135
 30
0.0
 11
311.23299964753119
 21
130.72415038659051
 31
0.0
  0
LINE
  5
571F
  8
01
 10
309.9075850983445
 20
132.0495730153788
 30
0.0
 11
311.23299964753119
 21
130.72415038659051
 31
0.0
  0
LINE
  5
5720
  8
01
 10
301.90757549789481
 20
132.04970331604889
 30
0.0
 11
300.58203169731888
 21
130.7241820097135
 31
0.0
  0
LINE
  5
5723
  8
01
 10
309.9075850983445
 20
132.0495730153788
 30
0.0
 11
301.90757549789481
 21
132.04970331604889
 31
0.0
  0
LINE
  5
581E
  8
1DIM
 10
329.09420365065381
 20
160.88366788726449
 30
0.0
 11
329.09423527377692
 21
171.5346358374768
 31
0.0
  0
LINE
  5
5821
  8
01
 10
356.76874749661431
 20
148.70907640673281
 30
0.0
 11
356.76874749661431
 21
183.70908440673281
 31
0.0
  0
LINE
  5
5822
  8
01
 10
327.76881265145698
 20
170.2096184274248
 30
0.0
 11
327.76868235094321
 21
162.20961842848519
 31
0.0
  0
LINE
  5
5823
  8
01
 10
358.7688396447831
 20
171.8666626355822
 30
0.0
 11
358.76877192864993
 21
167.70912672425959
 31
0.0
  0
LINE
  5
5824
  8
01
 10
358.76874749661431
 20
184.2090844067327
 30
0.0
 11
358.76874749661431
 21
167.7090844067327
 31
0.0
  0
LINE
  5
5825
  8
01
 10
327.76874749367732
 20
170.20915713737591
 30
0.0
 11
327.76874749367732
 21
162.20915653737589
 31
0.0
  0
LINE
  5
5827
  8
01
 10
329.09420365065381
 20
160.88366788726449
 30
0.0
 11
355.76874749661431
 21
160.88366788726461
 31
0.0
  0
LINE
  5
582B
  8
01
 10
327.76874749367732
 20
162.20914653737589
 30
0.0
 11
329.09420365065381
 21
160.88366788726449
 31
0.0
  0
LINE
  5
5830
  8
01
 10
358.76874749661431
 20
148.20907640673281
 30
0.0
 11
357.26874749661431
 21
148.20907640673281
 31
0.0
  0
ARC
  5
5831
  8
01
 10
357.26874749661431
 20
148.70907640673281
 30
0.0
 40
0.5
 50
180.0
 51
270.0
  0
LINE
  5
5841
  8
01
 10
329.09423527377692
 20
171.5346358374768
 30
0.0
 11
355.76874749661431
 21
171.53463583747671
 31
0.0
  0
LINE
  5
5842
  8
01
 10
327.76877285854812
 20
167.76647172774909
 30
0.0
 11
327.76872469861718
 21
164.8096188281412
 31
0.0
  0
LINE
  5
5843
  8
01
 10
327.76874749367732
 20
170.20915613737591
 30
0.0
 11
329.09423527377692
 21
171.5346358374768
 31
0.0
  0
LINE
  5
5854
  8
01
 10
357.26874749661431
 20
184.2090844067327
 30
0.0
 11
358.76874749661431
 21
184.2090844067327
 31
0.0
  0
ARC
  5
5855
  8
01
 10
357.26874749661431
 20
183.70908440673281
 30
0.0
 40
0.5
 50
90.0
 51
180.0
  0
ARC
  5
5BE7
  8
01
 10
301.76432974729801
 20
115.5496524832817
 30
0.0
 40
3.0
 50
314.99985343376301
 51
45.000374667177837
  0
LINE
  5
5BE9
  8
01
 10
303.88564466437879
 20
113.42832671325689
 30
0.0
 11
300.58194538809897
 21
110.1246443390786
 31
0.0
  0
LINE
  5
5C18
  8
01
 10
300.58203169731888
 20
110.12473064785701
 30
0.0
 11
300.58203169731888
 21
104.049638163753
 31
0.0
  0
CIRCLE
  5
5E1E
  8
01
 10
309.65744821678737
 20
156.45908440673301
 30
0.0
 40
2.0999999999999939
  0
CIRCLE
  5
5E1F
  8
1DIM
 10
309.65744821678737
 20
156.45908440673301
 30
0.0
 40
3.25
  0
CIRCLE
  5
5E20
  8
1DIM
 10
302.15744821678737
 20
175.95908440673281
 30
0.0
 40
3.25
  0
CIRCLE
  5
5E21
  8
01
 10
302.15744821678737
 20
175.95908440673281
 30
0.0
 40
2.0999999999999939
  0
LINE
  5
6C05
  8
01
 10
375.10631601159929
 20
94.145024970695033
 30
0.0
 11
369.8063195017387
 21
92.645024970695033
 31
0.0
  0
LINE
  5
6C06
  8
01
 10
375.10631601159929
 20
94.145024970695033
 30
0.0
 11
369.80631252135379
 21
95.645024970695019
 31
0.0
  0
LINE
  5
6C07
  8
01
 10
371.40631961152587
 20
92.597841112753542
 30
0.0
 11
372.20631293836698
 21
95.465803814084268
 31
0.0
  0
LINE
  5
6C08
  8
1CENTER
 10
376.4500543306753
 20
94.144978434796997
 30
0.0
 11
356.96708191297711
 21
94.144978434796997
 31
0.0
  0
LINE
  5
6C09
  8
01
 10
373.0063185579217
 20
93.050654620801694
 30
0.0
 11
373.8063139919725
 21
95.012989709677697
 31
0.0
  0
LINE
  5
6C0A
  8
01
 10
372.20631293836698
 20
95.465803814084268
 30
0.0
 11
372.38907708099498
 21
94.914054350280878
 31
0.0
  0
LINE
  5
6C0B
  8
01
 10
372.85488276148112
 20
93.507826461433126
 30
0.0
 11
373.0063185579217
 21
93.050654620801694
 31
0.0
  0
LINE
  5
6C0C
  8
01
 10
373.8063139919725
 20
95.012989709677697
 30
0.0
 11
374.11808384822479
 21
94.424713134634715
 31
0.0
  0
LINE
  5
6C0D
  8
01
 10
369.70631950173879
 20
92.645024970695033
 30
0.0
 11
369.80632066513613
 21
92.145024970695033
 31
0.0
  0
LINE
  5
6C0E
  8
01
 10
369.80632066513613
 20
92.145024970695033
 30
0.0
 11
370.60631188476123
 21
95.918617918490824
 31
0.0
  0
LINE
  5
6C0F
  8
01
 10
370.60631188476123
 20
95.918617918490824
 30
0.0
 11
370.7355825823912
 21
95.38202418322004
 31
0.0
  0
LINE
  5
6C10
  8
01
 10
369.00631135795868
 20
96.145024970695033
 30
0.0
 11
369.10631252135562
 21
95.645024970695019
 31
0.0
  0
LINE
  5
6C11
  8
01
 10
368.10631950173882
 20
92.645024970695033
 30
0.0
 11
368.20632066513622
 21
92.145024970695033
 31
0.0
  0
LINE
  5
6C12
  8
01
 10
368.20632066513622
 20
92.145024970695033
 30
0.0
 11
369.00631135795868
 21
96.145024970695033
 31
0.0
  0
LINE
  5
6C13
  8
01
 10
371.29355009917589
 20
93.065939567903172
 30
0.0
 11
371.40631961152587
 21
92.597841112753542
 31
0.0
  0
LINE
  5
6C14
  8
01
 10
363.40632066513598
 20
92.145024970695033
 30
0.0
 11
364.20631135795861
 21
96.145024970695033
 31
0.0
  0
LINE
  5
6C15
  8
01
 10
361.70631950173868
 20
92.645024970695033
 30
0.0
 11
361.80632066513613
 21
92.145024970695033
 31
0.0
  0
LINE
  5
6C16
  8
01
 10
362.60631135795859
 20
96.145024970695033
 30
0.0
 11
362.7063125213557
 21
95.645024970695019
 31
0.0
  0
LINE
  5
6C17
  8
01
 10
363.3063195017391
 20
92.645024970695033
 30
0.0
 11
363.40632066513598
 21
92.145024970695033
 31
0.0
  0
LINE
  5
6C18
  8
01
 10
361.80632066513613
 20
92.145024970695033
 30
0.0
 11
362.60631135795859
 21
96.145024970695033
 31
0.0
  0
LINE
  5
6C19
  8
01
 10
364.20631135795861
 20
96.145024970695033
 30
0.0
 11
364.30631252135589
 21
95.645024970695019
 31
0.0
  0
LINE
  5
6C1A
  8
01
 10
364.90631950173901
 20
92.645024970695033
 30
0.0
 11
365.00632066513589
 21
92.145024970695033
 31
0.0
  0
LINE
  5
6C1B
  8
01
 10
366.50631950173891
 20
92.645024970695033
 30
0.0
 11
366.60632066513602
 21
92.145024970695033
 31
0.0
  0
LINE
  5
6C1C
  8
01
 10
367.4063113579586
 20
96.145024970695033
 30
0.0
 11
367.50631252135571
 21
95.645024970695019
 31
0.0
  0
LINE
  5
6C1D
  8
01
 10
366.60632066513602
 20
92.145024970695033
 30
0.0
 11
367.4063113579586
 21
96.145024970695033
 31
0.0
  0
LINE
  5
6C1E
  8
01
 10
365.80631135795852
 20
96.145024970695033
 30
0.0
 11
365.9063125213558
 21
95.645024970695019
 31
0.0
  0
LINE
  5
6C1F
  8
01
 10
365.00632066513589
 20
92.145024970695033
 30
0.0
 11
365.80631135795852
 21
96.145024970695033
 31
0.0
  0
LINE
  5
6C20
  8
1HATCH
 10
359.40631602159942
 20
97.144978434796997
 30
0.0
 11
359.40631602159942
 21
91.144978434796997
 31
0.0
  0
LINE
  5
6C21
  8
01
 10
359.40631611159932
 20
97.144978434796997
 30
0.0
 11
359.10631601159929
 21
97.144978434796997
 31
0.0
  0
LINE
  5
6C22
  8
01
 10
359.10631601159929
 20
97.144978434796997
 30
0.0
 11
359.10631601159929
 21
91.144978434796997
 31
0.0
  0
LINE
  5
6C23
  8
01
 10
359.40631602159942
 20
91.144978434796997
 30
0.0
 11
359.10631601159929
 21
91.144978434796997
 31
0.0
  0
LINE
  5
6C24
  8
01
 10
360.90636280361599
 20
92.645024970695033
 30
0.0
 11
359.40631602159942
 21
91.144978434796997
 31
0.0
  0
LINE
  5
6C25
  8
01
 10
360.90626968680903
 20
95.645024970695019
 30
0.0
 11
359.40631611159932
 21
97.144978434796997
 31
0.0
  0
LINE
  5
6C26
  8
01
 10
360.9063125213558
 20
95.645024970695019
 30
0.0
 11
361.00631135795868
 21
96.145024970695033
 31
0.0
  0
LINE
  5
6C27
  8
01
 10
361.00631135795868
 20
96.145024970695033
 30
0.0
 11
361.10631252135562
 21
95.645024970695019
 31
0.0
  0
LINE
  5
6C28
  8
01
 10
369.80631252135379
 20
95.645024970695019
 30
0.0
 11
360.90626968680903
 21
95.645024970695019
 31
0.0
  0
LINE
  5
6C29
  8
01
 10
369.8063195017387
 20
92.645024970695033
 30
0.0
 11
360.90636280361599
 21
92.645024970695033
 31
0.0
  0
LINE
  5
8098
  8
01
 10
303.88564696257282
 20
117.6709974420705
 30
0.0
 11
300.58195126540988
 21
120.9746833953801
 31
0.0
  0
ARC
  5
8992
  8
01
 10
299.582031697319
 20
104.049638163753
 30
0.0
 40
1.0
 50
269.99999999999989
 51
0.0000000000005216
  0
ARC
  5
89A7
  8
01
 10
312.23299964753107
 20
104.049638163753
 30
0.0
 40
1.0
 50
180.0
 51
269.99999999999989
  0
ARC
  5
89B3
  8
01
 10
355.76874749661431
 20
172.53463583747671
 30
0.0
 40
1.0
 50
269.99999999999989
 51
0.0
  0
ARC
  5
89B4
  8
01
 10
355.76874749661431
 20
159.88366788726461
 30
0.0
 40
1.0
 50
0.0
 51
90.000000000000057
  0
LINE
  5
8D07
  8
01
 10
302.3074397003391
 20
184.2090808902841
 30
0.0
 11
299.90744715099441
 21
184.20908321132529
 31
0.0
  0
LINE
  5
8D08
  8
01
 10
309.5074477332364
 20
184.20908089028339
 30
0.0
 11
311.90744628258329
 21
184.209083211327
 31
0.0
  0
LINE
  5
8D0B
  8
01
 10
302.3074397003391
 20
148.2090879231815
 30
0.0
 11
299.90744715099441
 21
148.20908560214031
 31
0.0
  0
LINE
  5
8D0C
  8
01
 10
309.50744773323629
 20
148.20908792318221
 30
0.0
 11
311.90744628258318
 21
148.2090856021386
 31
0.0
  0
ARC
  5
8D21
  8
01
 10
302.30743921678737
 20
148.7090879231813
 30
0.0
 40
0.5
 50
270.00005541094879
 51
0.0
  0
ARC
  5
8D22
  8
01
 10
309.50744821678728
 20
148.70908792318201
 30
0.0
 40
0.5
 50
180.0
 51
269.99994458913119
  0
LINE
  5
8EE8
  8
01
 10
358.76877192864998
 20
167.7091267242597
 30
0.0
 11
358.76872306526792
 21
164.7090844067329
 31
0.0
  0
LINE
  5
8EE9
  8
01
 10
358.76874749661431
 20
164.70904209039969
 30
0.0
 11
358.76874749661431
 21
148.20907640673281
 31
0.0
  0
LINE
  5
8EEA
  8
01
 10
358.76872306526792
 20
164.70908440673301
 30
0.0
 11
358.76865536070568
 21
160.55225891421259
 31
0.0
  0
ARC
  5
8F4A
  8
01
 10
311.90744821678749
 20
182.20908321132791
 30
0.0
 40
2.0
 50
0.0
 51
90.000055410867944
  0
ARC
  5
8F4B
  8
01
 10
299.90744521678738
 20
182.2090832113262
 30
0.0
 40
2.0
 50
89.999944589051836
 51
180.0
  0
ARC
  5
8F4C
  8
01
 10
299.90744521678738
 20
150.2090856021394
 30
0.0
 40
2.0
 50
180.0
 51
270.0000554109489
  0
ARC
  5
8F4D
  8
01
 10
311.90744821678737
 20
150.20908560213761
 30
0.0
 40
2.0
 50
269.99994458913181
 51
0.0
  0
ARC
  5
8F56
  8
01
 10
302.30743921678737
 20
183.7090808902843
 30
0.0
 40
0.5
 50
0.0
 51
89.999944589051239
  0
ARC
  5
8F58
  8
01
 10
309.50744821678728
 20
183.70908089028359
 30
0.0
 40
0.5
 50
90.000055410868782
 51
180.0
  0
LINE
  5
98FB
  8
1CENTER
 10
319.59426865187203
 20
166.20908440673281
 30
0.0
 11
292.22062778170272
 21
166.20908440673281
 31
0.0
  0
LINE
  5
98FC
  8
1CENTER
 10
305.90744821678737
 20
179.8959048418175
 30
0.0
 11
305.90744821678737
 21
152.5222639716481
 31
0.0
  0
LINE
  5
99BD
  8
1PHANTOM
 10
372.76874749661431
 20
175.95913094263079
 30
0.0
 11
367.46875098675372
 21
174.45913094263079
 31
0.0
  0
LINE
  5
99BE
  8
1PHANTOM
 10
372.76874749661431
 20
175.95913094263079
 30
0.0
 11
367.46874400636892
 21
177.45913094263079
 31
0.0
  0
LINE
  5
99BF
  8
1PHANTOM
 10
369.06875109654101
 20
174.4119470846893
 30
0.0
 11
369.868744423382
 21
177.27990978602011
 31
0.0
  0
LINE
  5
99C0
  8
1CENTER
 10
375.69448640099142
 20
175.95908440673281
 30
0.0
 11
354.62951339799213
 21
175.95908440673281
 31
0.0
  0
LINE
  5
99C1
  8
1PHANTOM
 10
370.66875004293672
 20
174.8647605927375
 30
0.0
 11
371.46874547698752
 21
176.82709568161351
 31
0.0
  0
LINE
  5
99C2
  8
1PHANTOM
 10
369.868744423382
 20
177.27990978602011
 30
0.0
 11
370.05150856601011
 21
176.7281603222167
 31
0.0
  0
LINE
  5
99C3
  8
1PHANTOM
 10
370.51731424649608
 20
175.32193243336889
 30
0.0
 11
370.66875004293672
 21
174.8647605927375
 31
0.0
  0
LINE
  5
99C4
  8
1PHANTOM
 10
371.46874547698752
 20
176.82709568161351
 30
0.0
 11
371.7805153332398
 21
176.2388191065705
 31
0.0
  0
LINE
  5
99C5
  8
1PHANTOM
 10
367.36875098675381
 20
174.45913094263079
 30
0.0
 11
367.46875215015109
 21
173.95913094263079
 31
0.0
  0
LINE
  5
99C6
  8
1PHANTOM
 10
367.46875215015109
 20
173.95913094263079
 30
0.0
 11
368.26874336977619
 21
177.7327238904266
 31
0.0
  0
LINE
  5
99C7
  8
1PHANTOM
 10
368.26874336977619
 20
177.7327238904266
 30
0.0
 11
368.39801406740628
 21
177.1961301551558
 31
0.0
  0
LINE
  5
99C8
  8
1PHANTOM
 10
366.6687428429737
 20
177.95913094263079
 30
0.0
 11
366.76874400637058
 21
177.45913094263079
 31
0.0
  0
LINE
  5
99C9
  8
1PHANTOM
 10
365.76875098675379
 20
174.45913094263079
 30
0.0
 11
365.86875215015118
 21
173.95913094263079
 31
0.0
  0
LINE
  5
99CA
  8
1PHANTOM
 10
365.86875215015118
 20
173.95913094263079
 30
0.0
 11
366.6687428429737
 21
177.95913094263079
 31
0.0
  0
LINE
  5
99CB
  8
1PHANTOM
 10
368.95598158419091
 20
174.88004553983899
 30
0.0
 11
369.06875109654101
 21
174.4119470846893
 31
0.0
  0
LINE
  5
99CC
  8
1PHANTOM
 10
361.068752150151
 20
173.95913094263079
 30
0.0
 11
361.86874284297357
 21
177.95913094263079
 31
0.0
  0
LINE
  5
99CD
  8
1PHANTOM
 10
359.36875098675381
 20
174.45913094263079
 30
0.0
 11
359.46875215015109
 21
173.95913094263079
 31
0.0
  0
LINE
  5
99CE
  8
1PHANTOM
 10
360.26874284297361
 20
177.95913094263079
 30
0.0
 11
360.36874400637078
 21
177.45913094263079
 31
0.0
  0
LINE
  5
99CF
  8
1PHANTOM
 10
360.96875098675412
 20
174.45913094263079
 30
0.0
 11
361.068752150151
 21
173.95913094263079
 31
0.0
  0
LINE
  5
99D0
  8
1PHANTOM
 10
359.46875215015109
 20
173.95913094263079
 30
0.0
 11
360.26874284297361
 21
177.95913094263079
 31
0.0
  0
LINE
  5
99D1
  8
1PHANTOM
 10
361.86874284297357
 20
177.95913094263079
 30
0.0
 11
361.96874400637091
 21
177.45913094263079
 31
0.0
  0
LINE
  5
99D2
  8
1PHANTOM
 10
362.56875098675403
 20
174.45913094263079
 30
0.0
 11
362.66875215015091
 21
173.95913094263079
 31
0.0
  0
LINE
  5
99D3
  8
1PHANTOM
 10
364.16875098675388
 20
174.45913094263079
 30
0.0
 11
364.26875215015099
 21
173.95913094263079
 31
0.0
  0
LINE
  5
99D4
  8
1PHANTOM
 10
365.06874284297362
 20
177.95913094263079
 30
0.0
 11
365.16874400637067
 21
177.45913094263079
 31
0.0
  0
LINE
  5
99D5
  8
1PHANTOM
 10
364.26875215015099
 20
173.95913094263079
 30
0.0
 11
365.06874284297362
 21
177.95913094263079
 31
0.0
  0
LINE
  5
99D6
  8
1PHANTOM
 10
363.46874284297348
 20
177.95913094263079
 30
0.0
 11
363.56874400637082
 21
177.45913094263079
 31
0.0
  0
LINE
  5
99D7
  8
1PHANTOM
 10
362.66875215015091
 20
173.95913094263079
 30
0.0
 11
363.46874284297348
 21
177.95913094263079
 31
0.0
  0
LINE
  5
99D8
  8
1HATCH
 10
357.06874750661439
 20
178.95908440673281
 30
0.0
 11
357.06874750661439
 21
172.95908440673281
 31
0.0
  0
LINE
  5
99D9
  8
1PHANTOM
 10
357.06874759661429
 20
178.95908440673281
 30
0.0
 11
356.76874749661431
 21
178.95908440673281
 31
0.0
  0
LINE
  5
99DA
  8
1PHANTOM
 10
356.76874749661431
 20
178.95908440673281
 30
0.0
 11
356.76874749661431
 21
172.95908440673281
 31
0.0
  0
LINE
  5
99DB
  8
1PHANTOM
 10
357.06874750661439
 20
172.95908440673281
 30
0.0
 11
356.76874749661431
 21
172.95908440673281
 31
0.0
  0
LINE
  5
99DC
  8
1PHANTOM
 10
358.56879428863101
 20
174.45913094263079
 30
0.0
 11
357.06874750661439
 21
172.95908440673281
 31
0.0
  0
LINE
  5
99DD
  8
1PHANTOM
 10
358.5687011718241
 20
177.45913094263079
 30
0.0
 11
357.06874759661429
 21
178.95908440673281
 31
0.0
  0
LINE
  5
99DE
  8
1PHANTOM
 10
358.56874400637082
 20
177.45913094263079
 30
0.0
 11
358.6687428429737
 21
177.95913094263079
 31
0.0
  0
LINE
  5
99DF
  8
1PHANTOM
 10
358.6687428429737
 20
177.95913094263079
 30
0.0
 11
358.7687440063707
 21
177.45913094263079
 31
0.0
  0
LINE
  5
99E0
  8
1PHANTOM
 10
367.46874400636892
 20
177.45913094263079
 30
0.0
 11
358.5687011718241
 21
177.45913094263079
 31
0.0
  0
LINE
  5
99E1
  8
1PHANTOM
 10
367.46875098675372
 20
174.45913094263079
 30
0.0
 11
358.56879428863101
 21
174.45913094263079
 31
0.0
  0
LINE
  5
99E2
  8
1PHANTOM
 10
372.76874749661431
 20
156.45912294263081
 30
0.0
 11
367.46875098675372
 21
154.95912294263081
 31
0.0
  0
LINE
  5
99E3
  8
1PHANTOM
 10
372.76874749661431
 20
156.45912294263081
 30
0.0
 11
367.46874400636892
 21
157.95912294263081
 31
0.0
  0
LINE
  5
99E4
  8
1PHANTOM
 10
369.06875109654101
 20
154.91193908468929
 30
0.0
 11
369.868744423382
 21
157.77990178601999
 31
0.0
  0
LINE
  5
99E5
  8
1CENTER
 10
375.69448640099142
 20
156.45907640673269
 30
0.0
 11
354.62951339799213
 21
156.45907640673269
 31
0.0
  0
LINE
  5
99E6
  8
1PHANTOM
 10
370.66875004293672
 20
155.36475259273749
 30
0.0
 11
371.46874547698752
 21
157.32708768161351
 31
0.0
  0
LINE
  5
99E7
  8
1PHANTOM
 10
369.868744423382
 20
157.77990178601999
 30
0.0
 11
370.05150856601011
 21
157.2281523222166
 31
0.0
  0
LINE
  5
99E8
  8
1PHANTOM
 10
370.51731424649608
 20
155.82192443336891
 30
0.0
 11
370.66875004293672
 21
155.36475259273749
 31
0.0
  0
LINE
  5
99E9
  8
1PHANTOM
 10
371.46874547698752
 20
157.32708768161351
 30
0.0
 11
371.7805153332398
 21
156.73881110657049
 31
0.0
  0
LINE
  5
99EA
  8
1PHANTOM
 10
367.36875098675381
 20
154.95912294263081
 30
0.0
 11
367.46875215015109
 21
154.45912294263081
 31
0.0
  0
LINE
  5
99EB
  8
1PHANTOM
 10
367.46875215015109
 20
154.45912294263081
 30
0.0
 11
368.26874336977619
 21
158.23271589042659
 31
0.0
  0
LINE
  5
99EC
  8
1PHANTOM
 10
368.26874336977619
 20
158.23271589042659
 30
0.0
 11
368.39801406740628
 21
157.69612215515579
 31
0.0
  0
LINE
  5
99ED
  8
1PHANTOM
 10
366.6687428429737
 20
158.45912294263081
 30
0.0
 11
366.76874400637058
 21
157.95912294263081
 31
0.0
  0
LINE
  5
99EE
  8
1PHANTOM
 10
365.76875098675379
 20
154.95912294263081
 30
0.0
 11
365.86875215015118
 21
154.45912294263081
 31
0.0
  0
LINE
  5
99EF
  8
1PHANTOM
 10
365.86875215015118
 20
154.45912294263081
 30
0.0
 11
366.6687428429737
 21
158.45912294263081
 31
0.0
  0
LINE
  5
99F0
  8
1PHANTOM
 10
368.95598158419091
 20
155.3800375398389
 30
0.0
 11
369.06875109654101
 21
154.91193908468929
 31
0.0
  0
LINE
  5
99F1
  8
1PHANTOM
 10
361.068752150151
 20
154.45912294263081
 30
0.0
 11
361.86874284297357
 21
158.45912294263081
 31
0.0
  0
LINE
  5
99F2
  8
1PHANTOM
 10
359.36875098675381
 20
154.95912294263081
 30
0.0
 11
359.46875215015109
 21
154.45912294263081
 31
0.0
  0
LINE
  5
99F3
  8
1PHANTOM
 10
360.26874284297361
 20
158.45912294263081
 30
0.0
 11
360.36874400637078
 21
157.95912294263081
 31
0.0
  0
LINE
  5
99F4
  8
1PHANTOM
 10
360.96875098675412
 20
154.95912294263081
 30
0.0
 11
361.068752150151
 21
154.45912294263081
 31
0.0
  0
LINE
  5
99F5
  8
1PHANTOM
 10
359.46875215015109
 20
154.45912294263081
 30
0.0
 11
360.26874284297361
 21
158.45912294263081
 31
0.0
  0
LINE
  5
99F6
  8
1PHANTOM
 10
361.86874284297357
 20
158.45912294263081
 30
0.0
 11
361.96874400637091
 21
157.95912294263081
 31
0.0
  0
LINE
  5
99F7
  8
1PHANTOM
 10
362.56875098675403
 20
154.95912294263081
 30
0.0
 11
362.66875215015091
 21
154.45912294263081
 31
0.0
  0
LINE
  5
99F8
  8
1PHANTOM
 10
364.16875098675388
 20
154.95912294263081
 30
0.0
 11
364.26875215015099
 21
154.45912294263081
 31
0.0
  0
LINE
  5
99F9
  8
1PHANTOM
 10
365.06874284297362
 20
158.45912294263081
 30
0.0
 11
365.16874400637067
 21
157.95912294263081
 31
0.0
  0
LINE
  5
99FA
  8
1PHANTOM
 10
364.26875215015099
 20
154.45912294263081
 30
0.0
 11
365.06874284297362
 21
158.45912294263081
 31
0.0
  0
LINE
  5
99FB
  8
1PHANTOM
 10
363.46874284297348
 20
158.45912294263081
 30
0.0
 11
363.56874400637082
 21
157.95912294263081
 31
0.0
  0
LINE
  5
99FC
  8
1PHANTOM
 10
362.66875215015091
 20
154.45912294263081
 30
0.0
 11
363.46874284297348
 21
158.45912294263081
 31
0.0
  0
LINE
  5
99FD
  8
1HATCH
 10
357.06874750661439
 20
159.45907640673269
 30
0.0
 11
357.06874750661439
 21
153.45907640673281
 31
0.0
  0
LINE
  5
99FE
  8
1PHANTOM
 10
357.06874759661429
 20
159.45907640673269
 30
0.0
 11
356.76874749661431
 21
159.45907640673269
 31
0.0
  0
LINE
  5
99FF
  8
1PHANTOM
 10
356.76874749661431
 20
159.45907640673269
 30
0.0
 11
356.76874749661431
 21
153.45907640673281
 31
0.0
  0
LINE
  5
9A00
  8
1PHANTOM
 10
357.06874750661439
 20
153.45907640673281
 30
0.0
 11
356.76874749661431
 21
153.45907640673281
 31
0.0
  0
LINE
  5
9A01
  8
1PHANTOM
 10
358.56879428863101
 20
154.95912294263081
 30
0.0
 11
357.06874750661439
 21
153.45907640673281
 31
0.0
  0
LINE
  5
9A02
  8
1PHANTOM
 10
358.5687011718241
 20
157.95912294263081
 30
0.0
 11
357.06874759661429
 21
159.45907640673269
 31
0.0
  0
LINE
  5
9A03
  8
1PHANTOM
 10
358.56874400637082
 20
157.95912294263081
 30
0.0
 11
358.6687428429737
 21
158.45912294263081
 31
0.0
  0
LINE
  5
9A04
  8
1PHANTOM
 10
358.6687428429737
 20
158.45912294263081
 30
0.0
 11
358.7687440063707
 21
157.95912294263081
 31
0.0
  0
LINE
  5
9A05
  8
1PHANTOM
 10
367.46874400636892
 20
157.95912294263081
 30
0.0
 11
358.5687011718241
 21
157.95912294263081
 31
0.0
  0
LINE
  5
9A06
  8
1PHANTOM
 10
367.46875098675372
 20
154.95912294263081
 30
0.0
 11
358.56879428863101
 21
154.95912294263081
 31
0.0
  0
LINE
  5
9AD7
  8
1CENTER
 10
302.15744821678737
 20
106.99370877672931
 30
0.0
 11
302.15744821678737
 21
92.242996798262254
 31
0.0
  0
LINE
  5
9AD8
  8
1CENTER
 10
309.65744821678737
 20
106.99370877672931
 30
0.0
 11
309.65744821678737
 21
92.242996798262254
 31
0.0
  0
LINE
  5
9BC8
  8
1DIM
 10
336.84257202805202
 20
112.51446383560361
 30
0.0
 11
392.3425720280519
 21
112.51446383560361
 31
0.0
  0
LINE
  5
9BC9
  8
1DIM
 10
395.59257202805202
 20
109.26446383560361
 30
0.0
 11
395.59257202805202
 21
93.764463835603635
 31
0.0
  0
ARC
  5
9BCA
  8
1DIM
 10
392.3425720280519
 20
109.26446383560361
 30
0.0
 40
3.25
 50
0.0
 51
90.0
  0
LINE
  5
9BCB
  8
01
 10
336.84257202805202
 20
114.01446383560361
 30
0.0
 11
336.84257202805202
 21
111.01446383560361
 31
0.0
  0
LINE
  5
9BCC
  8
01
 10
394.09257202805202
 20
93.764463835603635
 30
0.0
 11
397.0925720280519
 21
93.764463835603635
 31
0.0
  0
LINE
  5
9BCD
  8
01
 10
336.84257202805202
 20
114.01446383560361
 30
0.0
 11
392.3425720280519
 21
114.01446383560361
 31
0.0
  0
ARC
  5
9BCE
  8
01
 10
392.3425720280519
 20
109.26446383560361
 30
0.0
 40
4.75
 50
0.0
 51
90.0
  0
LINE
  5
9BCF
  8
01
 10
397.0925720280519
 20
109.26446383560361
 30
0.0
 11
397.0925720280519
 21
93.764463835603635
 31
0.0
  0
LINE
  5
9BD0
  8
01
 10
394.09257202805202
 20
109.26446383560361
 30
0.0
 11
394.09257202805202
 21
93.764463835603635
 31
0.0
  0
LINE
  5
9BD1
  8
01
 10
336.84257202805202
 20
111.01446383560361
 30
0.0
 11
392.3425720280519
 21
111.01446383560361
 31
0.0
  0
ARC
  5
9BD2
  8
01
 10
392.3425720280519
 20
109.26446383560361
 30
0.0
 40
1.75
 50
0.0
 51
90.0
  0
TEXT
  5
9C10
  8
1TEXT
 10
349.24906424067183
 20
99.345655395366194
 30
0.0
 40
2.0
  1
【付属品】\U+03c64\U+00d716十字穴付皿タッピンD6
 41
0.7
 72
     1
 11
366.18906424067183
 21
100.34565539536609
 31
0.0
 73
     2
  0
TEXT
  5
9C11
  8
1TEXT
 10
349.20239757400509
 20
118.8555047266987
 30
0.0
 40
2.0
  1
【付属品】レバーハンドル取付用六角レンチ
 41
0.7
 72
     1
 11
366.18906424067183
 21
119.8555047266987
 31
0.0
 73
     2
  0
TEXT
  5
9C99
  8
1TEXT
 10
347.38852140996511
 20
197.37171769634031
 30
0.0
 40
4.0
  1
LZPLX0
  0
TEXT
  5
9C9A
  8
1TEXT
 10
347.38852140996511
 20
189.7377157503945
 30
0.0
 40
4.0
  1
レバーハンドル展示用角芯
  0
LINE
  5
9CBC
  8
01
 10
334.08230826414541
 20
124.27494498247709
 30
0.0
 11
400.30158770393808
 21
124.27494498247709
 31
0.0
  0
LINE
  5
9CBD
  8
01
 10
400.30158770393808
 20
124.27494498247709
 30
0.0
 11
400.30158770393808
 21
80.909572105923587
 31
0.0
  0
LINE
  5
9CBE
  8
01
 10
400.30158770393808
 20
80.909572105923587
 30
0.0
 11
334.08230826414541
 21
80.909572105923587
 31
0.0
  0
LINE
  5
9CBF
  8
01
 10
334.08230826414541
 20
80.909572105923587
 30
0.0
 11
334.08230826414541
 21
124.27494498247709
 31
0.0
  0
LINE
  5
9CC0
  8
1DIM
 10
319.59426865187203
 20
166.20908440673281
 30
0.0
 11
322.69803947341302
 21
166.20908440673281
 31
0.0
  0
LINE
  5
9CC1
  8
1DIM
 10
302.15744821678737
 20
175.95908440673281
 30
0.0
 11
322.69803947341302
 21
175.95908440673281
 31
0.0
  0
LINE
  5
9CC2
  8
1DIM
 10
322.19803947341302
 20
167.20908440673281
 30
0.0
 11
322.19803947341302
 21
174.95908440673281
 31
0.0
  0
LINE
  5
9CC6
  8
1DIM
 10
305.90744821678737
 20
179.8959048418175
 30
0.0
 11
305.90744821678737
 21
191.2248762481573
 31
0.0
  0
LINE
  5
9CC7
  8
1DIM
 10
302.15744821678737
 20
175.95908440673281
 30
0.0
 11
302.15744821678737
 21
191.2248762481573
 31
0.0
  0
LINE
  5
9CC8
  8
1DIM
 10
304.90744821678737
 20
190.7248762481573
 30
0.0
 11
303.15744821678737
 21
190.7248762481573
 31
0.0
  0
LINE
  5
9CC9
  8
1DIM
 10
302.15744821678737
 20
190.7248762481573
 30
0.0
 11
292.9574482167875
 21
190.7248762481573
 31
0.0
  0
LINE
  5
9CCD
  8
1DIM
 10
359.10631601159929
 20
91.144978434796997
 30
0.0
 11
359.10631601159929
 21
84.400741519489713
 31
0.0
  0
LINE
  5
9CCE
  8
1DIM
 10
375.10631601159929
 20
94.145024970695033
 30
0.0
 11
375.10631601159929
 21
84.400741519489713
 31
0.0
  0
LINE
  5
9CCF
  8
1DIM
 10
360.10631601159929
 20
84.900741519489713
 30
0.0
 11
374.10631601159929
 21
84.900741519489713
 31
0.0
  0
LINE
  5
9CD3
  8
1DIM
 10
369.80632066513613
 20
92.145024970695033
 30
0.0
 11
381.79008994504278
 21
92.145024970695033
 31
0.0
  0
LINE
  5
9CD4
  8
1DIM
 10
369.00631135795868
 20
96.145024970695033
 30
0.0
 11
381.79008994504278
 21
96.145024970695033
 31
0.0
  0
LINE
  5
9CD5
  8
1DIM
 10
381.29008994504278
 20
93.145024970695019
 30
0.0
 11
381.29008994504278
 21
95.145024970695033
 31
0.0
  0
LINE
  5
9CD9
  8
1DIM
 10
359.10631601159929
 20
91.144978434796997
 30
0.0
 11
352.18433480608098
 21
91.144978434796997
 31
0.0
  0
LINE
  5
9CDA
  8
1DIM
 10
359.10631601159929
 20
97.144978434796997
 30
0.0
 11
352.18433480608098
 21
97.144978434796997
 31
0.0
  0
LINE
  5
9CDB
  8
1DIM
 10
352.68433480608098
 20
92.144978434796997
 30
0.0
 11
352.68433480608098
 21
96.144978434796997
 31
0.0
  0
LINE
  5
9CDF
  8
1DIM
 10
372.76858306988288
 20
156.45907640673269
 30
0.0
 11
372.76858306988288
 21
138.64908658568891
 31
0.0
  0
LINE
  5
9CE0
  8
1DIM
 10
358.76874749661431
 20
148.20907640673281
 30
0.0
 11
358.76874749661431
 21
138.64908658568891
 31
0.0
  0
LINE
  5
9CE1
  8
1DIM
 10
371.76858306988288
 20
139.14908658568891
 30
0.0
 11
359.76874749661431
 21
139.14908658568891
 31
0.0
  0
LINE
  5
9CE5
  8
1DIM
 10
327.76868235094321
 20
162.20961842848519
 30
0.0
 11
327.76868235094321
 21
138.64908658568891
 31
0.0
  0
LINE
  5
9CE6
  8
1DIM
 10
358.76874749661431
 20
148.20907640673281
 30
0.0
 11
358.76874749661431
 21
138.64908658568891
 31
0.0
  0
LINE
  5
9CE7
  8
1DIM
 10
328.76868235094321
 20
139.14908658568891
 30
0.0
 11
357.76874749661431
 21
139.14908658568891
 31
0.0
  0
LINE
  5
9CEB
  8
1DIM
 10
302.15744821678737
 20
175.95908440673281
 30
0.0
 11
302.15744821678737
 21
142.2290627858163
 31
0.0
  0
LINE
  5
9CEC
  8
1DIM
 10
309.65744821678737
 20
156.45908440673301
 30
0.0
 11
309.65744821678737
 21
142.2290627858163
 31
0.0
  0
LINE
  5
9CED
  8
1DIM
 10
303.15744821678737
 20
142.72906278581641
 30
0.0
 11
308.65744821678737
 21
142.72906278581641
 31
0.0
  0
LINE
  5
9CF1
  8
1DIM
 10
309.65744821678737
 20
156.45908440673301
 30
0.0
 11
289.7060639569541
 21
156.45908440673301
 31
0.0
  0
LINE
  5
9CF2
  8
1DIM
 10
302.15744821678737
 20
175.95908440673281
 30
0.0
 11
289.7060639569541
 21
175.95908440673281
 31
0.0
  0
LINE
  5
9CF3
  8
1DIM
 10
290.20606395695398
 20
157.45908440673301
 30
0.0
 11
290.20606395695398
 21
174.95908440673281
 31
0.0
  0
LINE
  5
9CF7
  8
1DIM
 10
295.90744821678737
 20
166.20908440673281
 30
0.0
 11
295.90744821678737
 21
138.64908658568891
 31
0.0
  0
LINE
  5
9CF8
  8
1DIM
 10
315.90744821678737
 20
166.20908440673281
 30
0.0
 11
315.90744821678737
 21
138.64908658568891
 31
0.0
  0
LINE
  5
9CF9
  8
1DIM
 10
296.90744821678737
 20
139.14908658568891
 30
0.0
 11
314.90744821678737
 21
139.14908658568891
 31
0.0
  0
LINE
  5
9CFD
  8
1DIM
 10
299.90744715099441
 20
148.20908560214031
 30
0.0
 11
285.82938178618491
 21
148.20908560214031
 31
0.0
  0
LINE
  5
9CFE
  8
1DIM
 10
299.90744521678738
 20
184.2090832113262
 30
0.0
 11
285.82938178618491
 21
184.2090832113262
 31
0.0
  0
LINE
  5
9CFF
  8
1DIM
 10
286.32938178618502
 20
149.20908560214031
 30
0.0
 11
286.32938178618502
 21
183.2090832113262
 31
0.0
  0
TEXT
  5
9D03
  8
1DIM
 10
285.97938178618489
 20
164.75075107340001
 30
0.0
 40
1.75
  1
36 
 50
90.0
  0
LINE
  5
9D04
  8
0
  6
BYBLOCK
 10
286.06143259618489
 20
183.2090832113262
 30
0.0
 11
286.32938178618502
 21
184.2090832113262
 31
0.0
  0
LINE
  5
9D05
  8
0
  6
BYBLOCK
 10
286.32938178618502
 20
184.2090832113262
 30
0.0
 11
286.59733097618499
 21
183.2090832113262
 31
0.0
  0
LINE
  5
9D06
  8
0
  6
BYBLOCK
 10
286.32938178618502
 20
184.2090832113262
 30
0.0
 11
286.32938178618502
 21
183.2090832113262
 31
0.0
  0
LINE
  5
9D07
  8
0
  6
BYBLOCK
 10
286.59733097618499
 20
149.20908560214031
 30
0.0
 11
286.32938178618502
 21
148.20908560214031
 31
0.0
  0
LINE
  5
9D08
  8
0
  6
BYBLOCK
 10
286.32938178618502
 20
148.20908560214031
 30
0.0
 11
286.06143259618489
 21
149.20908560214031
 31
0.0
  0
LINE
  5
9D09
  8
0
  6
BYBLOCK
 10
286.32938178618502
 20
148.20908560214031
 30
0.0
 11
286.32938178618502
 21
149.20908560214031
 31
0.0
  0
TEXT
  5
9D0A
  8
1DIM
 10
304.59494821678737
 20
139.4990865856889
 30
0.0
 40
1.75
  1
20 
  0
LINE
  5
9D0B
  8
0
  6
BYBLOCK
 10
314.90744821678737
 20
139.4170357756889
 30
0.0
 11
315.90744821678737
 21
139.14908658568891
 31
0.0
  0
LINE
  5
9D0C
  8
0
  6
BYBLOCK
 10
315.90744821678737
 20
139.14908658568891
 30
0.0
 11
314.90744821678737
 21
138.88113739568891
 31
0.0
  0
LINE
  5
9D0D
  8
0
  6
BYBLOCK
 10
315.90744821678737
 20
139.14908658568891
 30
0.0
 11
314.90744821678737
 21
139.14908658568891
 31
0.0
  0
LINE
  5
9D0E
  8
0
  6
BYBLOCK
 10
296.90744821678737
 20
138.88113739568891
 30
0.0
 11
295.90744821678737
 21
139.14908658568891
 31
0.0
  0
LINE
  5
9D0F
  8
0
  6
BYBLOCK
 10
295.90744821678737
 20
139.14908658568891
 30
0.0
 11
296.90744821678737
 21
139.4170357756889
 31
0.0
  0
LINE
  5
9D10
  8
0
  6
BYBLOCK
 10
295.90744821678737
 20
139.14908658568891
 30
0.0
 11
296.90744821678737
 21
139.14908658568891
 31
0.0
  0
TEXT
  5
9D11
  8
1DIM
 10
289.85606395695402
 20
163.87575107339961
 30
0.0
 40
1.75
  1
19.5 
 50
90.0
  0
LINE
  5
9D12
  8
0
  6
BYBLOCK
 10
289.93811476695402
 20
174.95908440673281
 30
0.0
 11
290.20606395695398
 21
175.95908440673281
 31
0.0
  0
LINE
  5
9D13
  8
0
  6
BYBLOCK
 10
290.20606395695398
 20
175.95908440673281
 30
0.0
 11
290.47401314695412
 21
174.95908440673281
 31
0.0
  0
LINE
  5
9D14
  8
0
  6
BYBLOCK
 10
290.20606395695398
 20
175.95908440673281
 30
0.0
 11
290.20606395695398
 21
174.95908440673281
 31
0.0
  0
LINE
  5
9D15
  8
0
  6
BYBLOCK
 10
290.47401314695412
 20
157.45908440673301
 30
0.0
 11
290.20606395695398
 21
156.45908440673301
 31
0.0
  0
LINE
  5
9D16
  8
0
  6
BYBLOCK
 10
290.20606395695398
 20
156.45908440673301
 30
0.0
 11
289.93811476695402
 21
157.45908440673301
 31
0.0
  0
LINE
  5
9D17
  8
0
  6
BYBLOCK
 10
290.20606395695398
 20
156.45908440673301
 30
0.0
 11
290.20606395695398
 21
157.45908440673301
 31
0.0
  0
TEXT
  5
9D18
  8
1DIM
 10
304.15744821678737
 20
143.07906278581629
 30
0.0
 40
1.75
  1
7.5 
  0
LINE
  5
9D19
  8
0
  6
BYBLOCK
 10
308.65744821678737
 20
142.99701197581641
 30
0.0
 11
309.65744821678737
 21
142.72906278581641
 31
0.0
  0
LINE
  5
9D1A
  8
0
  6
BYBLOCK
 10
309.65744821678737
 20
142.72906278581641
 30
0.0
 11
308.65744821678737
 21
142.46111359581641
 31
0.0
  0
LINE
  5
9D1B
  8
0
  6
BYBLOCK
 10
309.65744821678737
 20
142.72906278581641
 30
0.0
 11
308.65744821678737
 21
142.72906278581641
 31
0.0
  0
LINE
  5
9D1C
  8
0
  6
BYBLOCK
 10
303.15744821678737
 20
142.46111359581641
 30
0.0
 11
302.15744821678737
 21
142.72906278581641
 31
0.0
  0
LINE
  5
9D1D
  8
0
  6
BYBLOCK
 10
302.15744821678737
 20
142.72906278581641
 30
0.0
 11
303.15744821678737
 21
142.99701197581641
 31
0.0
  0
LINE
  5
9D1E
  8
0
  6
BYBLOCK
 10
302.15744821678737
 20
142.72906278581641
 30
0.0
 11
303.15744821678737
 21
142.72906278581641
 31
0.0
  0
TEXT
  5
9D1F
  8
1DIM
 10
342.10204825711207
 20
139.4990865856889
 30
0.0
 40
1.75
  1
31 
  0
LINE
  5
9D20
  8
0
  6
BYBLOCK
 10
357.76874749661431
 20
139.4170357756889
 30
0.0
 11
358.76874749661431
 21
139.14908658568891
 31
0.0
  0
LINE
  5
9D21
  8
0
  6
BYBLOCK
 10
358.76874749661431
 20
139.14908658568891
 30
0.0
 11
357.76874749661431
 21
138.88113739568891
 31
0.0
  0
LINE
  5
9D22
  8
0
  6
BYBLOCK
 10
358.76874749661431
 20
139.14908658568891
 30
0.0
 11
357.76874749661431
 21
139.14908658568891
 31
0.0
  0
LINE
  5
9D23
  8
0
  6
BYBLOCK
 10
328.76868235094321
 20
138.88113739568891
 30
0.0
 11
327.76868235094321
 21
139.14908658568891
 31
0.0
  0
LINE
  5
9D24
  8
0
  6
BYBLOCK
 10
327.76868235094321
 20
139.14908658568891
 30
0.0
 11
328.76868235094321
 21
139.4170357756889
 31
0.0
  0
LINE
  5
9D25
  8
0
  6
BYBLOCK
 10
327.76868235094321
 20
139.14908658568891
 30
0.0
 11
328.76868235094321
 21
139.14908658568891
 31
0.0
  0
TEXT
  5
9D26
  8
1DIM
 10
364.60199861658191
 20
139.4990865856889
 30
0.0
 40
1.75
  1
14 
  0
LINE
  5
9D27
  8
0
  6
BYBLOCK
 10
359.76874749661431
 20
138.88113739568891
 30
0.0
 11
358.76874749661431
 21
139.14908658568891
 31
0.0
  0
LINE
  5
9D28
  8
0
  6
BYBLOCK
 10
358.76874749661431
 20
139.14908658568891
 30
0.0
 11
359.76874749661431
 21
139.4170357756889
 31
0.0
  0
LINE
  5
9D29
  8
0
  6
BYBLOCK
 10
358.76874749661431
 20
139.14908658568891
 30
0.0
 11
359.76874749661431
 21
139.14908658568891
 31
0.0
  0
LINE
  5
9D2A
  8
0
  6
BYBLOCK
 10
371.76858306988288
 20
139.4170357756889
 30
0.0
 11
372.76858306988288
 21
139.14908658568891
 31
0.0
  0
LINE
  5
9D2B
  8
0
  6
BYBLOCK
 10
372.76858306988288
 20
139.14908658568891
 30
0.0
 11
371.76858306988288
 21
138.88113739568891
 31
0.0
  0
LINE
  5
9D2C
  8
0
  6
BYBLOCK
 10
372.76858306988288
 20
139.14908658568891
 30
0.0
 11
371.76858306988288
 21
139.14908658568891
 31
0.0
  0
TEXT
  5
9D2D
  8
1DIM
 10
352.33433480608102
 20
92.336645101463745
 30
0.0
 40
1.75
  1
φ6
 50
90.0
  0
LINE
  5
9D2E
  8
0
  6
BYBLOCK
 10
352.41638561608102
 20
96.144978434796997
 30
0.0
 11
352.68433480608098
 21
97.144978434796997
 31
0.0
  0
LINE
  5
9D2F
  8
0
  6
BYBLOCK
 10
352.68433480608098
 20
97.144978434796997
 30
0.0
 11
352.95228399608112
 21
96.144978434796997
 31
0.0
  0
LINE
  5
9D30
  8
0
  6
BYBLOCK
 10
352.68433480608098
 20
97.144978434796997
 30
0.0
 11
352.68433480608098
 21
96.144978434796997
 31
0.0
  0
LINE
  5
9D31
  8
0
  6
BYBLOCK
 10
352.95228399608112
 20
92.144978434796997
 30
0.0
 11
352.68433480608098
 21
91.144978434796997
 31
0.0
  0
LINE
  5
9D32
  8
0
  6
BYBLOCK
 10
352.68433480608098
 20
91.144978434796997
 30
0.0
 11
352.41638561608102
 21
92.144978434796997
 31
0.0
  0
LINE
  5
9D33
  8
0
  6
BYBLOCK
 10
352.68433480608098
 20
91.144978434796997
 30
0.0
 11
352.68433480608098
 21
92.144978434796997
 31
0.0
  0
TEXT
  5
9D34
  8
1DIM
 10
380.94008994504281
 20
92.336691637361767
 30
0.0
 40
1.75
  1
φ4
 50
90.0
  0
LINE
  5
9D35
  8
0
  6
BYBLOCK
 10
381.0221407550427
 20
95.145024970695033
 30
0.0
 11
381.29008994504278
 21
96.145024970695033
 31
0.0
  0
LINE
  5
9D36
  8
0
  6
BYBLOCK
 10
381.29008994504278
 20
96.145024970695033
 30
0.0
 11
381.5580391350428
 21
95.145024970695033
 31
0.0
  0
LINE
  5
9D37
  8
0
  6
BYBLOCK
 10
381.29008994504278
 20
96.145024970695033
 30
0.0
 11
381.29008994504278
 21
95.145024970695033
 31
0.0
  0
LINE
  5
9D38
  8
0
  6
BYBLOCK
 10
381.5580391350428
 20
93.145024970695019
 30
0.0
 11
381.29008994504278
 21
92.145024970695033
 31
0.0
  0
LINE
  5
9D39
  8
0
  6
BYBLOCK
 10
381.29008994504278
 20
92.145024970695033
 30
0.0
 11
381.0221407550427
 21
93.145024970695019
 31
0.0
  0
LINE
  5
9D3A
  8
0
  6
BYBLOCK
 10
381.29008994504278
 20
92.145024970695033
 30
0.0
 11
381.29008994504278
 21
93.145024970695019
 31
0.0
  0
TEXT
  5
9D3B
  8
1DIM
 10
365.9396493449326
 20
85.250741519489694
 30
0.0
 40
1.75
  1
16 
  0
LINE
  5
9D3C
  8
0
  6
BYBLOCK
 10
374.10631601159929
 20
85.168690709489695
 30
0.0
 11
375.10631601159929
 21
84.900741519489713
 31
0.0
  0
LINE
  5
9D3D
  8
0
  6
BYBLOCK
 10
375.10631601159929
 20
84.900741519489713
 30
0.0
 11
374.10631601159929
 21
84.632792329489718
 31
0.0
  0
LINE
  5
9D3E
  8
0
  6
BYBLOCK
 10
375.10631601159929
 20
84.900741519489713
 30
0.0
 11
374.10631601159929
 21
84.900741519489713
 31
0.0
  0
LINE
  5
9D3F
  8
0
  6
BYBLOCK
 10
360.10631601159929
 20
84.632792329489718
 30
0.0
 11
359.10631601159929
 21
84.900741519489713
 31
0.0
  0
LINE
  5
9D40
  8
0
  6
BYBLOCK
 10
359.10631601159929
 20
84.900741519489713
 30
0.0
 11
360.10631601159929
 21
85.168690709489695
 31
0.0
  0
LINE
  5
9D41
  8
0
  6
BYBLOCK
 10
359.10631601159929
 20
84.900741519489713
 30
0.0
 11
360.10631601159929
 21
84.900741519489713
 31
0.0
  0
TEXT
  5
9D42
  8
1DIM
 10
293.26578155012072
 20
191.53320958149069
 30
0.0
 40
1.75
  1
(3.75)
  0
LINE
  5
9D43
  8
0
  6
BYBLOCK
 10
303.15744821678737
 20
190.45692705815731
 30
0.0
 11
302.15744821678737
 21
190.7248762481573
 31
0.0
  0
LINE
  5
9D44
  8
0
  6
BYBLOCK
 10
302.15744821678737
 20
190.7248762481573
 30
0.0
 11
303.15744821678737
 21
190.9928254381573
 31
0.0
  0
LINE
  5
9D45
  8
0
  6
BYBLOCK
 10
302.15744821678737
 20
190.7248762481573
 30
0.0
 11
303.15744821678737
 21
190.7248762481573
 31
0.0
  0
LINE
  5
9D46
  8
0
  6
BYBLOCK
 10
304.90744821678737
 20
190.9928254381573
 30
0.0
 11
305.90744821678737
 21
190.7248762481573
 31
0.0
  0
LINE
  5
9D47
  8
0
  6
BYBLOCK
 10
305.90744821678737
 20
190.7248762481573
 30
0.0
 11
304.90744821678737
 21
190.45692705815731
 31
0.0
  0
LINE
  5
9D48
  8
0
  6
BYBLOCK
 10
305.90744821678737
 20
190.7248762481573
 30
0.0
 11
304.90744821678737
 21
190.7248762481573
 31
0.0
  0
TEXT
  5
9D49
  8
1DIM
 10
321.38970614007962
 20
167.29241774006621
 30
0.0
 40
1.75
  1
(9.75)
 50
90.0
  0
LINE
  5
9D4A
  8
0
  6
BYBLOCK
 10
321.93009028341299
 20
174.95908440673281
 30
0.0
 11
322.19803947341302
 21
175.95908440673281
 31
0.0
  0
LINE
  5
9D4B
  8
0
  6
BYBLOCK
 10
322.19803947341302
 20
175.95908440673281
 30
0.0
 11
322.46598866341299
 21
174.95908440673281
 31
0.0
  0
LINE
  5
9D4C
  8
0
  6
BYBLOCK
 10
322.19803947341302
 20
175.95908440673281
 30
0.0
 11
322.19803947341302
 21
174.95908440673281
 31
0.0
  0
LINE
  5
9D4D
  8
0
  6
BYBLOCK
 10
322.46598866341299
 20
167.20908440673281
 30
0.0
 11
322.19803947341302
 21
166.20908440673281
 31
0.0
  0
LINE
  5
9D4E
  8
0
  6
BYBLOCK
 10
322.19803947341302
 20
166.20908440673281
 30
0.0
 11
321.93009028341299
 21
167.20908440673281
 31
0.0
  0
LINE
  5
9D4F
  8
0
  6
BYBLOCK
 10
322.19803947341302
 20
166.20908440673281
 30
0.0
 11
322.19803947341302
 21
167.20908440673281
 31
0.0
  0
VIEWPORT
  5
57
 67
     1
  8
0
 10
-14.329087558165609
 20
8.3983440470495339
 30
0.0
 40
530.92235623696138
 41
352.05039171387432
 68
     1
 69
     1
1001
ACAD
1000
MVIEW
1002
{
1070
    16
1010
0.0
1020
0.0
1030
0.0
1010
0.0
1020
0.0
1030
1.0
1040
0.0
1040
352.05039171387432
1040
-14.329087558165609
1040
8.3983440470495339
1040
50.0
1040
0.0
1040
0.0
1070
     0
1070
   100
1070
     1
1070
     1
1070
     0
1070
     0
1070
     0
1070
     0
1040
0.0
1040
0.0
1040
0.0
1040
10.0
1040
10.0
1040
10.0
1040
10.0
1070
     0
1002
{
1002
}
1002
}
  0
ENDSEC
  0
EOF
