  0
SECTION
  2
HEADER
  9
$ACADVER
  1
AC1009
  9
$DWGCODEPAGE
  3
ansi_932
  9
$INSBASE
 10
0.0
 20
0.0
 30
0.0
  9
$EXTMIN
 10
5450.0
 20
-217.8278429635718
 30
0.0
  9
$EXTMAX
 10
5583.148124256781
 20
-107.6239319688774
 30
0.0
  9
$LIMMIN
 10
0.0
 20
0.0
  9
$LIMMAX
 10
420.0
 20
297.0
  9
$ORTHOMODE
 70
     0
  9
$REGENMODE
 70
     1
  9
$FILLMODE
 70
     1
  9
$QTEXTMODE
 70
     0
  9
$MIRRTEXT
 70
     0
  9
$DRAGMODE
 70
     2
  9
$LTSCALE
 40
0.5
  9
$OSMODE
 70
  6271
  9
$ATTMODE
 70
     1
  9
$TEXTSIZE
 40
4.0
  9
$TRACEWID
 40
1.0
  9
$TEXTSTYLE
  7
STANDARD
  9
$CLAYER
  8
1TEXT
  9
$CELTYPE
  6
BYLAYER
  9
$CECOLOR
 62
   256
  9
$DIMSCALE
 40
1.0
  9
$DIMASZ
 40
2.0
  9
$DIMEXO
 40
0.0
  9
$DIMDLI
 40
7.0
  9
$DIMRND
 40
0.0
  9
$DIMDLE
 40
0.0
  9
$DIMEXE
 40
1.0
  9
$DIMTP
 40
0.0
  9
$DIMTM
 40
0.0
  9
$DIMTXT
 40
3.5
  9
$DIMCEN
 40
0.0
  9
$DIMTSZ
 40
0.0
  9
$DIMTOL
 70
     0
  9
$DIMLIM
 70
     0
  9
$DIMTIH
 70
     0
  9
$DIMTOH
 70
     0
  9
$DIMSE1
 70
     0
  9
$DIMSE2
 70
     0
  9
$DIMTAD
 70
     1
  9
$DIMZIN
 70
     8
  9
$DIMBLK
  1

  9
$DIMASO
 70
     1
  9
$DIMSHO
 70
     1
  9
$DIMPOST
  1
 
  9
$DIMAPOST
  1

  9
$DIMALT
 70
     0
  9
$DIMALTD
 70
     2
  9
$DIMALTF
 40
25.4
  9
$DIMLFAC
 40
1.0
  9
$DIMTOFL
 70
     1
  9
$DIMTVP
 40
0.0
  9
$DIMTIX
 70
     0
  9
$DIMSOXD
 70
     0
  9
$DIMSAH
 70
     1
  9
$DIMBLK1
  1
OPEN30
  9
$DIMBLK2
  1
OPEN30
  9
$DIMSTYLE
  2
NEWX10
  9
$DIMCLRD
 70
   256
  9
$DIMCLRE
 70
   256
  9
$DIMCLRT
 70
   201
  9
$DIMTFAC
 40
0.7
  9
$DIMGAP
 40
0.7
  9
$LUNITS
 70
     2
  9
$LUPREC
 70
     4
  9
$SKETCHINC
 40
1.0
  9
$FILLETRAD
 40
0.0
  9
$AUNITS
 70
     0
  9
$AUPREC
 70
     2
  9
$MENU
  1
acad
  9
$ELEVATION
 40
0.0
  9
$PELEVATION
 40
0.0
  9
$THICKNESS
 40
0.0
  9
$LIMCHECK
 70
     0
  9
$CHAMFERA
 40
10.0
  9
$CHAMFERB
 40
10.0
  9
$SKPOLY
 70
     0
  9
$TDCREATE
 40
2451318.621352917
  9
$TDUPDATE
 40
2460376.51145838
  9
$TDINDWG
 40
1.5000757986
  9
$TDUSRTIMER
 40
1.5000757986
  9
$USRTIMER
 70
     1
  9
$ANGBASE
 50
0.0
  9
$ANGDIR
 70
     0
  9
$PDMODE
 70
     0
  9
$PDSIZE
 40
0.0
  9
$PLINEWID
 40
0.0
  9
$COORDS
 70
     2
  9
$SPLFRAME
 70
     0
  9
$SPLINETYPE
 70
     6
  9
$SPLINESEGS
 70
     8
  9
$ATTDIA
 70
     0
  9
$ATTREQ
 70
     1
  9
$HANDLING
 70
     1
  9
$HANDSEED
  5
B78A
  9
$SURFTAB1
 70
     6
  9
$SURFTAB2
 70
     6
  9
$SURFTYPE
 70
     6
  9
$SURFU
 70
     6
  9
$SURFV
 70
     6
  9
$UCSNAME
  2

  9
$UCSORG
 10
0.0
 20
0.0
 30
0.0
  9
$UCSXDIR
 10
1.0
 20
0.0
 30
0.0
  9
$UCSYDIR
 10
0.0
 20
1.0
 30
0.0
  9
$PUCSNAME
  2

  9
$PUCSORG
 10
0.0
 20
0.0
 30
0.0
  9
$PUCSXDIR
 10
1.0
 20
0.0
 30
0.0
  9
$PUCSYDIR
 10
0.0
 20
1.0
 30
0.0
  9
$USERI1
 70
     0
  9
$USERI2
 70
     0
  9
$USERI3
 70
     0
  9
$USERI4
 70
     0
  9
$USERI5
 70
     0
  9
$USERR1
 40
0.0
  9
$USERR2
 40
0.0
  9
$USERR3
 40
0.0
  9
$USERR4
 40
0.0
  9
$USERR5
 40
0.0
  9
$WORLDVIEW
 70
     1
  9
$SHADEDGE
 70
     3
  9
$SHADEDIF
 70
    70
  9
$TILEMODE
 70
     1
  9
$MAXACTVP
 70
    48
  9
$PLIMCHECK
 70
     0
  9
$PEXTMIN
 10
1.000000000000000E+20
 20
1.000000000000000E+20
 30
1.000000000000000E+20
  9
$PEXTMAX
 10
-1.000000000000000E+20
 20
-1.000000000000000E+20
 30
-1.000000000000000E+20
  9
$PLIMMIN
 10
0.0
 20
0.0
  9
$PLIMMAX
 10
420.0
 20
297.0
  9
$UNITMODE
 70
     0
  9
$VISRETAIN
 70
     1
  9
$PLINEGEN
 70
     0
  9
$PSLTSCALE
 70
     1
  0
ENDSEC
  0
SECTION
  2
TABLES
  0
TABLE
  2
VPORT
 70
     1
  0
VPORT
  2
*ACTIVE
 70
     0
 10
0.0
 20
0.0
 11
1.0
 21
1.0
 12
5516.57406212839
 22
-162.7258874662246
 13
0.0
 23
0.0
 14
10.0
 24
10.0
 15
10.0
 25
10.0
 16
0.0
 26
0.0
 36
1.0
 17
0.0
 27
0.0
 37
0.0
 40
118.3241991732509
 41
1.83275663206459
 42
50.0
 43
0.0
 44
0.0
 50
0.0
 51
0.0
 71
     0
 72
   100
 73
     1
 74
     1
 75
     0
 76
     0
 77
     0
 78
     0
  0
ENDTAB
  0
TABLE
  2
LTYPE
 70
    13
  0
LTYPE
  2
CONTINUOUS
 70
     0
  3
Solid line
 72
    65
 73
     0
 40
0.0
  0
LTYPE
  2
CENTER2
 70
     0
  3
Center (.5x) ___ _ ___ _ ___ _ ___ _ ___ _ ___
 72
    65
 73
     4
 40
28.575
 49
19.05
 49
-3.175
 49
3.175
 49
-3.175
  0
LTYPE
  2
PHANTOM2
 70
     0
  3
Phantom (0.5x) ___ _ _ ___ _ _ ___ _ _ ___ _ _
 72
    65
 73
     6
 40
31.75
 49
15.875
 49
-3.175
 49
3.175
 49
-3.175
 49
3.175
 49
-3.175
  0
ENDTAB
  0
TABLE
  2
LAYER
 70
    41
  0
LAYER
  2
0
 70
     0
 62
     7
  6
CONTINUOUS
  0
LAYER
  2
1CENTER
 70
     0
 62
     7
  6
CENTER2
  0
LAYER
  2
1TEXT
 70
     0
 62
     7
  6
CONTINUOUS
  0
LAYER
  2
01
 70
     0
 62
     1
  6
CONTINUOUS
  0
LAYER
  2
1DIM
 70
     0
 62
     7
  6
CONTINUOUS
  0
LAYER
  2
1HATCH
 70
     0
 62
     7
  6
CONTINUOUS
  0
LAYER
  2
1PHANTOM
 70
     0
 62
     7
  6
PHANTOM2
  0
ENDTAB
  0
TABLE
  2
STYLE
 70
    17
  0
STYLE
  2
STANDARD
 70
     0
 40
0.0
 41
1.0
 50
0.0
 71
     0
 42
4.0
  3
txt.shx
  4
extfont.shx
  0
ENDTAB
  0
TABLE
  2
VIEW
 70
     0
  0
ENDTAB
  0
TABLE
  2
UCS
 70
     0
  0
ENDTAB
  0
TABLE
  2
APPID
 70
    12
  0
APPID
  2
ACAD
 70
     0
  0
APPID
  2
DRAWINGVARIABLESXDATA
 70
     0
  0
APPID
  2
CONTENTTABDATA
 70
     0
  0
APPID
  2
CONTENTCURRENTTAB
 70
     0
  0
APPID
  2
CONTENTBLOCKDESCRIPTION
 70
     0
  0
APPID
  2
CONTENTBLOCKICON
 70
     0
  0
APPID
  2
CONTENTLONGBLOCKNAME
 70
     0
  0
APPID
  2
ACAD_PSEXT
 70
     0
  0
APPID
  2
ACAD_MLEADERVER
 70
     0
  0
APPID
  2
ACADANNOTATIVE
 70
     0
  0
APPID
  2
ACDBBLOCKREPETAG
 70
     0
  0
APPID
  2
ACAECLAYERSTANDARD
 70
     0
  0
ENDTAB
  0
TABLE
  2
DIMSTYLE
 70
     3
  0
DIMSTYLE
  2
NEWX10
 70
     0
  3
 
  4

  5

  6
OPEN30
  7
OPEN30
 40
1.0
 41
2.0
 42
0.0
 43
7.0
 44
1.0
 45
0.0
 46
0.0
 47
0.0
 48
0.0
140
3.5
141
0.0
142
0.0
143
25.4
144
1.0
145
0.0
146
0.7
147
0.7
 71
     0
 72
     0
 73
     0
 74
     0
 75
     0
 76
     0
 77
     1
 78
     8
170
     0
171
     2
172
     1
173
     1
174
     0
175
     0
176
   256
177
   256
178
   201
  0
ENDTAB
  0
ENDSEC
  0
SECTION
  2
BLOCKS
  0
BLOCK
  8
0
  2
$MODEL_SPACE
 70
     0
 10
0.0
 20
0.0
 30
0.0
  3
$MODEL_SPACE
  1

  0
ENDBLK
  5
1A
  8
0
  0
BLOCK
 67
     1
  8
0
  2
$PAPER_SPACE
 70
     0
 10
0.0
 20
0.0
 30
0.0
  3
$PAPER_SPACE
  1

  0
ENDBLK
  5
17
 67
     1
  8
0
  0
BLOCK
  8
0
  2
_OPEN30
 70
     0
 10
0.0
 20
0.0
 30
0.0
  3
_OPEN30
  1

  0
LINE
  5
44
  8
0
  6
BYBLOCK
 62
     0
 10
-1.0
 20
0.26794919
 30
0.0
 11
0.0
 21
0.0
 31
0.0
  0
LINE
  5
45
  8
0
  6
BYBLOCK
 62
     0
 10
0.0
 20
0.0
 30
0.0
 11
-1.0
 21
-0.26794919
 31
0.0
  0
LINE
  5
46
  8
0
  6
BYBLOCK
 62
     0
 10
0.0
 20
0.0
 30
0.0
 11
-1.0
 21
0.0
 31
0.0
  0
ENDBLK
  5
47
  8
0
  0
BLOCK
  8
0
  2
A3WAKUKAWAJUN2017_HYOUDAI_
 70
     0
 10
0.0
 20
0.0
 30
0.0
  3
A3WAKUKAWAJUN2017_HYOUDAI_
  1

  0
LINE
  5
A335
  8
0
 10
13.26299999998673
 20
-0.0001000000000317
 30
0.0
 11
9.236999999990758
 21
8.999899999990987
 31
0.0
1001
ACAD
1000
ASC_BOUNDS
1002
{
1070
    19
1005
A376
1002
}
  0
LINE
  5
A336
  8
0
 10
5.657999999994331
 20
0.9999999999989768
 30
0.0
 11
9.236999999990758
 21
8.999999999991019
 31
0.0
1001
ACAD
1000
ASC_BOUNDS
1002
{
1070
    19
1005
A376
1002
}
  0
LINE
  5
A337
  8
0
 10
18.59199999998134
 20
-0.2368999999997641
 30
0.0
 11
16.46099999998353
 21
5.432899999994561
 31
0.0
1001
ACAD
1000
ASC_BOUNDS
1002
{
1070
    19
1005
A377
1002
}
  0
LINE
  5
A338
  8
0
 10
18.59199999998134
 20
-0.2368999999997641
 30
0.0
 11
22.38199999997767
 21
8.763099999991255
 31
0.0
1001
ACAD
1000
ASC_BOUNDS
1002
{
1070
    19
1005
A377
1002
}
  0
LINE
  5
A339
  8
0
 10
14.32899999998563
 20
-0.2368999999997641
 30
0.0
 11
16.46099999998353
 21
5.432899999994561
 31
0.0
1001
ACAD
1000
ASC_BOUNDS
1002
{
1070
    19
1005
A377
1002
}
  0
LINE
  5
A33A
  8
0
 10
14.32899999998563
 20
-0.2368999999997641
 30
0.0
 11
10.53899999998941
 21
8.763099999991255
 31
0.0
1001
ACAD
1000
ASC_BOUNDS
1002
{
1070
    19
1005
A377
1002
}
  0
LINE
  5
A33B
  8
0
 10
19.53899999998043
 20
-0.0001000000000317
 30
0.0
 11
23.56599999997638
 21
8.999899999990987
 31
0.0
1001
ACAD
1000
ASC_BOUNDS
1002
{
1070
    19
1005
A378
1002
}
  0
LINE
  5
A33C
  8
0
 10
26.97358892824991
 20
1.383099999991202
 30
0.0
 11
23.56599999997638
 21
8.999899999990987
 31
0.0
1001
ACAD
1000
ASC_BOUNDS
1002
{
1070
    19
1005
A378
1002
}
  0
LINE
  5
A33D
  8
0
 10
5.657999999994331
 20
0.9999999999989768
 30
0.0
 11
3.181999999996833
 21
4.668599999995308
 31
0.0
1001
ACAD
1000
ASC_BOUNDS
1002
{
1070
    19
1005
A376
1002
}
  0
LINE
  5
A33E
  8
0
 10
4.617999999995391
 20
-0.0001000000000317
 30
0.0
 11
1.420999999998571
 21
4.736799999995242
 31
0.0
1001
ACAD
1000
ASC_BOUNDS
1002
{
1070
    19
1005
A376
1002
}
  0
LINE
  5
A33F
  8
0
 10
1.420999999998571
 20
8.763099999991255
 30
0.0
 11
1.420999999998571
 21
0.0
 31
0.0
1001
ACAD
1000
ASC_BOUNDS
1002
{
1070
    19
1005
A37B
1002
}
  0
LINE
  5
A340
  8
0
 10
0.0
 20
8.763099999991255
 30
0.0
 11
0.0
 21
0.0
 31
0.0
1001
ACAD
1000
ASC_BOUNDS
1002
{
1070
    19
1005
A37B
1002
}
  0
LINE
  5
A341
  8
0
 10
6.766999999993232
 20
-0.0001000000000317
 30
0.0
 11
7.826999999992154
 21
2.368399999997621
 31
0.0
1001
ACAD
1000
ASC_BOUNDS
1002
{
1070
    19
1005
A376
1002
}
  0
LINE
  5
A342
  8
0
 10
0.0
 20
0.0
 30
0.0
 11
1.420999999998571
 21
0.0
 31
0.0
1001
ACAD
1000
ASC_BOUNDS
1002
{
1070
    19
1005
A37B
1002
}
  0
LINE
  5
A343
  8
0
 10
4.617999999995391
 20
0.0
 30
0.0
 11
6.766999999993232
 21
0.0
 31
0.0
1001
ACAD
1000
ASC_BOUNDS
1002
{
1070
    19
1005
A376
1002
}
  0
LINE
  5
A344
  8
0
 10
11.70599999998831
 20
-0.0001000000000317
 30
0.0
 11
10.64699999998936
 21
2.368399999997621
 31
0.0
1001
ACAD
1000
ASC_BOUNDS
1002
{
1070
    19
1005
A376
1002
}
  0
LINE
  5
A345
  8
0
 10
7.826999999992154
 20
2.368399999997621
 30
0.0
 11
10.64699999998936
 21
2.368399999997621
 31
0.0
1001
ACAD
1000
ASC_BOUNDS
1002
{
1070
    19
1005
A376
1002
}
  0
LINE
  5
A346
  8
0
 10
11.70599999998831
 20
0.0
 30
0.0
 11
13.26299999998673
 21
0.0
 31
0.0
1001
ACAD
1000
ASC_BOUNDS
1002
{
1070
    19
1005
A376
1002
}
  0
LINE
  5
A347
  8
0
 10
22.15599999997789
 20
2.368399999997621
 30
0.0
 11
24.97599999997499
 21
2.368399999997621
 31
0.0
1001
ACAD
1000
ASC_BOUNDS
1002
{
1070
    19
1005
A378
1002
}
  0
LINE
  5
A348
  8
0
 10
19.53899999998043
 20
0.0
 30
0.0
 11
21.09599999997886
 21
0.0
 31
0.0
1001
ACAD
1000
ASC_BOUNDS
1002
{
1070
    19
1005
A378
1002
}
  0
LINE
  5
A349
  8
0
 10
21.09599999997886
 20
-0.0001000000000317
 30
0.0
 11
22.15599999997789
 21
2.368399999997621
 31
0.0
1001
ACAD
1000
ASC_BOUNDS
1002
{
1070
    19
1005
A378
1002
}
  0
LINE
  5
A34A
  8
0
 10
26.02015566812236
 20
0.0330999999912365
 30
0.0
 11
24.97599999997499
 21
2.368399999997621
 31
0.0
1001
ACAD
1000
ASC_BOUNDS
1002
{
1070
    19
1005
A378
1002
}
  0
LINE
  5
A34B
  8
0
 10
14.32399999998563
 20
3.315799999996671
 30
0.0
 11
16.46099999998353
 21
8.999899999990987
 31
0.0
1001
ACAD
1000
ASC_BOUNDS
1002
{
1070
    19
1005
A377
1002
}
  0
LINE
  5
A34C
  8
0
 10
6.432999999993513
 20
8.763099999991255
 30
0.0
 11
3.181999999996833
 21
4.668599999995308
 31
0.0
1001
ACAD
1000
ASC_BOUNDS
1002
{
1070
    19
1005
A376
1002
}
  0
LINE
  5
A34D
  8
0
 10
4.617999999995391
 20
8.763099999991255
 30
0.0
 11
1.420999999998571
 21
4.736799999995242
 31
0.0
1001
ACAD
1000
ASC_BOUNDS
1002
{
1070
    19
1005
A376
1002
}
  0
LINE
  5
A34E
  8
0
 10
0.0
 20
8.763099999991255
 30
0.0
 11
1.420999999998571
 21
8.763099999991255
 31
0.0
1001
ACAD
1000
ASC_BOUNDS
1002
{
1070
    19
1005
A37B
1002
}
  0
LINE
  5
A34F
  8
0
 10
4.617999999995391
 20
8.763099999991255
 30
0.0
 11
6.432999999993513
 21
8.763099999991255
 31
0.0
1001
ACAD
1000
ASC_BOUNDS
1002
{
1070
    19
1005
A376
1002
}
  0
LINE
  5
A350
  8
0
 10
14.32399999998563
 20
3.315799999996671
 30
0.0
 11
12.02999999998792
 21
8.763099999991255
 31
0.0
1001
ACAD
1000
ASC_BOUNDS
1002
{
1070
    19
1005
A377
1002
}
  0
LINE
  5
A351
  8
0
 10
10.06399999998996
 20
3.670999999996297
 30
0.0
 11
9.236999999990758
 21
5.5200999999945
 31
0.0
1001
ACAD
1000
ASC_BOUNDS
1002
{
1070
    19
1005
A376
1002
}
  0
LINE
  5
A352
  8
0
 10
8.409999999991555
 20
3.670999999996297
 30
0.0
 11
9.236999999990758
 21
5.5200999999945
 31
0.0
1001
ACAD
1000
ASC_BOUNDS
1002
{
1070
    19
1005
A376
1002
}
  0
LINE
  5
A353
  8
0
 10
8.409999999991555
 20
3.670999999996297
 30
0.0
 11
10.06399999998996
 21
3.670999999996297
 31
0.0
1001
ACAD
1000
ASC_BOUNDS
1002
{
1070
    19
1005
A376
1002
}
  0
LINE
  5
A354
  8
0
 10
10.53899999998941
 20
8.763099999991255
 30
0.0
 11
12.02999999998792
 21
8.763099999991255
 31
0.0
1001
ACAD
1000
ASC_BOUNDS
1002
{
1070
    19
1005
A377
1002
}
  0
LINE
  5
A355
  8
0
 10
22.7389999999773
 20
3.670999999996297
 30
0.0
 11
23.56599999997638
 21
5.5200999999945
 31
0.0
1001
ACAD
1000
ASC_BOUNDS
1002
{
1070
    19
1005
A378
1002
}
  0
LINE
  5
A356
  8
0
 10
22.7389999999773
 20
3.670999999996297
 30
0.0
 11
24.39299999997559
 21
3.670999999996297
 31
0.0
1001
ACAD
1000
ASC_BOUNDS
1002
{
1070
    19
1005
A378
1002
}
  0
LINE
  5
A357
  8
0
 10
18.59799999998143
 20
3.315799999996671
 30
0.0
 11
20.89099999997916
 21
8.763099999991255
 31
0.0
1001
ACAD
1000
ASC_BOUNDS
1002
{
1070
    19
1005
A377
1002
}
  0
LINE
  5
A358
  8
0
 10
18.59799999998143
 20
3.315799999996671
 30
0.0
 11
16.46099999998353
 21
8.999899999990987
 31
0.0
1001
ACAD
1000
ASC_BOUNDS
1002
{
1070
    19
1005
A377
1002
}
  0
LINE
  5
A359
  8
0
 10
20.89099999997916
 20
8.763099999991255
 30
0.0
 11
22.38199999997767
 21
8.763099999991255
 31
0.0
1001
ACAD
1000
ASC_BOUNDS
1002
{
1070
    19
1005
A377
1002
}
  0
LINE
  5
A35A
  8
0
 10
24.39299999997559
 20
3.670999999996297
 30
0.0
 11
23.56599999997638
 21
5.5200999999945
 31
0.0
1001
ACAD
1000
ASC_BOUNDS
1002
{
1070
    19
1005
A378
1002
}
  0
LINE
  5
A35B
  8
0
 10
44.99999999995498
 20
-0.2368999999997641
 30
0.0
 11
40.02599999995994
 21
5.341799999994635
 31
0.0
1001
ACAD
1000
ASC_BOUNDS
1002
{
1070
    19
1005
A37A
1002
}
  0
LINE
  5
A35C
  8
0
 10
40.02599999995994
 20
5.341799999994635
 30
0.0
 11
40.02599999995994
 21
0.0
 31
0.0
1001
ACAD
1000
ASC_BOUNDS
1002
{
1070
    19
1005
A37A
1002
}
  0
LINE
  5
A35D
  8
0
 10
38.60499999996136
 20
8.999999999991019
 30
0.0
 11
38.60499999996136
 21
0.0
 31
0.0
1001
ACAD
1000
ASC_BOUNDS
1002
{
1070
    19
1005
A37A
1002
}
  0
LINE
  5
A35E
  8
0
 10
44.99999999995498
 20
8.763099999991255
 30
0.0
 11
44.99999999995498
 21
-0.2368999999997641
 31
0.0
1001
ACAD
1000
ASC_BOUNDS
1002
{
1070
    19
1005
A37A
1002
}
  0
LINE
  5
A35F
  8
0
 10
38.60499999996136
 20
0.0
 30
0.0
 11
40.02599999995994
 21
0.0
 31
0.0
1001
ACAD
1000
ASC_BOUNDS
1002
{
1070
    19
1005
A37A
1002
}
  0
LINE
  5
A360
  8
0
 10
43.57899999995641
 20
3.421199999996588
 30
0.0
 11
38.60499999996136
 21
8.999899999990987
 31
0.0
1001
ACAD
1000
ASC_BOUNDS
1002
{
1070
    19
1005
A37A
1002
}
  0
LINE
  5
A361
  8
0
 10
43.57899999995641
 20
8.763099999991255
 30
0.0
 11
43.57899999995641
 21
3.421199999996588
 31
0.0
1001
ACAD
1000
ASC_BOUNDS
1002
{
1070
    19
1005
A37A
1002
}
  0
LINE
  5
A362
  8
0
 10
43.57899999995641
 20
8.763099999991255
 30
0.0
 11
44.99999999995498
 21
8.763099999991255
 31
0.0
1001
ACAD
1000
ASC_BOUNDS
1002
{
1070
    19
1005
A37A
1002
}
  0
LINE
  5
A363
  8
0
 10
37.67199999996831
 20
8.763099999991255
 30
0.0
 11
36.23199999996837
 21
8.763099999991255
 31
0.0
  0
LINE
  5
A364
  8
0
 10
31.64199999996833
 20
8.763099999991255
 30
0.0
 11
31.64199999996833
 21
2.481619422925121
 31
0.0
  0
LINE
  5
A365
  8
0
 10
37.67199999996831
 20
8.763099999991255
 30
0.0
 11
37.67199999996831
 21
2.481619422925121
 31
0.0
  0
LINE
  5
A366
  8
0
 10
36.23199999996837
 20
8.763099999991255
 30
0.0
 11
36.23199999996837
 21
2.481619422925064
 31
0.0
  0
LINE
  5
A367
  8
0
 10
33.08199999996839
 20
8.763099999991255
 30
0.0
 11
33.08199999996839
 21
2.481619422925121
 31
0.0
  0
ARC
  5
A368
  8
0
 10
34.65699999996832
 20
3.183099999991214
 30
0.0
 40
3.420000000000007
 50
240.0000000000255
 51
299.9999999999766
  0
ARC
  5
A369
  8
0
 10
34.65699999996832
 20
3.183099999991214
 30
0.0
 40
1.97999999999999
 50
240.000000000026
 51
299.9999999999703
  0
LINE
  5
A36A
  8
0
 10
33.08199999996828
 20
8.763099999991255
 30
0.0
 11
31.64199999996833
 21
8.763099999991255
 31
0.0
  0
ARC
  5
A36B
  8
0
 10
35.06199999996829
 20
2.481619422925064
 30
0.0
 40
1.17
 50
299.9999999999699
 51
0.0
  0
ARC
  5
A36C
  8
0
 10
34.25199999996835
 20
2.481619422925121
 30
0.0
 40
1.17
 50
180.0
 51
240.0000000000238
  0
ARC
  5
A36D
  8
0
 10
35.06199999996841
 20
2.481619422925121
 30
0.0
 40
2.61
 50
299.9999999999756
 51
0.0
  0
ARC
  5
A36E
  8
0
 10
34.25199999996835
 20
2.481619422925121
 30
0.0
 40
2.61
 50
180.0
 51
240.0000000000244
  0
LINE
  5
A36F
  8
0
 10
29.30199999996933
 20
8.763099999991255
 30
0.0
 11
30.74199999996927
 21
8.763099999991255
 31
0.0
1001
ACAD
1000
ASC_BOUNDS
1002
{
1070
    19
1005
A378
1002
}
  0
LINE
  5
A370
  8
0
 10
30.74199999996927
 20
8.763099999991255
 30
0.0
 11
30.74199999996927
 21
2.373099999991211
 31
0.0
1001
ACAD
1000
ASC_BOUNDS
1002
{
1070
    19
1005
A378
1002
}
  0
LINE
  5
A371
  8
0
 10
26.02015566812236
 20
0.0330999999912365
 30
0.0
 11
28.40199999996923
 21
0.0330999999912365
 31
0.0
1001
ACAD
1000
ASC_BOUNDS
1002
{
1070
    19
1005
A378
1002
}
  0
LINE
  5
A372
  8
0
 10
29.30199999996933
 20
8.763099999991255
 30
0.0
 11
29.30199999996933
 21
2.283099999991236
 31
0.0
1001
ACAD
1000
ASC_BOUNDS
1002
{
1070
    19
1005
A378
1002
}
  0
LINE
  5
A373
  8
0
 10
26.97358892824991
 20
1.383099999991202
 30
0.0
 11
28.40199999996923
 21
1.383099999991202
 31
0.0
1001
ACAD
1000
ASC_BOUNDS
1002
{
1070
    19
1005
A378
1002
}
  0
ARC
  5
A374
  8
0
 10
28.40199999996923
 20
2.283099999991236
 30
0.0
 40
0.9
 50
270.0
 51
0.0
1001
ACAD
1000
ASC_BOUNDS
1002
{
1070
    19
1005
A378
1002
}
  0
ARC
  5
A375
  8
0
 10
28.40199999996923
 20
2.373099999991211
 30
0.0
 40
2.34
 50
270.0
 51
0.0
1001
ACAD
1000
ASC_BOUNDS
1002
{
1070
    19
1005
A378
1002
}
  0
INSERT
  5
A376
  8
0
  2
*X107
 10
0.0
 20
0.0
 30
0.0
1001
ACAD
1000
HATCH
1002
{
1070
    19
1000
ANSI37
1040
0.15
1040
0.0
1000
ASC_BOUNDS
1070
     2
1070
     2
1070
    12
1005
A335
1005
A336
1005
A33D
1005
A34C
1005
A34F
1005
A34D
1005
A33E
1005
A343
1005
A341
1005
A345
1005
A344
1005
A346
1070
     2
1070
     3
1005
A351
1005
A353
1005
A352
1000
ASC_SEEDPOINT
1011
3.614004224891801
1021
2.996669441146025
1031
0.0
1021
2.996669441146025
1031
0.0
1000
R14_HATCH_DATA
1000
A376
1011
1.0
1021
0.0
1031
0.0
1021
0.0
1031
0.0
1011
0.0
1021
1.0
1031
0.0
1021
1.0
1031
0.0
1011
0.0
1021
0.0
1031
1.0
1021
0.0
1031
1.0
1040
0.0
1010
0.0
1020
0.0
1030
1.0
1000
ANSI37
1070
     0
1070
     1
1071
        2
1071
        7
1070
     0
1070
     1
1071
       17
1040
13.26299999998673
1040
-0.0001000000000317
1040
9.236999999990758
1040
8.999899999990987
1040
9.236999999990758
1040
8.999999999991019
1040
5.657999999994331
1040
0.9999999999989768
1040
3.181999999996833
1040
4.668599999995308
1040
6.432999999993513
1040
8.763099999991255
1040
4.617999999995391
1040
8.763099999991255
1040
1.420999999998571
1040
4.736799999995242
1040
4.617999999995391
1040
-0.0001000000000317
1040
4.617999999995391
1040
0.0
1040
6.766999999993232
1040
0.0
1040
6.766999999993232
1040
-0.0001000000000317
1040
7.826999999992154
1040
2.368399999997621
1040
10.64699999998936
1040
2.368399999997621
1040
11.70599999998831
1040
-0.0001000000000317
1040
11.70599999998831
1040
0.0
1040
13.26299999998673
1040
0.0
1071
       12
1005
A335
1005
A336
1005
A33D
1005
A34C
1005
A34F
1005
A34D
1005
A33E
1005
A343
1005
A341
1005
A345
1005
A344
1005
A346
1071
       22
1070
     0
1070
     1
1071
        3
1040
9.236999999990758
1040
5.5200999999945
1040
10.06399999998996
1040
3.670999999996297
1040
8.409999999991555
1040
3.670999999996297
1071
        3
1005
A351
1005
A353
1005
A352
1070
     0
1070
     1
1040
0.0
1040
0.15
1070
     0
1070
     2
1040
0.7853981633974483
1040
49.29960901727088
1040
-10.17736998311392
1040
-0.3367596045400932
1040
0.3367596045400932
1070
     0
1040
2.356194490192345
1040
49.29960901727088
1040
-10.17736998311392
1040
-0.3367596045400932
1040
-0.3367596045400932
1070
     0
1040
0.0110235143455945
1071
        2
1040
3.614004224891801
1040
2.996669441146025
1040
0.0
1040
3.614004224891801
1040
2.996669441146025
1040
0.0
1002
}
  0
INSERT
  5
A377
  8
0
  2
*X108
 10
0.0
 20
0.0
 30
0.0
1001
ACAD
1000
HATCH
1002
{
1070
    19
1000
ANSI37
1040
0.15
1040
0.0
1000
ASC_BOUNDS
1070
     1
1070
     2
1070
    10
1005
A337
1005
A338
1005
A359
1005
A357
1005
A358
1005
A34B
1005
A350
1005
A354
1005
A33A
1005
A339
1000
ASC_SEEDPOINT
1011
14.73245321214324
1021
2.798246178283421
1031
0.0
1021
2.798246178283421
1031
0.0
1000
R14_HATCH_DATA
1000
A377
1011
1.0
1021
0.0
1031
0.0
1021
0.0
1031
0.0
1011
0.0
1021
1.0
1031
0.0
1021
1.0
1031
0.0
1011
0.0
1021
0.0
1031
1.0
1021
0.0
1031
1.0
1040
0.0
1010
0.0
1020
0.0
1030
1.0
1000
ANSI37
1070
     0
1070
     1
1071
        1
1071
        7
1070
     0
1070
     1
1071
       10
1040
16.46099999998353
1040
5.432899999994561
1040
18.59199999998134
1040
-0.2368999999997641
1040
22.38199999997767
1040
8.763099999991255
1040
20.89099999997916
1040
8.763099999991255
1040
18.59799999998143
1040
3.315799999996671
1040
16.46099999998353
1040
8.999899999990987
1040
14.32399999998563
1040
3.315799999996671
1040
12.02999999998792
1040
8.763099999991255
1040
10.53899999998941
1040
8.763099999991255
1040
14.32899999998563
1040
-0.2368999999997641
1071
       10
1005
A337
1005
A338
1005
A359
1005
A357
1005
A358
1005
A34B
1005
A350
1005
A354
1005
A33A
1005
A339
1070
     0
1070
     1
1040
0.0
1040
0.15
1070
     0
1070
     2
1040
0.7853981633974483
1040
49.29960901727088
1040
-10.17736998311392
1040
-0.3367596045400932
1040
0.3367596045400932
1070
     0
1040
2.356194490192345
1040
49.29960901727088
1040
-10.17736998311392
1040
-0.3367596045400932
1040
-0.3367596045400932
1070
     0
1040
0.0110235143455945
1071
        1
1040
14.73245321214324
1040
2.798246178283421
1040
0.0
1002
}
  0
INSERT
  5
A378
  8
0
  2
*X109
 10
0.0
 20
0.0
 30
0.0
1001
ACAD
1000
HATCH
1002
{
1070
    19
1000
ANSI37
1040
0.15
1040
0.0
1000
ASC_BOUNDS
1070
     2
1070
     2
1070
    13
1005
A33B
1005
A348
1005
A349
1005
A347
1005
A34A
1005
A371
1005
A375
1005
A370
1005
A36F
1005
A372
1005
A374
1005
A373
1005
A33C
1070
     2
1070
     3
1005
A355
1005
A35A
1005
A356
1000
ASC_SEEDPOINT
1011
21.97929957367762
1021
3.294304244259308
1031
0.0
1021
3.294304244259308
1031
0.0
1000
R14_HATCH_DATA
1000
A378
1011
1.0
1021
0.0
1031
0.0
1021
0.0
1031
0.0
1011
0.0
1021
1.0
1031
0.0
1021
1.0
1031
0.0
1011
0.0
1021
0.0
1031
1.0
1021
0.0
1031
1.0
1040
0.0
1010
0.0
1020
0.0
1030
1.0
1000
ANSI37
1070
     0
1070
     1
1071
        2
1071
        7
1070
     1
1070
     1
1071
       15
1040
23.56599999997638
1040
8.999899999990987
1040
0.0
1040
19.53899999998043
1040
-0.0001000000000317
1040
0.0
1040
19.53899999998043
1040
0.0
1040
0.0
1040
21.09599999997886
1040
0.0
1040
0.0
1040
21.09599999997886
1040
-0.0001000000000317
1040
0.0
1040
22.15599999997789
1040
2.368399999997621
1040
0.0
1040
24.97599999997499
1040
2.368399999997621
1040
0.0
1040
26.02015566812236
1040
0.0330999999912365
1040
0.0
1040
28.40199999996923
1040
0.0330999999912365
1040
0.414213562373095
1040
30.74199999996923
1040
2.373099999991211
1040
0.0
1040
30.74199999996927
1040
8.763099999991255
1040
0.0
1040
29.30199999996933
1040
8.763099999991255
1040
0.0
1040
29.30199999996933
1040
2.283099999991236
1040
-0.414213562373095
1040
28.40199999996923
1040
1.383099999991237
1040
0.0
1040
26.97358892824991
1040
1.383099999991202
1040
0.0
1071
       13
1005
A33B
1005
A348
1005
A349
1005
A347
1005
A34A
1005
A371
1005
A375
1005
A370
1005
A36F
1005
A372
1005
A374
1005
A373
1005
A33C
1071
       22
1070
     0
1070
     1
1071
        3
1040
22.7389999999773
1040
3.670999999996297
1040
23.56599999997638
1040
5.5200999999945
1040
24.39299999997559
1040
3.670999999996297
1071
        3
1005
A355
1005
A35A
1005
A356
1070
     0
1070
     1
1040
0.0
1040
0.15
1070
     0
1070
     2
1040
0.7853981633974483
1040
49.29960901727088
1040
-10.17736998311392
1040
-0.3367596045400932
1040
0.3367596045400932
1070
     0
1040
2.356194490192345
1040
49.29960901727088
1040
-10.17736998311392
1040
-0.3367596045400932
1040
-0.3367596045400932
1070
     0
1040
0.0110235143455945
1071
        2
1040
21.97929957367762
1040
3.294304244259308
1040
0.0
1040
21.97929957367762
1040
3.294304244259308
1040
0.0
1002
}
  0
INSERT
  5
A379
  8
0
  2
*X110
 10
0.0
 20
0.0
 30
0.0
1001
ACAD
1000
HATCH
1002
{
1070
    19
1000
ANSI37
1040
0.15
1040
0.0
1000
R14_HATCH_DATA
1000
A379
1011
1.0
1021
0.0
1031
0.0
1021
0.0
1031
0.0
1011
0.0
1021
1.0
1031
0.0
1021
1.0
1031
0.0
1011
0.0
1021
0.0
1031
1.0
1021
0.0
1031
1.0
1040
0.0
1010
0.0
1020
0.0
1030
1.0
1000
ANSI37
1070
     0
1070
     1
1071
        1
1071
        7
1070
     1
1070
     1
1071
       12
1040
31.64199999996833
1040
2.481619422925121
1040
0.2679491924310942
1040
32.94699999997067
1040
0.2212931190493919
1040
0.2679491924301353
1040
36.36699999995983
1040
0.2212931190459813
1040
0.2679491924321411
1040
37.67199999996831
1040
2.481619422928361
1040
0.0
1040
37.67199999996831
1040
8.763099999991255
1040
0.0
1040
36.23199999996837
1040
8.763099999991255
1040
0.0
1040
36.23199999996837
1040
2.481619422925064
1040
-0.2679491924310291
1040
35.64699999996708
1040
1.468369700498386
1040
-0.267949192430519
1040
33.66699999997093
1040
1.468369700497703
1040
-0.267949192431809
1040
33.08199999996839
1040
2.481619422926997
1040
0.0
1040
33.08199999996839
1040
8.763099999991255
1040
0.0
1040
31.64199999996833
1040
8.763099999991255
1040
0.0
1071
        0
1070
     0
1070
     1
1040
0.0
1040
0.15
1070
     0
1070
     2
1040
0.7853981633974483
1040
49.29960901727088
1040
-10.17736998311392
1040
-0.3367596045400932
1040
0.3367596045400932
1070
     0
1040
2.356194490192345
1040
49.29960901727088
1040
-10.17736998311392
1040
-0.3367596045400932
1040
-0.3367596045400932
1070
     0
1040
0.0110235143455945
1071
        1
1040
32.30357378967278
1040
3.988785755459219
1040
0.0
1002
}
  0
INSERT
  5
A37A
  8
0
  2
*X111
 10
0.0
 20
0.0
 30
0.0
1001
ACAD
1000
HATCH
1002
{
1070
    19
1000
ANSI37
1040
0.15
1040
0.0
1000
ASC_BOUNDS
1070
     1
1070
     2
1070
     8
1005
A35B
1005
A35E
1005
A362
1005
A361
1005
A360
1005
A35D
1005
A35F
1005
A35C
1000
ASC_SEEDPOINT
1011
39.74896370716704
1021
4.484843821435049
1031
0.0
1021
4.484843821435049
1031
0.0
1000
R14_HATCH_DATA
1000
A37A
1011
1.0
1021
0.0
1031
0.0
1021
0.0
1031
0.0
1011
0.0
1021
1.0
1031
0.0
1021
1.0
1031
0.0
1011
0.0
1021
0.0
1031
1.0
1021
0.0
1031
1.0
1040
0.0
1010
0.0
1020
0.0
1030
1.0
1000
ANSI37
1070
     0
1070
     1
1071
        1
1071
        7
1070
     0
1070
     1
1071
        9
1040
40.02599999995994
1040
5.341799999994635
1040
44.99999999995498
1040
-0.2368999999997641
1040
44.99999999995498
1040
8.763099999991255
1040
43.57899999995641
1040
8.763099999991255
1040
43.57899999995641
1040
3.421199999996588
1040
38.60499999996136
1040
8.999899999990987
1040
38.60499999996136
1040
8.999999999991019
1040
38.60499999996136
1040
0.0
1040
40.02599999995994
1040
0.0
1071
        8
1005
A35B
1005
A35E
1005
A362
1005
A361
1005
A360
1005
A35D
1005
A35F
1005
A35C
1070
     0
1070
     1
1040
0.0
1040
0.15
1070
     0
1070
     2
1040
0.7853981633974483
1040
49.29960901727088
1040
-10.17736998311392
1040
-0.3367596045400932
1040
0.3367596045400932
1070
     0
1040
2.356194490192345
1040
49.29960901727088
1040
-10.17736998311392
1040
-0.3367596045400932
1040
-0.3367596045400932
1070
     0
1040
0.0110235143455945
1071
        1
1040
39.74896370716704
1040
4.484843821435049
1040
0.0
1002
}
  0
INSERT
  5
A37B
  8
0
  2
*X112
 10
0.0
 20
0.0
 30
0.0
1001
ACAD
1000
HATCH
1002
{
1070
    19
1000
ANSI37
1040
0.15
1040
0.0
1000
ASC_BOUNDS
1070
     1
1070
     2
1070
     4
1005
A33F
1005
A34E
1005
A340
1005
A342
1000
ASC_SEEDPOINT
1011
1.079051535452663
1021
4.148538732891836
1031
0.0
1021
4.148538732891836
1031
0.0
1000
R14_HATCH_DATA
1000
A37B
1011
1.0
1021
0.0
1031
0.0
1021
0.0
1031
0.0
1011
0.0
1021
1.0
1031
0.0
1021
1.0
1031
0.0
1011
0.0
1021
0.0
1031
1.0
1021
0.0
1031
1.0
1040
0.0
1010
0.0
1020
0.0
1030
1.0
1000
ANSI37
1070
     0
1070
     1
1071
        1
1071
        7
1070
     0
1070
     1
1071
        4
1040
1.420999999998571
1040
0.0
1040
1.420999999998571
1040
8.763099999991255
1040
0.0
1040
8.763099999991255
1040
0.0
1040
0.0
1071
        4
1005
A33F
1005
A34E
1005
A340
1005
A342
1070
     0
1070
     1
1040
0.0
1040
0.15
1070
     0
1070
     2
1040
0.7853981633974483
1040
49.29960901727088
1040
-10.17736998311392
1040
-0.3367596045400932
1040
0.3367596045400932
1070
     0
1040
2.356194490192345
1040
49.29960901727088
1040
-10.17736998311392
1040
-0.3367596045400932
1040
-0.3367596045400932
1070
     0
1040
0.0053004257112761
1071
        1
1040
1.079051535452663
1040
4.148538732891836
1040
0.0
1002
}
  0
ENDBLK
  5
AA57
  8
0
  0
BLOCK
  8
0
  2
*X107
 70
     1
 10
0.0
 20
0.0
 30
0.0
  3
*X107
  1

  0
LINE
  5
B5F1
  8
0
  6
CONTINUOUS
 10
3.418023043697893
 20
7.251849696850613
 30
0.0
 11
4.929273346838536
 21
8.763099999991255
 31
0.0
  0
LINE
  5
B5F2
  8
0
  6
CONTINUOUS
 10
1.483656411257782
 20
4.643963855330318
 30
0.0
 11
5.60279255591872
 21
8.763099999991255
 31
0.0
  0
LINE
  5
B5F3
  8
0
  6
CONTINUOUS
 10
1.755053947328235
 20
4.241842182320584
 30
0.0
 11
6.276311764998907
 21
8.763099999991255
 31
0.0
  0
LINE
  5
B5F4
  8
0
  6
CONTINUOUS
 10
2.026451483398688
 20
3.839720509310849
 30
0.0
 11
4.441040904851878
 21
6.254309930764039
 31
0.0
  0
LINE
  5
B5F5
  8
0
  6
CONTINUOUS
 10
2.297849019469139
 20
3.437598836301114
 30
0.0
 11
3.321765168359338
 21
4.461514985191313
 31
0.0
  0
LINE
  5
B5F6
  8
0
  6
CONTINUOUS
 10
2.569246555539591
 20
3.03547716329138
 30
0.0
 11
3.593163397972743
 21
4.059394005724531
 31
0.0
  0
LINE
  5
B5F7
  8
0
  6
CONTINUOUS
 10
2.840644091610043
 20
2.633355490281646
 30
0.0
 11
3.864561627586149
 21
3.657273026257751
 31
0.0
  0
LINE
  5
B5F8
  8
0
  6
CONTINUOUS
 10
3.112041627680496
 20
2.231233817271911
 30
0.0
 11
4.135959857199554
 21
3.25515204679097
 31
0.0
  0
LINE
  5
B5F9
  8
0
  6
CONTINUOUS
 10
3.383439163750948
 20
1.829112144262177
 30
0.0
 11
4.40735808681296
 21
2.853031067324189
 31
0.0
  0
LINE
  5
B5FA
  8
0
  6
CONTINUOUS
 10
3.654836699821399
 20
1.426990471252442
 30
0.0
 11
4.678756316426365
 21
2.450910087857407
 31
0.0
  0
LINE
  5
B5FB
  8
0
  6
CONTINUOUS
 10
3.926234235891853
 20
1.024868798242709
 30
0.0
 11
4.95015454603977
 21
2.048789108390626
 31
0.0
  0
LINE
  5
B5FC
  8
0
  6
CONTINUOUS
 10
4.197631771962304
 20
0.6227471252329737
 30
0.0
 11
5.221552775653176
 21
1.646668128923846
 31
0.0
  0
LINE
  5
B5FD
  8
0
  6
CONTINUOUS
 10
8.715877546767851
 20
7.835069736359266
 30
0.0
 11
9.435953450375058
 21
8.555145639966472
 31
0.0
  0
LINE
  5
B5FE
  8
0
  6
CONTINUOUS
 10
8.170620868422267
 20
6.616293848933497
 30
0.0
 11
9.644120833743461
 21
8.08979381425469
 31
0.0
  0
LINE
  5
B5FF
  8
0
  6
CONTINUOUS
 10
7.625364190076684
 20
5.397517961507727
 30
0.0
 11
9.852288217111864
 21
7.624441988542907
 31
0.0
  0
LINE
  5
B600
  8
0
  6
CONTINUOUS
 10
7.080107511731101
 20
4.178742074081957
 30
0.0
 11
10.06045560048027
 21
7.159090162831124
 31
0.0
  0
LINE
  5
B601
  8
0
  6
CONTINUOUS
 10
6.534850833385518
 20
2.959966186656187
 30
0.0
 11
10.26862298384867
 21
6.693738337119342
 31
0.0
  0
LINE
  5
B602
  8
0
  6
CONTINUOUS
 10
4.469029308032756
 20
0.2206254522232385
 30
0.0
 11
5.492951005266582
 21
1.244547149457064
 31
0.0
  0
LINE
  5
B603
  8
0
  6
CONTINUOUS
 10
5.989594155039935
 20
1.741190299230417
 30
0.0
 11
8.806950407233131
 21
4.558546551423613
 31
0.0
  0
LINE
  5
B604
  8
0
  6
CONTINUOUS
 10
9.401251593263643
 20
5.152847737454126
 30
0.0
 11
10.47679036721708
 21
6.228386511407559
 31
0.0
  0
LINE
  5
B605
  8
0
  6
CONTINUOUS
 10
4.921837203428691
 20
-0.0000858614610131
 30
0.0
 11
8.592923064886001
 21
3.670999999996297
 31
0.0
  0
LINE
  5
B606
  8
0
  6
CONTINUOUS
 10
9.609390446785305
 20
4.6874673818956
 30
0.0
 11
10.68495775058548
 21
5.763034685695775
 31
0.0
  0
LINE
  5
B607
  8
0
  6
CONTINUOUS
 10
5.595387755019432
 20
-0.0000545189504582
 30
0.0
 11
7.716137258923768
 21
2.120694984953879
 31
0.0
  0
LINE
  5
B608
  8
0
  6
CONTINUOUS
 10
6.268938306610172
 20
-0.000023176439905
 30
0.0
 11
7.170485805526503
 21
0.9015243224764267
 31
0.0
  0
LINE
  5
B609
  8
0
  6
CONTINUOUS
 10
7.963842273967511
 20
2.368399999997621
 30
0.0
 11
9.266442273966188
 21
3.670999999996297
 31
0.0
  0
LINE
  5
B60A
  8
0
  6
CONTINUOUS
 10
8.637361483047696
 20
2.368399999997621
 30
0.0
 11
9.939961483046375
 21
3.670999999996297
 31
0.0
  0
LINE
  5
B60B
  8
0
  6
CONTINUOUS
 10
9.817529300306965
 20
4.222087026337075
 30
0.0
 11
10.89312513395388
 21
5.297682859983993
 31
0.0
  0
LINE
  5
B60C
  8
0
  6
CONTINUOUS
 10
10.02566815382863
 20
3.756706670778549
 30
0.0
 11
11.10129251732229
 21
4.832331034272211
 31
0.0
  0
LINE
  5
B60D
  8
0
  6
CONTINUOUS
 10
9.310880692127883
 20
2.368399999997621
 30
0.0
 11
11.30945990069069
 21
4.366979208560428
 31
0.0
  0
LINE
  5
B60E
  8
0
  6
CONTINUOUS
 10
9.98439990120807
 20
2.36839999999762
 30
0.0
 11
11.5176272840591
 21
3.901627382848645
 31
0.0
  0
LINE
  5
B60F
  8
0
  6
CONTINUOUS
 10
10.65037369446246
 20
2.36085458417182
 30
0.0
 11
11.7257946674275
 21
3.436275557136862
 31
0.0
  0
LINE
  5
B610
  8
0
  6
CONTINUOUS
 10
10.85847197087848
 20
1.895433651507656
 30
0.0
 11
11.9339620507959
 21
2.97092373142508
 31
0.0
  0
LINE
  5
B611
  8
0
  6
CONTINUOUS
 10
11.0665702472945
 20
1.430012718843491
 30
0.0
 11
12.14212943416431
 21
2.505571905713296
 31
0.0
  0
LINE
  5
B612
  8
0
  6
CONTINUOUS
 10
11.27466852371052
 20
0.9645917861793256
 30
0.0
 11
12.35029681753271
 21
2.040220080001513
 31
0.0
  0
LINE
  5
B613
  8
0
  6
CONTINUOUS
 10
11.48276680012654
 20
0.4991708535151611
 30
0.0
 11
12.55846420090111
 21
1.57486825428973
 31
0.0
  0
LINE
  5
B614
  8
0
  6
CONTINUOUS
 10
11.69086507654257
 20
0.0337499208509957
 30
0.0
 11
12.76663158426952
 21
1.109516428577947
 31
0.0
  0
LINE
  5
B615
  8
0
  6
CONTINUOUS
 10
12.33057447873954
 20
-0.0000598860322123
 30
0.0
 11
12.97479896763792
 21
0.6441646028661663
 31
0.0
  0
LINE
  5
B616
  8
0
  6
CONTINUOUS
 10
13.00413694809395
 20
-0.0000166257579952
 30
0.0
 11
13.18296635100632
 21
0.1788127771543824
 31
0.0
  0
LINE
  5
B617
  8
0
  6
CONTINUOUS
 10
4.772852165289667
 20
-0.000092794222212
 30
0.0
 11
4.296495091028902
 21
0.4762642800385528
 31
0.0
  0
LINE
  5
B618
  8
0
  6
CONTINUOUS
 10
5.446340034776103
 20
-0.0000614546284616
 30
0.0
 11
2.898195908335625
 21
2.548082671812017
 31
0.0
  0
LINE
  5
B619
  8
0
  6
CONTINUOUS
 10
6.119827904262539
 20
-0.0000301150347113
 30
0.0
 11
1.499896725642348
 21
4.61990106358548
 31
0.0
  0
LINE
  5
B61A
  8
0
  6
CONTINUOUS
 10
6.775136745476159
 20
0.0181802528318542
 30
0.0
 11
5.699826040202669
 21
1.093490958105344
 31
0.0
  0
LINE
  5
B61B
  8
0
  6
CONTINUOUS
 10
6.983376846288489
 20
0.4834593610997118
 30
0.0
 11
5.908008617934405
 21
1.558827589453796
 31
0.0
  0
LINE
  5
B61C
  8
0
  6
CONTINUOUS
 10
5.377063484962296
 20
1.416253513345719
 30
0.0
 11
1.702276957014131
 21
5.091040041293883
 31
0.0
  0
LINE
  5
B61D
  8
0
  6
CONTINUOUS
 10
3.978745891735324
 20
3.488090315652877
 30
0.0
 11
2.000373521109399
 21
5.466462686278803
 31
0.0
  0
LINE
  5
B61E
  8
0
  6
CONTINUOUS
 10
7.191616947100819
 20
0.948738469367568
 30
0.0
 11
6.11619119566614
 21
2.024164220802247
 31
0.0
  0
LINE
  5
B61F
  8
0
  6
CONTINUOUS
 10
7.399857047913149
 20
1.414017577635424
 30
0.0
 11
6.324373773397875
 21
2.489500852150698
 31
0.0
  0
LINE
  5
B620
  8
0
  6
CONTINUOUS
 10
7.608097148725479
 20
1.879296685903281
 30
0.0
 11
6.53255635112961
 21
2.95483748349915
 31
0.0
  0
LINE
  5
B621
  8
0
  6
CONTINUOUS
 10
7.816337249537808
 20
2.344575794171138
 30
0.0
 11
6.740738928861345
 21
3.420174114847601
 31
0.0
  0
LINE
  5
B622
  8
0
  6
CONTINUOUS
 10
3.310241080789734
 20
4.830114335678653
 30
0.0
 11
2.298470085204666
 21
5.84188533126372
 31
0.0
  0
LINE
  5
B623
  8
0
  6
CONTINUOUS
 10
3.60832983563551
 20
5.205544789913063
 30
0.0
 11
2.596566649299935
 21
6.217307976248638
 31
0.0
  0
LINE
  5
B624
  8
0
  6
CONTINUOUS
 10
3.906418590481286
 20
5.580975244147473
 30
0.0
 11
2.894663213395203
 21
6.592730621233557
 31
0.0
  0
LINE
  5
B625
  8
0
  6
CONTINUOUS
 10
4.204507345327062
 20
5.956405698381884
 30
0.0
 11
3.192759777490472
 21
6.968153266218474
 31
0.0
  0
LINE
  5
B626
  8
0
  6
CONTINUOUS
 10
8.466032252791512
 20
2.368399999997621
 30
0.0
 11
6.948921506593081
 21
3.885510746196053
 31
0.0
  0
LINE
  5
B627
  8
0
  6
CONTINUOUS
 10
9.139551461871699
 20
2.36839999999762
 30
0.0
 11
7.157104084324816
 21
4.350847377544504
 31
0.0
  0
LINE
  5
B628
  8
0
  6
CONTINUOUS
 10
4.502596100172839
 20
6.331836152616295
 30
0.0
 11
3.49085634158574
 21
7.343575911203393
 31
0.0
  0
LINE
  5
B629
  8
0
  6
CONTINUOUS
 10
4.800684855018615
 20
6.707266606850705
 30
0.0
 11
3.788952905681008
 21
7.718998556188312
 31
0.0
  0
LINE
  5
B62A
  8
0
  6
CONTINUOUS
 10
12.18154012887317
 20
-0.0000694579236642
 30
0.0
 11
11.32140332908496
 21
0.8600673418645499
 31
0.0
  0
LINE
  5
B62B
  8
0
  6
CONTINUOUS
 10
12.85501608323566
 20
-0.0000262032059659
 30
0.0
 11
10.77672456435345
 21
2.078265315676246
 31
0.0
  0
LINE
  5
B62C
  8
0
  6
CONTINUOUS
 10
9.813070670951886
 20
2.36839999999762
 30
0.0
 11
8.51047067095321
 21
3.670999999996297
 31
0.0
  0
LINE
  5
B62D
  8
0
  6
CONTINUOUS
 10
10.48658988003207
 20
2.36839999999762
 30
0.0
 11
9.183989880033396
 21
3.670999999996297
 31
0.0
  0
LINE
  5
B62E
  8
0
  6
CONTINUOUS
 10
8.441048632286794
 20
3.740422038662712
 30
0.0
 11
7.365286662056551
 21
4.816184008892956
 31
0.0
  0
LINE
  5
B62F
  8
0
  6
CONTINUOUS
 10
8.649187485808454
 20
4.205802394221237
 30
0.0
 11
7.573469239788285
 21
5.281520640241407
 31
0.0
  0
LINE
  5
B630
  8
0
  6
CONTINUOUS
 10
5.098773609864391
 20
7.082697061085115
 30
0.0
 11
4.087049469776277
 21
8.09442120117323
 31
0.0
  0
LINE
  5
B631
  8
0
  6
CONTINUOUS
 10
5.396862364710167
 20
7.458127515319526
 30
0.0
 11
4.385146033871544
 21
8.469843846158149
 31
0.0
  0
LINE
  5
B632
  8
0
  6
CONTINUOUS
 10
13.04801363231285
 20
0.4804954567970334
 30
0.0
 11
9.85750908911358
 21
3.670999999996297
 31
0.0
  0
LINE
  5
B633
  8
0
  6
CONTINUOUS
 10
8.857326339330116
 20
4.671182749779763
 30
0.0
 11
7.781651817520021
 21
5.746857271589858
 31
0.0
  0
LINE
  5
B634
  8
0
  6
CONTINUOUS
 10
5.694951119555943
 20
7.833557969553937
 30
0.0
 11
4.765409089118624
 21
8.763099999991255
 31
0.0
  0
LINE
  5
B635
  8
0
  6
CONTINUOUS
 10
12.50286117236978
 20
1.699167125820288
 30
0.0
 11
9.68611877250287
 21
4.515909525687196
 31
0.0
  0
LINE
  5
B636
  8
0
  6
CONTINUOUS
 10
9.065465192851777
 20
5.136563105338288
 30
0.0
 11
7.989834395251757
 21
6.21219390293831
 31
0.0
  0
LINE
  5
B637
  8
0
  6
CONTINUOUS
 10
5.993039874401719
 20
8.208988423788346
 30
0.0
 11
5.43892829819881
 21
8.763099999991255
 31
0.0
  0
LINE
  5
B638
  8
0
  6
CONTINUOUS
 10
11.95770871242671
 20
2.917838794843543
 30
0.0
 11
8.19801697298349
 21
6.677530534286761
 31
0.0
  0
LINE
  5
B639
  8
0
  6
CONTINUOUS
 10
6.291128629247495
 20
8.584418878022756
 30
0.0
 11
6.112447507278997
 21
8.763099999991255
 31
0.0
  0
LINE
  5
B63A
  8
0
  6
CONTINUOUS
 10
11.41255625248364
 20
4.136510463866797
 30
0.0
 11
8.406199550715227
 21
7.142867165635211
 31
0.0
  0
LINE
  5
B63B
  8
0
  6
CONTINUOUS
 10
10.86740379254057
 20
5.355182132890051
 30
0.0
 11
8.614382128446962
 21
7.608203796983664
 31
0.0
  0
LINE
  5
B63C
  8
0
  6
CONTINUOUS
 10
10.3222513325975
 20
6.573853801913305
 30
0.0
 11
8.822564706178696
 21
8.073540428332114
 31
0.0
  0
LINE
  5
B63D
  8
0
  6
CONTINUOUS
 10
9.777098872654436
 20
7.792525470936562
 30
0.0
 11
9.030747283910433
 21
8.538877059680566
 31
0.0
  0
ENDBLK
  5
B77F
  8
0
  0
BLOCK
  8
0
  2
*X108
 70
     1
 10
0.0
 20
0.0
 30
0.0
  3
*X108
  1

  0
LINE
  5
B63F
  8
0
  6
CONTINUOUS
 10
10.67292308101235
 20
8.445076852443387
 30
0.0
 11
10.99094622856022
 21
8.763099999991255
 31
0.0
  0
LINE
  5
B640
  8
0
  6
CONTINUOUS
 10
10.87250383178748
 20
7.971138394138331
 30
0.0
 11
11.6644654376404
 21
8.763099999991255
 31
0.0
  0
LINE
  5
B641
  8
0
  6
CONTINUOUS
 10
11.07208458256261
 20
7.497199935833273
 30
0.0
 11
12.12126590876355
 21
8.546381262034211
 31
0.0
  0
LINE
  5
B642
  8
0
  6
CONTINUOUS
 10
11.27166533333774
 20
7.023261477528216
 30
0.0
 11
12.32085164573666
 21
8.072447789927136
 31
0.0
  0
LINE
  5
B643
  8
0
  6
CONTINUOUS
 10
11.47124608411287
 20
6.549323019223158
 30
0.0
 11
12.52043738270977
 21
7.59851431782006
 31
0.0
  0
LINE
  5
B644
  8
0
  6
CONTINUOUS
 10
11.670826834888
 20
6.075384560918101
 30
0.0
 11
12.72002311968288
 21
7.124580845712984
 31
0.0
  0
LINE
  5
B645
  8
0
  6
CONTINUOUS
 10
11.87040758566313
 20
5.601446102613043
 30
0.0
 11
12.91960885665599
 21
6.650647373605907
 31
0.0
  0
LINE
  5
B646
  8
0
  6
CONTINUOUS
 10
12.06998833643825
 20
5.127507644307986
 30
0.0
 11
13.1191945936291
 21
6.176713901498832
 31
0.0
  0
LINE
  5
B647
  8
0
  6
CONTINUOUS
 10
12.26956908721338
 20
4.65356918600293
 30
0.0
 11
13.31878033060221
 21
5.702780429391757
 31
0.0
  0
LINE
  5
B648
  8
0
  6
CONTINUOUS
 10
12.46914983798851
 20
4.179630727697873
 30
0.0
 11
13.51836606757532
 21
5.228846957284683
 31
0.0
  0
LINE
  5
B649
  8
0
  6
CONTINUOUS
 10
12.66873058876364
 20
3.705692269392816
 30
0.0
 11
13.71795180454843
 21
4.754913485177607
 31
0.0
  0
LINE
  5
B64A
  8
0
  6
CONTINUOUS
 10
12.86831133953877
 20
3.231753811087759
 30
0.0
 11
13.91753754152154
 21
4.280980013070531
 31
0.0
  0
LINE
  5
B64B
  8
0
  6
CONTINUOUS
 10
13.0678920903139
 20
2.757815352782702
 30
0.0
 11
14.11712327849465
 21
3.807046540963456
 31
0.0
  0
LINE
  5
B64C
  8
0
  6
CONTINUOUS
 10
13.26747284108903
 20
2.283876894477644
 30
0.0
 11
14.31670901546777
 21
3.333113068856379
 31
0.0
  0
LINE
  5
B64D
  8
0
  6
CONTINUOUS
 10
16.36767838827179
 20
8.751678487061342
 30
0.0
 11
16.50332410898388
 21
8.887324207773432
 31
0.0
  0
LINE
  5
B64E
  8
0
  6
CONTINUOUS
 10
15.96190732182191
 20
7.67238821153127
 30
0.0
 11
16.68735328004734
 21
8.397834169756699
 31
0.0
  0
LINE
  5
B64F
  8
0
  6
CONTINUOUS
 10
15.55613625537202
 20
6.593097936001196
 30
0.0
 11
16.87138245111079
 21
7.908344131739965
 31
0.0
  0
LINE
  5
B650
  8
0
  6
CONTINUOUS
 10
15.15036518892213
 20
5.513807660471122
 30
0.0
 11
17.05541162217424
 21
7.418854093723231
 31
0.0
  0
LINE
  5
B651
  8
0
  6
CONTINUOUS
 10
14.74459412247225
 20
4.434517384941048
 30
0.0
 11
17.2394407932377
 21
6.929364055706499
 31
0.0
  0
LINE
  5
B652
  8
0
  6
CONTINUOUS
 10
14.33882305602236
 20
3.355227109410975
 30
0.0
 11
17.42346996430115
 21
6.439874017689766
 31
0.0
  0
LINE
  5
B653
  8
0
  6
CONTINUOUS
 10
13.46705359186416
 20
1.809938436172586
 30
0.0
 11
16.0819338255367
 21
4.424818669845129
 31
0.0
  0
LINE
  5
B654
  8
0
  6
CONTINUOUS
 10
16.63283254238972
 20
4.975717386698149
 30
0.0
 11
17.60749913536461
 21
5.950383979673033
 31
0.0
  0
LINE
  5
B655
  8
0
  6
CONTINUOUS
 10
13.66663434263929
 20
1.335999977867529
 30
0.0
 11
15.67604797733754
 21
3.345413612565779
 31
0.0
  0
LINE
  5
B656
  8
0
  6
CONTINUOUS
 10
13.86621509341442
 20
0.8620615195624723
 30
0.0
 11
15.27016212913838
 21
2.26600855528643
 31
0.0
  0
LINE
  5
B657
  8
0
  6
CONTINUOUS
 10
16.81682257348267
 20
4.486188208710908
 30
0.0
 11
17.79152830642806
 21
5.460893941656299
 31
0.0
  0
LINE
  5
B658
  8
0
  6
CONTINUOUS
 10
17.00081260457561
 20
3.996659030723667
 30
0.0
 11
17.97555747749151
 21
4.971403903639565
 31
0.0
  0
LINE
  5
B659
  8
0
  6
CONTINUOUS
 10
20.74362343514722
 20
8.412989070375462
 30
0.0
 11
21.09373436476302
 21
8.763099999991256
 31
0.0
  0
LINE
  5
B65A
  8
0
  6
CONTINUOUS
 10
20.25401257174777
 20
7.249858997895826
 30
0.0
 11
21.7672535738432
 21
8.763099999991255
 31
0.0
  0
LINE
  5
B65B
  8
0
  6
CONTINUOUS
 10
14.06579584418955
 20
0.3881230612574149
 30
0.0
 11
14.86427628093921
 21
1.186603498007082
 31
0.0
  0
LINE
  5
B65C
  8
0
  6
CONTINUOUS
 10
14.26537659496467
 20
-0.0858153970476412
 30
0.0
 11
14.45839043274005
 21
0.1071984407277329
 31
0.0
  0
LINE
  5
B65D
  8
0
  6
CONTINUOUS
 10
17.18480263566856
 20
3.507129852736426
 30
0.0
 11
18.15958664855496
 21
4.481913865622833
 31
0.0
  0
LINE
  5
B65E
  8
0
  6
CONTINUOUS
 10
17.3687926667615
 20
3.017600674749186
 30
0.0
 11
18.34361581961842
 21
3.9924238276061
 31
0.0
  0
LINE
  5
B65F
  8
0
  6
CONTINUOUS
 10
19.76440170834832
 20
6.086728925416191
 30
0.0
 11
22.33924590259489
 21
8.661573119662755
 31
0.0
  0
LINE
  5
B660
  8
0
  6
CONTINUOUS
 10
19.27479084494887
 20
4.923598852936555
 30
0.0
 11
21.84929622842713
 21
7.498104236414807
 31
0.0
  0
LINE
  5
B661
  8
0
  6
CONTINUOUS
 10
17.55278269785445
 20
2.528071496761945
 30
0.0
 11
18.52764499068187
 21
3.502933789589366
 31
0.0
  0
LINE
  5
B662
  8
0
  6
CONTINUOUS
 10
18.78517998154942
 20
3.760468780456919
 30
0.0
 11
21.35934655425936
 21
6.33463535316686
 31
0.0
  0
LINE
  5
B663
  8
0
  6
CONTINUOUS
 10
17.73677272894739
 20
2.038542318774704
 30
0.0
 11
20.8693968800916
 21
5.171166469918914
 31
0.0
  0
LINE
  5
B664
  8
0
  6
CONTINUOUS
 10
17.92076276004034
 20
1.549013140787464
 30
0.0
 11
20.37944720592384
 21
4.007697586670968
 31
0.0
  0
LINE
  5
B665
  8
0
  6
CONTINUOUS
 10
18.10475279113329
 20
1.059483962800223
 30
0.0
 11
19.88949753175608
 21
2.84422870342302
 31
0.0
  0
LINE
  5
B666
  8
0
  6
CONTINUOUS
 10
18.28874282222623
 20
0.5699547848129822
 30
0.0
 11
19.39954785758832
 21
1.680759820175074
 31
0.0
  0
LINE
  5
B667
  8
0
  6
CONTINUOUS
 10
18.47273285331918
 20
0.0804256068257416
 30
0.0
 11
18.90959818342056
 21
0.517290936927127
 31
0.0
  0
LINE
  5
B668
  8
0
  6
CONTINUOUS
 10
14.3590401358224
 20
-0.1570118376323384
 30
0.0
 11
14.24903296539946
 21
-0.0470046672093929
 31
0.0
  0
LINE
  5
B669
  8
0
  6
CONTINUOUS
 10
14.54309291258661
 20
0.332454594683643
 30
0.0
 11
13.75908329123172
 21
1.116464216038529
 31
0.0
  0
LINE
  5
B66A
  8
0
  6
CONTINUOUS
 10
14.72714568935081
 20
0.8219210269996244
 30
0.0
 11
13.26913361706399
 21
2.27993309928645
 31
0.0
  0
LINE
  5
B66B
  8
0
  6
CONTINUOUS
 10
14.91119846611502
 20
1.311387459315606
 30
0.0
 11
12.77918394289625
 21
3.443401982534371
 31
0.0
  0
LINE
  5
B66C
  8
0
  6
CONTINUOUS
 10
15.09525124287922
 20
1.800853891631587
 30
0.0
 11
12.28923426872852
 21
4.606870865782293
 31
0.0
  0
LINE
  5
B66D
  8
0
  6
CONTINUOUS
 10
15.27930401964343
 20
2.290320323947569
 30
0.0
 11
11.79928459456078
 21
5.770339749030213
 31
0.0
  0
LINE
  5
B66E
  8
0
  6
CONTINUOUS
 10
15.46335679640763
 20
2.77978675626355
 30
0.0
 11
14.48885470994921
 21
3.754288842721972
 31
0.0
  0
LINE
  5
B66F
  8
0
  6
CONTINUOUS
 10
13.88507249233704
 20
4.358071060334137
 30
0.0
 11
11.30933492039305
 21
6.933808632278135
 31
0.0
  0
LINE
  5
B670
  8
0
  6
CONTINUOUS
 10
18.75840522805855
 20
0.1582575336928151
 30
0.0
 11
18.25383727664818
 21
0.6628254851031863
 31
0.0
  0
LINE
  5
B671
  8
0
  6
CONTINUOUS
 10
15.64740957317184
 20
3.269253188579531
 30
0.0
 11
14.67288388101266
 21
4.243778880738705
 31
0.0
  0
LINE
  5
B672
  8
0
  6
CONTINUOUS
 10
13.39509276772158
 20
5.521569994029786
 30
0.0
 11
10.81938524622531
 21
8.097277515526056
 31
0.0
  0
LINE
  5
B673
  8
0
  6
CONTINUOUS
 10
18.95798597883369
 20
0.6321959919978686
 30
0.0
 11
17.84825644852853
 21
1.741925522303024
 31
0.0
  0
LINE
  5
B674
  8
0
  6
CONTINUOUS
 10
19.15756672960882
 20
1.106134450302922
 30
0.0
 11
17.44267562040888
 21
2.821025559502861
 31
0.0
  0
LINE
  5
B675
  8
0
  6
CONTINUOUS
 10
15.83146234993604
 20
3.758719620895513
 30
0.0
 11
14.85691305207612
 21
4.733268918755439
 31
0.0
  0
LINE
  5
B676
  8
0
  6
CONTINUOUS
 10
16.01551512670025
 20
4.248186053211494
 30
0.0
 11
15.04094222313957
 21
5.222758956772172
 31
0.0
  0
LINE
  5
B677
  8
0
  6
CONTINUOUS
 10
12.90511304310612
 20
6.685068927725435
 30
0.0
 11
10.8270819708403
 21
8.763099999991255
 31
0.0
  0
LINE
  5
B678
  8
0
  6
CONTINUOUS
 10
12.41513331849066
 20
7.848567861421083
 30
0.0
 11
11.50060117992049
 21
8.763099999991255
 31
0.0
  0
LINE
  5
B679
  8
0
  6
CONTINUOUS
 10
19.35714748038395
 20
1.580072908607975
 30
0.0
 11
17.03709479228923
 21
3.900125596702697
 31
0.0
  0
LINE
  5
B67A
  8
0
  6
CONTINUOUS
 10
19.55672823115909
 20
2.054011366913028
 30
0.0
 11
16.63151396416958
 21
4.979225633902534
 31
0.0
  0
LINE
  5
B67B
  8
0
  6
CONTINUOUS
 10
16.19956790346445
 20
4.737652485527476
 30
0.0
 11
15.22497139420302
 21
5.712248994788904
 31
0.0
  0
LINE
  5
B67C
  8
0
  6
CONTINUOUS
 10
16.38362068022866
 20
5.227118917843457
 30
0.0
 11
15.40900056526648
 21
6.201739032805637
 31
0.0
  0
LINE
  5
B67D
  8
0
  6
CONTINUOUS
 10
19.75630898193422
 20
2.527949825218081
 30
0.0
 11
18.70774536448286
 21
3.576513442669441
 31
0.0
  0
LINE
  5
B67E
  8
0
  6
CONTINUOUS
 10
19.95588973270936
 20
3.001888283523134
 30
0.0
 11
18.90726987211446
 21
4.050508144118028
 31
0.0
  0
LINE
  5
B67F
  8
0
  6
CONTINUOUS
 10
20.15547048348449
 20
3.475826741828186
 30
0.0
 11
19.10679437974606
 21
4.524502845566614
 31
0.0
  0
LINE
  5
B680
  8
0
  6
CONTINUOUS
 10
20.35505123425962
 20
3.94976520013324
 30
0.0
 11
19.30631888737766
 21
4.998497547015201
 31
0.0
  0
LINE
  5
B681
  8
0
  6
CONTINUOUS
 10
20.55463198503475
 20
4.423703658438292
 30
0.0
 11
19.50584339500926
 21
5.472492248463787
 31
0.0
  0
LINE
  5
B682
  8
0
  6
CONTINUOUS
 10
18.37481191085755
 20
3.909446896294752
 30
0.0
 11
15.59302973632993
 21
6.691229070822371
 31
0.0
  0
LINE
  5
B683
  8
0
  6
CONTINUOUS
 10
17.96904084440766
 20
4.988737171824825
 30
0.0
 11
15.77705890739338
 21
7.180719108839104
 31
0.0
  0
LINE
  5
B684
  8
0
  6
CONTINUOUS
 10
17.56326977795777
 20
6.068027447354899
 30
0.0
 11
15.96108807845684
 21
7.670209146855838
 31
0.0
  0
LINE
  5
B685
  8
0
  6
CONTINUOUS
 10
17.15749871150789
 20
7.147317722884972
 30
0.0
 11
16.14511724952029
 21
8.15969918487257
 31
0.0
  0
LINE
  5
B686
  8
0
  6
CONTINUOUS
 10
16.751727645058
 20
8.226607998415046
 30
0.0
 11
16.32914642058374
 21
8.649189222889303
 31
0.0
  0
LINE
  5
B687
  8
0
  6
CONTINUOUS
 10
20.75421273580989
 20
4.897642116743345
 30
0.0
 11
19.70536790264086
 21
5.946486949912374
 31
0.0
  0
LINE
  5
B688
  8
0
  6
CONTINUOUS
 10
20.95379348658502
 20
5.371580575048398
 30
0.0
 11
19.90489241027246
 21
6.42048165136096
 31
0.0
  0
LINE
  5
B689
  8
0
  6
CONTINUOUS
 10
21.15337423736015
 20
5.845519033353452
 30
0.0
 11
20.10441691790406
 21
6.894476352809547
 31
0.0
  0
LINE
  5
B68A
  8
0
  6
CONTINUOUS
 10
21.35295498813529
 20
6.319457491658505
 30
0.0
 11
20.30394142553566
 21
7.368471054258134
 31
0.0
  0
LINE
  5
B68B
  8
0
  6
CONTINUOUS
 10
21.55253573891042
 20
6.793395949963558
 30
0.0
 11
20.50346593316726
 21
7.842465755706721
 31
0.0
  0
LINE
  5
B68C
  8
0
  6
CONTINUOUS
 10
21.75211648968556
 20
7.267334408268612
 30
0.0
 11
20.70299044079886
 21
8.316460457155308
 31
0.0
  0
LINE
  5
B68D
  8
0
  6
CONTINUOUS
 10
21.95169724046069
 20
7.741272866573663
 30
0.0
 11
20.9298701070431
 21
8.763099999991256
 31
0.0
  0
LINE
  5
B68E
  8
0
  6
CONTINUOUS
 10
22.15127799123582
 20
8.215211324878716
 30
0.0
 11
21.60338931612328
 21
8.763099999991256
 31
0.0
  0
LINE
  5
B68F
  8
0
  6
CONTINUOUS
 10
22.35085874201096
 20
8.689149783183769
 30
0.0
 11
22.27690852520347
 21
8.763099999991255
 31
0.0
  0
ENDBLK
  5
B781
  8
0
  0
BLOCK
  8
0
  2
*X109
 70
     1
 10
0.0
 20
0.0
 30
0.0
  3
*X109
  1

  0
LINE
  5
B691
  8
0
  6
CONTINUOUS
 10
23.19462913593892
 20
8.169917934846424
 30
0.0
 11
23.70775465517246
 21
8.683043454079957
 31
0.0
  0
LINE
  5
B692
  8
0
  6
CONTINUOUS
 10
22.64923161835078
 20
6.951001208178088
 30
0.0
 11
23.9159364069932
 21
8.217705996820516
 31
0.0
  0
LINE
  5
B693
  8
0
  6
CONTINUOUS
 10
22.10383410076263
 20
5.732084481509751
 30
0.0
 11
24.12411815881395
 21
7.752368539561078
 31
0.0
  0
LINE
  5
B694
  8
0
  6
CONTINUOUS
 10
21.55843658317447
 20
4.513167754841414
 30
0.0
 11
24.3322999106347
 21
7.287031082301639
 31
0.0
  0
LINE
  5
B695
  8
0
  6
CONTINUOUS
 10
21.01303906558632
 20
3.294251028173077
 30
0.0
 11
24.54048166245544
 21
6.821693625042199
 31
0.0
  0
LINE
  5
B696
  8
0
  6
CONTINUOUS
 10
20.46764154799817
 20
2.075334301504738
 30
0.0
 11
23.28571549467848
 21
4.89340824818505
 31
0.0
  0
LINE
  5
B697
  8
0
  6
CONTINUOUS
 10
19.92224403041002
 20
0.8564175748364002
 30
0.0
 11
22.74075865492779
 21
3.674932199354171
 31
0.0
  0
LINE
  5
B698
  8
0
  6
CONTINUOUS
 10
23.67305085490148
 20
5.280743608408048
 30
0.0
 11
24.74866341427619
 21
6.356356167782759
 31
0.0
  0
LINE
  5
B699
  8
0
  6
CONTINUOUS
 10
23.88118970842314
 20
4.815363252849522
 30
0.0
 11
24.95684516609694
 21
5.89101871052332
 31
0.0
  0
LINE
  5
B69A
  8
0
  6
CONTINUOUS
 10
19.73925852647308
 20
-0.0000871381807288
 30
0.0
 11
23.4103456646501
 21
3.670999999996297
 31
0.0
  0
LINE
  5
B69B
  8
0
  6
CONTINUOUS
 10
24.0893285619448
 20
4.349982897290997
 30
0.0
 11
25.16502691791769
 21
5.42568125326388
 31
0.0
  0
LINE
  5
B69C
  8
0
  6
CONTINUOUS
 10
20.41282099582748
 20
-0.0000438779065108
 30
0.0
 11
21.64944178675636
 21
1.236576913022366
 31
0.0
  0
LINE
  5
B69D
  8
0
  6
CONTINUOUS
 10
22.78126487373161
 20
2.36839999999762
 30
0.0
 11
24.08386487373029
 21
3.670999999996297
 31
0.0
  0
LINE
  5
B69E
  8
0
  6
CONTINUOUS
 10
24.29746741546646
 20
3.884602541732471
 30
0.0
 11
25.37320866973843
 21
4.960343796004441
 31
0.0
  0
LINE
  5
B69F
  8
0
  6
CONTINUOUS
 10
21.08638346518189
 20
-0.0000006176322938
 30
0.0
 11
21.10379033335899
 21
0.0174062505448083
 31
0.0
  0
LINE
  5
B6A0
  8
0
  6
CONTINUOUS
 10
23.4547840828118
 20
2.36839999999762
 30
0.0
 11
25.58139042155918
 21
4.495006338745002
 31
0.0
  0
LINE
  5
B6A1
  8
0
  6
CONTINUOUS
 10
29.30199999996933
 20
8.215615917155148
 30
0.0
 11
29.84948408280543
 21
8.763099999991255
 31
0.0
  0
LINE
  5
B6A2
  8
0
  6
CONTINUOUS
 10
24.12830329189199
 20
2.36839999999762
 30
0.0
 11
25.78957217337993
 21
4.029668881485562
 31
0.0
  0
LINE
  5
B6A3
  8
0
  6
CONTINUOUS
 10
29.30199999996933
 20
7.54209670807496
 30
0.0
 11
30.52300329188562
 21
8.763099999991255
 31
0.0
  0
LINE
  5
B6A4
  8
0
  6
CONTINUOUS
 10
24.80182250097217
 20
2.36839999999762
 30
0.0
 11
25.99775392520067
 21
3.564331424226122
 31
0.0
  0
LINE
  5
B6A5
  8
0
  6
CONTINUOUS
 10
29.30199999996933
 20
6.868577498994774
 30
0.0
 11
30.74199999996926
 21
8.308577498994712
 31
0.0
  0
LINE
  5
B6A6
  8
0
  6
CONTINUOUS
 10
25.13028238392013
 20
2.023340673865392
 30
0.0
 11
26.20593567702142
 21
3.098993966966683
 31
0.0
  0
LINE
  5
B6A7
  8
0
  6
CONTINUOUS
 10
25.33838066033617
 20
1.557919741201244
 30
0.0
 11
26.41411742884217
 21
2.633656509707244
 31
0.0
  0
LINE
  5
B6A8
  8
0
  6
CONTINUOUS
 10
25.54647893675221
 20
1.092498808537098
 30
0.0
 11
26.62229918066291
 21
2.168319052447804
 31
0.0
  0
LINE
  5
B6A9
  8
0
  6
CONTINUOUS
 10
25.75457721316825
 20
0.62707787587295
 30
0.0
 11
26.83048093248366
 21
1.702981595188365
 31
0.0
  0
LINE
  5
B6AA
  8
0
  6
CONTINUOUS
 10
29.30199999996933
 20
6.195058289914587
 30
0.0
 11
30.74199999996926
 21
7.635058289914522
 31
0.0
  0
LINE
  5
B6AB
  8
0
  6
CONTINUOUS
 10
29.30199999996933
 20
5.521539080834401
 30
0.0
 11
30.74199999996926
 21
6.961539080834331
 31
0.0
  0
LINE
  5
B6AC
  8
0
  6
CONTINUOUS
 10
29.30199999996933
 20
4.848019871754214
 30
0.0
 11
30.74199999996925
 21
6.288019871754143
 31
0.0
  0
LINE
  5
B6AD
  8
0
  6
CONTINUOUS
 10
29.30199999996933
 20
4.174500662674028
 30
0.0
 11
30.74199999996925
 21
5.614500662673953
 31
0.0
  0
LINE
  5
B6AE
  8
0
  6
CONTINUOUS
 10
25.96267548958429
 20
0.1616569432088024
 30
0.0
 11
27.18411854636669
 21
1.383099999991207
 31
0.0
  0
LINE
  5
B6AF
  8
0
  6
CONTINUOUS
 10
29.30199999996933
 20
3.500981453593841
 30
0.0
 11
30.74199999996925
 21
4.940981453593762
 31
0.0
  0
LINE
  5
B6B0
  8
0
  6
CONTINUOUS
 10
26.50763775544691
 20
0.0330999999912356
 30
0.0
 11
27.85763775544689
 21
1.383099999991223
 31
0.0
  0
LINE
  5
B6B1
  8
0
  6
CONTINUOUS
 10
29.30199999996933
 20
2.827462244513656
 30
0.0
 11
30.74199999996925
 21
4.267462244513574
 31
0.0
  0
LINE
  5
B6B2
  8
0
  6
CONTINUOUS
 10
27.18115696452709
 20
0.0330999999912356
 30
0.0
 11
28.6224847300034
 21
1.474427765467545
 31
0.0
  0
LINE
  5
B6B3
  8
0
  6
CONTINUOUS
 10
29.21067223449293
 20
2.062615269957069
 30
0.0
 11
30.74199999996924
 21
3.593943035433383
 31
0.0
  0
LINE
  5
B6B4
  8
0
  6
CONTINUOUS
 10
27.85467617360728
 20
0.0330999999912356
 30
0.0
 11
30.74199999996924
 21
2.920423826353195
 31
0.0
  0
LINE
  5
B6B5
  8
0
  6
CONTINUOUS
 10
28.57438609860264
 20
0.0792907159064073
 30
0.0
 11
30.69580928405405
 21
2.200713901357819
 31
0.0
  0
LINE
  5
B6B6
  8
0
  6
CONTINUOUS
 10
29.49443044814297
 20
0.3258158563665496
 30
0.0
 11
30.44928414359389
 21
1.280669551817477
 31
0.0
  0
LINE
  5
B6B7
  8
0
  6
CONTINUOUS
 10
19.59027867740337
 20
-0.0000967065718083
 30
0.0
 11
19.55485265190471
 21
0.035329318926844
 31
0.0
  0
LINE
  5
B6B8
  8
0
  6
CONTINUOUS
 10
20.26375463176586
 20
-0.0000534518541091
 30
0.0
 11
19.76305575737534
 21
0.5006454225364014
 31
0.0
  0
LINE
  5
B6B9
  8
0
  6
CONTINUOUS
 10
20.93723058612834
 20
-0.0000101971364099
 30
0.0
 11
19.97125886284597
 21
0.965961526145958
 31
0.0
  0
LINE
  5
B6BA
  8
0
  6
CONTINUOUS
 10
21.25514828313686
 20
0.355591314935257
 30
0.0
 11
20.1794619683166
 21
1.431277629755512
 31
0.0
  0
LINE
  5
B6BB
  8
0
  6
CONTINUOUS
 10
21.46338838394921
 20
0.8208704232030986
 30
0.0
 11
20.38766507378723
 21
1.896593733365069
 31
0.0
  0
LINE
  5
B6BC
  8
0
  6
CONTINUOUS
 10
21.67162848476155
 20
1.28614953147094
 30
0.0
 11
20.59586817925786
 21
2.361909836974626
 31
0.0
  0
LINE
  5
B6BD
  8
0
  6
CONTINUOUS
 10
21.8798685855739
 20
1.751428639738782
 30
0.0
 11
20.80407128472849
 21
2.827225940584183
 31
0.0
  0
LINE
  5
B6BE
  8
0
  6
CONTINUOUS
 10
22.08810868638624
 20
2.216707748006623
 30
0.0
 11
21.01227439019912
 21
3.292542044193739
 31
0.0
  0
LINE
  5
B6BF
  8
0
  6
CONTINUOUS
 10
22.60993564347543
 20
2.36839999999762
 30
0.0
 11
21.22047749566975
 21
3.757858147803296
 31
0.0
  0
LINE
  5
B6C0
  8
0
  6
CONTINUOUS
 10
23.28345485255561
 20
2.36839999999762
 30
0.0
 11
21.42868060114038
 21
4.223174251412853
 31
0.0
  0
LINE
  5
B6C1
  8
0
  6
CONTINUOUS
 10
26.29227406164219
 20
0.0330999999912356
 30
0.0
 11
25.80009199592872
 21
0.5252820657046957
 31
0.0
  0
LINE
  5
B6C2
  8
0
  6
CONTINUOUS
 10
23.9569740616358
 20
2.36839999999762
 30
0.0
 11
21.63688370661101
 21
4.688490355022409
 31
0.0
  0
LINE
  5
B6C3
  8
0
  6
CONTINUOUS
 10
26.96579327072237
 20
0.0330999999912356
 30
0.0
 11
25.2554132311971
 21
1.743480039516508
 31
0.0
  0
LINE
  5
B6C4
  8
0
  6
CONTINUOUS
 10
24.63049327071599
 20
2.36839999999762
 30
0.0
 11
23.32789327071731
 21
3.670999999996297
 31
0.0
  0
LINE
  5
B6C5
  8
0
  6
CONTINUOUS
 10
22.92098674744635
 20
4.077906523267254
 30
0.0
 11
21.84508681208164
 21
5.153806458631966
 31
0.0
  0
LINE
  5
B6C6
  8
0
  6
CONTINUOUS
 10
27.63931247980256
 20
0.0330999999912356
 30
0.0
 11
24.0014124797975
 21
3.670999999996297
 31
0.0
  0
LINE
  5
B6C7
  8
0
  6
CONTINUOUS
 10
23.129125600968
 20
4.5432868788258
 30
0.0
 11
22.05328991755227
 21
5.619122562241522
 31
0.0
  0
LINE
  5
B6C8
  8
0
  6
CONTINUOUS
 10
28.31283168888275
 20
0.0330999999912356
 30
0.0
 11
24.16488385994816
 21
4.181047828925828
 31
0.0
  0
LINE
  5
B6C9
  8
0
  6
CONTINUOUS
 10
23.33726445448964
 20
5.008667234384345
 30
0.0
 11
22.2614930230229
 21
6.084438665851079
 31
0.0
  0
LINE
  5
B6CA
  8
0
  6
CONTINUOUS
 10
28.86286302309502
 20
0.1565878748591523
 30
0.0
 11
27.63635089796295
 21
1.383099999991217
 31
0.0
  0
LINE
  5
B6CB
  8
0
  6
CONTINUOUS
 10
26.43704649509776
 20
2.582404402856405
 30
0.0
 11
23.61992702019732
 21
5.399523877756844
 31
0.0
  0
LINE
  5
B6CC
  8
0
  6
CONTINUOUS
 10
23.54540330801128
 20
5.47404758994289
 30
0.0
 11
22.46969612849353
 21
6.549754769460635
 31
0.0
  0
LINE
  5
B6CD
  8
0
  6
CONTINUOUS
 10
29.39405087596853
 20
0.2989192310658284
 30
0.0
 11
28.30987010704312
 21
1.383099999991234
 31
0.0
  0
LINE
  5
B6CE
  8
0
  6
CONTINUOUS
 10
25.89179548232307
 20
3.801174624711282
 30
0.0
 11
22.67789923396416
 21
7.015070873070191
 31
0.0
  0
LINE
  5
B6CF
  8
0
  6
CONTINUOUS
 10
29.79594438047407
 20
0.570544935640473
 30
0.0
 11
28.81310432793121
 21
1.553384988183336
 31
0.0
  0
LINE
  5
B6D0
  8
0
  6
CONTINUOUS
 10
25.34654446954838
 20
5.01994484656616
 30
0.0
 11
22.88610233943479
 21
7.480386976679748
 31
0.0
  0
LINE
  5
B6D1
  8
0
  6
CONTINUOUS
 10
30.13270398501416
 20
0.9073045401805646
 30
0.0
 11
29.14234640337737
 21
1.897662121817355
 31
0.0
  0
LINE
  5
B6D2
  8
0
  6
CONTINUOUS
 10
24.80129345677369
 20
6.238715068421037
 30
0.0
 11
23.09430544490542
 21
7.945703080289305
 31
0.0
  0
LINE
  5
B6D3
  8
0
  6
CONTINUOUS
 10
30.44581292956759
 20
1.26771480470732
 30
0.0
 11
29.30199999996933
 21
2.411527734305588
 31
0.0
  0
LINE
  5
B6D4
  8
0
  6
CONTINUOUS
 10
30.58814428577427
 20
1.798902657580827
 30
0.0
 11
29.30199999996933
 21
3.085046943385775
 31
0.0
  0
LINE
  5
B6D5
  8
0
  6
CONTINUOUS
 10
24.256042443999
 20
7.457485290275915
 30
0.0
 11
23.30250855037605
 21
8.411019183898862
 31
0.0
  0
LINE
  5
B6D6
  8
0
  6
CONTINUOUS
 10
23.71079143122431
 20
8.676255512130794
 30
0.0
 11
23.51071165584668
 21
8.876335287508418
 31
0.0
  0
LINE
  5
B6D7
  8
0
  6
CONTINUOUS
 10
30.73047564198095
 20
2.330090510454333
 30
0.0
 11
29.30199999996933
 21
3.758566152465961
 31
0.0
  0
LINE
  5
B6D8
  8
0
  6
CONTINUOUS
 10
30.74199999996924
 20
2.992085361546236
 30
0.0
 11
29.30199999996933
 21
4.432085361546148
 31
0.0
  0
LINE
  5
B6D9
  8
0
  6
CONTINUOUS
 10
30.74199999996924
 20
3.665604570626419
 30
0.0
 11
29.30199999996933
 21
5.105604570626333
 31
0.0
  0
LINE
  5
B6DA
  8
0
  6
CONTINUOUS
 10
30.74199999996925
 20
4.339123779706602
 30
0.0
 11
29.30199999996933
 21
5.77912377970652
 31
0.0
  0
LINE
  5
B6DB
  8
0
  6
CONTINUOUS
 10
30.74199999996925
 20
5.012642988786785
 30
0.0
 11
29.30199999996933
 21
6.452642988786707
 31
0.0
  0
LINE
  5
B6DC
  8
0
  6
CONTINUOUS
 10
30.74199999996925
 20
5.68616219786697
 30
0.0
 11
29.30199999996933
 21
7.126162197866894
 31
0.0
  0
LINE
  5
B6DD
  8
0
  6
CONTINUOUS
 10
30.74199999996925
 20
6.359681406947153
 30
0.0
 11
29.30199999996933
 21
7.799681406947081
 31
0.0
  0
LINE
  5
B6DE
  8
0
  6
CONTINUOUS
 10
30.74199999996926
 20
7.033200616027337
 30
0.0
 11
29.30199999996933
 21
8.473200616027269
 31
0.0
  0
LINE
  5
B6DF
  8
0
  6
CONTINUOUS
 10
30.74199999996926
 20
7.706719825107518
 30
0.0
 11
29.68561982508552
 21
8.763099999991255
 31
0.0
  0
LINE
  5
B6E0
  8
0
  6
CONTINUOUS
 10
30.74199999996926
 20
8.380239034187703
 30
0.0
 11
30.35913903416571
 21
8.763099999991255
 31
0.0
  0
ENDBLK
  5
B783
  8
0
  0
BLOCK
  8
0
  2
*X110
 70
     1
 10
0.0
 20
0.0
 30
0.0
  3
*X110
  1

  0
LINE
  5
B6E2
  8
0
  6
CONTINUOUS
 10
31.64199999996833
 20
8.5350582899136
 30
0.0
 11
31.87004171004599
 21
8.763099999991255
 31
0.0
  0
LINE
  5
B6E3
  8
0
  6
CONTINUOUS
 10
31.64199999996833
 20
7.861539080833413
 30
0.0
 11
32.54356091912618
 21
8.763099999991255
 31
0.0
  0
LINE
  5
B6E4
  8
0
  6
CONTINUOUS
 10
31.64199999996833
 20
7.188019871753227
 30
0.0
 11
33.08199999996839
 21
8.628019871753281
 31
0.0
  0
LINE
  5
B6E5
  8
0
  6
CONTINUOUS
 10
31.64199999996833
 20
6.514500662673041
 30
0.0
 11
33.08199999996839
 21
7.954500662673095
 31
0.0
  0
LINE
  5
B6E6
  8
0
  6
CONTINUOUS
 10
31.64199999996833
 20
5.840981453592855
 30
0.0
 11
33.08199999996839
 21
7.28098145359291
 31
0.0
  0
LINE
  5
B6E7
  8
0
  6
CONTINUOUS
 10
31.64199999996833
 20
5.167462244512668
 30
0.0
 11
33.08199999996839
 21
6.607462244512723
 31
0.0
  0
LINE
  5
B6E8
  8
0
  6
CONTINUOUS
 10
31.64199999996833
 20
4.493943035432482
 30
0.0
 11
33.08199999996839
 21
5.933943035432536
 31
0.0
  0
LINE
  5
B6E9
  8
0
  6
CONTINUOUS
 10
31.64199999996833
 20
3.820423826352294
 30
0.0
 11
33.08199999996839
 21
5.260423826352349
 31
0.0
  0
LINE
  5
B6EA
  8
0
  6
CONTINUOUS
 10
31.64199999996833
 20
3.146904617272108
 30
0.0
 11
33.08199999996839
 21
4.586904617272163
 31
0.0
  0
LINE
  5
B6EB
  8
0
  6
CONTINUOUS
 10
36.23199999996837
 20
8.410423826352327
 30
0.0
 11
36.58467617360729
 21
8.763099999991255
 31
0.0
  0
LINE
  5
B6EC
  8
0
  6
CONTINUOUS
 10
36.23199999996837
 20
7.73690461727214
 30
0.0
 11
37.25819538268748
 21
8.763099999991255
 31
0.0
  0
LINE
  5
B6ED
  8
0
  6
CONTINUOUS
 10
31.64323424774199
 20
2.474619655965573
 30
0.0
 11
33.08199999996839
 21
3.913385408191976
 31
0.0
  0
LINE
  5
B6EE
  8
0
  6
CONTINUOUS
 10
31.74419223861915
 20
1.902058437762552
 30
0.0
 11
33.08199999996839
 21
3.239866199111789
 31
0.0
  0
LINE
  5
B6EF
  8
0
  6
CONTINUOUS
 10
36.23199999996837
 20
7.063385408191953
 30
0.0
 11
37.67199999996831
 21
8.503385408191894
 31
0.0
  0
LINE
  5
B6F0
  8
0
  6
CONTINUOUS
 10
36.23199999996837
 20
6.389866199111767
 30
0.0
 11
37.67199999996831
 21
7.829866199111708
 31
0.0
  0
LINE
  5
B6F1
  8
0
  6
CONTINUOUS
 10
31.91111233414976
 20
1.39545932421297
 30
0.0
 11
33.08199999996839
 21
2.566346990031603
 31
0.0
  0
LINE
  5
B6F2
  8
0
  6
CONTINUOUS
 10
36.23199999996837
 20
5.71634699003158
 30
0.0
 11
37.67199999996831
 21
7.156346990031522
 31
0.0
  0
LINE
  5
B6F3
  8
0
  6
CONTINUOUS
 10
32.1576374746103
 20
0.9684652555933289
 30
0.0
 11
33.20642631446081
 21
2.017254095443838
 31
0.0
  0
LINE
  5
B6F4
  8
0
  6
CONTINUOUS
 10
36.23199999996837
 20
5.042827780951393
 30
0.0
 11
37.67199999996831
 21
6.482827780951334
 31
0.0
  0
LINE
  5
B6F5
  8
0
  6
CONTINUOUS
 10
32.47774023927325
 20
0.6150488111760914
 30
0.0
 11
33.49903056428258
 21
1.636339136185419
 31
0.0
  0
LINE
  5
B6F6
  8
0
  6
CONTINUOUS
 10
36.23199999996837
 20
4.369308571871207
 30
0.0
 11
37.67199999996831
 21
5.809308571871148
 31
0.0
  0
LINE
  5
B6F7
  8
0
  6
CONTINUOUS
 10
32.84396249154443
 20
0.3077518543670883
 30
0.0
 11
33.93324121824649
 21
1.397030581069146
 31
0.0
  0
LINE
  5
B6F8
  8
0
  6
CONTINUOUS
 10
36.23199999996837
 20
3.695789362791021
 30
0.0
 11
37.67199999996831
 21
5.135789362790963
 31
0.0
  0
LINE
  5
B6F9
  8
0
  6
CONTINUOUS
 10
33.30186329036846
 20
0.0921334441109263
 30
0.0
 11
34.46442907112041
 21
1.254699224862875
 31
0.0
  0
LINE
  5
B6FA
  8
0
  6
CONTINUOUS
 10
36.23199999996837
 20
3.022270153710834
 30
0.0
 11
37.67199999996831
 21
4.462270153710776
 31
0.0
  0
LINE
  5
B6FB
  8
0
  6
CONTINUOUS
 10
33.79565647746294
 20
-0.0875925778747773
 30
0.0
 11
35.24350171668284
 21
1.360252661345124
 31
0.0
  0
LINE
  5
B6FC
  8
0
  6
CONTINUOUS
 10
36.18336676155003
 20
2.300117706212308
 30
0.0
 11
37.67199999996831
 21
3.788750944630589
 31
0.0
  0
LINE
  5
B6FD
  8
0
  6
CONTINUOUS
 10
34.37182574910968
 20
-0.184942515308224
 30
0.0
 11
37.67199999996831
 21
3.115231735550402
 31
0.0
  0
LINE
  5
B6FE
  8
0
  6
CONTINUOUS
 10
35.0453449581892
 20
-0.1849425153088955
 30
0.0
 11
37.66345697088136
 21
2.433169497383271
 31
0.0
  0
LINE
  5
B6FF
  8
0
  6
CONTINUOUS
 10
35.98667157609191
 20
0.0828648935136398
 30
0.0
 11
37.51927401744566
 21
1.615467334867382
 31
0.0
  0
LINE
  5
B700
  8
0
  6
CONTINUOUS
 10
32.27747408544484
 20
0.7830920669904482
 30
0.0
 11
32.24716210471949
 21
0.8134040477157893
 31
0.0
  0
LINE
  5
B701
  8
0
  6
CONTINUOUS
 10
33.83656881101902
 20
-0.1024834495035494
 30
0.0
 11
31.72538911593758
 21
2.008696245577891
 31
0.0
  0
LINE
  5
B702
  8
0
  6
CONTINUOUS
 10
34.5925470859041
 20
-0.1849425153084434
 30
0.0
 11
31.64199999996833
 21
2.765604570627322
 31
0.0
  0
LINE
  5
B703
  8
0
  6
CONTINUOUS
 10
35.26201302775981
 20
-0.1808892480839752
 30
0.0
 11
31.64199999996833
 21
3.439123779707508
 31
0.0
  0
LINE
  5
B704
  8
0
  6
CONTINUOUS
 10
35.75580621485512
 20
-0.0011632260990879
 30
0.0
 11
34.51294304365551
 21
1.241699945100514
 31
0.0
  0
LINE
  5
B705
  8
0
  6
CONTINUOUS
 10
33.08199999996839
 20
2.672642988787641
 30
0.0
 11
31.64199999996833
 21
4.112642988787695
 31
0.0
  0
LINE
  5
B706
  8
0
  6
CONTINUOUS
 10
36.24959940195042
 20
0.1785627958857976
 30
0.0
 11
35.10501653033629
 21
1.323145667499924
 31
0.0
  0
LINE
  5
B707
  8
0
  6
CONTINUOUS
 10
33.08199999996839
 20
3.346162197867827
 30
0.0
 11
31.64199999996833
 21
4.786162197867881
 31
0.0
  0
LINE
  5
B708
  8
0
  6
CONTINUOUS
 10
36.64615197150552
 20
0.4555294354108876
 30
0.0
 11
35.6362043832099
 21
1.465477023706505
 31
0.0
  0
LINE
  5
B709
  8
0
  6
CONTINUOUS
 10
33.08199999996839
 20
4.019681406948013
 30
0.0
 11
31.64199999996833
 21
5.459681406948068
 31
0.0
  0
LINE
  5
B70A
  8
0
  6
CONTINUOUS
 10
37.0123742237774
 20
0.7628263922191891
 30
0.0
 11
35.97691545773309
 21
1.798285158263504
 31
0.0
  0
LINE
  5
B70B
  8
0
  6
CONTINUOUS
 10
33.08199999996839
 20
4.6932006160282
 30
0.0
 11
31.64199999996833
 21
6.133200616028255
 31
0.0
  0
LINE
  5
B70C
  8
0
  6
CONTINUOUS
 10
37.27491524157143
 20
1.173804583505349
 30
0.0
 11
36.17602012811361
 21
2.272699696963169
 31
0.0
  0
LINE
  5
B70D
  8
0
  6
CONTINUOUS
 10
33.08199999996839
 20
5.366719825108387
 30
0.0
 11
31.64199999996833
 21
6.806719825108441
 31
0.0
  0
LINE
  5
B70E
  8
0
  6
CONTINUOUS
 10
37.51739996707661
 20
1.604839067080355
 30
0.0
 11
36.23199999996837
 21
2.890239034188595
 31
0.0
  0
LINE
  5
B70F
  8
0
  6
CONTINUOUS
 10
37.6183579579535
 20
2.177400285283649
 30
0.0
 11
36.23199999996837
 21
3.563758243268782
 31
0.0
  0
LINE
  5
B710
  8
0
  6
CONTINUOUS
 10
33.08199999996839
 20
6.040239034188573
 30
0.0
 11
31.64199999996833
 21
7.480239034188628
 31
0.0
  0
LINE
  5
B711
  8
0
  6
CONTINUOUS
 10
33.08199999996839
 20
6.713758243268759
 30
0.0
 11
31.64199999996833
 21
8.153758243268815
 31
0.0
  0
LINE
  5
B712
  8
0
  6
CONTINUOUS
 10
37.67199999996831
 20
2.797277452349027
 30
0.0
 11
36.23199999996837
 21
4.237277452348969
 31
0.0
  0
LINE
  5
B713
  8
0
  6
CONTINUOUS
 10
37.67199999996831
 20
3.470796661429214
 30
0.0
 11
36.23199999996837
 21
4.910796661429155
 31
0.0
  0
LINE
  5
B714
  8
0
  6
CONTINUOUS
 10
37.67199999996831
 20
4.1443158705094
 30
0.0
 11
36.23199999996837
 21
5.584315870509341
 31
0.0
  0
LINE
  5
B715
  8
0
  6
CONTINUOUS
 10
33.08199999996839
 20
7.387277452348946
 30
0.0
 11
31.70617745232608
 21
8.763099999991255
 31
0.0
  0
LINE
  5
B716
  8
0
  6
CONTINUOUS
 10
33.08199999996839
 20
8.060796661429134
 30
0.0
 11
32.37969666140626
 21
8.763099999991255
 31
0.0
  0
LINE
  5
B717
  8
0
  6
CONTINUOUS
 10
33.08199999996839
 20
8.734315870509318
 30
0.0
 11
33.05321587048645
 21
8.763099999991255
 31
0.0
  0
LINE
  5
B718
  8
0
  6
CONTINUOUS
 10
37.67199999996831
 20
4.817835079589586
 30
0.0
 11
36.23199999996837
 21
6.257835079589528
 31
0.0
  0
LINE
  5
B719
  8
0
  6
CONTINUOUS
 10
37.67199999996831
 20
5.491354288669772
 30
0.0
 11
36.23199999996837
 21
6.931354288669715
 31
0.0
  0
LINE
  5
B71A
  8
0
  6
CONTINUOUS
 10
37.67199999996831
 20
6.164873497749959
 30
0.0
 11
36.23199999996837
 21
7.6048734977499
 31
0.0
  0
LINE
  5
B71B
  8
0
  6
CONTINUOUS
 10
37.67199999996831
 20
6.838392706830145
 30
0.0
 11
36.23199999996837
 21
8.278392706830086
 31
0.0
  0
LINE
  5
B71C
  8
0
  6
CONTINUOUS
 10
37.67199999996831
 20
7.511911915910333
 30
0.0
 11
36.42081191588738
 21
8.763099999991255
 31
0.0
  0
LINE
  5
B71D
  8
0
  6
CONTINUOUS
 10
37.67199999996831
 20
8.185431124990519
 30
0.0
 11
37.09433112496757
 21
8.763099999991255
 31
0.0
  0
ENDBLK
  5
B785
  8
0
  0
BLOCK
  8
0
  2
*X111
 70
     1
 10
0.0
 20
0.0
 30
0.0
  3
*X111
  1

  0
LINE
  5
B71F
  8
0
  6
CONTINUOUS
 10
38.60499999996136
 20
8.762866199104765
 30
0.0
 11
38.71672554182345
 21
8.874591740966855
 31
0.0
  0
LINE
  5
B720
  8
0
  6
CONTINUOUS
 10
38.60499999996136
 20
8.089346990024577
 30
0.0
 11
39.03418785440363
 21
8.518534844466847
 31
0.0
  0
LINE
  5
B721
  8
0
  6
CONTINUOUS
 10
38.60499999996136
 20
7.41582778094439
 30
0.0
 11
39.35165016698382
 21
8.16247794796684
 31
0.0
  0
LINE
  5
B722
  8
0
  6
CONTINUOUS
 10
38.60499999996136
 20
6.742308571864204
 30
0.0
 11
39.66911247956399
 21
7.806421051466834
 31
0.0
  0
LINE
  5
B723
  8
0
  6
CONTINUOUS
 10
38.60499999996136
 20
6.068789362784018
 30
0.0
 11
39.98657479214418
 21
7.450364154966827
 31
0.0
  0
LINE
  5
B724
  8
0
  6
CONTINUOUS
 10
38.60499999996136
 20
5.395270153703832
 30
0.0
 11
40.30403710472435
 21
7.09430725846682
 31
0.0
  0
LINE
  5
B725
  8
0
  6
CONTINUOUS
 10
38.60499999996136
 20
4.721750944623645
 30
0.0
 11
40.62149941730453
 21
6.738250361966813
 31
0.0
  0
LINE
  5
B726
  8
0
  6
CONTINUOUS
 10
38.60499999996136
 20
4.048231735543458
 30
0.0
 11
40.93896172988471
 21
6.382193465466806
 31
0.0
  0
LINE
  5
B727
  8
0
  6
CONTINUOUS
 10
38.60499999996136
 20
3.374712526463272
 30
0.0
 11
40.02599999995994
 21
4.795712526461843
 31
0.0
  0
LINE
  5
B728
  8
0
  6
CONTINUOUS
 10
38.60499999996136
 20
2.701193317383085
 30
0.0
 11
40.02599999995994
 21
4.122193317381657
 31
0.0
  0
LINE
  5
B729
  8
0
  6
CONTINUOUS
 10
40.28339754687704
 20
5.053110073378947
 30
0.0
 11
41.25642404246489
 21
6.026136568966799
 31
0.0
  0
LINE
  5
B72A
  8
0
  6
CONTINUOUS
 10
40.60085985945722
 20
4.697053176878939
 30
0.0
 11
41.57388635504507
 21
5.670079672466793
 31
0.0
  0
LINE
  5
B72B
  8
0
  6
CONTINUOUS
 10
43.57899999995641
 20
8.348712526458318
 30
0.0
 11
43.99338747348935
 21
8.763099999991255
 31
0.0
  0
LINE
  5
B72C
  8
0
  6
CONTINUOUS
 10
43.57899999995641
 20
7.675193317378131
 30
0.0
 11
44.66690668256953
 21
8.763099999991255
 31
0.0
  0
LINE
  5
B72D
  8
0
  6
CONTINUOUS
 10
38.60499999996136
 20
2.027674108302898
 30
0.0
 11
40.02599999995994
 21
3.44867410830147
 31
0.0
  0
LINE
  5
B72E
  8
0
  6
CONTINUOUS
 10
38.60499999996136
 20
1.354154899222712
 30
0.0
 11
40.02599999995994
 21
2.775154899221284
 31
0.0
  0
LINE
  5
B72F
  8
0
  6
CONTINUOUS
 10
38.60499999996136
 20
0.6806356901425255
 30
0.0
 11
40.02599999995994
 21
2.101635690141098
 31
0.0
  0
LINE
  5
B730
  8
0
  6
CONTINUOUS
 10
38.60499999996136
 20
0.0071164810623383
 30
0.0
 11
40.02599999995994
 21
1.428116481060911
 31
0.0
  0
LINE
  5
B731
  8
0
  6
CONTINUOUS
 10
40.9183221720374
 20
4.340996280378933
 30
0.0
 11
41.89134866762525
 21
5.314022775966786
 31
0.0
  0
LINE
  5
B732
  8
0
  6
CONTINUOUS
 10
41.23578448461758
 20
3.984939383878926
 30
0.0
 11
42.20881098020543
 21
4.957965879466778
 31
0.0
  0
LINE
  5
B733
  8
0
  6
CONTINUOUS
 10
41.55324679719776
 20
3.628882487378919
 30
0.0
 11
42.52627329278561
 21
4.601908982966772
 31
0.0
  0
LINE
  5
B734
  8
0
  6
CONTINUOUS
 10
41.87070910977793
 20
3.272825590878912
 30
0.0
 11
42.84373560536579
 21
4.245852086466765
 31
0.0
  0
LINE
  5
B735
  8
0
  6
CONTINUOUS
 10
43.57899999995641
 20
7.001674108297943
 30
0.0
 11
44.99999999995498
 21
8.422674108296516
 31
0.0
  0
LINE
  5
B736
  8
0
  6
CONTINUOUS
 10
43.57899999995641
 20
6.328154899217758
 30
0.0
 11
44.99999999995498
 21
7.749154899216329
 31
0.0
  0
LINE
  5
B737
  8
0
  6
CONTINUOUS
 10
43.57899999995641
 20
5.654635690137571
 30
0.0
 11
44.99999999995498
 21
7.075635690136142
 31
0.0
  0
LINE
  5
B738
  8
0
  6
CONTINUOUS
 10
43.57899999995641
 20
4.981116481057384
 30
0.0
 11
44.99999999995498
 21
6.402116481055955
 31
0.0
  0
LINE
  5
B739
  8
0
  6
CONTINUOUS
 10
39.27140272797921
 20
-0.0000000000000009
 30
0.0
 11
40.02599999995994
 21
0.7545972719807246
 31
0.0
  0
LINE
  5
B73A
  8
0
  6
CONTINUOUS
 10
39.9449219370594
 20
-0.0000000000000009
 30
0.0
 11
40.02599999995994
 21
0.0810780629005379
 31
0.0
  0
LINE
  5
B73B
  8
0
  6
CONTINUOUS
 10
42.18817142235812
 20
2.916768694378905
 30
0.0
 11
43.16119791794597
 21
3.889795189966758
 31
0.0
  0
LINE
  5
B73C
  8
0
  6
CONTINUOUS
 10
42.50563373493829
 20
2.560711797878898
 30
0.0
 11
43.47866023052615
 21
3.533738293466751
 31
0.0
  0
LINE
  5
B73D
  8
0
  6
CONTINUOUS
 10
43.57899999995641
 20
4.307597271977198
 30
0.0
 11
44.99999999995498
 21
5.728597271975769
 31
0.0
  0
LINE
  5
B73E
  8
0
  6
CONTINUOUS
 10
43.57899999995641
 20
3.634078062897011
 30
0.0
 11
44.99999999995498
 21
5.055078062895582
 31
0.0
  0
LINE
  5
B73F
  8
0
  6
CONTINUOUS
 10
42.82309604751848
 20
2.204654901378891
 30
0.0
 11
44.99999999995498
 21
4.381558853815395
 31
0.0
  0
LINE
  5
B740
  8
0
  6
CONTINUOUS
 10
43.14055836009865
 20
1.848598004878885
 30
0.0
 11
44.99999999995498
 21
3.70803964473521
 31
0.0
  0
LINE
  5
B741
  8
0
  6
CONTINUOUS
 10
43.45802067267883
 20
1.492541108378878
 30
0.0
 11
44.99999999995498
 21
3.034520435655023
 31
0.0
  0
LINE
  5
B742
  8
0
  6
CONTINUOUS
 10
43.77548298525902
 20
1.136484211878871
 30
0.0
 11
44.99999999995498
 21
2.361001226574837
 31
0.0
  0
LINE
  5
B743
  8
0
  6
CONTINUOUS
 10
44.09294529783919
 20
0.7804273153788639
 30
0.0
 11
44.99999999995498
 21
1.687482017494649
 31
0.0
  0
LINE
  5
B744
  8
0
  6
CONTINUOUS
 10
44.41040761041938
 20
0.4243704188788566
 30
0.0
 11
44.99999999995498
 21
1.013962808414463
 31
0.0
  0
LINE
  5
B745
  8
0
  6
CONTINUOUS
 10
44.72786992299955
 20
0.0683135223788494
 30
0.0
 11
44.99999999995498
 21
0.340443599334276
 31
0.0
  0
LINE
  5
B746
  8
0
  6
CONTINUOUS
 10
39.12223903415696
 20
-0.0000000000000009
 30
0.0
 11
38.60499999996136
 21
0.5172390341955961
 31
0.0
  0
LINE
  5
B747
  8
0
  6
CONTINUOUS
 10
39.79575824323715
 20
-0.0000000000000009
 30
0.0
 11
38.60499999996136
 21
1.190758243275783
 31
0.0
  0
LINE
  5
B748
  8
0
  6
CONTINUOUS
 10
40.02599999995994
 20
0.443277452357397
 30
0.0
 11
38.60499999996136
 21
1.864277452355969
 31
0.0
  0
LINE
  5
B749
  8
0
  6
CONTINUOUS
 10
40.02599999995994
 20
1.116796661437583
 30
0.0
 11
38.60499999996136
 21
2.537796661436155
 31
0.0
  0
LINE
  5
B74A
  8
0
  6
CONTINUOUS
 10
40.02599999995994
 20
1.79031587051777
 30
0.0
 11
38.60499999996136
 21
3.211315870516341
 31
0.0
  0
LINE
  5
B74B
  8
0
  6
CONTINUOUS
 10
40.02599999995994
 20
2.463835079597956
 30
0.0
 11
38.60499999996136
 21
3.884835079596527
 31
0.0
  0
LINE
  5
B74C
  8
0
  6
CONTINUOUS
 10
40.02599999995994
 20
3.137354288678143
 30
0.0
 11
38.60499999996136
 21
4.558354288676714
 31
0.0
  0
LINE
  5
B74D
  8
0
  6
CONTINUOUS
 10
40.02599999995994
 20
3.810873497758329
 30
0.0
 11
38.60499999996136
 21
5.2318734977569
 31
0.0
  0
LINE
  5
B74E
  8
0
  6
CONTINUOUS
 10
40.02599999995994
 20
4.484392706838515
 30
0.0
 11
38.60499999996136
 21
5.905392706837086
 31
0.0
  0
LINE
  5
B74F
  8
0
  6
CONTINUOUS
 10
44.99999999995498
 20
0.183911915923658
 30
0.0
 11
41.53858364506288
 21
3.64532827081576
 31
0.0
  0
LINE
  5
B750
  8
0
  6
CONTINUOUS
 10
40.02599999995994
 20
5.157911915918703
 30
0.0
 11
38.60499999996136
 21
6.578911915917274
 31
0.0
  0
LINE
  5
B751
  8
0
  6
CONTINUOUS
 10
44.99999999995498
 20
0.8574311250038447
 30
0.0
 11
38.60499999996136
 21
7.25243112499746
 31
0.0
  0
LINE
  5
B752
  8
0
  6
CONTINUOUS
 10
44.99999999995498
 20
1.530950334084031
 30
0.0
 11
38.60499999996136
 21
7.925950334077647
 31
0.0
  0
LINE
  5
B753
  8
0
  6
CONTINUOUS
 10
44.99999999995498
 20
2.204469543164218
 30
0.0
 11
43.57899999995641
 21
3.625469543162789
 31
0.0
  0
LINE
  5
B754
  8
0
  6
CONTINUOUS
 10
41.89876730984767
 20
5.305702233271528
 30
0.0
 11
38.60499999996136
 21
8.599469543157834
 31
0.0
  0
LINE
  5
B755
  8
0
  6
CONTINUOUS
 10
44.99999999995498
 20
2.877988752244405
 30
0.0
 11
43.57899999995641
 21
4.298988752242975
 31
0.0
  0
LINE
  5
B756
  8
0
  6
CONTINUOUS
 10
44.99999999995498
 20
3.551507961324591
 30
0.0
 11
43.57899999995641
 21
4.972507961323163
 31
0.0
  0
LINE
  5
B757
  8
0
  6
CONTINUOUS
 10
44.99999999995498
 20
4.225027170404777
 30
0.0
 11
43.57899999995641
 21
5.646027170403348
 31
0.0
  0
LINE
  5
B758
  8
0
  6
CONTINUOUS
 10
44.99999999995498
 20
4.898546379484964
 30
0.0
 11
43.57899999995641
 21
6.319546379483535
 31
0.0
  0
LINE
  5
B759
  8
0
  6
CONTINUOUS
 10
44.99999999995498
 20
5.572065588565151
 30
0.0
 11
43.57899999995641
 21
6.993065588563722
 31
0.0
  0
LINE
  5
B75A
  8
0
  6
CONTINUOUS
 10
44.99999999995498
 20
6.245584797645336
 30
0.0
 11
43.57899999995641
 21
7.666584797643908
 31
0.0
  0
LINE
  5
B75B
  8
0
  6
CONTINUOUS
 10
44.99999999995498
 20
6.919104006725522
 30
0.0
 11
43.57899999995641
 21
8.340104006724093
 31
0.0
  0
LINE
  5
B75C
  8
0
  6
CONTINUOUS
 10
44.99999999995498
 20
7.592623215805709
 30
0.0
 11
43.82952321576943
 21
8.763099999991255
 31
0.0
  0
LINE
  5
B75D
  8
0
  6
CONTINUOUS
 10
44.99999999995498
 20
8.266142424885896
 30
0.0
 11
44.50304242484962
 21
8.763099999991255
 31
0.0
  0
ENDBLK
  5
B787
  8
0
  0
BLOCK
  8
0
  2
*X112
 70
     1
 10
0.0
 20
0.0
 30
0.0
  3
*X112
  1

  0
LINE
  5
B75F
  8
0
  6
CONTINUOUS
 10
0.0
 20
8.548461116714023
 30
0.0
 11
0.2146388832772324
 21
8.763099999991255
 31
0.0
  0
LINE
  5
B760
  8
0
  6
CONTINUOUS
 10
-0.0000000000000002
 20
7.874941907633837
 30
0.0
 11
0.8881580923574184
 21
8.763099999991255
 31
0.0
  0
LINE
  5
B761
  8
0
  6
CONTINUOUS
 10
0.0
 20
7.20142269855365
 30
0.0
 11
1.420999999998572
 21
8.622422698552223
 31
0.0
  0
LINE
  5
B762
  8
0
  6
CONTINUOUS
 10
-0.0000000000000001
 20
6.527903489473465
 30
0.0
 11
1.420999999998571
 21
7.948903489472036
 31
0.0
  0
LINE
  5
B763
  8
0
  6
CONTINUOUS
 10
-0.0000000000000002
 20
5.854384280393278
 30
0.0
 11
1.420999999998571
 21
7.275384280391849
 31
0.0
  0
LINE
  5
B764
  8
0
  6
CONTINUOUS
 10
-0.0000000000000002
 20
5.180865071313091
 30
0.0
 11
1.420999999998571
 21
6.601865071311663
 31
0.0
  0
LINE
  5
B765
  8
0
  6
CONTINUOUS
 10
0.0
 20
4.507345862232905
 30
0.0
 11
1.420999999998571
 21
5.928345862231477
 31
0.0
  0
LINE
  5
B766
  8
0
  6
CONTINUOUS
 10
-0.0000000000000003
 20
3.833826653152718
 30
0.0
 11
1.420999999998571
 21
5.25482665315129
 31
0.0
  0
LINE
  5
B767
  8
0
  6
CONTINUOUS
 10
-0.0000000000000002
 20
3.160307444072532
 30
0.0
 11
1.420999999998571
 21
4.581307444071103
 31
0.0
  0
LINE
  5
B768
  8
0
  6
CONTINUOUS
 10
-0.0000000000000001
 20
2.486788234992345
 30
0.0
 11
1.420999999998571
 21
3.907788234990917
 31
0.0
  0
LINE
  5
B769
  8
0
  6
CONTINUOUS
 10
-0.0000000000000006
 20
1.813269025912159
 30
0.0
 11
1.420999999998571
 21
3.234269025910731
 31
0.0
  0
LINE
  5
B76A
  8
0
  6
CONTINUOUS
 10
0.0
 20
1.139749816831973
 30
0.0
 11
1.420999999998571
 21
2.560749816830544
 31
0.0
  0
LINE
  5
B76B
  8
0
  6
CONTINUOUS
 10
0.0000000000000002
 20
0.466230607751787
 30
0.0
 11
1.420999999998571
 21
1.887230607750358
 31
0.0
  0
LINE
  5
B76C
  8
0
  6
CONTINUOUS
 10
0.2072886013284003
 20
-0.0000000000000009
 30
0.0
 11
1.420999999998571
 21
1.213711398670171
 31
0.0
  0
LINE
  5
B76D
  8
0
  6
CONTINUOUS
 10
0.8808078104085864
 20
-0.0000000000000009
 30
0.0
 11
1.420999999998571
 21
0.5401921895899839
 31
0.0
  0
LINE
  5
B76E
  8
0
  6
CONTINUOUS
 10
0.0581249075061505
 20
-0.0000000000000009
 30
0.0
 11
-0.0000000000000002
 21
0.0581249075061496
 31
0.0
  0
LINE
  5
B76F
  8
0
  6
CONTINUOUS
 10
0.7316441165863372
 20
-0.0000000000000009
 30
0.0
 11
-0.0000000000000002
 21
0.7316441165863363
 31
0.0
  0
LINE
  5
B770
  8
0
  6
CONTINUOUS
 10
1.405163325666523
 20
-0.0000000000000009
 30
0.0
 11
-0.0000000000000002
 21
1.405163325666523
 31
0.0
  0
LINE
  5
B771
  8
0
  6
CONTINUOUS
 10
1.420999999998572
 20
0.6576825347481381
 30
0.0
 11
-0.0000000000000001
 21
2.07868253474671
 31
0.0
  0
LINE
  5
B772
  8
0
  6
CONTINUOUS
 10
1.420999999998571
 20
1.331201743828324
 30
0.0
 11
-0.0000000000000001
 21
2.752201743826896
 31
0.0
  0
LINE
  5
B773
  8
0
  6
CONTINUOUS
 10
1.420999999998571
 20
2.004720952908511
 30
0.0
 11
-0.0000000000000002
 21
3.425720952907082
 31
0.0
  0
LINE
  5
B774
  8
0
  6
CONTINUOUS
 10
1.420999999998571
 20
2.678240161988697
 30
0.0
 11
-0.0000000000000001
 21
4.099240161987269
 31
0.0
  0
LINE
  5
B775
  8
0
  6
CONTINUOUS
 10
1.420999999998572
 20
3.351759371068884
 30
0.0
 11
0.0
 21
4.772759371067455
 31
0.0
  0
LINE
  5
B776
  8
0
  6
CONTINUOUS
 10
1.420999999998571
 20
4.02527858014907
 30
0.0
 11
-0.0000000000000003
 21
5.446278580147642
 31
0.0
  0
LINE
  5
B777
  8
0
  6
CONTINUOUS
 10
1.420999999998571
 20
4.698797789229257
 30
0.0
 11
0.0
 21
6.119797789227828
 31
0.0
  0
LINE
  5
B778
  8
0
  6
CONTINUOUS
 10
1.420999999998571
 20
5.372316998309444
 30
0.0
 11
-0.0000000000000001
 21
6.793316998308015
 31
0.0
  0
LINE
  5
B779
  8
0
  6
CONTINUOUS
 10
1.420999999998572
 20
6.045836207389629
 30
0.0
 11
-0.0000000000000004
 21
7.466836207388202
 31
0.0
  0
LINE
  5
B77A
  8
0
  6
CONTINUOUS
 10
1.420999999998571
 20
6.719355416469816
 30
0.0
 11
0.0
 21
8.140355416468388
 31
0.0
  0
LINE
  5
B77B
  8
0
  6
CONTINUOUS
 10
1.420999999998571
 20
7.392874625550003
 30
0.0
 11
0.0507746255573185
 21
8.763099999991255
 31
0.0
  0
LINE
  5
B77C
  8
0
  6
CONTINUOUS
 10
1.420999999998571
 20
8.06639383463019
 30
0.0
 11
0.7242938346375052
 21
8.763099999991255
 31
0.0
  0
LINE
  5
B77D
  8
0
  6
CONTINUOUS
 10
1.420999999998571
 20
8.739913043710375
 30
0.0
 11
1.397813043717691
 21
8.763099999991255
 31
0.0
  0
ENDBLK
  5
B789
  8
0
  0
ENDSEC
  0
SECTION
  2
ENTITIES
  0
LINE
  5
B1EA
  8
01
 10
5463.678063430602
 20
-140.7004956991908
 30
0.0
 11
5463.678063430602
 21
-150.7004865037842
 31
0.0
  0
ARC
  5
B1EB
  8
01
 10
5465.678063430602
 20
-150.7004865037842
 30
0.0
 40
2.0
 50
180.0
 51
270.0000554109466
  0
LINE
  5
B1EC
  8
01
 10
5479.678066430602
 20
-140.7004956991908
 30
0.0
 11
5479.678066430602
 21
-150.7004865037859
 31
0.0
  0
ARC
  5
B1ED
  8
01
 10
5477.678066430602
 20
-150.7004865037859
 30
0.0
 40
2.0
 50
269.9999445891315
 51
0.0
  0
ARC
  5
B1EE
  8
01
 10
5471.678066430602
 20
-134.7004876991908
 30
0.0
 40
10.0
 50
143.1300999999997
 51
216.8698969999995
  0
LINE
  5
B1EF
  8
01
 10
5463.678063430602
 20
-118.7004888945974
 30
0.0
 11
5463.678063430602
 21
-128.7004876991908
 31
0.0
  0
LINE
  5
B1F0
  8
01
 10
5479.678066430602
 20
-118.7004888945956
 30
0.0
 11
5479.678066430602
 21
-128.7004876991908
 31
0.0
  0
ARC
  5
B1F1
  8
01
 10
5471.678066430602
 20
-117.7004876991908
 30
0.0
 40
3.0999999
 50
180.0
 51
0.0000100000001733
  0
LINE
  5
B1F2
  8
01
 10
5468.578057430603
 20
-117.2004912156392
 30
0.0
 11
5468.578057430603
 21
-117.7004876991908
 31
0.0
  0
LINE
  5
B1F3
  8
01
 10
5474.778066430603
 20
-117.2004912156399
 30
0.0
 11
5474.778066430603
 21
-117.7004876991908
 31
0.0
  0
ARC
  5
B1F4
  8
01
 10
5471.678066430602
 20
-134.7004876991908
 30
0.0
 40
10.0
 50
323.1300999999997
 51
36.86990000000031
  0
ARC
  5
B1F5
  8
01
 10
5471.678066430602
 20
-151.7004956991908
 30
0.0
 40
3.0999999
 50
0.0000100000001733
 51
180.0000006832468
  0
LINE
  5
B1F6
  8
01
 10
5468.578057430603
 20
-152.2004841827423
 30
0.0
 11
5468.578057430603
 21
-151.7004956991908
 31
0.0
  0
LINE
  5
B1F7
  8
01
 10
5474.778066430603
 20
-152.2004841827416
 30
0.0
 11
5474.778066430603
 21
-151.7004956991908
 31
0.0
  0
LINE
  5
B1F8
  8
01
 10
5472.243751605547
 20
-139.7916620242577
 30
0.0
 11
5476.769240181123
 21
-135.2661774487736
 31
0.0
  0
LINE
  5
B1F9
  8
01
 10
5466.586892681019
 20
-135.2661774497957
 30
0.0
 11
5471.112381255664
 21
-139.791662024262
 31
0.0
  0
ARC
  5
B1FA
  8
01
 10
5471.678066430602
 20
-139.2259763493022
 30
0.0
 40
0.8
 50
225.0000253224298
 51
314.9999746786065
  0
LINE
  5
B1FB
  8
01
 10
5466.586892756488
 20
-134.1348060244293
 30
0.0
 11
5471.112381339082
 21
-129.6093226491409
 31
0.0
  0
ARC
  5
B1FC
  8
01
 10
5467.152577855969
 20
-134.7004917748466
 30
0.0
 40
0.8
 50
134.9999670347692
 51
225.0000253213935
  0
LINE
  5
B1FD
  8
01
 10
5472.243751538981
 20
-129.6093226491409
 30
0.0
 11
5476.769240106591
 21
-134.1348060243445
 31
0.0
  0
ARC
  5
B1FE
  8
01
 10
5471.678066439032
 20
-130.1750083990899
 30
0.0
 40
0.8
 50
45.00003291779537
 51
134.9999670821586
  0
ARC
  5
B1FF
  8
01
 10
5476.203555006173
 20
-134.7004917738251
 30
0.0
 40
0.8
 50
314.9999746786814
 51
45.0000328703571
  0
CIRCLE
  5
B200
  8
1DIM
 10
5471.678066435307
 20
-134.7004920766288
 30
0.0
 40
4.000002034962191
  0
LINE
  5
B201
  8
1DIM
 10
5471.378066430602
 20
-120.7859373228275
 30
0.0
 11
5471.378066430602
 21
-123.7931060837607
 31
0.0
  0
LINE
  5
B202
  8
1DIM
 10
5471.978066430603
 20
-120.7859373228275
 30
0.0
 11
5471.978066430603
 21
-123.7931060837607
 31
0.0
  0
LINE
  5
B203
  8
1DIM
 10
5471.378066430602
 20
-145.6078773146208
 30
0.0
 11
5471.378066430602
 21
-148.6150460755541
 31
0.0
  0
LINE
  5
B204
  8
1DIM
 10
5471.978066430603
 20
-145.6078773146208
 30
0.0
 11
5471.978066430603
 21
-148.6150460755541
 31
0.0
  0
ARC
  5
B205
  8
1DIM
 10
5471.678066430602
 20
-151.7004956991908
 30
0.0
 40
6.0999999
 50
87.18103757916775
 51
92.81896242083226
  0
ARC
  5
B206
  8
1DIM
 10
5471.678066430602
 20
-117.7004876991908
 30
0.0
 40
6.0999999
 50
267.1810375791677
 51
272.8189624208323
  0
LINE
  5
B207
  8
1DIM
 10
5481.673565417646
 20
-134.4004876991907
 30
0.0
 11
5478.671634904565
 21
-134.4004876991907
 31
0.0
  0
LINE
  5
B208
  8
1DIM
 10
5481.673565417646
 20
-135.0004876991907
 30
0.0
 11
5478.671634904565
 21
-135.0004876991907
 31
0.0
  0
ARC
  5
B209
  8
1DIM
 10
5471.678066430602
 20
-134.7004876991908
 30
0.0
 40
6.999999999999986
 50
177.5437142764181
 51
182.4562857235817
  0
ARC
  5
B20A
  8
1DIM
 10
5471.678066430602
 20
-134.7004876991908
 30
0.0
 40
6.999999999999986
 50
357.5437142764183
 51
2.456285723582384
  0
LINE
  5
B20B
  8
1DIM
 10
5464.68449795664
 20
-135.0004876991907
 30
0.0
 11
5461.682567443559
 21
-135.0004876991908
 31
0.0
  0
LINE
  5
B20C
  8
1DIM
 10
5464.68449795664
 20
-134.4004876991908
 30
0.0
 11
5461.682567443559
 21
-134.4004876991908
 31
0.0
  0
LINE
  5
B21B
  8
1DIM
 10
5503.383993523991
 20
-140.025904218659
 30
0.0
 11
5503.384025147115
 21
-129.3749362684468
 31
0.0
  0
LINE
  5
B21C
  8
01
 10
5531.058537369952
 20
-152.2004956991908
 30
0.0
 11
5531.058537369952
 21
-117.2004876991908
 31
0.0
  0
LINE
  5
B21D
  8
01
 10
5502.058602524795
 20
-130.6999536784988
 30
0.0
 11
5502.058472224281
 21
-138.6999536774383
 31
0.0
  0
LINE
  5
B21E
  8
01
 10
5533.058629518121
 20
-129.0429094703413
 30
0.0
 11
5533.058561801988
 21
-133.2004453816639
 31
0.0
  0
LINE
  5
B21F
  8
01
 10
5533.058561801988
 20
-133.2004453816639
 30
0.0
 11
5533.058512938605
 21
-136.2004876991907
 31
0.0
  0
LINE
  5
B220
  8
01
 10
5533.058512938605
 20
-136.2004876991906
 30
0.0
 11
5533.058445234044
 21
-140.357313191711
 31
0.0
  0
LINE
  5
B221
  8
01
 10
5533.058537369952
 20
-116.7004876991908
 30
0.0
 11
5533.058537369952
 21
-133.2004876991909
 31
0.0
  0
LINE
  5
B222
  8
01
 10
5533.058537369952
 20
-136.2005300155239
 30
0.0
 11
5533.058537369952
 21
-152.7004956991908
 31
0.0
  0
LINE
  5
B223
  8
01
 10
5502.058537367015
 20
-130.7004149685476
 30
0.0
 11
5502.058537367015
 21
-138.7004155685477
 31
0.0
  0
LINE
  5
B224
  8
01
 10
5503.383993523991
 20
-140.025904218659
 30
0.0
 11
5513.133632219534
 21
-140.025904218659
 31
0.0
  0
LINE
  5
B225
  8
01
 10
5502.058537367015
 20
-138.7004255685476
 30
0.0
 11
5503.383993523991
 21
-140.025904218659
 31
0.0
  0
LINE
  5
B226
  8
01
 10
5533.058537369952
 20
-152.7004956991908
 30
0.0
 11
5531.558537369952
 21
-152.7004956991908
 31
0.0
  0
ARC
  5
B227
  8
01
 10
5531.558537369952
 20
-152.2004956991908
 30
0.0
 40
0.5
 50
180.0
 51
270.0
  0
LINE
  5
B228
  8
01
 10
5503.384025147115
 20
-129.3749362684468
 30
0.0
 11
5530.058537369952
 21
-129.3749362684468
 31
0.0
  0
LINE
  5
B229
  8
01
 10
5502.058562731886
 20
-133.1431003781745
 30
0.0
 11
5502.058514571955
 21
-136.0999532777823
 31
0.0
  0
LINE
  5
B22A
  8
01
 10
5502.058537367015
 20
-130.7004159685476
 30
0.0
 11
5503.384025147115
 21
-129.3749362684468
 31
0.0
  0
LINE
  5
B22B
  8
01
 10
5531.558537369952
 20
-116.7004876991908
 30
0.0
 11
5533.058537369952
 21
-116.7004876991908
 31
0.0
  0
ARC
  5
B22C
  8
01
 10
5531.558537369952
 20
-117.2004876991908
 30
0.0
 40
0.5
 50
90.0
 51
180.0
  0
CIRCLE
  5
B230
  8
01
 10
5475.428066430602
 20
-144.4504876991905
 30
0.0
 40
2.099999999999994
  0
CIRCLE
  5
B231
  8
1DIM
 10
5475.428066430602
 20
-144.4504876991905
 30
0.0
 40
3.25
  0
CIRCLE
  5
B232
  8
1DIM
 10
5467.928066430602
 20
-124.9504876991908
 30
0.0
 40
3.25
  0
CIRCLE
  5
B233
  8
01
 10
5467.928066430602
 20
-124.9504876991908
 30
0.0
 40
2.099999999999994
  0
LINE
  5
B234
  8
01
 10
5540.876934225415
 20
-196.7645471352286
 30
0.0
 11
5535.576937715554
 21
-198.2645471352286
 31
0.0
  0
LINE
  5
B235
  8
01
 10
5540.876934225415
 20
-196.7645471352286
 30
0.0
 11
5535.576930735169
 21
-195.2645471352286
 31
0.0
  0
LINE
  5
B236
  8
01
 10
5537.176937825341
 20
-198.31173099317
 30
0.0
 11
5537.976931152182
 21
-195.4437682918393
 31
0.0
  0
LINE
  5
B237
  8
1CENTER
 10
5542.22067254449
 20
-196.7645936711266
 30
0.0
 11
5522.737700126792
 21
-196.7645936711266
 31
0.0
  0
LINE
  5
B238
  8
01
 10
5538.776936771736
 20
-197.8589174851219
 30
0.0
 11
5539.576932205788
 21
-195.8965823962459
 31
0.0
  0
LINE
  5
B239
  8
01
 10
5537.976931152182
 20
-195.4437682918393
 30
0.0
 11
5538.15969529481
 21
-195.9955177556427
 31
0.0
  0
LINE
  5
B23A
  8
01
 10
5538.625500975296
 20
-197.4017456444905
 30
0.0
 11
5538.776936771736
 21
-197.8589174851219
 31
0.0
  0
LINE
  5
B23B
  8
01
 10
5539.576932205788
 20
-195.8965823962459
 30
0.0
 11
5539.88870206204
 21
-196.4848589712889
 31
0.0
  0
LINE
  5
B23C
  8
01
 10
5535.476937715554
 20
-198.2645471352286
 30
0.0
 11
5535.576938878951
 21
-198.7645471352286
 31
0.0
  0
LINE
  5
B23D
  8
01
 10
5535.576938878951
 20
-198.7645471352286
 30
0.0
 11
5536.376930098576
 21
-194.9909541874327
 31
0.0
  0
LINE
  5
B23E
  8
01
 10
5536.376930098576
 20
-194.9909541874327
 30
0.0
 11
5536.506200796206
 21
-195.5275479227035
 31
0.0
  0
LINE
  5
B23F
  8
01
 10
5534.776929571774
 20
-194.7645471352286
 30
0.0
 11
5534.87693073517
 21
-195.2645471352286
 31
0.0
  0
LINE
  5
B240
  8
01
 10
5533.876937715554
 20
-198.2645471352286
 30
0.0
 11
5533.976938878951
 21
-198.7645471352286
 31
0.0
  0
LINE
  5
B241
  8
01
 10
5533.976938878951
 20
-198.7645471352286
 30
0.0
 11
5534.776929571774
 21
-194.7645471352286
 31
0.0
  0
LINE
  5
B242
  8
01
 10
5537.064168312991
 20
-197.8436325380204
 30
0.0
 11
5537.176937825341
 21
-198.31173099317
 31
0.0
  0
LINE
  5
B243
  8
01
 10
5529.176938878951
 20
-198.7645471352286
 30
0.0
 11
5529.976929571773
 21
-194.7645471352286
 31
0.0
  0
LINE
  5
B244
  8
01
 10
5527.476937715554
 20
-198.2645471352286
 30
0.0
 11
5527.576938878951
 21
-198.7645471352286
 31
0.0
  0
LINE
  5
B245
  8
01
 10
5528.376929571774
 20
-194.7645471352286
 30
0.0
 11
5528.476930735171
 21
-195.2645471352286
 31
0.0
  0
LINE
  5
B246
  8
01
 10
5529.076937715554
 20
-198.2645471352286
 30
0.0
 11
5529.176938878951
 21
-198.7645471352286
 31
0.0
  0
LINE
  5
B247
  8
01
 10
5527.576938878951
 20
-198.7645471352286
 30
0.0
 11
5528.376929571774
 21
-194.7645471352286
 31
0.0
  0
LINE
  5
B248
  8
01
 10
5529.976929571773
 20
-194.7645471352286
 30
0.0
 11
5530.076930735171
 21
-195.2645471352286
 31
0.0
  0
LINE
  5
B249
  8
01
 10
5530.676937715554
 20
-198.2645471352286
 30
0.0
 11
5530.776938878951
 21
-198.7645471352286
 31
0.0
  0
LINE
  5
B24A
  8
01
 10
5532.276937715554
 20
-198.2645471352286
 30
0.0
 11
5532.376938878951
 21
-198.7645471352286
 31
0.0
  0
LINE
  5
B24B
  8
01
 10
5533.176929571774
 20
-194.7645471352286
 30
0.0
 11
5533.276930735171
 21
-195.2645471352286
 31
0.0
  0
LINE
  5
B24C
  8
01
 10
5532.376938878951
 20
-198.7645471352286
 30
0.0
 11
5533.176929571774
 21
-194.7645471352286
 31
0.0
  0
LINE
  5
B24D
  8
01
 10
5531.576929571774
 20
-194.7645471352286
 30
0.0
 11
5531.676930735171
 21
-195.2645471352286
 31
0.0
  0
LINE
  5
B24E
  8
01
 10
5530.776938878951
 20
-198.7645471352286
 30
0.0
 11
5531.576929571774
 21
-194.7645471352286
 31
0.0
  0
LINE
  5
B24F
  8
1HATCH
 10
5525.176934235415
 20
-193.7645936711266
 30
0.0
 11
5525.176934235415
 21
-199.7645936711266
 31
0.0
  0
LINE
  5
B250
  8
01
 10
5525.176934325415
 20
-193.7645936711266
 30
0.0
 11
5524.876934225415
 21
-193.7645936711266
 31
0.0
  0
LINE
  5
B251
  8
01
 10
5524.876934225415
 20
-193.7645936711266
 30
0.0
 11
5524.876934225415
 21
-199.7645936711266
 31
0.0
  0
LINE
  5
B252
  8
01
 10
5525.176934235415
 20
-199.7645936711266
 30
0.0
 11
5524.876934225415
 21
-199.7645936711266
 31
0.0
  0
LINE
  5
B253
  8
01
 10
5526.676981017431
 20
-198.2645471352286
 30
0.0
 11
5525.176934235415
 21
-199.7645936711266
 31
0.0
  0
LINE
  5
B254
  8
01
 10
5526.676887900624
 20
-195.2645471352286
 30
0.0
 11
5525.176934325415
 21
-193.7645936711266
 31
0.0
  0
LINE
  5
B255
  8
01
 10
5526.676930735171
 20
-195.2645471352286
 30
0.0
 11
5526.776929571774
 21
-194.7645471352286
 31
0.0
  0
LINE
  5
B256
  8
01
 10
5526.776929571774
 20
-194.7645471352286
 30
0.0
 11
5526.87693073517
 21
-195.2645471352286
 31
0.0
  0
LINE
  5
B257
  8
01
 10
5535.576930735169
 20
-195.2645471352286
 30
0.0
 11
5526.676887900624
 21
-195.2645471352286
 31
0.0
  0
LINE
  5
B258
  8
01
 10
5535.576937715554
 20
-198.2645471352286
 30
0.0
 11
5526.676981017431
 21
-198.2645471352286
 31
0.0
  0
ARC
  5
B25C
  8
01
 10
5530.058537369952
 20
-128.3749362684468
 30
0.0
 40
1.0
 50
270.0
 51
0.0
  0
ARC
  5
B25D
  8
01
 10
5530.058537369952
 20
-141.025904218659
 30
0.0
 40
1.0
 50
0.0
 51
90.0
  0
LINE
  5
B25E
  8
01
 10
5468.078057914154
 20
-116.7004912156395
 30
0.0
 11
5465.678065364809
 21
-116.7004888945983
 31
0.0
  0
ARC
  5
B25F
  8
01
 10
5465.678063430602
 20
-118.7004888945974
 30
0.0
 40
2.0
 50
89.99994458905337
 51
180.0
  0
LINE
  5
B260
  8
01
 10
5475.278065947052
 20
-116.7004912156402
 30
0.0
 11
5477.678064496398
 21
-116.7004888945966
 31
0.0
  0
ARC
  5
B261
  8
01
 10
5477.678066430602
 20
-118.7004888945956
 30
0.0
 40
2.0
 50
0.0
 51
90.00005541086847
  0
LINE
  5
B262
  8
01
 10
5468.078057914154
 20
-152.7004841827421
 30
0.0
 11
5465.678065364809
 21
-152.7004865037832
 31
0.0
  0
ARC
  5
B263
  8
01
 10
5468.078057430603
 20
-152.2004841827423
 30
0.0
 40
0.5
 50
270.0000554108685
 51
0.0
  0
LINE
  5
B264
  8
01
 10
5475.278065947052
 20
-152.7004841827414
 30
0.0
 11
5477.678064496398
 21
-152.700486503785
 31
0.0
  0
ARC
  5
B265
  8
01
 10
5475.278066430603
 20
-152.2004841827416
 30
0.0
 40
0.5
 50
180.0
 51
269.9999445891315
  0
ARC
  5
B266
  8
01
 10
5468.078057430603
 20
-117.2004912156393
 30
0.0
 40
0.5
 50
0.0
 51
89.99994458913153
  0
ARC
  5
B267
  8
01
 10
5475.278066430603
 20
-117.2004912156399
 30
0.0
 40
0.5
 50
90.00005541086847
 51
180.0
  0
LINE
  5
B26A
  8
1CENTER
 10
5485.364886865687
 20
-134.7004876991908
 30
0.0
 11
5457.991245995518
 21
-134.7004876991908
 31
0.0
  0
LINE
  5
B26B
  8
1CENTER
 10
5471.678066430602
 20
-121.0136672641061
 30
0.0
 11
5471.678066430602
 21
-148.3873081342754
 31
0.0
  0
LINE
  5
B26F
  8
1PHANTOM
 10
5547.058537369952
 20
-124.9504411632927
 30
0.0
 11
5541.758540860092
 21
-126.4504411632927
 31
0.0
  0
LINE
  5
B270
  8
1PHANTOM
 10
5547.058537369952
 20
-124.9504411632927
 30
0.0
 11
5541.758533879706
 21
-123.4504411632927
 31
0.0
  0
LINE
  5
B271
  8
1PHANTOM
 10
5543.358540969879
 20
-126.4976250212342
 30
0.0
 11
5544.15853429672
 21
-123.6296623199035
 31
0.0
  0
LINE
  5
B272
  8
1CENTER
 10
5549.984276274329
 20
-124.9504876991908
 30
0.0
 11
5528.91930327133
 21
-124.9504876991908
 31
0.0
  0
LINE
  5
B273
  8
1PHANTOM
 10
5544.958539916274
 20
-126.0448115131861
 30
0.0
 11
5545.758535350325
 21
-124.0824764243101
 31
0.0
  0
LINE
  5
B274
  8
1PHANTOM
 10
5544.15853429672
 20
-123.6296623199035
 30
0.0
 11
5544.341298439348
 21
-124.1814117837069
 31
0.0
  0
LINE
  5
B275
  8
1PHANTOM
 10
5544.807104119834
 20
-125.5876396725546
 30
0.0
 11
5544.958539916274
 21
-126.0448115131861
 31
0.0
  0
LINE
  5
B276
  8
1PHANTOM
 10
5545.758535350325
 20
-124.0824764243101
 30
0.0
 11
5546.070305206577
 21
-124.6707529993531
 31
0.0
  0
LINE
  5
B277
  8
1PHANTOM
 10
5541.658540860091
 20
-126.4504411632927
 30
0.0
 11
5541.758542023489
 21
-126.9504411632927
 31
0.0
  0
LINE
  5
B278
  8
1PHANTOM
 10
5541.758542023489
 20
-126.9504411632927
 30
0.0
 11
5542.558533243114
 21
-123.1768482154969
 31
0.0
  0
LINE
  5
B279
  8
1PHANTOM
 10
5542.558533243114
 20
-123.1768482154969
 30
0.0
 11
5542.687803940744
 21
-123.7134419507677
 31
0.0
  0
LINE
  5
B27A
  8
1PHANTOM
 10
5540.958532716311
 20
-122.9504411632927
 30
0.0
 11
5541.058533879708
 21
-123.4504411632927
 31
0.0
  0
LINE
  5
B27B
  8
1PHANTOM
 10
5540.058540860092
 20
-126.4504411632927
 30
0.0
 11
5540.158542023489
 21
-126.9504411632927
 31
0.0
  0
LINE
  5
B27C
  8
1PHANTOM
 10
5540.158542023489
 20
-126.9504411632927
 30
0.0
 11
5540.958532716311
 21
-122.9504411632927
 31
0.0
  0
LINE
  5
B27D
  8
1PHANTOM
 10
5543.245771457528
 20
-126.0295265660846
 30
0.0
 11
5543.358540969879
 21
-126.4976250212342
 31
0.0
  0
LINE
  5
B27E
  8
1PHANTOM
 10
5535.358542023489
 20
-126.9504411632927
 30
0.0
 11
5536.158532716311
 21
-122.9504411632927
 31
0.0
  0
LINE
  5
B27F
  8
1PHANTOM
 10
5533.658540860091
 20
-126.4504411632927
 30
0.0
 11
5533.758542023489
 21
-126.9504411632927
 31
0.0
  0
LINE
  5
B280
  8
1PHANTOM
 10
5534.558532716312
 20
-122.9504411632927
 30
0.0
 11
5534.658533879709
 21
-123.4504411632927
 31
0.0
  0
LINE
  5
B281
  8
1PHANTOM
 10
5535.258540860092
 20
-126.4504411632927
 30
0.0
 11
5535.358542023489
 21
-126.9504411632927
 31
0.0
  0
LINE
  5
B282
  8
1PHANTOM
 10
5533.758542023489
 20
-126.9504411632927
 30
0.0
 11
5534.558532716312
 21
-122.9504411632927
 31
0.0
  0
LINE
  5
B283
  8
1PHANTOM
 10
5536.158532716311
 20
-122.9504411632927
 30
0.0
 11
5536.258533879709
 21
-123.4504411632927
 31
0.0
  0
LINE
  5
B284
  8
1PHANTOM
 10
5536.858540860092
 20
-126.4504411632927
 30
0.0
 11
5536.958542023489
 21
-126.9504411632927
 31
0.0
  0
LINE
  5
B285
  8
1PHANTOM
 10
5538.458540860091
 20
-126.4504411632927
 30
0.0
 11
5538.558542023488
 21
-126.9504411632927
 31
0.0
  0
LINE
  5
B286
  8
1PHANTOM
 10
5539.358532716312
 20
-122.9504411632927
 30
0.0
 11
5539.458533879709
 21
-123.4504411632927
 31
0.0
  0
LINE
  5
B287
  8
1PHANTOM
 10
5538.558542023488
 20
-126.9504411632927
 30
0.0
 11
5539.358532716312
 21
-122.9504411632927
 31
0.0
  0
LINE
  5
B288
  8
1PHANTOM
 10
5537.758532716311
 20
-122.9504411632927
 30
0.0
 11
5537.858533879708
 21
-123.4504411632927
 31
0.0
  0
LINE
  5
B289
  8
1PHANTOM
 10
5536.958542023489
 20
-126.9504411632927
 30
0.0
 11
5537.758532716311
 21
-122.9504411632927
 31
0.0
  0
LINE
  5
B28A
  8
1HATCH
 10
5531.358537379952
 20
-121.9504876991908
 30
0.0
 11
5531.358537379952
 21
-127.9504876991908
 31
0.0
  0
LINE
  5
B28B
  8
1PHANTOM
 10
5531.358537469952
 20
-121.9504876991908
 30
0.0
 11
5531.058537369952
 21
-121.9504876991908
 31
0.0
  0
LINE
  5
B28C
  8
1PHANTOM
 10
5531.058537369952
 20
-121.9504876991908
 30
0.0
 11
5531.058537369952
 21
-127.9504876991908
 31
0.0
  0
LINE
  5
B28D
  8
1PHANTOM
 10
5531.358537379952
 20
-127.9504876991908
 30
0.0
 11
5531.058537369952
 21
-127.9504876991908
 31
0.0
  0
LINE
  5
B28E
  8
1PHANTOM
 10
5532.858584161969
 20
-126.4504411632927
 30
0.0
 11
5531.358537379952
 21
-127.9504876991908
 31
0.0
  0
LINE
  5
B28F
  8
1PHANTOM
 10
5532.858491045162
 20
-123.4504411632927
 30
0.0
 11
5531.358537469952
 21
-121.9504876991908
 31
0.0
  0
LINE
  5
B290
  8
1PHANTOM
 10
5532.858533879708
 20
-123.4504411632927
 30
0.0
 11
5532.958532716311
 21
-122.9504411632927
 31
0.0
  0
LINE
  5
B291
  8
1PHANTOM
 10
5532.958532716311
 20
-122.9504411632927
 30
0.0
 11
5533.058533879708
 21
-123.4504411632927
 31
0.0
  0
LINE
  5
B292
  8
1PHANTOM
 10
5541.758533879706
 20
-123.4504411632927
 30
0.0
 11
5532.858491045162
 21
-123.4504411632927
 31
0.0
  0
LINE
  5
B293
  8
1PHANTOM
 10
5541.758540860092
 20
-126.4504411632927
 30
0.0
 11
5532.858584161969
 21
-126.4504411632927
 31
0.0
  0
LINE
  5
B294
  8
1PHANTOM
 10
5547.058537369952
 20
-144.4504491632928
 30
0.0
 11
5541.758540860092
 21
-145.9504491632928
 31
0.0
  0
LINE
  5
B295
  8
1PHANTOM
 10
5547.058537369952
 20
-144.4504491632928
 30
0.0
 11
5541.758533879706
 21
-142.9504491632928
 31
0.0
  0
LINE
  5
B296
  8
1PHANTOM
 10
5543.358540969879
 20
-145.9976330212343
 30
0.0
 11
5544.15853429672
 21
-143.1296703199035
 31
0.0
  0
LINE
  5
B297
  8
1CENTER
 10
5549.984276274329
 20
-144.4504956991908
 30
0.0
 11
5528.91930327133
 21
-144.4504956991908
 31
0.0
  0
LINE
  5
B298
  8
1PHANTOM
 10
5544.958539916274
 20
-145.5448195131861
 30
0.0
 11
5545.758535350325
 21
-143.5824844243101
 31
0.0
  0
LINE
  5
B299
  8
1PHANTOM
 10
5544.15853429672
 20
-143.1296703199035
 30
0.0
 11
5544.341298439348
 21
-143.6814197837069
 31
0.0
  0
LINE
  5
B29A
  8
1PHANTOM
 10
5544.807104119834
 20
-145.0876476725547
 30
0.0
 11
5544.958539916274
 21
-145.5448195131861
 31
0.0
  0
LINE
  5
B29B
  8
1PHANTOM
 10
5545.758535350325
 20
-143.5824844243101
 30
0.0
 11
5546.070305206577
 21
-144.1707609993531
 31
0.0
  0
LINE
  5
B29C
  8
1PHANTOM
 10
5541.658540860091
 20
-145.9504491632928
 30
0.0
 11
5541.758542023489
 21
-146.4504491632928
 31
0.0
  0
LINE
  5
B29D
  8
1PHANTOM
 10
5541.758542023489
 20
-146.4504491632928
 30
0.0
 11
5542.558533243114
 21
-142.676856215497
 31
0.0
  0
LINE
  5
B29E
  8
1PHANTOM
 10
5542.558533243114
 20
-142.676856215497
 30
0.0
 11
5542.687803940744
 21
-143.2134499507678
 31
0.0
  0
LINE
  5
B29F
  8
1PHANTOM
 10
5540.958532716311
 20
-142.4504491632928
 30
0.0
 11
5541.058533879708
 21
-142.9504491632928
 31
0.0
  0
LINE
  5
B2A0
  8
1PHANTOM
 10
5540.058540860092
 20
-145.9504491632928
 30
0.0
 11
5540.158542023489
 21
-146.4504491632928
 31
0.0
  0
LINE
  5
B2A1
  8
1PHANTOM
 10
5540.158542023489
 20
-146.4504491632928
 30
0.0
 11
5540.958532716311
 21
-142.4504491632928
 31
0.0
  0
LINE
  5
B2A2
  8
1PHANTOM
 10
5543.245771457528
 20
-145.5295345660846
 30
0.0
 11
5543.358540969879
 21
-145.9976330212343
 31
0.0
  0
LINE
  5
B2A3
  8
1PHANTOM
 10
5535.358542023489
 20
-146.4504491632928
 30
0.0
 11
5536.158532716311
 21
-142.4504491632928
 31
0.0
  0
LINE
  5
B2A4
  8
1PHANTOM
 10
5533.658540860091
 20
-145.9504491632928
 30
0.0
 11
5533.758542023489
 21
-146.4504491632928
 31
0.0
  0
LINE
  5
B2A5
  8
1PHANTOM
 10
5534.558532716312
 20
-142.4504491632928
 30
0.0
 11
5534.658533879709
 21
-142.9504491632928
 31
0.0
  0
LINE
  5
B2A6
  8
1PHANTOM
 10
5535.258540860092
 20
-145.9504491632928
 30
0.0
 11
5535.358542023489
 21
-146.4504491632928
 31
0.0
  0
LINE
  5
B2A7
  8
1PHANTOM
 10
5533.758542023489
 20
-146.4504491632928
 30
0.0
 11
5534.558532716312
 21
-142.4504491632928
 31
0.0
  0
LINE
  5
B2A8
  8
1PHANTOM
 10
5536.158532716311
 20
-142.4504491632928
 30
0.0
 11
5536.258533879709
 21
-142.9504491632928
 31
0.0
  0
LINE
  5
B2A9
  8
1PHANTOM
 10
5536.858540860092
 20
-145.9504491632928
 30
0.0
 11
5536.958542023489
 21
-146.4504491632928
 31
0.0
  0
LINE
  5
B2AA
  8
1PHANTOM
 10
5538.458540860091
 20
-145.9504491632928
 30
0.0
 11
5538.558542023488
 21
-146.4504491632928
 31
0.0
  0
LINE
  5
B2AB
  8
1PHANTOM
 10
5539.358532716312
 20
-142.4504491632928
 30
0.0
 11
5539.458533879709
 21
-142.9504491632928
 31
0.0
  0
LINE
  5
B2AC
  8
1PHANTOM
 10
5538.558542023488
 20
-146.4504491632928
 30
0.0
 11
5539.358532716312
 21
-142.4504491632928
 31
0.0
  0
LINE
  5
B2AD
  8
1PHANTOM
 10
5537.758532716311
 20
-142.4504491632928
 30
0.0
 11
5537.858533879708
 21
-142.9504491632928
 31
0.0
  0
LINE
  5
B2AE
  8
1PHANTOM
 10
5536.958542023489
 20
-146.4504491632928
 30
0.0
 11
5537.758532716311
 21
-142.4504491632928
 31
0.0
  0
LINE
  5
B2AF
  8
1HATCH
 10
5531.358537379952
 20
-141.4504956991908
 30
0.0
 11
5531.358537379952
 21
-147.4504956991908
 31
0.0
  0
LINE
  5
B2B0
  8
1PHANTOM
 10
5531.358537469952
 20
-141.4504956991908
 30
0.0
 11
5531.058537369952
 21
-141.4504956991908
 31
0.0
  0
LINE
  5
B2B1
  8
1PHANTOM
 10
5531.058537369952
 20
-141.4504956991908
 30
0.0
 11
5531.058537369952
 21
-147.4504956991908
 31
0.0
  0
LINE
  5
B2B2
  8
1PHANTOM
 10
5531.358537379952
 20
-147.4504956991908
 30
0.0
 11
5531.058537369952
 21
-147.4504956991908
 31
0.0
  0
LINE
  5
B2B3
  8
1PHANTOM
 10
5532.858584161969
 20
-145.9504491632928
 30
0.0
 11
5531.358537379952
 21
-147.4504956991908
 31
0.0
  0
LINE
  5
B2B4
  8
1PHANTOM
 10
5532.858491045162
 20
-142.9504491632928
 30
0.0
 11
5531.358537469952
 21
-141.4504956991908
 31
0.0
  0
LINE
  5
B2B5
  8
1PHANTOM
 10
5532.858533879708
 20
-142.9504491632928
 30
0.0
 11
5532.958532716311
 21
-142.4504491632928
 31
0.0
  0
LINE
  5
B2B6
  8
1PHANTOM
 10
5532.958532716311
 20
-142.4504491632928
 30
0.0
 11
5533.058533879708
 21
-142.9504491632928
 31
0.0
  0
LINE
  5
B2B7
  8
1PHANTOM
 10
5541.758533879706
 20
-142.9504491632928
 30
0.0
 11
5532.858491045162
 21
-142.9504491632928
 31
0.0
  0
LINE
  5
B2B8
  8
1PHANTOM
 10
5541.758540860092
 20
-145.9504491632928
 30
0.0
 11
5532.858584161969
 21
-145.9504491632928
 31
0.0
  0
LINE
  5
B2C1
  8
1DIM
 10
5502.613190241867
 20
-178.39510827032
 30
0.0
 11
5558.113190241867
 21
-178.39510827032
 31
0.0
  0
LINE
  5
B2C2
  8
1DIM
 10
5561.363190241867
 20
-181.64510827032
 30
0.0
 11
5561.363190241867
 21
-197.14510827032
 31
0.0
  0
ARC
  5
B2C3
  8
1DIM
 10
5558.113190241867
 20
-181.64510827032
 30
0.0
 40
3.25
 50
0.0
 51
90.0
  0
LINE
  5
B2C4
  8
01
 10
5502.613190241867
 20
-176.89510827032
 30
0.0
 11
5502.613190241867
 21
-179.8951082703199
 31
0.0
  0
LINE
  5
B2C5
  8
01
 10
5559.863190241867
 20
-197.14510827032
 30
0.0
 11
5562.863190241867
 21
-197.14510827032
 31
0.0
  0
LINE
  5
B2C6
  8
01
 10
5502.613190241867
 20
-176.89510827032
 30
0.0
 11
5558.113190241867
 21
-176.89510827032
 31
0.0
  0
ARC
  5
B2C7
  8
01
 10
5558.113190241867
 20
-181.64510827032
 30
0.0
 40
4.75
 50
0.0
 51
90.0
  0
LINE
  5
B2C8
  8
01
 10
5562.863190241867
 20
-181.64510827032
 30
0.0
 11
5562.863190241867
 21
-197.14510827032
 31
0.0
  0
LINE
  5
B2C9
  8
01
 10
5559.863190241867
 20
-181.64510827032
 30
0.0
 11
5559.863190241867
 21
-197.14510827032
 31
0.0
  0
LINE
  5
B2CA
  8
01
 10
5502.613190241867
 20
-179.8951082703199
 30
0.0
 11
5558.113190241867
 21
-179.89510827032
 31
0.0
  0
ARC
  5
B2CB
  8
01
 10
5558.113190241867
 20
-181.64510827032
 30
0.0
 40
1.75
 50
0.0
 51
90.0
  0
TEXT
  5
B2CC
  8
1TEXT
 10
5514.968154676709
 20
-191.5639167105574
 30
0.0
 40
2.0
  1
【付属品】φ4×16十字穴付皿タッピンD6
 41
0.7
 72
     1
 11
5531.959682454487
 21
-190.5639167105574
 31
0.0
 73
     2
  0
TEXT
  5
B2CD
  8
1TEXT
 10
5514.786349121154
 20
-172.0540673792248
 30
0.0
 40
2.0
  1
【付属品】レバーハンドル取付用六角レンチ
 41
0.7
 72
     1
 11
5531.959682454487
 21
-171.0540673792248
 31
0.0
 73
     2
  0
TEXT
  5
B2CF
  8
1TEXT
 10
5560.481457590113
 20
-125.8012172950985
 30
0.0
 40
4.0
  1
LZPLX2
  0
LINE
  5
B392
  8
01
 10
5477.003617861346
 20
-170.1854217193331
 30
0.0
 11
5477.003617861346
 21
-196.8599339421706
 31
0.0
  0
LINE
  5
B393
  8
01
 10
5466.352649911134
 20
-170.1853900962101
 30
0.0
 11
5466.352649911134
 21
-196.8599339421705
 31
0.0
  0
LINE
  5
B394
  8
01
 10
5462.178066430602
 20
-197.8599339421705
 30
0.0
 11
5481.178066430602
 21
-197.8599339421706
 31
0.0
  0
LINE
  5
B395
  8
01
 10
5481.678066430602
 20
-199.8599339421705
 30
0.0
 11
5461.678066430602
 21
-199.8599339421705
 31
0.0
  0
ARC
  5
B396
  8
01
 10
5462.178066430602
 20
-198.3599339421705
 30
0.0
 40
0.5
 50
90.0
 51
180.0
  0
LINE
  5
B397
  8
01
 10
5461.678066430602
 20
-199.8599339421705
 30
0.0
 11
5461.678066430602
 21
-198.3599339421705
 31
0.0
  0
LINE
  5
B398
  8
1DIM
 10
5471.678077989398
 20
-198.1599339421705
 30
0.0
 11
5471.978077989398
 21
-197.8599339421705
 31
0.0
  0
LINE
  5
B399
  8
1DIM
 10
5471.678077989398
 20
-198.1599339421705
 30
0.0
 11
5471.378077989398
 21
-197.8599339421705
 31
0.0
  0
ARC
  5
B39A
  8
01
 10
5481.178066430602
 20
-198.3599339421706
 30
0.0
 40
0.5
 50
0.0
 51
90.0
  0
LINE
  5
B39B
  8
01
 10
5481.678066430602
 20
-199.8599339421706
 30
0.0
 11
5481.678066430602
 21
-198.3599339421706
 31
0.0
  0
LINE
  5
B39C
  8
1DIM
 10
5466.352649911134
 20
-170.1853900962101
 30
0.0
 11
5477.003617861346
 21
-170.1854217193331
 31
0.0
  0
LINE
  5
B39D
  8
01
 10
5475.67820331216
 20
-168.8599990905448
 30
0.0
 11
5477.003617861346
 21
-170.1854217193331
 31
0.0
  0
LINE
  5
B39E
  8
01
 10
5467.67819371171
 20
-168.8598687898747
 30
0.0
 11
5466.352649911134
 21
-170.1853900962101
 31
0.0
  0
LINE
  5
B39F
  8
01
 10
5475.67820331216
 20
-168.8599990905448
 30
0.0
 11
5467.67819371171
 21
-168.8598687898747
 31
0.0
  0
ARC
  5
B3A4
  8
01
 10
5465.352649911134
 20
-196.8599339421705
 30
0.0
 40
1.0
 50
270.0
 51
0.0
  0
ARC
  5
B3A5
  8
01
 10
5478.003617861346
 20
-196.8599339421706
 30
0.0
 40
1.0
 50
180.0
 51
270.0
  0
LINE
  5
B3A6
  8
1CENTER
 10
5467.928066430602
 20
-193.9158633291943
 30
0.0
 11
5467.928066430602
 21
-208.6665753076613
 31
0.0
  0
LINE
  5
B3A7
  8
1CENTER
 10
5475.428066430602
 20
-193.9158633291943
 30
0.0
 11
5475.428066430602
 21
-208.6665753076613
 31
0.0
  0
LINE
  5
B3A8
  8
01
 10
5477.003617861346
 20
-170.1854217193331
 30
0.0
 11
5477.003617861346
 21
-196.8599339421706
 31
0.0
  0
LINE
  5
B3A9
  8
01
 10
5466.352649911134
 20
-170.1853900962101
 30
0.0
 11
5466.352649911134
 21
-196.8599339421705
 31
0.0
  0
LINE
  5
B3AA
  8
01
 10
5462.178066430602
 20
-197.8599339421705
 30
0.0
 11
5481.178066430602
 21
-197.8599339421706
 31
0.0
  0
LINE
  5
B3AB
  8
1DIM
 10
5471.678077989398
 20
-198.1599339421705
 30
0.0
 11
5471.978077989398
 21
-197.8599339421705
 31
0.0
  0
LINE
  5
B3AC
  8
1DIM
 10
5471.678077989398
 20
-198.1599339421705
 30
0.0
 11
5471.378077989398
 21
-197.8599339421705
 31
0.0
  0
ARC
  5
B3AD
  8
01
 10
5481.178066430602
 20
-198.3599339421706
 30
0.0
 40
0.5
 50
0.0
 51
90.0
  0
LINE
  5
B3AE
  8
01
 10
5481.678066430602
 20
-199.8599339421706
 30
0.0
 11
5481.678066430602
 21
-198.3599339421706
 31
0.0
  0
LINE
  5
B3AF
  8
1DIM
 10
5466.352649911134
 20
-170.1853900962101
 30
0.0
 11
5477.003617861346
 21
-170.1854217193331
 31
0.0
  0
LINE
  5
B3B0
  8
01
 10
5475.67820331216
 20
-168.8599990905448
 30
0.0
 11
5477.003617861346
 21
-170.1854217193331
 31
0.0
  0
LINE
  5
B3B1
  8
01
 10
5467.67819371171
 20
-168.8598687898747
 30
0.0
 11
5466.352649911134
 21
-170.1853900962101
 31
0.0
  0
LINE
  5
B3B2
  8
01
 10
5475.67820331216
 20
-168.8599990905448
 30
0.0
 11
5467.67819371171
 21
-168.8598687898747
 31
0.0
  0
ARC
  5
B3B7
  8
01
 10
5465.352649911134
 20
-196.8599339421705
 30
0.0
 40
1.0
 50
270.0
 51
0.0
  0
ARC
  5
B3B8
  8
01
 10
5478.003617861346
 20
-196.8599339421706
 30
0.0
 40
1.0
 50
180.0
 51
270.0
  0
LINE
  5
B3B9
  8
1CENTER
 10
5467.928066430602
 20
-193.9158633291943
 30
0.0
 11
5467.928066430602
 21
-208.6665753076613
 31
0.0
  0
LINE
  5
B3BA
  8
1CENTER
 10
5475.428066430602
 20
-193.9158633291943
 30
0.0
 11
5475.428066430602
 21
-208.6665753076613
 31
0.0
  0
LINE
  5
B3BB
  8
01
 10
5477.003617861346
 20
-170.1854217193331
 30
0.0
 11
5477.003617861346
 21
-196.8599339421706
 31
0.0
  0
LINE
  5
B3BC
  8
01
 10
5466.352649911134
 20
-170.1853900962101
 30
0.0
 11
5466.352649911134
 21
-196.8599339421705
 31
0.0
  0
LINE
  5
B3BD
  8
01
 10
5462.178066430602
 20
-197.8599339421705
 30
0.0
 11
5481.178066430602
 21
-197.8599339421706
 31
0.0
  0
LINE
  5
B3BE
  8
01
 10
5481.678066430602
 20
-199.8599339421705
 30
0.0
 11
5461.678066430602
 21
-199.8599339421705
 31
0.0
  0
ARC
  5
B3BF
  8
01
 10
5462.178066430602
 20
-198.3599339421705
 30
0.0
 40
0.5
 50
90.0
 51
180.0
  0
LINE
  5
B3C0
  8
01
 10
5461.678066430602
 20
-199.8599339421705
 30
0.0
 11
5461.678066430602
 21
-198.3599339421705
 31
0.0
  0
LINE
  5
B3C1
  8
1DIM
 10
5471.678077989398
 20
-198.1599339421705
 30
0.0
 11
5471.978077989398
 21
-197.8599339421705
 31
0.0
  0
LINE
  5
B3C2
  8
1DIM
 10
5471.678077989398
 20
-198.1599339421705
 30
0.0
 11
5471.378077989398
 21
-197.8599339421705
 31
0.0
  0
ARC
  5
B3C3
  8
01
 10
5481.178066430602
 20
-198.3599339421706
 30
0.0
 40
0.5
 50
0.0
 51
90.0
  0
LINE
  5
B3C4
  8
01
 10
5481.678066430602
 20
-199.8599339421706
 30
0.0
 11
5481.678066430602
 21
-198.3599339421706
 31
0.0
  0
LINE
  5
B3C5
  8
1DIM
 10
5466.352649911134
 20
-170.1853900962101
 30
0.0
 11
5477.003617861346
 21
-170.1854217193331
 31
0.0
  0
LINE
  5
B3C6
  8
01
 10
5475.67820331216
 20
-168.8599990905448
 30
0.0
 11
5477.003617861346
 21
-170.1854217193331
 31
0.0
  0
LINE
  5
B3C7
  8
01
 10
5467.67819371171
 20
-168.8598687898747
 30
0.0
 11
5466.352649911134
 21
-170.1853900962101
 31
0.0
  0
LINE
  5
B3C8
  8
01
 10
5475.67820331216
 20
-168.8599990905448
 30
0.0
 11
5467.67819371171
 21
-168.8598687898747
 31
0.0
  0
ARC
  5
B3CD
  8
01
 10
5465.352649911134
 20
-196.8599339421705
 30
0.0
 40
1.0
 50
270.0
 51
0.0
  0
ARC
  5
B3CE
  8
01
 10
5478.003617861346
 20
-196.8599339421706
 30
0.0
 40
1.0
 50
180.0
 51
270.0
  0
LINE
  5
B3CF
  8
1CENTER
 10
5467.928066430602
 20
-193.9158633291943
 30
0.0
 11
5467.928066430602
 21
-208.6665753076613
 31
0.0
  0
LINE
  5
B3D0
  8
1CENTER
 10
5475.428066430602
 20
-193.9158633291943
 30
0.0
 11
5475.428066430602
 21
-208.6665753076613
 31
0.0
  0
LINE
  5
B3D1
  8
01
 10
5477.003617861346
 20
-170.1854217193331
 30
0.0
 11
5477.003617861346
 21
-196.8599339421706
 31
0.0
  0
LINE
  5
B3D2
  8
01
 10
5466.352649911134
 20
-170.1853900962101
 30
0.0
 11
5466.352649911134
 21
-196.8599339421705
 31
0.0
  0
LINE
  5
B3D3
  8
01
 10
5462.178066430602
 20
-197.8599339421705
 30
0.0
 11
5481.178066430602
 21
-197.8599339421706
 31
0.0
  0
LINE
  5
B3D4
  8
1DIM
 10
5471.678077989398
 20
-198.1599339421705
 30
0.0
 11
5471.978077989398
 21
-197.8599339421705
 31
0.0
  0
LINE
  5
B3D5
  8
1DIM
 10
5471.678077989398
 20
-198.1599339421705
 30
0.0
 11
5471.378077989398
 21
-197.8599339421705
 31
0.0
  0
ARC
  5
B3D6
  8
01
 10
5481.178066430602
 20
-198.3599339421706
 30
0.0
 40
0.5
 50
0.0
 51
90.0
  0
LINE
  5
B3D7
  8
01
 10
5481.678066430602
 20
-199.8599339421706
 30
0.0
 11
5481.678066430602
 21
-198.3599339421706
 31
0.0
  0
LINE
  5
B3D8
  8
1DIM
 10
5466.352649911134
 20
-170.1853900962101
 30
0.0
 11
5477.003617861346
 21
-170.1854217193331
 31
0.0
  0
LINE
  5
B3D9
  8
01
 10
5475.67820331216
 20
-168.8599990905448
 30
0.0
 11
5477.003617861346
 21
-170.1854217193331
 31
0.0
  0
LINE
  5
B3DA
  8
01
 10
5467.67819371171
 20
-168.8598687898747
 30
0.0
 11
5466.352649911134
 21
-170.1853900962101
 31
0.0
  0
LINE
  5
B3DB
  8
01
 10
5475.67820331216
 20
-168.8599990905448
 30
0.0
 11
5467.67819371171
 21
-168.8598687898747
 31
0.0
  0
ARC
  5
B3E0
  8
01
 10
5465.352649911134
 20
-196.8599339421705
 30
0.0
 40
1.0
 50
270.0
 51
0.0
  0
ARC
  5
B3E1
  8
01
 10
5478.003617861346
 20
-196.8599339421706
 30
0.0
 40
1.0
 50
180.0
 51
270.0
  0
LINE
  5
B3E2
  8
1CENTER
 10
5467.928066430602
 20
-193.9158633291943
 30
0.0
 11
5467.928066430602
 21
-208.6665753076613
 31
0.0
  0
LINE
  5
B3E3
  8
1CENTER
 10
5475.428066430602
 20
-193.9158633291943
 30
0.0
 11
5475.428066430602
 21
-208.6665753076613
 31
0.0
  0
ARC
  5
B3E4
  8
01
 10
5518.558523049447
 20
-138.8436658193696
 30
0.0
 40
3.0
 50
44.99985343376272
 51
135.0003746671858
  0
LINE
  5
B3E5
  8
01
 10
5520.679848819472
 20
-136.7223509022888
 30
0.0
 11
5523.98353119365
 21
-140.0260501785688
 31
0.0
  0
LINE
  5
B3E6
  8
01
 10
5516.437178090659
 20
-136.7223486040948
 30
0.0
 11
5513.133492137348
 21
-140.0260443012576
 31
0.0
  0
ARC
  5
B3E7
  8
01
 10
5518.558523049447
 20
-138.8436658193696
 30
0.0
 40
3.0
 50
44.99985343376272
 51
135.0003746671858
  0
LINE
  5
B3E8
  8
01
 10
5520.679848819472
 20
-136.7223509022888
 30
0.0
 11
5523.98353119365
 21
-140.0260501785688
 31
0.0
  0
LINE
  5
B3E9
  8
01
 10
5516.437178090659
 20
-136.7223486040948
 30
0.0
 11
5513.133492137348
 21
-140.0260443012576
 31
0.0
  0
ARC
  5
B3EA
  8
01
 10
5518.558523049447
 20
-138.8436658193696
 30
0.0
 40
3.0
 50
44.99985343376272
 51
135.0003746671858
  0
LINE
  5
B3EB
  8
01
 10
5520.679848819472
 20
-136.7223509022888
 30
0.0
 11
5523.98353119365
 21
-140.0260501785688
 31
0.0
  0
LINE
  5
B3EC
  8
01
 10
5516.437178090659
 20
-136.7223486040948
 30
0.0
 11
5513.133492137348
 21
-140.0260443012576
 31
0.0
  0
ARC
  5
B3ED
  8
01
 10
5518.558523049447
 20
-138.8436658193696
 30
0.0
 40
3.0
 50
44.99985343376272
 51
135.0003746671858
  0
LINE
  5
B3EE
  8
01
 10
5520.679848819472
 20
-136.7223509022888
 30
0.0
 11
5523.98353119365
 21
-140.0260501785688
 31
0.0
  0
LINE
  5
B3EF
  8
01
 10
5516.437178090659
 20
-136.7223486040948
 30
0.0
 11
5513.133492137348
 21
-140.0260443012576
 31
0.0
  0
LINE
  5
B3F1
  8
01
 10
5523.983385234487
 20
-140.025904218659
 30
0.0
 11
5530.058537369952
 21
-140.025904218659
 31
0.0
  0
LINE
  5
B4DD
  8
01
 10
5470.964478555795
 20
-180.6618934441617
 30
0.0
 11
5467.746219227593
 21
-183.9403137459431
 31
0.0
  0
LINE
  5
B4DE
  8
01
 10
5467.742441752999
 20
-186.7832524510075
 30
0.0
 11
5470.962602226284
 21
-190.0810945198587
 31
0.0
  0
LINE
  5
B4DF
  8
01
 10
5472.393561441167
 20
-190.0811020274772
 30
0.0
 11
5475.613597228466
 21
-186.7834568780591
 31
0.0
  0
ARC
  5
B4E0
  8
01
 10
5471.678085499151
 20
-189.382464656306
 30
0.0
 40
1.0
 50
224.3171808646539
 51
315.6822179234089
  0
LINE
  5
B4E1
  8
01
 10
5475.609824521493
 20
-183.9401047148986
 30
0.0
 11
5472.391722185646
 21
-180.6618886249398
 31
0.0
  0
ARC
  5
B4E2
  8
01
 10
5471.678102736129
 20
-181.3624221939221
 30
0.0
 40
1.0
 50
44.46982800520323
 51
135.5305589239015
  0
ARC
  5
B4E3
  8
01
 10
5469.196226241695
 20
-185.3637122639913
 30
0.0
 40
2.031891651177788
 50
135.5305589239492
 51
224.317180864694
  0
ARC
  5
B4E4
  8
01
 10
5474.159629018409
 20
-185.3637074939228
 30
0.0
 40
2.03216925220626
 50
315.6822179234229
 51
44.4698280052061
  0
LINE
  5
B4E5
  8
01
 10
5540.876934225415
 20
-211.1106461632507
 30
0.0
 11
5535.576937715554
 21
-212.6106461632507
 31
0.0
  0
LINE
  5
B4E6
  8
01
 10
5540.876934225415
 20
-211.1106461632507
 30
0.0
 11
5535.576930735169
 21
-209.6106461632507
 31
0.0
  0
LINE
  5
B4E7
  8
01
 10
5537.176937825341
 20
-212.6578300211922
 30
0.0
 11
5537.976931152182
 21
-209.7898673198615
 31
0.0
  0
LINE
  5
B4E8
  8
1CENTER
 10
5542.22067254449
 20
-211.1106926991488
 30
0.0
 11
5522.737700126792
 21
-211.1106926991488
 31
0.0
  0
LINE
  5
B4E9
  8
01
 10
5538.776936771736
 20
-212.205016513144
 30
0.0
 11
5539.576932205788
 21
-210.2426814242681
 31
0.0
  0
LINE
  5
B4EA
  8
01
 10
5537.976931152182
 20
-209.7898673198615
 30
0.0
 11
5538.15969529481
 21
-210.3416167836649
 31
0.0
  0
LINE
  5
B4EB
  8
01
 10
5538.625500975296
 20
-211.7478446725126
 30
0.0
 11
5538.776936771736
 21
-212.205016513144
 31
0.0
  0
LINE
  5
B4EC
  8
01
 10
5539.576932205788
 20
-210.2426814242681
 30
0.0
 11
5539.88870206204
 21
-210.830957999311
 31
0.0
  0
LINE
  5
B4ED
  8
01
 10
5535.476937715554
 20
-212.6106461632507
 30
0.0
 11
5535.576938878951
 21
-213.1106461632507
 31
0.0
  0
LINE
  5
B4EE
  8
01
 10
5535.576938878951
 20
-213.1106461632507
 30
0.0
 11
5536.376930098576
 21
-209.3370532154549
 31
0.0
  0
LINE
  5
B4EF
  8
01
 10
5536.376930098576
 20
-209.3370532154549
 30
0.0
 11
5536.506200796206
 21
-209.8736469507257
 31
0.0
  0
LINE
  5
B4F0
  8
01
 10
5534.776929571774
 20
-209.1106461632507
 30
0.0
 11
5534.87693073517
 21
-209.6106461632507
 31
0.0
  0
LINE
  5
B4F1
  8
01
 10
5533.876937715554
 20
-212.6106461632507
 30
0.0
 11
5533.976938878951
 21
-213.1106461632507
 31
0.0
  0
LINE
  5
B4F2
  8
01
 10
5533.976938878951
 20
-213.1106461632507
 30
0.0
 11
5534.776929571774
 21
-209.1106461632507
 31
0.0
  0
LINE
  5
B4F3
  8
01
 10
5537.064168312991
 20
-212.1897315660426
 30
0.0
 11
5537.176937825341
 21
-212.6578300211922
 31
0.0
  0
LINE
  5
B4F4
  8
01
 10
5529.176938878951
 20
-213.1106461632507
 30
0.0
 11
5529.976929571773
 21
-209.1106461632507
 31
0.0
  0
LINE
  5
B4F5
  8
01
 10
5527.476937715554
 20
-212.6106461632507
 30
0.0
 11
5527.576938878951
 21
-213.1106461632507
 31
0.0
  0
LINE
  5
B4F6
  8
01
 10
5528.376929571774
 20
-209.1106461632507
 30
0.0
 11
5528.476930735171
 21
-209.6106461632507
 31
0.0
  0
LINE
  5
B4F7
  8
01
 10
5529.076937715554
 20
-212.6106461632507
 30
0.0
 11
5529.176938878951
 21
-213.1106461632507
 31
0.0
  0
LINE
  5
B4F8
  8
01
 10
5527.576938878951
 20
-213.1106461632507
 30
0.0
 11
5528.376929571774
 21
-209.1106461632507
 31
0.0
  0
LINE
  5
B4F9
  8
01
 10
5529.976929571773
 20
-209.1106461632507
 30
0.0
 11
5530.076930735171
 21
-209.6106461632507
 31
0.0
  0
LINE
  5
B4FA
  8
01
 10
5530.676937715554
 20
-212.6106461632507
 30
0.0
 11
5530.776938878951
 21
-213.1106461632507
 31
0.0
  0
LINE
  5
B4FB
  8
01
 10
5532.276937715554
 20
-212.6106461632507
 30
0.0
 11
5532.376938878951
 21
-213.1106461632507
 31
0.0
  0
LINE
  5
B4FC
  8
01
 10
5533.176929571774
 20
-209.1106461632507
 30
0.0
 11
5533.276930735171
 21
-209.6106461632507
 31
0.0
  0
LINE
  5
B4FD
  8
01
 10
5532.376938878951
 20
-213.1106461632507
 30
0.0
 11
5533.176929571774
 21
-209.1106461632507
 31
0.0
  0
LINE
  5
B4FE
  8
01
 10
5531.576929571774
 20
-209.1106461632507
 30
0.0
 11
5531.676930735171
 21
-209.6106461632507
 31
0.0
  0
LINE
  5
B4FF
  8
01
 10
5530.776938878951
 20
-213.1106461632507
 30
0.0
 11
5531.576929571774
 21
-209.1106461632507
 31
0.0
  0
LINE
  5
B500
  8
1HATCH
 10
5525.176934235415
 20
-208.1106926991488
 30
0.0
 11
5525.176934235415
 21
-214.1106926991488
 31
0.0
  0
LINE
  5
B501
  8
01
 10
5525.176934325415
 20
-208.1106926991488
 30
0.0
 11
5524.876934225415
 21
-208.1106926991488
 31
0.0
  0
LINE
  5
B502
  8
01
 10
5524.876934225415
 20
-208.1106926991488
 30
0.0
 11
5524.876934225415
 21
-214.1106926991488
 31
0.0
  0
LINE
  5
B503
  8
01
 10
5525.176934235415
 20
-214.1106926991488
 30
0.0
 11
5524.876934225415
 21
-214.1106926991488
 31
0.0
  0
LINE
  5
B504
  8
01
 10
5526.676981017431
 20
-212.6106461632507
 30
0.0
 11
5525.176934235415
 21
-214.1106926991488
 31
0.0
  0
LINE
  5
B505
  8
01
 10
5526.676887900624
 20
-209.6106461632507
 30
0.0
 11
5525.176934325415
 21
-208.1106926991488
 31
0.0
  0
LINE
  5
B506
  8
01
 10
5526.676930735171
 20
-209.6106461632507
 30
0.0
 11
5526.776929571774
 21
-209.1106461632507
 31
0.0
  0
LINE
  5
B507
  8
01
 10
5526.776929571774
 20
-209.1106461632507
 30
0.0
 11
5526.87693073517
 21
-209.6106461632507
 31
0.0
  0
LINE
  5
B508
  8
01
 10
5535.576930735169
 20
-209.6106461632507
 30
0.0
 11
5526.676887900624
 21
-209.6106461632507
 31
0.0
  0
LINE
  5
B509
  8
01
 10
5535.576937715554
 20
-212.6106461632507
 30
0.0
 11
5526.676981017431
 21
-212.6106461632507
 31
0.0
  0
LINE
  5
B559
  8
01
 10
5499.852926477961
 20
-166.6346271234464
 30
0.0
 11
5566.072205917753
 21
-166.6346271234464
 31
0.0
  0
LINE
  5
B55A
  8
01
 10
5566.072205917753
 20
-166.6346271234464
 30
0.0
 11
5566.072205917753
 21
-217.8278429635718
 31
0.0
  0
LINE
  5
B55B
  8
01
 10
5566.072205917753
 20
-217.8278429635718
 30
0.0
 11
5499.852926477961
 21
-217.8278429635718
 31
0.0
  0
LINE
  5
B55C
  8
01
 10
5499.852926477961
 20
-217.8278429635718
 30
0.0
 11
5499.852926477961
 21
-166.6346271234464
 31
0.0
  0
LINE
  5
B55D
  8
1DIM
 10
5465.678065364809
 20
-152.7004865037832
 30
0.0
 11
5451.6
 21
-152.7004865037832
 31
0.0
1001
ACAD
1000
DSTYLE
1002
{
1070
    40
1040
0.5
1002
}
  0
LINE
  5
B55E
  8
1DIM
 10
5465.678063430602
 20
-116.7004888945974
 30
0.0
 11
5451.6
 21
-116.7004888945974
 31
0.0
1001
ACAD
1000
DSTYLE
1002
{
1070
    40
1040
0.5
1002
}
  0
LINE
  5
B55F
  8
1DIM
 10
5452.1
 20
-151.7004865037832
 30
0.0
 11
5452.1
 21
-117.7004888945974
 31
0.0
1001
ACAD
1000
DSTYLE
1002
{
1070
    40
1040
0.5
1002
}
  0
LINE
  5
B563
  8
1DIM
 10
5461.678066430602
 20
-134.7004876991908
 30
0.0
 11
5461.678066430602
 21
-162.2604855202347
 31
0.0
1001
ACAD
1000
DSTYLE
1002
{
1070
    40
1040
0.5
1002
}
  0
LINE
  5
B564
  8
1DIM
 10
5481.678066430602
 20
-134.7004876991908
 30
0.0
 11
5481.678066430602
 21
-162.2604855202347
 31
0.0
1001
ACAD
1000
DSTYLE
1002
{
1070
    40
1040
0.5
1002
}
  0
LINE
  5
B565
  8
1DIM
 10
5462.678066430602
 20
-161.7604855202347
 30
0.0
 11
5480.678066430602
 21
-161.7604855202347
 31
0.0
1001
ACAD
1000
DSTYLE
1002
{
1070
    40
1040
0.5
1002
}
  0
LINE
  5
B569
  8
1DIM
 10
5475.428066430602
 20
-144.4504876991905
 30
0.0
 11
5455.476682170769
 21
-144.4504876991905
 31
0.0
1001
ACAD
1000
DSTYLE
1002
{
1070
    70
1070
     0
1070
    69
1070
     0
1070
    40
1040
0.5
1002
}
  0
LINE
  5
B56A
  8
1DIM
 10
5467.928066430602
 20
-124.9504876991908
 30
0.0
 11
5455.476682170769
 21
-124.9504876991908
 31
0.0
1001
ACAD
1000
DSTYLE
1002
{
1070
    70
1070
     0
1070
    69
1070
     0
1070
    40
1040
0.5
1002
}
  0
LINE
  5
B56B
  8
1DIM
 10
5455.976682170769
 20
-143.4504876991905
 30
0.0
 11
5455.976682170769
 21
-125.9504876991908
 31
0.0
1001
ACAD
1000
DSTYLE
1002
{
1070
    70
1070
     0
1070
    69
1070
     0
1070
    40
1040
0.5
1002
}
  0
LINE
  5
B56F
  8
1DIM
 10
5467.928066430602
 20
-124.9504876991908
 30
0.0
 11
5467.928066430602
 21
-158.6805093201072
 31
0.0
1001
ACAD
1000
DSTYLE
1002
{
1070
    70
1070
     0
1070
    69
1070
     0
1070
    40
1040
0.5
1002
}
  0
LINE
  5
B570
  8
1DIM
 10
5475.428066430602
 20
-144.4504876991905
 30
0.0
 11
5475.428066430602
 21
-158.6805093201072
 31
0.0
1001
ACAD
1000
DSTYLE
1002
{
1070
    70
1070
     0
1070
    69
1070
     0
1070
    40
1040
0.5
1002
}
  0
LINE
  5
B571
  8
1DIM
 10
5468.928066430602
 20
-158.1805093201072
 30
0.0
 11
5474.428066430602
 21
-158.1805093201072
 31
0.0
1001
ACAD
1000
DSTYLE
1002
{
1070
    70
1070
     0
1070
    69
1070
     0
1070
    40
1040
0.5
1002
}
  0
LINE
  5
B575
  8
1DIM
 10
5502.058472224281
 20
-138.6999536774383
 30
0.0
 11
5502.058472224281
 21
-162.2604855202347
 31
0.0
1001
ACAD
1000
DSTYLE
1002
{
1070
    40
1040
0.5
1002
}
  0
LINE
  5
B576
  8
1DIM
 10
5533.058537369952
 20
-152.7004956991908
 30
0.0
 11
5533.058537369952
 21
-162.2604855202347
 31
0.0
1001
ACAD
1000
DSTYLE
1002
{
1070
    40
1040
0.5
1002
}
  0
LINE
  5
B577
  8
1DIM
 10
5503.058472224281
 20
-161.7604855202347
 30
0.0
 11
5532.058537369952
 21
-161.7604855202347
 31
0.0
1001
ACAD
1000
DSTYLE
1002
{
1070
    40
1040
0.5
1002
}
  0
LINE
  5
B57B
  8
1DIM
 10
5547.058372943221
 20
-144.4504956991908
 30
0.0
 11
5547.058372943221
 21
-162.2604855202347
 31
0.0
1001
ACAD
1000
DSTYLE
1002
{
1070
    40
1040
0.5
1002
}
  0
LINE
  5
B57C
  8
1DIM
 10
5533.058537369952
 20
-152.7004956991908
 30
0.0
 11
5533.058537369952
 21
-162.2604855202347
 31
0.0
1001
ACAD
1000
DSTYLE
1002
{
1070
    40
1040
0.5
1002
}
  0
LINE
  5
B57D
  8
1DIM
 10
5546.058372943221
 20
-161.7604855202347
 30
0.0
 11
5534.058537369952
 21
-161.7604855202347
 31
0.0
1001
ACAD
1000
DSTYLE
1002
{
1070
    40
1040
0.5
1002
}
  0
LINE
  5
B581
  8
1DIM
 10
5524.876934225415
 20
-199.7645936711266
 30
0.0
 11
5517.954953019896
 21
-199.7645936711266
 31
0.0
1001
ACAD
1000
DSTYLE
1002
{
1070
     3
1000
φ<>
1070
    40
1040
0.5
1002
}
  0
LINE
  5
B582
  8
1DIM
 10
5524.876934225415
 20
-193.7645936711266
 30
0.0
 11
5517.954953019896
 21
-193.7645936711266
 31
0.0
1001
ACAD
1000
DSTYLE
1002
{
1070
     3
1000
φ<>
1070
    40
1040
0.5
1002
}
  0
LINE
  5
B583
  8
1DIM
 10
5518.454953019896
 20
-198.7645936711266
 30
0.0
 11
5518.454953019896
 21
-194.7645936711266
 31
0.0
1001
ACAD
1000
DSTYLE
1002
{
1070
     3
1000
φ<>
1070
    40
1040
0.5
1002
}
  0
LINE
  5
B587
  8
1DIM
 10
5535.576938878951
 20
-198.7645471352286
 30
0.0
 11
5547.560708158858
 21
-198.7645471352286
 31
0.0
1001
ACAD
1000
DSTYLE
1002
{
1070
     3
1000
φ<>
1070
    40
1040
0.5
1002
}
  0
LINE
  5
B588
  8
1DIM
 10
5534.776929571774
 20
-194.7645471352286
 30
0.0
 11
5547.560708158858
 21
-194.7645471352286
 31
0.0
1001
ACAD
1000
DSTYLE
1002
{
1070
     3
1000
φ<>
1070
    40
1040
0.5
1002
}
  0
LINE
  5
B589
  8
1DIM
 10
5547.060708158858
 20
-197.7645471352286
 30
0.0
 11
5547.060708158858
 21
-195.7645471352286
 31
0.0
1001
ACAD
1000
DSTYLE
1002
{
1070
     3
1000
φ<>
1070
    40
1040
0.5
1002
}
  0
LINE
  5
B58D
  8
1DIM
 10
5524.876934225415
 20
-199.7645936711266
 30
0.0
 11
5524.876934225415
 21
-206.5088305864339
 31
0.0
1001
ACAD
1000
DSTYLE
1002
{
1070
    40
1040
0.5
1002
}
  0
LINE
  5
B58E
  8
1DIM
 10
5540.876934225415
 20
-196.7645471352286
 30
0.0
 11
5540.876934225415
 21
-206.5088305864339
 31
0.0
1001
ACAD
1000
DSTYLE
1002
{
1070
    40
1040
0.5
1002
}
  0
LINE
  5
B58F
  8
1DIM
 10
5525.876934225415
 20
-206.0088305864339
 30
0.0
 11
5539.876934225415
 21
-206.0088305864339
 31
0.0
1001
ACAD
1000
DSTYLE
1002
{
1070
    40
1040
0.5
1002
}
  0
LINE
  5
B593
  8
1DIM
 10
5471.678066430602
 20
-121.0136672641061
 30
0.0
 11
5471.678066430602
 21
-109.6846958577663
 31
0.0
1001
ACAD
1000
DSTYLE
1002
{
1070
     3
1000
(<>)
1070
    40
1040
0.5
1002
}
  0
LINE
  5
B594
  8
1DIM
 10
5467.928066430602
 20
-124.9504876991908
 30
0.0
 11
5467.928066430602
 21
-109.6846958577663
 31
0.0
1001
ACAD
1000
DSTYLE
1002
{
1070
     3
1000
(<>)
1070
    40
1040
0.5
1002
}
  0
LINE
  5
B595
  8
1DIM
 10
5467.928066430602
 20
-110.1846958577663
 30
0.0
 11
5458.728066430602
 21
-110.1846958577663
 31
0.0
1001
ACAD
1000
DSTYLE
1002
{
1070
     3
1000
(<>)
1070
    40
1040
0.5
1002
}
  0
LINE
  5
B596
  8
1DIM
 10
5470.678066430602
 20
-110.1846958577663
 30
0.0
 11
5468.928066430602
 21
-110.1846958577663
 31
0.0
1001
ACAD
1000
DSTYLE
1002
{
1070
     3
1000
(<>)
1070
    40
1040
0.5
1002
}
  0
LINE
  5
B59A
  8
1DIM
 10
5485.364886865687
 20
-134.7004876991908
 30
0.0
 11
5488.468657687228
 21
-134.7004876991908
 31
0.0
1001
ACAD
1000
DSTYLE
1002
{
1070
     3
1000
(<>)
1070
    40
1040
0.5
1002
}
  0
LINE
  5
B59B
  8
1DIM
 10
5467.928066430602
 20
-124.9504876991908
 30
0.0
 11
5488.468657687228
 21
-124.9504876991908
 31
0.0
1001
ACAD
1000
DSTYLE
1002
{
1070
     3
1000
(<>)
1070
    40
1040
0.5
1002
}
  0
LINE
  5
B59C
  8
1DIM
 10
5487.968657687228
 20
-133.7004876991908
 30
0.0
 11
5487.968657687228
 21
-125.9504876991908
 31
0.0
1001
ACAD
1000
DSTYLE
1002
{
1070
     3
1000
(<>)
1070
    40
1040
0.5
1002
}
  0
LINE
  5
B5A0
  8
0
  6
BYBLOCK
 10
5452.36794919
 20
-151.7004865037832
 30
0.0
 11
5452.1
 21
-152.7004865037832
 31
0.0
  0
LINE
  5
B5A1
  8
0
  6
BYBLOCK
 10
5452.1
 20
-152.7004865037832
 30
0.0
 11
5451.832050810001
 21
-151.7004865037832
 31
0.0
  0
LINE
  5
B5A2
  8
0
  6
BYBLOCK
 10
5452.1
 20
-152.7004865037832
 30
0.0
 11
5452.1
 21
-151.7004865037832
 31
0.0
  0
LINE
  5
B5A3
  8
0
  6
BYBLOCK
 10
5451.832050810001
 20
-117.7004888945974
 30
0.0
 11
5452.1
 21
-116.7004888945974
 31
0.0
  0
LINE
  5
B5A4
  8
0
  6
BYBLOCK
 10
5452.1
 20
-116.7004888945974
 30
0.0
 11
5452.36794919
 21
-117.7004888945974
 31
0.0
  0
LINE
  5
B5A5
  8
0
  6
BYBLOCK
 10
5452.1
 20
-116.7004888945974
 30
0.0
 11
5452.1
 21
-117.7004888945974
 31
0.0
  0
TEXT
  5
B5A6
  8
1DIM
  6
CONTINUOUS
 10
5451.75
 20
-136.1588210325235
 30
0.0
 40
1.75
  1
36
 50
90.0
1001
ACAD
1000
DSTYLE
1002
{
1070
    40
1040
0.5
1002
}
  0
LINE
  5
B5A7
  8
0
  6
BYBLOCK
 10
5462.678066430602
 20
-162.0284347102347
 30
0.0
 11
5461.678066430602
 21
-161.7604855202347
 31
0.0
  0
LINE
  5
B5A8
  8
0
  6
BYBLOCK
 10
5461.678066430602
 20
-161.7604855202347
 30
0.0
 11
5462.678066430602
 21
-161.4925363302347
 31
0.0
  0
LINE
  5
B5A9
  8
0
  6
BYBLOCK
 10
5461.678066430602
 20
-161.7604855202347
 30
0.0
 11
5462.678066430602
 21
-161.7604855202347
 31
0.0
  0
LINE
  5
B5AA
  8
0
  6
BYBLOCK
 10
5480.678066430602
 20
-161.4925363302347
 30
0.0
 11
5481.678066430602
 21
-161.7604855202347
 31
0.0
  0
LINE
  5
B5AB
  8
0
  6
BYBLOCK
 10
5481.678066430602
 20
-161.7604855202347
 30
0.0
 11
5480.678066430602
 21
-162.0284347102347
 31
0.0
  0
LINE
  5
B5AC
  8
0
  6
BYBLOCK
 10
5481.678066430602
 20
-161.7604855202347
 30
0.0
 11
5480.678066430602
 21
-161.7604855202347
 31
0.0
  0
TEXT
  5
B5AD
  8
1DIM
  6
CONTINUOUS
 10
5470.329108097269
 20
-161.4104855202347
 30
0.0
 40
1.75
  1
20
1001
ACAD
1000
DSTYLE
1002
{
1070
    40
1040
0.5
1002
}
  0
LINE
  5
B5AE
  8
0
  6
BYBLOCK
 10
5456.244631360769
 20
-143.4504876991905
 30
0.0
 11
5455.976682170769
 21
-144.4504876991905
 31
0.0
  0
LINE
  5
B5AF
  8
0
  6
BYBLOCK
 10
5455.976682170769
 20
-144.4504876991905
 30
0.0
 11
5455.708732980769
 21
-143.4504876991905
 31
0.0
  0
LINE
  5
B5B0
  8
0
  6
BYBLOCK
 10
5455.976682170769
 20
-144.4504876991905
 30
0.0
 11
5455.976682170769
 21
-143.4504876991905
 31
0.0
  0
LINE
  5
B5B1
  8
0
  6
BYBLOCK
 10
5455.708732980769
 20
-125.9504876991908
 30
0.0
 11
5455.976682170769
 21
-124.9504876991908
 31
0.0
  0
LINE
  5
B5B2
  8
0
  6
BYBLOCK
 10
5455.976682170769
 20
-124.9504876991908
 30
0.0
 11
5456.244631360769
 21
-125.9504876991908
 31
0.0
  0
LINE
  5
B5B3
  8
0
  6
BYBLOCK
 10
5455.976682170769
 20
-124.9504876991908
 30
0.0
 11
5455.976682170769
 21
-125.9504876991908
 31
0.0
  0
TEXT
  5
B5B4
  8
1DIM
  6
CONTINUOUS
 10
5455.626682170769
 20
-137.9092261251162
 30
0.0
 40
1.75
  1
P19.5
 50
90.0
1001
ACAD
1000
DSTYLE
1002
{
1070
    70
1070
     0
1070
    69
1070
     0
1070
    40
1040
0.5
1002
}
  0
LINE
  5
B5B5
  8
0
  6
BYBLOCK
 10
5468.928066430602
 20
-158.4484585101072
 30
0.0
 11
5467.928066430602
 21
-158.1805093201072
 31
0.0
  0
LINE
  5
B5B6
  8
0
  6
BYBLOCK
 10
5467.928066430602
 20
-158.1805093201072
 30
0.0
 11
5468.928066430602
 21
-157.9125601301072
 31
0.0
  0
LINE
  5
B5B7
  8
0
  6
BYBLOCK
 10
5467.928066430602
 20
-158.1805093201072
 30
0.0
 11
5468.928066430602
 21
-158.1805093201072
 31
0.0
  0
LINE
  5
B5B8
  8
0
  6
BYBLOCK
 10
5474.428066430602
 20
-157.9125601301072
 30
0.0
 11
5475.428066430602
 21
-158.1805093201072
 31
0.0
  0
LINE
  5
B5B9
  8
0
  6
BYBLOCK
 10
5475.428066430602
 20
-158.1805093201072
 30
0.0
 11
5474.428066430602
 21
-158.4484585101072
 31
0.0
  0
LINE
  5
B5BA
  8
0
  6
BYBLOCK
 10
5475.428066430602
 20
-158.1805093201072
 30
0.0
 11
5474.428066430602
 21
-158.1805093201072
 31
0.0
  0
TEXT
  5
B5BB
  8
1DIM
  6
CONTINUOUS
 10
5469.053066430602
 20
-157.8305093201072
 30
0.0
 40
1.75
  1
P7.5
1001
ACAD
1000
DSTYLE
1002
{
1070
    70
1070
     0
1070
    69
1070
     0
1070
    40
1040
0.5
1002
}
  0
LINE
  5
B5BC
  8
0
  6
BYBLOCK
 10
5503.058472224281
 20
-162.0284347102347
 30
0.0
 11
5502.058472224281
 21
-161.7604855202347
 31
0.0
  0
LINE
  5
B5BD
  8
0
  6
BYBLOCK
 10
5502.058472224281
 20
-161.7604855202347
 30
0.0
 11
5503.058472224281
 21
-161.4925363302347
 31
0.0
  0
LINE
  5
B5BE
  8
0
  6
BYBLOCK
 10
5502.058472224281
 20
-161.7604855202347
 30
0.0
 11
5503.058472224281
 21
-161.7604855202347
 31
0.0
  0
LINE
  5
B5BF
  8
0
  6
BYBLOCK
 10
5532.058537369952
 20
-161.4925363302347
 30
0.0
 11
5533.058537369952
 21
-161.7604855202347
 31
0.0
  0
LINE
  5
B5C0
  8
0
  6
BYBLOCK
 10
5533.058537369952
 20
-161.7604855202347
 30
0.0
 11
5532.058537369952
 21
-162.0284347102347
 31
0.0
  0
LINE
  5
B5C1
  8
0
  6
BYBLOCK
 10
5533.058537369952
 20
-161.7604855202347
 30
0.0
 11
5532.058537369952
 21
-161.7604855202347
 31
0.0
  0
TEXT
  5
B5C2
  8
1DIM
  6
CONTINUOUS
 10
5516.391838130449
 20
-161.4104855202347
 30
0.0
 40
1.75
  1
31
1001
ACAD
1000
DSTYLE
1002
{
1070
    40
1040
0.5
1002
}
  0
LINE
  5
B5C3
  8
0
  6
BYBLOCK
 10
5546.058372943221
 20
-161.4925363302347
 30
0.0
 11
5547.058372943221
 21
-161.7604855202347
 31
0.0
  0
LINE
  5
B5C4
  8
0
  6
BYBLOCK
 10
5547.058372943221
 20
-161.7604855202347
 30
0.0
 11
5546.058372943221
 21
-162.0284347102347
 31
0.0
  0
LINE
  5
B5C5
  8
0
  6
BYBLOCK
 10
5547.058372943221
 20
-161.7604855202347
 30
0.0
 11
5546.058372943221
 21
-161.7604855202347
 31
0.0
  0
LINE
  5
B5C6
  8
0
  6
BYBLOCK
 10
5534.058537369952
 20
-162.0284347102347
 30
0.0
 11
5533.058537369952
 21
-161.7604855202347
 31
0.0
  0
LINE
  5
B5C7
  8
0
  6
BYBLOCK
 10
5533.058537369952
 20
-161.7604855202347
 30
0.0
 11
5534.058537369952
 21
-161.4925363302347
 31
0.0
  0
LINE
  5
B5C8
  8
0
  6
BYBLOCK
 10
5533.058537369952
 20
-161.7604855202347
 30
0.0
 11
5534.058537369952
 21
-161.7604855202347
 31
0.0
  0
TEXT
  5
B5C9
  8
1DIM
  6
CONTINUOUS
 10
5538.891788489919
 20
-161.4104855202347
 30
0.0
 40
1.75
  1
14
1001
ACAD
1000
DSTYLE
1002
{
1070
    40
1040
0.5
1002
}
  0
LINE
  5
B5CA
  8
0
  6
BYBLOCK
 10
5518.722902209896
 20
-198.7645936711266
 30
0.0
 11
5518.454953019896
 21
-199.7645936711266
 31
0.0
  0
LINE
  5
B5CB
  8
0
  6
BYBLOCK
 10
5518.454953019896
 20
-199.7645936711266
 30
0.0
 11
5518.187003829897
 21
-198.7645936711266
 31
0.0
  0
LINE
  5
B5CC
  8
0
  6
BYBLOCK
 10
5518.454953019896
 20
-199.7645936711266
 30
0.0
 11
5518.454953019896
 21
-198.7645936711266
 31
0.0
  0
LINE
  5
B5CD
  8
0
  6
BYBLOCK
 10
5518.187003829897
 20
-194.7645936711266
 30
0.0
 11
5518.454953019896
 21
-193.7645936711266
 31
0.0
  0
LINE
  5
B5CE
  8
0
  6
BYBLOCK
 10
5518.454953019896
 20
-193.7645936711266
 30
0.0
 11
5518.722902209896
 21
-194.7645936711266
 31
0.0
  0
LINE
  5
B5CF
  8
0
  6
BYBLOCK
 10
5518.454953019896
 20
-193.7645936711266
 30
0.0
 11
5518.454953019896
 21
-194.7645936711266
 31
0.0
  0
TEXT
  5
B5D0
  8
1DIM
  6
CONTINUOUS
 10
5518.104953019896
 20
-198.6312603377928
 30
0.0
 40
1.75
  1
φ6
 50
90.0
1001
ACAD
1000
DSTYLE
1002
{
1070
     3
1000
φ<>
1070
    40
1040
0.5
1002
}
  0
LINE
  5
B5D1
  8
0
  6
BYBLOCK
 10
5547.328657348858
 20
-197.7645471352286
 30
0.0
 11
5547.060708158858
 21
-198.7645471352286
 31
0.0
  0
LINE
  5
B5D2
  8
0
  6
BYBLOCK
 10
5547.060708158858
 20
-198.7645471352286
 30
0.0
 11
5546.792758968858
 21
-197.7645471352286
 31
0.0
  0
LINE
  5
B5D3
  8
0
  6
BYBLOCK
 10
5547.060708158858
 20
-198.7645471352286
 30
0.0
 11
5547.060708158858
 21
-197.7645471352286
 31
0.0
  0
LINE
  5
B5D4
  8
0
  6
BYBLOCK
 10
5546.792758968858
 20
-195.7645471352286
 30
0.0
 11
5547.060708158858
 21
-194.7645471352286
 31
0.0
  0
LINE
  5
B5D5
  8
0
  6
BYBLOCK
 10
5547.060708158858
 20
-194.7645471352286
 30
0.0
 11
5547.328657348858
 21
-195.7645471352286
 31
0.0
  0
LINE
  5
B5D6
  8
0
  6
BYBLOCK
 10
5547.060708158858
 20
-194.7645471352286
 30
0.0
 11
5547.060708158858
 21
-195.7645471352286
 31
0.0
  0
TEXT
  5
B5D7
  8
1DIM
  6
CONTINUOUS
 10
5546.710708158857
 20
-198.6312138018948
 30
0.0
 40
1.75
  1
φ4
 50
90.0
1001
ACAD
1000
DSTYLE
1002
{
1070
     3
1000
φ<>
1070
    40
1040
0.5
1002
}
  0
LINE
  5
B5D8
  8
0
  6
BYBLOCK
 10
5525.876934225415
 20
-206.2767797764339
 30
0.0
 11
5524.876934225415
 21
-206.0088305864339
 31
0.0
  0
LINE
  5
B5D9
  8
0
  6
BYBLOCK
 10
5524.876934225415
 20
-206.0088305864339
 30
0.0
 11
5525.876934225415
 21
-205.7408813964339
 31
0.0
  0
LINE
  5
B5DA
  8
0
  6
BYBLOCK
 10
5524.876934225415
 20
-206.0088305864339
 30
0.0
 11
5525.876934225415
 21
-206.0088305864339
 31
0.0
  0
LINE
  5
B5DB
  8
0
  6
BYBLOCK
 10
5539.876934225415
 20
-205.7408813964339
 30
0.0
 11
5540.876934225415
 21
-206.0088305864339
 31
0.0
  0
LINE
  5
B5DC
  8
0
  6
BYBLOCK
 10
5540.876934225415
 20
-206.0088305864339
 30
0.0
 11
5539.876934225415
 21
-206.2767797764339
 31
0.0
  0
LINE
  5
B5DD
  8
0
  6
BYBLOCK
 10
5540.876934225415
 20
-206.0088305864339
 30
0.0
 11
5539.876934225415
 21
-206.0088305864339
 31
0.0
  0
TEXT
  5
B5DE
  8
1DIM
  6
CONTINUOUS
 10
5531.710267558748
 20
-205.6588305864339
 30
0.0
 40
1.75
  1
16
1001
ACAD
1000
DSTYLE
1002
{
1070
    40
1040
0.5
1002
}
  0
LINE
  5
B5DF
  8
0
  6
BYBLOCK
 10
5470.678066430602
 20
-109.9167466677663
 30
0.0
 11
5471.678066430602
 21
-110.1846958577663
 31
0.0
  0
LINE
  5
B5E0
  8
0
  6
BYBLOCK
 10
5471.678066430602
 20
-110.1846958577663
 30
0.0
 11
5470.678066430602
 21
-110.4526450477663
 31
0.0
  0
LINE
  5
B5E1
  8
0
  6
BYBLOCK
 10
5471.678066430602
 20
-110.1846958577663
 30
0.0
 11
5470.678066430602
 21
-110.1846958577663
 31
0.0
  0
LINE
  5
B5E2
  8
0
  6
BYBLOCK
 10
5468.928066430602
 20
-110.4526450477663
 30
0.0
 11
5467.928066430602
 21
-110.1846958577663
 31
0.0
  0
LINE
  5
B5E3
  8
0
  6
BYBLOCK
 10
5467.928066430602
 20
-110.1846958577663
 30
0.0
 11
5468.928066430602
 21
-109.9167466677663
 31
0.0
  0
LINE
  5
B5E4
  8
0
  6
BYBLOCK
 10
5467.928066430602
 20
-110.1846958577663
 30
0.0
 11
5468.928066430602
 21
-110.1846958577663
 31
0.0
  0
TEXT
  5
B5E5
  8
1DIM
  6
CONTINUOUS
 10
5459.103240041713
 20
-109.3763625244329
 30
0.0
 40
1.75
  1
(3.75)
1001
ACAD
1000
DSTYLE
1002
{
1070
     3
1000
(<>)
1070
    40
1040
0.5
1002
}
  0
LINE
  5
B5E6
  8
0
  6
BYBLOCK
 10
5488.236606877228
 20
-133.7004876991908
 30
0.0
 11
5487.968657687228
 21
-134.7004876991908
 31
0.0
  0
LINE
  5
B5E7
  8
0
  6
BYBLOCK
 10
5487.968657687228
 20
-134.7004876991908
 30
0.0
 11
5487.700708497228
 21
-133.7004876991908
 31
0.0
  0
LINE
  5
B5E8
  8
0
  6
BYBLOCK
 10
5487.968657687228
 20
-134.7004876991908
 30
0.0
 11
5487.968657687228
 21
-133.7004876991908
 31
0.0
  0
LINE
  5
B5E9
  8
0
  6
BYBLOCK
 10
5487.700708497228
 20
-125.9504876991908
 30
0.0
 11
5487.968657687228
 21
-124.9504876991908
 31
0.0
  0
LINE
  5
B5EA
  8
0
  6
BYBLOCK
 10
5487.968657687228
 20
-124.9504876991908
 30
0.0
 11
5488.236606877228
 21
-125.9504876991908
 31
0.0
  0
LINE
  5
B5EB
  8
0
  6
BYBLOCK
 10
5487.968657687228
 20
-124.9504876991908
 30
0.0
 11
5487.968657687228
 21
-125.9504876991908
 31
0.0
  0
TEXT
  5
B5EC
  8
1DIM
  6
CONTINUOUS
 10
5487.160324353895
 20
-133.5507191806719
 30
0.0
 40
1.75
  1
(9.75)
 50
90.0
1001
ACAD
1000
DSTYLE
1002
{
1070
     3
1000
(<>)
1070
    40
1040
0.5
1002
}
  0
VIEWPORT
  5
57
 67
     1
  8
0
 10
0.0
 20
0.0
 30
0.0
 40
544.3287197231834
 41
297.0000000000001
 68
     1
 69
     1
1001
ACAD
1000
MVIEW
1002
{
1070
    16
1010
0.0
1020
0.0
1030
0.0
1010
0.0
1020
0.0
1030
1.0
1040
0.0
1040
297.0000000000001
1040
5.728000000000009
1040
25.339
1040
50.0
1040
0.0
1040
0.0
1070
    16
1070
   100
1070
     0
1070
     1
1070
     0
1070
     0
1070
     0
1070
     0
1040
0.0
1040
0.0
1040
0.0
1040
10.0
1040
10.0
1040
10.0
1040
10.0
1070
     0
1002
{
1002
}
1002
}
  0
ENDSEC
  0
EOF
