  0
SECTION
  2
HEADER
  9
$ACADVER
  1
AC1012
  9
$DWGCODEPAGE
  3
ansi_932
  9
$INSBASE
 10
0.0
 20
0.0
 30
0.0
  9
$EXTMIN
 10
5361.149265329701
 20
762.4738585539753
 30
0.0000000001127424
  9
$EXTMAX
 10
5679.577550712132
 20
1002.472540240873
 30
0.0000000002254849
  9
$LIMMIN
 10
0.0
 20
0.0
  9
$LIMMAX
 10
420.0
 20
297.0
  9
$ORTHOMODE
 70
     0
  9
$REGENMODE
 70
     1
  9
$FILLMODE
 70
     1
  9
$QTEXTMODE
 70
     0
  9
$MIRRTEXT
 70
     0
  9
$DRAGMODE
 70
     2
  9
$LTSCALE
 40
0.5
  9
$OSMODE
 70
 14463
  9
$ATTMODE
 70
     1
  9
$TEXTSIZE
 40
4.0
  9
$TRACEWID
 40
1.0
  9
$TEXTSTYLE
  7
STANDARD
  9
$CLAYER
  8
1TEXT
  9
$CELTYPE
  6
BYLAYER
  9
$CECOLOR
 62
   256
  9
$CELTSCALE
 40
1.0
  9
$DELOBJ
 70
     1
  9
$DISPSILH
 70
     0
  9
$DIMSCALE
 40
1.0
  9
$DIMASZ
 40
2.0
  9
$DIMEXO
 40
0.0
  9
$DIMDLI
 40
7.0
  9
$DIMRND
 40
0.0
  9
$DIMDLE
 40
0.0
  9
$DIMEXE
 40
1.0
  9
$DIMTP
 40
0.0
  9
$DIMTM
 40
0.0
  9
$DIMTXT
 40
3.5
  9
$DIMCEN
 40
0.0
  9
$DIMTSZ
 40
0.0
  9
$DIMTOL
 70
     0
  9
$DIMLIM
 70
     0
  9
$DIMTIH
 70
     0
  9
$DIMTOH
 70
     0
  9
$DIMSE1
 70
     0
  9
$DIMSE2
 70
     0
  9
$DIMTAD
 70
     1
  9
$DIMZIN
 70
     8
  9
$DIMBLK
  1

  9
$DIMASO
 70
     1
  9
$DIMSHO
 70
     1
  9
$DIMPOST
  1
 
  9
$DIMAPOST
  1

  9
$DIMALT
 70
     0
  9
$DIMALTD
 70
     2
  9
$DIMALTF
 40
25.4
  9
$DIMLFAC
 40
1.0
  9
$DIMTOFL
 70
     1
  9
$DIMTVP
 40
0.0
  9
$DIMTIX
 70
     0
  9
$DIMSOXD
 70
     0
  9
$DIMSAH
 70
     1
  9
$DIMBLK1
  1
OPEN30
  9
$DIMBLK2
  1
OPEN30
  9
$DIMSTYLE
  2
NEWX10
  9
$DIMCLRD
 70
   256
  9
$DIMCLRE
 70
   256
  9
$DIMCLRT
 70
   201
  9
$DIMTFAC
 40
0.7
  9
$DIMGAP
 40
0.7
  9
$DIMJUST
 70
     0
  9
$DIMSD1
 70
     0
  9
$DIMSD2
 70
     0
  9
$DIMTOLJ
 70
     1
  9
$DIMTZIN
 70
     8
  9
$DIMALTZ
 70
     0
  9
$DIMALTTZ
 70
     0
  9
$DIMFIT
 70
     2
  9
$DIMUPT
 70
     0
  9
$DIMUNIT
 70
     2
  9
$DIMDEC
 70
     2
  9
$DIMTDEC
 70
     4
  9
$DIMALTU
 70
     2
  9
$DIMALTTD
 70
     2
  9
$DIMTXSTY
  7
STANDARD
  9
$DIMAUNIT
 70
     0
  9
$LUNITS
 70
     2
  9
$LUPREC
 70
     4
  9
$SKETCHINC
 40
1.0
  9
$FILLETRAD
 40
0.0
  9
$AUNITS
 70
     0
  9
$AUPREC
 70
     2
  9
$MENU
  1
acad
  9
$ELEVATION
 40
0.0
  9
$PELEVATION
 40
0.0
  9
$THICKNESS
 40
0.0
  9
$LIMCHECK
 70
     0
  9
$CHAMFERA
 40
10.0
  9
$CHAMFERB
 40
10.0
  9
$CHAMFERC
 40
20.0
  9
$CHAMFERD
 40
0.0
  9
$SKPOLY
 70
     0
  9
$TDCREATE
 40
2451318.621352917
  9
$TDUPDATE
 40
2458152.631209005
  9
$TDINDWG
 40
1.4800835417
  9
$TDUSRTIMER
 40
1.4800835417
  9
$USRTIMER
 70
     1
  9
$ANGBASE
 50
0.0
  9
$ANGDIR
 70
     0
  9
$PDMODE
 70
     0
  9
$PDSIZE
 40
0.0
  9
$PLINEWID
 40
0.0
  9
$COORDS
 70
     2
  9
$SPLFRAME
 70
     0
  9
$SPLINETYPE
 70
     6
  9
$SPLINESEGS
 70
     8
  9
$ATTDIA
 70
     0
  9
$ATTREQ
 70
     1
  9
$HANDLING
 70
     1
  9
$HANDSEED
  5
B3F5
  9
$SURFTAB1
 70
     6
  9
$SURFTAB2
 70
     6
  9
$SURFTYPE
 70
     6
  9
$SURFU
 70
     6
  9
$SURFV
 70
     6
  9
$UCSNAME
  2

  9
$UCSORG
 10
0.0
 20
0.0
 30
0.0
  9
$UCSXDIR
 10
1.0
 20
0.0
 30
0.0
  9
$UCSYDIR
 10
0.0
 20
1.0
 30
0.0
  9
$PUCSNAME
  2

  9
$PUCSORG
 10
0.0
 20
0.0
 30
0.0
  9
$PUCSXDIR
 10
1.0
 20
0.0
 30
0.0
  9
$PUCSYDIR
 10
0.0
 20
1.0
 30
0.0
  9
$USERI1
 70
     0
  9
$USERI2
 70
     0
  9
$USERI3
 70
     0
  9
$USERI4
 70
     0
  9
$USERI5
 70
     0
  9
$USERR1
 40
0.0
  9
$USERR2
 40
0.0
  9
$USERR3
 40
0.0
  9
$USERR4
 40
0.0
  9
$USERR5
 40
0.0
  9
$WORLDVIEW
 70
     1
  9
$SHADEDGE
 70
     3
  9
$SHADEDIF
 70
    70
  9
$TILEMODE
 70
     1
  9
$MAXACTVP
 70
    48
  9
$PINSBASE
 10
0.0
 20
0.0
 30
0.0
  9
$PLIMCHECK
 70
     0
  9
$PEXTMIN
 10
1.000000000000000E+20
 20
1.000000000000000E+20
 30
1.000000000000000E+20
  9
$PEXTMAX
 10
-1.000000000000000E+20
 20
-1.000000000000000E+20
 30
-1.000000000000000E+20
  9
$PLIMMIN
 10
0.0
 20
0.0
  9
$PLIMMAX
 10
420.0
 20
297.0
  9
$UNITMODE
 70
     0
  9
$VISRETAIN
 70
     1
  9
$PLINEGEN
 70
     0
  9
$PSLTSCALE
 70
     1
  9
$TREEDEPTH
 70
  3020
  9
$PICKSTYLE
 70
     1
  9
$CMLSTYLE
  2
STANDARD
  9
$CMLJUST
 70
     0
  9
$CMLSCALE
 40
20.0
  9
$SAVEIMAGES
 70
     1
  0
ENDSEC
  0
SECTION
  2
CLASSES
  0
CLASS
  1
DICTIONARYVAR
  2
AcDbDictionaryVar
  3
ObjectDBX Classes
 90
        0
280
     0
281
     0
  0
CLASS
  1
IDBUFFER
  2
AcDbIdBuffer
  3
ObjectDBX Classes
 90
    32768
280
     0
281
     0
  0
CLASS
  1
LWPOLYLINE
  2
AcDbPolyline
  3
ObjectDBX Classes
 90
    32768
280
     0
281
     1
  0
CLASS
  1
ACDBDICTIONARYWDFLT
  2
AcDbDictionaryWithDefault
  3
ObjectDBX Classes
 90
    32768
280
     0
281
     0
  0
CLASS
  1
ACDBPLACEHOLDER
  2
AcDbPlaceHolder
  3
ObjectDBX Classes
 90
        0
280
     0
281
     0
  0
CLASS
  1
LAYOUT
  2
AcDbLayout
  3
ObjectDBX Classes
 90
        0
280
     0
281
     0
  0
CLASS
  1
TABLESTYLE
  2
AcDbTableStyle
  3
ObjectDBX Classes
 90
     4095
280
     0
281
     0
  0
CLASS
  1
SORTENTSTABLE
  2
AcDbSortentsTable
  3
ObjectDBX Classes
 90
    32768
280
     0
281
     0
  0
CLASS
  1
MATERIAL
  2
AcDbMaterial
  3
ObjectDBX Classes
 90
     1153
280
     0
281
     0
  0
CLASS
  1
VISUALSTYLE
  2
AcDbVisualStyle
  3
ObjectDBX Classes
 90
     4095
280
     0
281
     0
  0
CLASS
  1
SCALE
  2
AcDbScale
  3
ObjectDBX Classes
 90
     1153
280
     0
281
     0
  0
CLASS
  1
MLEADERSTYLE
  2
AcDbMLeaderStyle
  3
ACDB_MLEADERSTYLE_CLASS
 90
     4095
280
     0
281
     0
  0
CLASS
  1
CELLSTYLEMAP
  2
AcDbCellStyleMap
  3
ObjectDBX Classes
 90
     1152
280
     0
281
     0
  0
CLASS
  1
SUN
  2
AcDbSun
  3
SCENEOE
 90
     1153
280
     0
281
     0
  0
CLASS
  1
AEC_REFEDIT_STATUS_TRACKER
  2
AecDbRefEditStatusTracker
  3
AecArchBase60|Product Desc: Autodesk Architectural Desktop 2007 |Company: Autodesk,Inc. |WEB Address: www.autodesk.com
 90
      129
280
     1
281
     0
  0
CLASS
  1
NPOCOLLECTION
  2
AcDbImpNonPersistentObjectsCollection
  3
ObjectDBX Classes
 90
     1153
280
     1
281
     0
  0
CLASS
  1
XRECORD
  2
AcDbXrecord
  3
ObjectDBX Classes
 90
    32768
280
     0
281
     0
  0
CLASS
  1
HATCH
  2
AcDbHatch
  3
ObjectDBX Classes
 90
    32768
280
     0
281
     1
  0
ENDSEC
  0
SECTION
  2
TABLES
  0
TABLE
  2
VPORT
  5
8
330
0
100
AcDbSymbolTable
 70
     1
  0
VPORT
  5
952D
330
8
100
AcDbSymbolTableRecord
100
AcDbViewportTableRecord
  2
*ACTIVE
 70
     0
 10
0.0
 20
0.0
 11
1.0
 21
1.0
 12
5520.363408020916
 22
882.473199397424
 13
0.0
 23
0.0
 14
10.0
 24
10.0
 15
10.0
 25
10.0
 16
0.0
 26
0.0
 36
1.0
 17
0.0
 27
0.0
 37
0.0
 40
257.6827950743529
 41
2.233782129742962
 42
50.0
 43
0.0
 44
0.0
 50
0.0
 51
0.0
 71
    16
 72
   100
 73
     1
 74
     1
 75
     0
 76
     0
 77
     0
 78
     0
  0
ENDTAB
  0
TABLE
  2
LTYPE
  5
5
330
0
100
AcDbSymbolTable
 70
     2
  0
LTYPE
  5
12
330
5
100
AcDbSymbolTableRecord
100
AcDbLinetypeTableRecord
  2
BYBLOCK
 70
     0
  3

 72
    65
 73
     0
 40
0.0
  0
LTYPE
  5
13
330
5
100
AcDbSymbolTableRecord
100
AcDbLinetypeTableRecord
  2
BYLAYER
 70
     0
  3

 72
    65
 73
     0
 40
0.0
  0
LTYPE
  5
14
330
5
100
AcDbSymbolTableRecord
100
AcDbLinetypeTableRecord
  2
CONTINUOUS
 70
     0
  3
Solid line
 72
    65
 73
     0
 40
0.0
  0
LTYPE
  5
9837
330
5
100
AcDbSymbolTableRecord
100
AcDbLinetypeTableRecord
  2
CENTER2
 70
     0
  3
Center (.5x) ___ _ ___ _ ___ _ ___ _ ___ _ ___
 72
    65
 73
     4
 40
28.575
 49
19.05
 74
     0
 49
-3.175
 74
     0
 49
3.175
 74
     0
 49
-3.175
 74
     0
  0
ENDTAB
  0
TABLE
  2
LAYER
  5
2
102
{ACAD_XDICTIONARY
360
96D9
102
}
330
0
100
AcDbSymbolTable
 70
     5
  0
LAYER
  5
E
102
{ACAD_XDICTIONARY
360
9593
102
}
330
2
100
AcDbSymbolTableRecord
100
AcDbLayerTableRecord
  2
0
 70
     0
 62
     7
  6
CONTINUOUS
  0
LAYER
  5
29
102
{ACAD_XDICTIONARY
360
9595
102
}
330
2
100
AcDbSymbolTableRecord
100
AcDbLayerTableRecord
  2
1CENTER
 70
     0
 62
     7
  6
CENTER2
  0
LAYER
  5
31
102
{ACAD_XDICTIONARY
360
9597
102
}
330
2
100
AcDbSymbolTableRecord
100
AcDbLayerTableRecord
  2
1TEXT
 70
     0
 62
     7
  6
CONTINUOUS
  0
LAYER
  5
243
102
{ACAD_XDICTIONARY
360
959D
102
}
330
2
100
AcDbSymbolTableRecord
100
AcDbLayerTableRecord
  2
01
 70
     0
 62
     1
  6
CONTINUOUS
  0
LAYER
  5
24E
102
{ACAD_XDICTIONARY
360
95A3
102
}
330
2
100
AcDbSymbolTableRecord
100
AcDbLayerTableRecord
  2
1DIM
 70
     0
 62
     7
  6
CONTINUOUS
  0
ENDTAB
  0
TABLE
  2
STYLE
  5
3
330
0
100
AcDbSymbolTable
 70
     1
  0
STYLE
  5
F
330
3
100
AcDbSymbolTableRecord
100
AcDbTextStyleTableRecord
  2
STANDARD
 70
     0
 40
0.0
 41
1.0
 50
0.0
 71
     0
 42
4.0
  3
txt.shx
  4
extfont.shx
  0
ENDTAB
  0
TABLE
  2
VIEW
  5
6
330
0
100
AcDbSymbolTable
 70
     0
  0
ENDTAB
  0
TABLE
  2
UCS
  5
7
330
0
100
AcDbSymbolTable
 70
     0
  0
ENDTAB
  0
TABLE
  2
APPID
  5
9
330
0
100
AcDbSymbolTable
 70
    13
  0
APPID
  5
10
330
9
100
AcDbSymbolTableRecord
100
AcDbRegAppTableRecord
  2
ACAD
 70
     0
  0
APPID
  5
21
330
9
100
AcDbSymbolTableRecord
100
AcDbRegAppTableRecord
  2
DRAWINGVARIABLESXDATA
 70
     0
  0
APPID
  5
64
330
9
100
AcDbSymbolTableRecord
100
AcDbRegAppTableRecord
  2
CONTENTTABDATA
 70
     0
  0
APPID
  5
65
330
9
100
AcDbSymbolTableRecord
100
AcDbRegAppTableRecord
  2
CONTENTCURRENTTAB
 70
     0
  0
APPID
  5
66
330
9
100
AcDbSymbolTableRecord
100
AcDbRegAppTableRecord
  2
CONTENTBLOCKDESCRIPTION
 70
     0
  0
APPID
  5
67
330
9
100
AcDbSymbolTableRecord
100
AcDbRegAppTableRecord
  2
CONTENTBLOCKICON
 70
     0
  0
APPID
  5
68
330
9
100
AcDbSymbolTableRecord
100
AcDbRegAppTableRecord
  2
CONTENTLONGBLOCKNAME
 70
     0
  0
APPID
  5
2AE
330
9
100
AcDbSymbolTableRecord
100
AcDbRegAppTableRecord
  2
ACAD_PSEXT
 70
     0
  0
APPID
  5
9585
330
9
100
AcDbSymbolTableRecord
100
AcDbRegAppTableRecord
  2
ACAD_MLEADERVER
 70
     0
  0
APPID
  5
A2E3
330
9
100
AcDbSymbolTableRecord
100
AcDbRegAppTableRecord
  2
ACADANNOTATIVE
 70
     0
  0
APPID
  5
A2E4
330
9
100
AcDbSymbolTableRecord
100
AcDbRegAppTableRecord
  2
ACDBBLOCKREPETAG
 70
     0
  0
APPID
  5
AEFC
330
9
100
AcDbSymbolTableRecord
100
AcDbRegAppTableRecord
  2
ACAECLAYERSTANDARD
 70
     0
  0
APPID
  5
B051
330
9
100
AcDbSymbolTableRecord
100
AcDbRegAppTableRecord
  2
ACAD_EXEMPT_FROM_CAD_STAND
 70
     0
  0
ENDTAB
  0
TABLE
  2
DIMSTYLE
  5
A
330
0
100
AcDbSymbolTable
 70
     1
  0
DIMSTYLE
105
48
330
A
100
AcDbSymbolTableRecord
100
AcDbDimStyleTableRecord
  2
NEWX10
 70
     0
  3
 
  4

  5

  6
OPEN30
  7
OPEN30
 40
1.0
 41
2.0
 42
0.0
 43
7.0
 44
1.0
 45
0.0
 46
0.0
 47
0.0
 48
0.0
140
3.5
141
0.0
142
0.0
143
25.4
144
1.0
145
0.0
146
0.7
147
0.7
 71
     0
 72
     0
 73
     0
 74
     0
 75
     0
 76
     0
 77
     1
 78
     8
170
     0
171
     2
172
     1
173
     1
174
     0
175
     0
176
   256
177
   256
178
   201
179
     2
270
     2
271
     2
272
     4
273
     2
274
     2
340
F
275
     0
280
     0
281
     0
282
     0
283
     1
284
     8
285
     0
286
     0
287
     2
288
     0
  0
ENDTAB
  0
TABLE
  2
BLOCK_RECORD
  5
1
330
0
100
AcDbSymbolTable
 70
     8
  0
BLOCK_RECORD
  5
18
102
{ACAD_XDICTIONARY
360
88F
102
}
330
1
100
AcDbSymbolTableRecord
100
AcDbBlockTableRecord
  2
*MODEL_SPACE
  0
BLOCK_RECORD
  5
15
330
1
100
AcDbSymbolTableRecord
100
AcDbBlockTableRecord
  2
*PAPER_SPACE
  0
BLOCK_RECORD
  5
42
330
1
100
AcDbSymbolTableRecord
100
AcDbBlockTableRecord
  2
_OPEN30
  0
BLOCK_RECORD
  5
A333
330
1
100
AcDbSymbolTableRecord
100
AcDbBlockTableRecord
  2
A3WAKUKAWAJUN2017_HYOUDAI_
  0
BLOCK_RECORD
  5
B255
330
1
100
AcDbSymbolTableRecord
100
AcDbBlockTableRecord
  2
*X20
  0
BLOCK_RECORD
  5
B2A3
330
1
100
AcDbSymbolTableRecord
100
AcDbBlockTableRecord
  2
*X21
  0
BLOCK_RECORD
  5
B2F5
330
1
100
AcDbSymbolTableRecord
100
AcDbBlockTableRecord
  2
*X22
  0
BLOCK_RECORD
  5
B346
330
1
100
AcDbSymbolTableRecord
100
AcDbBlockTableRecord
  2
*X23
  0
BLOCK_RECORD
  5
B383
330
1
100
AcDbSymbolTableRecord
100
AcDbBlockTableRecord
  2
*X24
  0
BLOCK_RECORD
  5
B3C3
330
1
100
AcDbSymbolTableRecord
100
AcDbBlockTableRecord
  2
*X25
  0
ENDTAB
  0
ENDSEC
  0
SECTION
  2
BLOCKS
  0
BLOCK
  5
19
330
18
100
AcDbEntity
  8
0
100
AcDbBlockBegin
  2
*MODEL_SPACE
 70
     0
 10
0.0
 20
0.0
 30
0.0
  3
*MODEL_SPACE
  1

  0
ENDBLK
  5
1A
330
18
100
AcDbEntity
  8
0
100
AcDbBlockEnd
  0
BLOCK
  5
16
330
15
100
AcDbEntity
 67
     1
  8
0
100
AcDbBlockBegin
  2
*PAPER_SPACE
 70
     0
 10
0.0
 20
0.0
 30
0.0
  3
*PAPER_SPACE
  1

  0
ENDBLK
  5
17
330
15
100
AcDbEntity
 67
     1
  8
0
100
AcDbBlockEnd
  0
BLOCK
  5
43
330
42
100
AcDbEntity
  8
0
100
AcDbBlockBegin
  2
_OPEN30
 70
     0
 10
0.0
 20
0.0
 30
0.0
  3
_OPEN30
  1

  0
LINE
  5
44
330
42
100
AcDbEntity
  8
0
  6
BYBLOCK
 62
     0
100
AcDbLine
 10
-1.0
 20
0.26794919
 30
0.0
 11
0.0
 21
0.0
 31
0.0
  0
LINE
  5
45
330
42
100
AcDbEntity
  8
0
  6
BYBLOCK
 62
     0
100
AcDbLine
 10
0.0
 20
0.0
 30
0.0
 11
-1.0
 21
-0.26794919
 31
0.0
  0
LINE
  5
46
330
42
100
AcDbEntity
  8
0
  6
BYBLOCK
 62
     0
100
AcDbLine
 10
0.0
 20
0.0
 30
0.0
 11
-1.0
 21
0.0
 31
0.0
  0
ENDBLK
  5
47
330
42
100
AcDbEntity
  8
0
100
AcDbBlockEnd
  0
BLOCK
  5
AA56
330
A333
100
AcDbEntity
  8
0
100
AcDbBlockBegin
  2
A3WAKUKAWAJUN2017_HYOUDAI_
 70
     0
 10
0.0
 20
0.0
 30
0.0
  3
A3WAKUKAWAJUN2017_HYOUDAI_
  1

  0
LINE
  5
A335
330
A333
100
AcDbEntity
  8
0
100
AcDbLine
 10
13.26299999998673
 20
-0.0001000000000317
 30
0.0
 11
9.236999999990758
 21
8.999899999990987
 31
0.0
1001
ACAD
1000
ASC_BOUNDS
1002
{
1070
    19
1005
A376
1002
}
  0
LINE
  5
A336
330
A333
100
AcDbEntity
  8
0
100
AcDbLine
 10
5.657999999994331
 20
0.9999999999989768
 30
0.0
 11
9.236999999990758
 21
8.999999999991019
 31
0.0
1001
ACAD
1000
ASC_BOUNDS
1002
{
1070
    19
1005
A376
1002
}
  0
LINE
  5
A337
330
A333
100
AcDbEntity
  8
0
100
AcDbLine
 10
18.59199999998134
 20
-0.2368999999997641
 30
0.0
 11
16.46099999998353
 21
5.432899999994561
 31
0.0
1001
ACAD
1000
ASC_BOUNDS
1002
{
1070
    19
1005
A377
1002
}
  0
LINE
  5
A338
330
A333
100
AcDbEntity
  8
0
100
AcDbLine
 10
18.59199999998134
 20
-0.2368999999997641
 30
0.0
 11
22.38199999997767
 21
8.763099999991255
 31
0.0
1001
ACAD
1000
ASC_BOUNDS
1002
{
1070
    19
1005
A377
1002
}
  0
LINE
  5
A339
330
A333
100
AcDbEntity
  8
0
100
AcDbLine
 10
14.32899999998563
 20
-0.2368999999997641
 30
0.0
 11
16.46099999998353
 21
5.432899999994561
 31
0.0
1001
ACAD
1000
ASC_BOUNDS
1002
{
1070
    19
1005
A377
1002
}
  0
LINE
  5
A33A
330
A333
100
AcDbEntity
  8
0
100
AcDbLine
 10
14.32899999998563
 20
-0.2368999999997641
 30
0.0
 11
10.53899999998941
 21
8.763099999991255
 31
0.0
1001
ACAD
1000
ASC_BOUNDS
1002
{
1070
    19
1005
A377
1002
}
  0
LINE
  5
A33B
330
A333
100
AcDbEntity
  8
0
100
AcDbLine
 10
19.53899999998043
 20
-0.0001000000000317
 30
0.0
 11
23.56599999997638
 21
8.999899999990987
 31
0.0
1001
ACAD
1000
ASC_BOUNDS
1002
{
1070
    19
1005
A378
1002
}
  0
LINE
  5
A33C
330
A333
100
AcDbEntity
  8
0
100
AcDbLine
 10
26.97358892824991
 20
1.383099999991202
 30
0.0
 11
23.56599999997638
 21
8.999899999990987
 31
0.0
1001
ACAD
1000
ASC_BOUNDS
1002
{
1070
    19
1005
A378
1002
}
  0
LINE
  5
A33D
330
A333
100
AcDbEntity
  8
0
100
AcDbLine
 10
5.657999999994331
 20
0.9999999999989768
 30
0.0
 11
3.181999999996833
 21
4.668599999995308
 31
0.0
1001
ACAD
1000
ASC_BOUNDS
1002
{
1070
    19
1005
A376
1002
}
  0
LINE
  5
A33E
330
A333
100
AcDbEntity
  8
0
100
AcDbLine
 10
4.617999999995391
 20
-0.0001000000000317
 30
0.0
 11
1.420999999998571
 21
4.736799999995242
 31
0.0
1001
ACAD
1000
ASC_BOUNDS
1002
{
1070
    19
1005
A376
1002
}
  0
LINE
  5
A33F
330
A333
100
AcDbEntity
  8
0
100
AcDbLine
 10
1.420999999998571
 20
8.763099999991255
 30
0.0
 11
1.420999999998571
 21
0.0
 31
0.0
1001
ACAD
1000
ASC_BOUNDS
1002
{
1070
    19
1005
A37B
1002
}
  0
LINE
  5
A340
330
A333
100
AcDbEntity
  8
0
100
AcDbLine
 10
0.0
 20
8.763099999991255
 30
0.0
 11
0.0
 21
0.0
 31
0.0
1001
ACAD
1000
ASC_BOUNDS
1002
{
1070
    19
1005
A37B
1002
}
  0
LINE
  5
A341
330
A333
100
AcDbEntity
  8
0
100
AcDbLine
 10
6.766999999993232
 20
-0.0001000000000317
 30
0.0
 11
7.826999999992154
 21
2.368399999997621
 31
0.0
1001
ACAD
1000
ASC_BOUNDS
1002
{
1070
    19
1005
A376
1002
}
  0
LINE
  5
A342
330
A333
100
AcDbEntity
  8
0
100
AcDbLine
 10
0.0
 20
0.0
 30
0.0
 11
1.420999999998571
 21
0.0
 31
0.0
1001
ACAD
1000
ASC_BOUNDS
1002
{
1070
    19
1005
A37B
1002
}
  0
LINE
  5
A343
330
A333
100
AcDbEntity
  8
0
100
AcDbLine
 10
4.617999999995391
 20
0.0
 30
0.0
 11
6.766999999993232
 21
0.0
 31
0.0
1001
ACAD
1000
ASC_BOUNDS
1002
{
1070
    19
1005
A376
1002
}
  0
LINE
  5
A344
330
A333
100
AcDbEntity
  8
0
100
AcDbLine
 10
11.70599999998831
 20
-0.0001000000000317
 30
0.0
 11
10.64699999998936
 21
2.368399999997621
 31
0.0
1001
ACAD
1000
ASC_BOUNDS
1002
{
1070
    19
1005
A376
1002
}
  0
LINE
  5
A345
330
A333
100
AcDbEntity
  8
0
100
AcDbLine
 10
7.826999999992154
 20
2.368399999997621
 30
0.0
 11
10.64699999998936
 21
2.368399999997621
 31
0.0
1001
ACAD
1000
ASC_BOUNDS
1002
{
1070
    19
1005
A376
1002
}
  0
LINE
  5
A346
330
A333
100
AcDbEntity
  8
0
100
AcDbLine
 10
11.70599999998831
 20
0.0
 30
0.0
 11
13.26299999998673
 21
0.0
 31
0.0
1001
ACAD
1000
ASC_BOUNDS
1002
{
1070
    19
1005
A376
1002
}
  0
LINE
  5
A347
330
A333
100
AcDbEntity
  8
0
100
AcDbLine
 10
22.15599999997789
 20
2.368399999997621
 30
0.0
 11
24.97599999997499
 21
2.368399999997621
 31
0.0
1001
ACAD
1000
ASC_BOUNDS
1002
{
1070
    19
1005
A378
1002
}
  0
LINE
  5
A348
330
A333
100
AcDbEntity
  8
0
100
AcDbLine
 10
19.53899999998043
 20
0.0
 30
0.0
 11
21.09599999997886
 21
0.0
 31
0.0
1001
ACAD
1000
ASC_BOUNDS
1002
{
1070
    19
1005
A378
1002
}
  0
LINE
  5
A349
330
A333
100
AcDbEntity
  8
0
100
AcDbLine
 10
21.09599999997886
 20
-0.0001000000000317
 30
0.0
 11
22.15599999997789
 21
2.368399999997621
 31
0.0
1001
ACAD
1000
ASC_BOUNDS
1002
{
1070
    19
1005
A378
1002
}
  0
LINE
  5
A34A
330
A333
100
AcDbEntity
  8
0
100
AcDbLine
 10
26.02015566812236
 20
0.0330999999912365
 30
0.0
 11
24.97599999997499
 21
2.368399999997621
 31
0.0
1001
ACAD
1000
ASC_BOUNDS
1002
{
1070
    19
1005
A378
1002
}
  0
LINE
  5
A34B
330
A333
100
AcDbEntity
  8
0
100
AcDbLine
 10
14.32399999998563
 20
3.315799999996671
 30
0.0
 11
16.46099999998353
 21
8.999899999990987
 31
0.0
1001
ACAD
1000
ASC_BOUNDS
1002
{
1070
    19
1005
A377
1002
}
  0
LINE
  5
A34C
330
A333
100
AcDbEntity
  8
0
100
AcDbLine
 10
6.432999999993513
 20
8.763099999991255
 30
0.0
 11
3.181999999996833
 21
4.668599999995308
 31
0.0
1001
ACAD
1000
ASC_BOUNDS
1002
{
1070
    19
1005
A376
1002
}
  0
LINE
  5
A34D
330
A333
100
AcDbEntity
  8
0
100
AcDbLine
 10
4.617999999995391
 20
8.763099999991255
 30
0.0
 11
1.420999999998571
 21
4.736799999995242
 31
0.0
1001
ACAD
1000
ASC_BOUNDS
1002
{
1070
    19
1005
A376
1002
}
  0
LINE
  5
A34E
330
A333
100
AcDbEntity
  8
0
100
AcDbLine
 10
0.0
 20
8.763099999991255
 30
0.0
 11
1.420999999998571
 21
8.763099999991255
 31
0.0
1001
ACAD
1000
ASC_BOUNDS
1002
{
1070
    19
1005
A37B
1002
}
  0
LINE
  5
A34F
330
A333
100
AcDbEntity
  8
0
100
AcDbLine
 10
4.617999999995391
 20
8.763099999991255
 30
0.0
 11
6.432999999993513
 21
8.763099999991255
 31
0.0
1001
ACAD
1000
ASC_BOUNDS
1002
{
1070
    19
1005
A376
1002
}
  0
LINE
  5
A350
330
A333
100
AcDbEntity
  8
0
100
AcDbLine
 10
14.32399999998563
 20
3.315799999996671
 30
0.0
 11
12.02999999998792
 21
8.763099999991255
 31
0.0
1001
ACAD
1000
ASC_BOUNDS
1002
{
1070
    19
1005
A377
1002
}
  0
LINE
  5
A351
330
A333
100
AcDbEntity
  8
0
100
AcDbLine
 10
10.06399999998996
 20
3.670999999996297
 30
0.0
 11
9.236999999990758
 21
5.5200999999945
 31
0.0
1001
ACAD
1000
ASC_BOUNDS
1002
{
1070
    19
1005
A376
1002
}
  0
LINE
  5
A352
330
A333
100
AcDbEntity
  8
0
100
AcDbLine
 10
8.409999999991555
 20
3.670999999996297
 30
0.0
 11
9.236999999990758
 21
5.5200999999945
 31
0.0
1001
ACAD
1000
ASC_BOUNDS
1002
{
1070
    19
1005
A376
1002
}
  0
LINE
  5
A353
330
A333
100
AcDbEntity
  8
0
100
AcDbLine
 10
8.409999999991555
 20
3.670999999996297
 30
0.0
 11
10.06399999998996
 21
3.670999999996297
 31
0.0
1001
ACAD
1000
ASC_BOUNDS
1002
{
1070
    19
1005
A376
1002
}
  0
LINE
  5
A354
330
A333
100
AcDbEntity
  8
0
100
AcDbLine
 10
10.53899999998941
 20
8.763099999991255
 30
0.0
 11
12.02999999998792
 21
8.763099999991255
 31
0.0
1001
ACAD
1000
ASC_BOUNDS
1002
{
1070
    19
1005
A377
1002
}
  0
LINE
  5
A355
330
A333
100
AcDbEntity
  8
0
100
AcDbLine
 10
22.7389999999773
 20
3.670999999996297
 30
0.0
 11
23.56599999997638
 21
5.5200999999945
 31
0.0
1001
ACAD
1000
ASC_BOUNDS
1002
{
1070
    19
1005
A378
1002
}
  0
LINE
  5
A356
330
A333
100
AcDbEntity
  8
0
100
AcDbLine
 10
22.7389999999773
 20
3.670999999996297
 30
0.0
 11
24.39299999997559
 21
3.670999999996297
 31
0.0
1001
ACAD
1000
ASC_BOUNDS
1002
{
1070
    19
1005
A378
1002
}
  0
LINE
  5
A357
330
A333
100
AcDbEntity
  8
0
100
AcDbLine
 10
18.59799999998143
 20
3.315799999996671
 30
0.0
 11
20.89099999997916
 21
8.763099999991255
 31
0.0
1001
ACAD
1000
ASC_BOUNDS
1002
{
1070
    19
1005
A377
1002
}
  0
LINE
  5
A358
330
A333
100
AcDbEntity
  8
0
100
AcDbLine
 10
18.59799999998143
 20
3.315799999996671
 30
0.0
 11
16.46099999998353
 21
8.999899999990987
 31
0.0
1001
ACAD
1000
ASC_BOUNDS
1002
{
1070
    19
1005
A377
1002
}
  0
LINE
  5
A359
330
A333
100
AcDbEntity
  8
0
100
AcDbLine
 10
20.89099999997916
 20
8.763099999991255
 30
0.0
 11
22.38199999997767
 21
8.763099999991255
 31
0.0
1001
ACAD
1000
ASC_BOUNDS
1002
{
1070
    19
1005
A377
1002
}
  0
LINE
  5
A35A
330
A333
100
AcDbEntity
  8
0
100
AcDbLine
 10
24.39299999997559
 20
3.670999999996297
 30
0.0
 11
23.56599999997638
 21
5.5200999999945
 31
0.0
1001
ACAD
1000
ASC_BOUNDS
1002
{
1070
    19
1005
A378
1002
}
  0
LINE
  5
A35B
330
A333
100
AcDbEntity
  8
0
100
AcDbLine
 10
44.99999999995498
 20
-0.2368999999997641
 30
0.0
 11
40.02599999995994
 21
5.341799999994635
 31
0.0
1001
ACAD
1000
ASC_BOUNDS
1002
{
1070
    19
1005
A37A
1002
}
  0
LINE
  5
A35C
330
A333
100
AcDbEntity
  8
0
100
AcDbLine
 10
40.02599999995994
 20
5.341799999994635
 30
0.0
 11
40.02599999995994
 21
0.0
 31
0.0
1001
ACAD
1000
ASC_BOUNDS
1002
{
1070
    19
1005
A37A
1002
}
  0
LINE
  5
A35D
330
A333
100
AcDbEntity
  8
0
100
AcDbLine
 10
38.60499999996136
 20
8.999999999991019
 30
0.0
 11
38.60499999996136
 21
0.0
 31
0.0
1001
ACAD
1000
ASC_BOUNDS
1002
{
1070
    19
1005
A37A
1002
}
  0
LINE
  5
A35E
330
A333
100
AcDbEntity
  8
0
100
AcDbLine
 10
44.99999999995498
 20
8.763099999991255
 30
0.0
 11
44.99999999995498
 21
-0.2368999999997641
 31
0.0
1001
ACAD
1000
ASC_BOUNDS
1002
{
1070
    19
1005
A37A
1002
}
  0
LINE
  5
A35F
330
A333
100
AcDbEntity
  8
0
100
AcDbLine
 10
38.60499999996136
 20
0.0
 30
0.0
 11
40.02599999995994
 21
0.0
 31
0.0
1001
ACAD
1000
ASC_BOUNDS
1002
{
1070
    19
1005
A37A
1002
}
  0
LINE
  5
A360
330
A333
100
AcDbEntity
  8
0
100
AcDbLine
 10
43.57899999995641
 20
3.421199999996588
 30
0.0
 11
38.60499999996136
 21
8.999899999990987
 31
0.0
1001
ACAD
1000
ASC_BOUNDS
1002
{
1070
    19
1005
A37A
1002
}
  0
LINE
  5
A361
330
A333
100
AcDbEntity
  8
0
100
AcDbLine
 10
43.57899999995641
 20
8.763099999991255
 30
0.0
 11
43.57899999995641
 21
3.421199999996588
 31
0.0
1001
ACAD
1000
ASC_BOUNDS
1002
{
1070
    19
1005
A37A
1002
}
  0
LINE
  5
A362
330
A333
100
AcDbEntity
  8
0
100
AcDbLine
 10
43.57899999995641
 20
8.763099999991255
 30
0.0
 11
44.99999999995498
 21
8.763099999991255
 31
0.0
1001
ACAD
1000
ASC_BOUNDS
1002
{
1070
    19
1005
A37A
1002
}
  0
LINE
  5
A363
330
A333
100
AcDbEntity
  8
0
100
AcDbLine
 10
37.67199999996831
 20
8.763099999991255
 30
0.0
 11
36.23199999996837
 21
8.763099999991255
 31
0.0
  0
LINE
  5
A364
330
A333
100
AcDbEntity
  8
0
100
AcDbLine
 10
31.64199999996833
 20
8.763099999991255
 30
0.0
 11
31.64199999996833
 21
2.481619422925121
 31
0.0
  0
LINE
  5
A365
330
A333
100
AcDbEntity
  8
0
100
AcDbLine
 10
37.67199999996831
 20
8.763099999991255
 30
0.0
 11
37.67199999996831
 21
2.481619422925121
 31
0.0
  0
LINE
  5
A366
330
A333
100
AcDbEntity
  8
0
100
AcDbLine
 10
36.23199999996837
 20
8.763099999991255
 30
0.0
 11
36.23199999996837
 21
2.481619422925064
 31
0.0
  0
LINE
  5
A367
330
A333
100
AcDbEntity
  8
0
100
AcDbLine
 10
33.08199999996839
 20
8.763099999991255
 30
0.0
 11
33.08199999996839
 21
2.481619422925121
 31
0.0
  0
ARC
  5
A368
330
A333
100
AcDbEntity
  8
0
100
AcDbCircle
 10
34.65699999996832
 20
3.183099999991214
 30
0.0
 40
3.420000000000007
100
AcDbArc
 50
240.0000000000255
 51
299.9999999999766
  0
ARC
  5
A369
330
A333
100
AcDbEntity
  8
0
100
AcDbCircle
 10
34.65699999996832
 20
3.183099999991214
 30
0.0
 40
1.97999999999999
100
AcDbArc
 50
240.000000000026
 51
299.9999999999703
  0
LINE
  5
A36A
330
A333
100
AcDbEntity
  8
0
100
AcDbLine
 10
33.08199999996828
 20
8.763099999991255
 30
0.0
 11
31.64199999996833
 21
8.763099999991255
 31
0.0
  0
ARC
  5
A36B
330
A333
100
AcDbEntity
  8
0
100
AcDbCircle
 10
35.06199999996829
 20
2.481619422925064
 30
0.0
 40
1.17
100
AcDbArc
 50
299.9999999999699
 51
0.0
  0
ARC
  5
A36C
330
A333
100
AcDbEntity
  8
0
100
AcDbCircle
 10
34.25199999996835
 20
2.481619422925121
 30
0.0
 40
1.17
100
AcDbArc
 50
180.0
 51
240.0000000000238
  0
ARC
  5
A36D
330
A333
100
AcDbEntity
  8
0
100
AcDbCircle
 10
35.06199999996841
 20
2.481619422925121
 30
0.0
 40
2.61
100
AcDbArc
 50
299.9999999999756
 51
0.0
  0
ARC
  5
A36E
330
A333
100
AcDbEntity
  8
0
100
AcDbCircle
 10
34.25199999996835
 20
2.481619422925121
 30
0.0
 40
2.61
100
AcDbArc
 50
180.0
 51
240.0000000000244
  0
LINE
  5
A36F
330
A333
100
AcDbEntity
  8
0
100
AcDbLine
 10
29.30199999996933
 20
8.763099999991255
 30
0.0
 11
30.74199999996927
 21
8.763099999991255
 31
0.0
1001
ACAD
1000
ASC_BOUNDS
1002
{
1070
    19
1005
A378
1002
}
  0
LINE
  5
A370
330
A333
100
AcDbEntity
  8
0
100
AcDbLine
 10
30.74199999996927
 20
8.763099999991255
 30
0.0
 11
30.74199999996927
 21
2.373099999991211
 31
0.0
1001
ACAD
1000
ASC_BOUNDS
1002
{
1070
    19
1005
A378
1002
}
  0
LINE
  5
A371
330
A333
100
AcDbEntity
  8
0
100
AcDbLine
 10
26.02015566812236
 20
0.0330999999912365
 30
0.0
 11
28.40199999996923
 21
0.0330999999912365
 31
0.0
1001
ACAD
1000
ASC_BOUNDS
1002
{
1070
    19
1005
A378
1002
}
  0
LINE
  5
A372
330
A333
100
AcDbEntity
  8
0
100
AcDbLine
 10
29.30199999996933
 20
8.763099999991255
 30
0.0
 11
29.30199999996933
 21
2.283099999991236
 31
0.0
1001
ACAD
1000
ASC_BOUNDS
1002
{
1070
    19
1005
A378
1002
}
  0
LINE
  5
A373
330
A333
100
AcDbEntity
  8
0
100
AcDbLine
 10
26.97358892824991
 20
1.383099999991202
 30
0.0
 11
28.40199999996923
 21
1.383099999991202
 31
0.0
1001
ACAD
1000
ASC_BOUNDS
1002
{
1070
    19
1005
A378
1002
}
  0
ARC
  5
A374
330
A333
100
AcDbEntity
  8
0
100
AcDbCircle
 10
28.40199999996923
 20
2.283099999991236
 30
0.0
 40
0.9
100
AcDbArc
 50
270.0
 51
0.0
1001
ACAD
1000
ASC_BOUNDS
1002
{
1070
    19
1005
A378
1002
}
  0
ARC
  5
A375
330
A333
100
AcDbEntity
  8
0
100
AcDbCircle
 10
28.40199999996923
 20
2.373099999991211
 30
0.0
 40
2.34
100
AcDbArc
 50
270.0
 51
0.0
1001
ACAD
1000
ASC_BOUNDS
1002
{
1070
    19
1005
A378
1002
}
  0
INSERT
  5
A376
330
A333
100
AcDbEntity
  8
0
100
AcDbBlockReference
  2
*X20
 10
0.0
 20
0.0
 30
0.0
1001
ACAD
1000
HATCH
1002
{
1070
    19
1000
ANSI37
1040
0.15
1040
0.0
1000
ASC_BOUNDS
1070
     2
1070
     2
1070
    12
1005
A335
1005
A336
1005
A33D
1005
A34C
1005
A34F
1005
A34D
1005
A33E
1005
A343
1005
A341
1005
A345
1005
A344
1005
A346
1070
     2
1070
     3
1005
A351
1005
A353
1005
A352
1000
ASC_SEEDPOINT
1011
3.614004224891801
1021
2.996669441146025
1031
0.0
1000
R14_HATCH_DATA
1000
A376
1011
1.0
1021
0.0
1031
0.0
1011
0.0
1021
1.0
1031
0.0
1011
0.0
1021
0.0
1031
1.0
1040
0.0
1010
0.0
1020
0.0
1030
1.0
1000
ANSI37
1070
     0
1070
     1
1071
        2
1071
        7
1070
     0
1070
     1
1071
       17
1040
13.26299999998673
1040
-0.0001000000000317
1040
9.236999999990758
1040
8.999899999990987
1040
9.236999999990758
1040
8.999999999991019
1040
5.657999999994331
1040
0.9999999999989768
1040
3.181999999996833
1040
4.668599999995308
1040
6.432999999993513
1040
8.763099999991255
1040
4.617999999995391
1040
8.763099999991255
1040
1.420999999998571
1040
4.736799999995242
1040
4.617999999995391
1040
-0.0001000000000317
1040
4.617999999995391
1040
0.0
1040
6.766999999993232
1040
0.0
1040
6.766999999993232
1040
-0.0001000000000317
1040
7.826999999992154
1040
2.368399999997621
1040
10.64699999998936
1040
2.368399999997621
1040
11.70599999998831
1040
-0.0001000000000317
1040
11.70599999998831
1040
0.0
1040
13.26299999998673
1040
0.0
1071
       12
1005
A335
1005
A336
1005
A33D
1005
A34C
1005
A34F
1005
A34D
1005
A33E
1005
A343
1005
A341
1005
A345
1005
A344
1005
A346
1071
       22
1070
     0
1070
     1
1071
        3
1040
9.236999999990758
1040
5.5200999999945
1040
10.06399999998996
1040
3.670999999996297
1040
8.409999999991555
1040
3.670999999996297
1071
        3
1005
A351
1005
A353
1005
A352
1070
     0
1070
     1
1040
0.0
1040
0.15
1070
     0
1070
     2
1040
0.7853981633974483
1040
49.29960901727088
1040
-10.17736998311392
1040
-0.3367596045400932
1040
0.3367596045400932
1070
     0
1040
2.356194490192345
1040
49.29960901727088
1040
-10.17736998311392
1040
-0.3367596045400932
1040
-0.3367596045400932
1070
     0
1040
0.0110235143455945
1071
        2
1040
3.614004224891801
1040
2.996669441146025
1040
0.0
1040
3.614004224891801
1040
2.996669441146025
1040
0.0
1002
}
  0
INSERT
  5
A377
330
A333
100
AcDbEntity
  8
0
100
AcDbBlockReference
  2
*X21
 10
0.0
 20
0.0
 30
0.0
1001
ACAD
1000
HATCH
1002
{
1070
    19
1000
ANSI37
1040
0.15
1040
0.0
1000
ASC_BOUNDS
1070
     1
1070
     2
1070
    10
1005
A337
1005
A338
1005
A359
1005
A357
1005
A358
1005
A34B
1005
A350
1005
A354
1005
A33A
1005
A339
1000
ASC_SEEDPOINT
1011
14.73245321214324
1021
2.798246178283421
1031
0.0
1000
R14_HATCH_DATA
1000
A377
1011
1.0
1021
0.0
1031
0.0
1011
0.0
1021
1.0
1031
0.0
1011
0.0
1021
0.0
1031
1.0
1040
0.0
1010
0.0
1020
0.0
1030
1.0
1000
ANSI37
1070
     0
1070
     1
1071
        1
1071
        7
1070
     0
1070
     1
1071
       10
1040
16.46099999998353
1040
5.432899999994561
1040
18.59199999998134
1040
-0.2368999999997641
1040
22.38199999997767
1040
8.763099999991255
1040
20.89099999997916
1040
8.763099999991255
1040
18.59799999998143
1040
3.315799999996671
1040
16.46099999998353
1040
8.999899999990987
1040
14.32399999998563
1040
3.315799999996671
1040
12.02999999998792
1040
8.763099999991255
1040
10.53899999998941
1040
8.763099999991255
1040
14.32899999998563
1040
-0.2368999999997641
1071
       10
1005
A337
1005
A338
1005
A359
1005
A357
1005
A358
1005
A34B
1005
A350
1005
A354
1005
A33A
1005
A339
1070
     0
1070
     1
1040
0.0
1040
0.15
1070
     0
1070
     2
1040
0.7853981633974483
1040
49.29960901727088
1040
-10.17736998311392
1040
-0.3367596045400932
1040
0.3367596045400932
1070
     0
1040
2.356194490192345
1040
49.29960901727088
1040
-10.17736998311392
1040
-0.3367596045400932
1040
-0.3367596045400932
1070
     0
1040
0.0110235143455945
1071
        1
1040
14.73245321214324
1040
2.798246178283421
1040
0.0
1002
}
  0
INSERT
  5
A378
330
A333
100
AcDbEntity
  8
0
100
AcDbBlockReference
  2
*X22
 10
0.0
 20
0.0
 30
0.0
1001
ACAD
1000
HATCH
1002
{
1070
    19
1000
ANSI37
1040
0.15
1040
0.0
1000
ASC_BOUNDS
1070
     2
1070
     2
1070
    13
1005
A33B
1005
A348
1005
A349
1005
A347
1005
A34A
1005
A371
1005
A375
1005
A370
1005
A36F
1005
A372
1005
A374
1005
A373
1005
A33C
1070
     2
1070
     3
1005
A355
1005
A35A
1005
A356
1000
ASC_SEEDPOINT
1011
21.97929957367762
1021
3.294304244259308
1031
0.0
1000
R14_HATCH_DATA
1000
A378
1011
1.0
1021
0.0
1031
0.0
1011
0.0
1021
1.0
1031
0.0
1011
0.0
1021
0.0
1031
1.0
1040
0.0
1010
0.0
1020
0.0
1030
1.0
1000
ANSI37
1070
     0
1070
     1
1071
        2
1071
        7
1070
     1
1070
     1
1071
       15
1040
23.56599999997638
1040
8.999899999990987
1040
0.0
1040
19.53899999998043
1040
-0.0001000000000317
1040
0.0
1040
19.53899999998043
1040
0.0
1040
0.0
1040
21.09599999997886
1040
0.0
1040
0.0
1040
21.09599999997886
1040
-0.0001000000000317
1040
0.0
1040
22.15599999997789
1040
2.368399999997621
1040
0.0
1040
24.97599999997499
1040
2.368399999997621
1040
0.0
1040
26.02015566812236
1040
0.0330999999912365
1040
0.0
1040
28.40199999996923
1040
0.0330999999912365
1040
0.414213562373095
1040
30.74199999996923
1040
2.373099999991211
1040
0.0
1040
30.74199999996927
1040
8.763099999991255
1040
0.0
1040
29.30199999996933
1040
8.763099999991255
1040
0.0
1040
29.30199999996933
1040
2.283099999991236
1040
-0.414213562373095
1040
28.40199999996923
1040
1.383099999991237
1040
0.0
1040
26.97358892824991
1040
1.383099999991202
1040
0.0
1071
       13
1005
A33B
1005
A348
1005
A349
1005
A347
1005
A34A
1005
A371
1005
A375
1005
A370
1005
A36F
1005
A372
1005
A374
1005
A373
1005
A33C
1071
       22
1070
     0
1070
     1
1071
        3
1040
22.7389999999773
1040
3.670999999996297
1040
23.56599999997638
1040
5.5200999999945
1040
24.39299999997559
1040
3.670999999996297
1071
        3
1005
A355
1005
A35A
1005
A356
1070
     0
1070
     1
1040
0.0
1040
0.15
1070
     0
1070
     2
1040
0.7853981633974483
1040
49.29960901727088
1040
-10.17736998311392
1040
-0.3367596045400932
1040
0.3367596045400932
1070
     0
1040
2.356194490192345
1040
49.29960901727088
1040
-10.17736998311392
1040
-0.3367596045400932
1040
-0.3367596045400932
1070
     0
1040
0.0110235143455945
1071
        2
1040
21.97929957367762
1040
3.294304244259308
1040
0.0
1040
21.97929957367762
1040
3.294304244259308
1040
0.0
1002
}
  0
INSERT
  5
A379
330
A333
100
AcDbEntity
  8
0
100
AcDbBlockReference
  2
*X23
 10
0.0
 20
0.0
 30
0.0
1001
ACAD
1000
HATCH
1002
{
1070
    19
1000
ANSI37
1040
0.15
1040
0.0
1000
R14_HATCH_DATA
1000
A379
1011
1.0
1021
0.0
1031
0.0
1011
0.0
1021
1.0
1031
0.0
1011
0.0
1021
0.0
1031
1.0
1040
0.0
1010
0.0
1020
0.0
1030
1.0
1000
ANSI37
1070
     0
1070
     1
1071
        1
1071
        7
1070
     1
1070
     1
1071
       12
1040
31.64199999996833
1040
2.481619422925121
1040
0.2679491924310942
1040
32.94699999997067
1040
0.2212931190493919
1040
0.2679491924301353
1040
36.36699999995983
1040
0.2212931190459813
1040
0.2679491924321411
1040
37.67199999996831
1040
2.481619422928361
1040
0.0
1040
37.67199999996831
1040
8.763099999991255
1040
0.0
1040
36.23199999996837
1040
8.763099999991255
1040
0.0
1040
36.23199999996837
1040
2.481619422925064
1040
-0.2679491924310291
1040
35.64699999996708
1040
1.468369700498386
1040
-0.267949192430519
1040
33.66699999997093
1040
1.468369700497703
1040
-0.267949192431809
1040
33.08199999996839
1040
2.481619422926997
1040
0.0
1040
33.08199999996839
1040
8.763099999991255
1040
0.0
1040
31.64199999996833
1040
8.763099999991255
1040
0.0
1071
        0
1070
     0
1070
     1
1040
0.0
1040
0.15
1070
     0
1070
     2
1040
0.7853981633974483
1040
49.29960901727088
1040
-10.17736998311392
1040
-0.3367596045400932
1040
0.3367596045400932
1070
     0
1040
2.356194490192345
1040
49.29960901727088
1040
-10.17736998311392
1040
-0.3367596045400932
1040
-0.3367596045400932
1070
     0
1040
0.0110235143455945
1071
        1
1040
32.30357378967278
1040
3.988785755459219
1040
0.0
1002
}
  0
INSERT
  5
A37A
330
A333
100
AcDbEntity
  8
0
100
AcDbBlockReference
  2
*X24
 10
0.0
 20
0.0
 30
0.0
1001
ACAD
1000
HATCH
1002
{
1070
    19
1000
ANSI37
1040
0.15
1040
0.0
1000
ASC_BOUNDS
1070
     1
1070
     2
1070
     8
1005
A35B
1005
A35E
1005
A362
1005
A361
1005
A360
1005
A35D
1005
A35F
1005
A35C
1000
ASC_SEEDPOINT
1011
39.74896370716704
1021
4.484843821435049
1031
0.0
1000
R14_HATCH_DATA
1000
A37A
1011
1.0
1021
0.0
1031
0.0
1011
0.0
1021
1.0
1031
0.0
1011
0.0
1021
0.0
1031
1.0
1040
0.0
1010
0.0
1020
0.0
1030
1.0
1000
ANSI37
1070
     0
1070
     1
1071
        1
1071
        7
1070
     0
1070
     1
1071
        9
1040
40.02599999995994
1040
5.341799999994635
1040
44.99999999995498
1040
-0.2368999999997641
1040
44.99999999995498
1040
8.763099999991255
1040
43.57899999995641
1040
8.763099999991255
1040
43.57899999995641
1040
3.421199999996588
1040
38.60499999996136
1040
8.999899999990987
1040
38.60499999996136
1040
8.999999999991019
1040
38.60499999996136
1040
0.0
1040
40.02599999995994
1040
0.0
1071
        8
1005
A35B
1005
A35E
1005
A362
1005
A361
1005
A360
1005
A35D
1005
A35F
1005
A35C
1070
     0
1070
     1
1040
0.0
1040
0.15
1070
     0
1070
     2
1040
0.7853981633974483
1040
49.29960901727088
1040
-10.17736998311392
1040
-0.3367596045400932
1040
0.3367596045400932
1070
     0
1040
2.356194490192345
1040
49.29960901727088
1040
-10.17736998311392
1040
-0.3367596045400932
1040
-0.3367596045400932
1070
     0
1040
0.0110235143455945
1071
        1
1040
39.74896370716704
1040
4.484843821435049
1040
0.0
1002
}
  0
INSERT
  5
A37B
330
A333
100
AcDbEntity
  8
0
100
AcDbBlockReference
  2
*X25
 10
0.0
 20
0.0
 30
0.0
1001
ACAD
1000
HATCH
1002
{
1070
    19
1000
ANSI37
1040
0.15
1040
0.0
1000
ASC_BOUNDS
1070
     1
1070
     2
1070
     4
1005
A33F
1005
A34E
1005
A340
1005
A342
1000
ASC_SEEDPOINT
1011
1.079051535452663
1021
4.148538732891836
1031
0.0
1000
R14_HATCH_DATA
1000
A37B
1011
1.0
1021
0.0
1031
0.0
1011
0.0
1021
1.0
1031
0.0
1011
0.0
1021
0.0
1031
1.0
1040
0.0
1010
0.0
1020
0.0
1030
1.0
1000
ANSI37
1070
     0
1070
     1
1071
        1
1071
        7
1070
     0
1070
     1
1071
        4
1040
1.420999999998571
1040
0.0
1040
1.420999999998571
1040
8.763099999991255
1040
0.0
1040
8.763099999991255
1040
0.0
1040
0.0
1071
        4
1005
A33F
1005
A34E
1005
A340
1005
A342
1070
     0
1070
     1
1040
0.0
1040
0.15
1070
     0
1070
     2
1040
0.7853981633974483
1040
49.29960901727088
1040
-10.17736998311392
1040
-0.3367596045400932
1040
0.3367596045400932
1070
     0
1040
2.356194490192345
1040
49.29960901727088
1040
-10.17736998311392
1040
-0.3367596045400932
1040
-0.3367596045400932
1070
     0
1040
0.0053004257112761
1071
        1
1040
1.079051535452663
1040
4.148538732891836
1040
0.0
1002
}
  0
ENDBLK
  5
AA57
330
A333
100
AcDbEntity
  8
0
100
AcDbBlockEnd
  0
BLOCK
  5
B3E3
330
B255
100
AcDbEntity
  8
0
100
AcDbBlockBegin
  2
*X20
 70
     1
 10
0.0
 20
0.0
 30
0.0
  3
*X20
  1

  0
LINE
  5
B256
330
B255
100
AcDbEntity
  8
0
  6
CONTINUOUS
100
AcDbLine
 10
3.418023043697893
 20
7.251849696850613
 30
0.0
 11
4.929273346838536
 21
8.763099999991255
 31
0.0
  0
LINE
  5
B257
330
B255
100
AcDbEntity
  8
0
  6
CONTINUOUS
100
AcDbLine
 10
1.483656411257782
 20
4.643963855330318
 30
0.0
 11
5.60279255591872
 21
8.763099999991255
 31
0.0
  0
LINE
  5
B258
330
B255
100
AcDbEntity
  8
0
  6
CONTINUOUS
100
AcDbLine
 10
1.755053947328235
 20
4.241842182320584
 30
0.0
 11
6.276311764998907
 21
8.763099999991255
 31
0.0
  0
LINE
  5
B259
330
B255
100
AcDbEntity
  8
0
  6
CONTINUOUS
100
AcDbLine
 10
2.026451483398688
 20
3.839720509310849
 30
0.0
 11
4.441040904851878
 21
6.254309930764039
 31
0.0
  0
LINE
  5
B25A
330
B255
100
AcDbEntity
  8
0
  6
CONTINUOUS
100
AcDbLine
 10
2.297849019469139
 20
3.437598836301114
 30
0.0
 11
3.321765168359338
 21
4.461514985191313
 31
0.0
  0
LINE
  5
B25B
330
B255
100
AcDbEntity
  8
0
  6
CONTINUOUS
100
AcDbLine
 10
2.569246555539591
 20
3.03547716329138
 30
0.0
 11
3.593163397972743
 21
4.059394005724531
 31
0.0
  0
LINE
  5
B25C
330
B255
100
AcDbEntity
  8
0
  6
CONTINUOUS
100
AcDbLine
 10
2.840644091610043
 20
2.633355490281646
 30
0.0
 11
3.864561627586149
 21
3.657273026257751
 31
0.0
  0
LINE
  5
B25D
330
B255
100
AcDbEntity
  8
0
  6
CONTINUOUS
100
AcDbLine
 10
3.112041627680496
 20
2.231233817271911
 30
0.0
 11
4.135959857199554
 21
3.25515204679097
 31
0.0
  0
LINE
  5
B25E
330
B255
100
AcDbEntity
  8
0
  6
CONTINUOUS
100
AcDbLine
 10
3.383439163750948
 20
1.829112144262177
 30
0.0
 11
4.40735808681296
 21
2.853031067324189
 31
0.0
  0
LINE
  5
B25F
330
B255
100
AcDbEntity
  8
0
  6
CONTINUOUS
100
AcDbLine
 10
3.654836699821399
 20
1.426990471252442
 30
0.0
 11
4.678756316426365
 21
2.450910087857407
 31
0.0
  0
LINE
  5
B260
330
B255
100
AcDbEntity
  8
0
  6
CONTINUOUS
100
AcDbLine
 10
3.926234235891853
 20
1.024868798242709
 30
0.0
 11
4.95015454603977
 21
2.048789108390626
 31
0.0
  0
LINE
  5
B261
330
B255
100
AcDbEntity
  8
0
  6
CONTINUOUS
100
AcDbLine
 10
4.197631771962304
 20
0.6227471252329737
 30
0.0
 11
5.221552775653176
 21
1.646668128923846
 31
0.0
  0
LINE
  5
B262
330
B255
100
AcDbEntity
  8
0
  6
CONTINUOUS
100
AcDbLine
 10
8.715877546767851
 20
7.835069736359266
 30
0.0
 11
9.435953450375058
 21
8.555145639966472
 31
0.0
  0
LINE
  5
B263
330
B255
100
AcDbEntity
  8
0
  6
CONTINUOUS
100
AcDbLine
 10
8.170620868422267
 20
6.616293848933497
 30
0.0
 11
9.644120833743461
 21
8.08979381425469
 31
0.0
  0
LINE
  5
B264
330
B255
100
AcDbEntity
  8
0
  6
CONTINUOUS
100
AcDbLine
 10
7.625364190076684
 20
5.397517961507727
 30
0.0
 11
9.852288217111864
 21
7.624441988542907
 31
0.0
  0
LINE
  5
B265
330
B255
100
AcDbEntity
  8
0
  6
CONTINUOUS
100
AcDbLine
 10
7.080107511731101
 20
4.178742074081957
 30
0.0
 11
10.06045560048027
 21
7.159090162831124
 31
0.0
  0
LINE
  5
B266
330
B255
100
AcDbEntity
  8
0
  6
CONTINUOUS
100
AcDbLine
 10
6.534850833385518
 20
2.959966186656187
 30
0.0
 11
10.26862298384867
 21
6.693738337119342
 31
0.0
  0
LINE
  5
B267
330
B255
100
AcDbEntity
  8
0
  6
CONTINUOUS
100
AcDbLine
 10
4.469029308032756
 20
0.2206254522232385
 30
0.0
 11
5.492951005266582
 21
1.244547149457064
 31
0.0
  0
LINE
  5
B268
330
B255
100
AcDbEntity
  8
0
  6
CONTINUOUS
100
AcDbLine
 10
5.989594155039935
 20
1.741190299230417
 30
0.0
 11
8.806950407233131
 21
4.558546551423613
 31
0.0
  0
LINE
  5
B269
330
B255
100
AcDbEntity
  8
0
  6
CONTINUOUS
100
AcDbLine
 10
9.401251593263643
 20
5.152847737454126
 30
0.0
 11
10.47679036721708
 21
6.228386511407559
 31
0.0
  0
LINE
  5
B26A
330
B255
100
AcDbEntity
  8
0
  6
CONTINUOUS
100
AcDbLine
 10
4.921837203428691
 20
-0.0000858614610131
 30
0.0
 11
8.592923064886001
 21
3.670999999996297
 31
0.0
  0
LINE
  5
B26B
330
B255
100
AcDbEntity
  8
0
  6
CONTINUOUS
100
AcDbLine
 10
9.609390446785305
 20
4.6874673818956
 30
0.0
 11
10.68495775058548
 21
5.763034685695775
 31
0.0
  0
LINE
  5
B26C
330
B255
100
AcDbEntity
  8
0
  6
CONTINUOUS
100
AcDbLine
 10
5.595387755019432
 20
-0.0000545189504582
 30
0.0
 11
7.716137258923768
 21
2.120694984953879
 31
0.0
  0
LINE
  5
B26D
330
B255
100
AcDbEntity
  8
0
  6
CONTINUOUS
100
AcDbLine
 10
6.268938306610172
 20
-0.000023176439905
 30
0.0
 11
7.170485805526503
 21
0.9015243224764267
 31
0.0
  0
LINE
  5
B26E
330
B255
100
AcDbEntity
  8
0
  6
CONTINUOUS
100
AcDbLine
 10
7.963842273967511
 20
2.368399999997621
 30
0.0
 11
9.266442273966188
 21
3.670999999996297
 31
0.0
  0
LINE
  5
B26F
330
B255
100
AcDbEntity
  8
0
  6
CONTINUOUS
100
AcDbLine
 10
8.637361483047696
 20
2.368399999997621
 30
0.0
 11
9.939961483046375
 21
3.670999999996297
 31
0.0
  0
LINE
  5
B270
330
B255
100
AcDbEntity
  8
0
  6
CONTINUOUS
100
AcDbLine
 10
9.817529300306965
 20
4.222087026337075
 30
0.0
 11
10.89312513395388
 21
5.297682859983993
 31
0.0
  0
LINE
  5
B271
330
B255
100
AcDbEntity
  8
0
  6
CONTINUOUS
100
AcDbLine
 10
10.02566815382863
 20
3.756706670778549
 30
0.0
 11
11.10129251732229
 21
4.832331034272211
 31
0.0
  0
LINE
  5
B272
330
B255
100
AcDbEntity
  8
0
  6
CONTINUOUS
100
AcDbLine
 10
9.310880692127883
 20
2.368399999997621
 30
0.0
 11
11.30945990069069
 21
4.366979208560428
 31
0.0
  0
LINE
  5
B273
330
B255
100
AcDbEntity
  8
0
  6
CONTINUOUS
100
AcDbLine
 10
9.98439990120807
 20
2.36839999999762
 30
0.0
 11
11.5176272840591
 21
3.901627382848645
 31
0.0
  0
LINE
  5
B274
330
B255
100
AcDbEntity
  8
0
  6
CONTINUOUS
100
AcDbLine
 10
10.65037369446246
 20
2.36085458417182
 30
0.0
 11
11.7257946674275
 21
3.436275557136862
 31
0.0
  0
LINE
  5
B275
330
B255
100
AcDbEntity
  8
0
  6
CONTINUOUS
100
AcDbLine
 10
10.85847197087848
 20
1.895433651507656
 30
0.0
 11
11.9339620507959
 21
2.97092373142508
 31
0.0
  0
LINE
  5
B276
330
B255
100
AcDbEntity
  8
0
  6
CONTINUOUS
100
AcDbLine
 10
11.0665702472945
 20
1.430012718843491
 30
0.0
 11
12.14212943416431
 21
2.505571905713296
 31
0.0
  0
LINE
  5
B277
330
B255
100
AcDbEntity
  8
0
  6
CONTINUOUS
100
AcDbLine
 10
11.27466852371052
 20
0.9645917861793256
 30
0.0
 11
12.35029681753271
 21
2.040220080001513
 31
0.0
  0
LINE
  5
B278
330
B255
100
AcDbEntity
  8
0
  6
CONTINUOUS
100
AcDbLine
 10
11.48276680012654
 20
0.4991708535151611
 30
0.0
 11
12.55846420090111
 21
1.57486825428973
 31
0.0
  0
LINE
  5
B279
330
B255
100
AcDbEntity
  8
0
  6
CONTINUOUS
100
AcDbLine
 10
11.69086507654257
 20
0.0337499208509957
 30
0.0
 11
12.76663158426952
 21
1.109516428577947
 31
0.0
  0
LINE
  5
B27A
330
B255
100
AcDbEntity
  8
0
  6
CONTINUOUS
100
AcDbLine
 10
12.33057447873954
 20
-0.0000598860322123
 30
0.0
 11
12.97479896763792
 21
0.6441646028661663
 31
0.0
  0
LINE
  5
B27B
330
B255
100
AcDbEntity
  8
0
  6
CONTINUOUS
100
AcDbLine
 10
13.00413694809395
 20
-0.0000166257579952
 30
0.0
 11
13.18296635100632
 21
0.1788127771543824
 31
0.0
  0
LINE
  5
B27C
330
B255
100
AcDbEntity
  8
0
  6
CONTINUOUS
100
AcDbLine
 10
4.772852165289667
 20
-0.000092794222212
 30
0.0
 11
4.296495091028902
 21
0.4762642800385528
 31
0.0
  0
LINE
  5
B27D
330
B255
100
AcDbEntity
  8
0
  6
CONTINUOUS
100
AcDbLine
 10
5.446340034776103
 20
-0.0000614546284616
 30
0.0
 11
2.898195908335625
 21
2.548082671812017
 31
0.0
  0
LINE
  5
B27E
330
B255
100
AcDbEntity
  8
0
  6
CONTINUOUS
100
AcDbLine
 10
6.119827904262539
 20
-0.0000301150347113
 30
0.0
 11
1.499896725642348
 21
4.61990106358548
 31
0.0
  0
LINE
  5
B27F
330
B255
100
AcDbEntity
  8
0
  6
CONTINUOUS
100
AcDbLine
 10
6.775136745476159
 20
0.0181802528318542
 30
0.0
 11
5.699826040202669
 21
1.093490958105344
 31
0.0
  0
LINE
  5
B280
330
B255
100
AcDbEntity
  8
0
  6
CONTINUOUS
100
AcDbLine
 10
6.983376846288489
 20
0.4834593610997118
 30
0.0
 11
5.908008617934405
 21
1.558827589453796
 31
0.0
  0
LINE
  5
B281
330
B255
100
AcDbEntity
  8
0
  6
CONTINUOUS
100
AcDbLine
 10
5.377063484962296
 20
1.416253513345719
 30
0.0
 11
1.702276957014131
 21
5.091040041293883
 31
0.0
  0
LINE
  5
B282
330
B255
100
AcDbEntity
  8
0
  6
CONTINUOUS
100
AcDbLine
 10
3.978745891735324
 20
3.488090315652877
 30
0.0
 11
2.000373521109399
 21
5.466462686278803
 31
0.0
  0
LINE
  5
B283
330
B255
100
AcDbEntity
  8
0
  6
CONTINUOUS
100
AcDbLine
 10
7.191616947100819
 20
0.948738469367568
 30
0.0
 11
6.11619119566614
 21
2.024164220802247
 31
0.0
  0
LINE
  5
B284
330
B255
100
AcDbEntity
  8
0
  6
CONTINUOUS
100
AcDbLine
 10
7.399857047913149
 20
1.414017577635424
 30
0.0
 11
6.324373773397875
 21
2.489500852150698
 31
0.0
  0
LINE
  5
B285
330
B255
100
AcDbEntity
  8
0
  6
CONTINUOUS
100
AcDbLine
 10
7.608097148725479
 20
1.879296685903281
 30
0.0
 11
6.53255635112961
 21
2.95483748349915
 31
0.0
  0
LINE
  5
B286
330
B255
100
AcDbEntity
  8
0
  6
CONTINUOUS
100
AcDbLine
 10
7.816337249537808
 20
2.344575794171138
 30
0.0
 11
6.740738928861345
 21
3.420174114847601
 31
0.0
  0
LINE
  5
B287
330
B255
100
AcDbEntity
  8
0
  6
CONTINUOUS
100
AcDbLine
 10
3.310241080789734
 20
4.830114335678653
 30
0.0
 11
2.298470085204666
 21
5.84188533126372
 31
0.0
  0
LINE
  5
B288
330
B255
100
AcDbEntity
  8
0
  6
CONTINUOUS
100
AcDbLine
 10
3.60832983563551
 20
5.205544789913063
 30
0.0
 11
2.596566649299935
 21
6.217307976248638
 31
0.0
  0
LINE
  5
B289
330
B255
100
AcDbEntity
  8
0
  6
CONTINUOUS
100
AcDbLine
 10
3.906418590481286
 20
5.580975244147473
 30
0.0
 11
2.894663213395203
 21
6.592730621233557
 31
0.0
  0
LINE
  5
B28A
330
B255
100
AcDbEntity
  8
0
  6
CONTINUOUS
100
AcDbLine
 10
4.204507345327062
 20
5.956405698381884
 30
0.0
 11
3.192759777490472
 21
6.968153266218474
 31
0.0
  0
LINE
  5
B28B
330
B255
100
AcDbEntity
  8
0
  6
CONTINUOUS
100
AcDbLine
 10
8.466032252791512
 20
2.368399999997621
 30
0.0
 11
6.948921506593081
 21
3.885510746196053
 31
0.0
  0
LINE
  5
B28C
330
B255
100
AcDbEntity
  8
0
  6
CONTINUOUS
100
AcDbLine
 10
9.139551461871699
 20
2.36839999999762
 30
0.0
 11
7.157104084324816
 21
4.350847377544504
 31
0.0
  0
LINE
  5
B28D
330
B255
100
AcDbEntity
  8
0
  6
CONTINUOUS
100
AcDbLine
 10
4.502596100172839
 20
6.331836152616295
 30
0.0
 11
3.49085634158574
 21
7.343575911203393
 31
0.0
  0
LINE
  5
B28E
330
B255
100
AcDbEntity
  8
0
  6
CONTINUOUS
100
AcDbLine
 10
4.800684855018615
 20
6.707266606850705
 30
0.0
 11
3.788952905681008
 21
7.718998556188312
 31
0.0
  0
LINE
  5
B28F
330
B255
100
AcDbEntity
  8
0
  6
CONTINUOUS
100
AcDbLine
 10
12.18154012887317
 20
-0.0000694579236642
 30
0.0
 11
11.32140332908496
 21
0.8600673418645499
 31
0.0
  0
LINE
  5
B290
330
B255
100
AcDbEntity
  8
0
  6
CONTINUOUS
100
AcDbLine
 10
12.85501608323566
 20
-0.0000262032059659
 30
0.0
 11
10.77672456435345
 21
2.078265315676246
 31
0.0
  0
LINE
  5
B291
330
B255
100
AcDbEntity
  8
0
  6
CONTINUOUS
100
AcDbLine
 10
9.813070670951886
 20
2.36839999999762
 30
0.0
 11
8.51047067095321
 21
3.670999999996297
 31
0.0
  0
LINE
  5
B292
330
B255
100
AcDbEntity
  8
0
  6
CONTINUOUS
100
AcDbLine
 10
10.48658988003207
 20
2.36839999999762
 30
0.0
 11
9.183989880033396
 21
3.670999999996297
 31
0.0
  0
LINE
  5
B293
330
B255
100
AcDbEntity
  8
0
  6
CONTINUOUS
100
AcDbLine
 10
8.441048632286794
 20
3.740422038662712
 30
0.0
 11
7.365286662056551
 21
4.816184008892956
 31
0.0
  0
LINE
  5
B294
330
B255
100
AcDbEntity
  8
0
  6
CONTINUOUS
100
AcDbLine
 10
8.649187485808454
 20
4.205802394221237
 30
0.0
 11
7.573469239788285
 21
5.281520640241407
 31
0.0
  0
LINE
  5
B295
330
B255
100
AcDbEntity
  8
0
  6
CONTINUOUS
100
AcDbLine
 10
5.098773609864391
 20
7.082697061085115
 30
0.0
 11
4.087049469776277
 21
8.09442120117323
 31
0.0
  0
LINE
  5
B296
330
B255
100
AcDbEntity
  8
0
  6
CONTINUOUS
100
AcDbLine
 10
5.396862364710167
 20
7.458127515319526
 30
0.0
 11
4.385146033871544
 21
8.469843846158149
 31
0.0
  0
LINE
  5
B297
330
B255
100
AcDbEntity
  8
0
  6
CONTINUOUS
100
AcDbLine
 10
13.04801363231285
 20
0.4804954567970334
 30
0.0
 11
9.85750908911358
 21
3.670999999996297
 31
0.0
  0
LINE
  5
B298
330
B255
100
AcDbEntity
  8
0
  6
CONTINUOUS
100
AcDbLine
 10
8.857326339330116
 20
4.671182749779763
 30
0.0
 11
7.781651817520021
 21
5.746857271589858
 31
0.0
  0
LINE
  5
B299
330
B255
100
AcDbEntity
  8
0
  6
CONTINUOUS
100
AcDbLine
 10
5.694951119555943
 20
7.833557969553937
 30
0.0
 11
4.765409089118624
 21
8.763099999991255
 31
0.0
  0
LINE
  5
B29A
330
B255
100
AcDbEntity
  8
0
  6
CONTINUOUS
100
AcDbLine
 10
12.50286117236978
 20
1.699167125820288
 30
0.0
 11
9.68611877250287
 21
4.515909525687196
 31
0.0
  0
LINE
  5
B29B
330
B255
100
AcDbEntity
  8
0
  6
CONTINUOUS
100
AcDbLine
 10
9.065465192851777
 20
5.136563105338288
 30
0.0
 11
7.989834395251757
 21
6.21219390293831
 31
0.0
  0
LINE
  5
B29C
330
B255
100
AcDbEntity
  8
0
  6
CONTINUOUS
100
AcDbLine
 10
5.993039874401719
 20
8.208988423788346
 30
0.0
 11
5.43892829819881
 21
8.763099999991255
 31
0.0
  0
LINE
  5
B29D
330
B255
100
AcDbEntity
  8
0
  6
CONTINUOUS
100
AcDbLine
 10
11.95770871242671
 20
2.917838794843543
 30
0.0
 11
8.19801697298349
 21
6.677530534286761
 31
0.0
  0
LINE
  5
B29E
330
B255
100
AcDbEntity
  8
0
  6
CONTINUOUS
100
AcDbLine
 10
6.291128629247495
 20
8.584418878022756
 30
0.0
 11
6.112447507278997
 21
8.763099999991255
 31
0.0
  0
LINE
  5
B29F
330
B255
100
AcDbEntity
  8
0
  6
CONTINUOUS
100
AcDbLine
 10
11.41255625248364
 20
4.136510463866797
 30
0.0
 11
8.406199550715227
 21
7.142867165635211
 31
0.0
  0
LINE
  5
B2A0
330
B255
100
AcDbEntity
  8
0
  6
CONTINUOUS
100
AcDbLine
 10
10.86740379254057
 20
5.355182132890051
 30
0.0
 11
8.614382128446962
 21
7.608203796983664
 31
0.0
  0
LINE
  5
B2A1
330
B255
100
AcDbEntity
  8
0
  6
CONTINUOUS
100
AcDbLine
 10
10.3222513325975
 20
6.573853801913305
 30
0.0
 11
8.822564706178696
 21
8.073540428332114
 31
0.0
  0
LINE
  5
B2A2
330
B255
100
AcDbEntity
  8
0
  6
CONTINUOUS
100
AcDbLine
 10
9.777098872654436
 20
7.792525470936562
 30
0.0
 11
9.030747283910433
 21
8.538877059680566
 31
0.0
  0
ENDBLK
  5
B3E4
330
B255
100
AcDbEntity
  8
0
100
AcDbBlockEnd
  0
BLOCK
  5
B3E5
330
B2A3
100
AcDbEntity
  8
0
100
AcDbBlockBegin
  2
*X21
 70
     1
 10
0.0
 20
0.0
 30
0.0
  3
*X21
  1

  0
LINE
  5
B2A4
330
B2A3
100
AcDbEntity
  8
0
  6
CONTINUOUS
100
AcDbLine
 10
10.67292308101235
 20
8.445076852443387
 30
0.0
 11
10.99094622856022
 21
8.763099999991255
 31
0.0
  0
LINE
  5
B2A5
330
B2A3
100
AcDbEntity
  8
0
  6
CONTINUOUS
100
AcDbLine
 10
10.87250383178748
 20
7.971138394138331
 30
0.0
 11
11.6644654376404
 21
8.763099999991255
 31
0.0
  0
LINE
  5
B2A6
330
B2A3
100
AcDbEntity
  8
0
  6
CONTINUOUS
100
AcDbLine
 10
11.07208458256261
 20
7.497199935833273
 30
0.0
 11
12.12126590876355
 21
8.546381262034211
 31
0.0
  0
LINE
  5
B2A7
330
B2A3
100
AcDbEntity
  8
0
  6
CONTINUOUS
100
AcDbLine
 10
11.27166533333774
 20
7.023261477528216
 30
0.0
 11
12.32085164573666
 21
8.072447789927136
 31
0.0
  0
LINE
  5
B2A8
330
B2A3
100
AcDbEntity
  8
0
  6
CONTINUOUS
100
AcDbLine
 10
11.47124608411287
 20
6.549323019223158
 30
0.0
 11
12.52043738270977
 21
7.59851431782006
 31
0.0
  0
LINE
  5
B2A9
330
B2A3
100
AcDbEntity
  8
0
  6
CONTINUOUS
100
AcDbLine
 10
11.670826834888
 20
6.075384560918101
 30
0.0
 11
12.72002311968288
 21
7.124580845712984
 31
0.0
  0
LINE
  5
B2AA
330
B2A3
100
AcDbEntity
  8
0
  6
CONTINUOUS
100
AcDbLine
 10
11.87040758566313
 20
5.601446102613043
 30
0.0
 11
12.91960885665599
 21
6.650647373605907
 31
0.0
  0
LINE
  5
B2AB
330
B2A3
100
AcDbEntity
  8
0
  6
CONTINUOUS
100
AcDbLine
 10
12.06998833643825
 20
5.127507644307986
 30
0.0
 11
13.1191945936291
 21
6.176713901498832
 31
0.0
  0
LINE
  5
B2AC
330
B2A3
100
AcDbEntity
  8
0
  6
CONTINUOUS
100
AcDbLine
 10
12.26956908721338
 20
4.65356918600293
 30
0.0
 11
13.31878033060221
 21
5.702780429391757
 31
0.0
  0
LINE
  5
B2AD
330
B2A3
100
AcDbEntity
  8
0
  6
CONTINUOUS
100
AcDbLine
 10
12.46914983798851
 20
4.179630727697873
 30
0.0
 11
13.51836606757532
 21
5.228846957284683
 31
0.0
  0
LINE
  5
B2AE
330
B2A3
100
AcDbEntity
  8
0
  6
CONTINUOUS
100
AcDbLine
 10
12.66873058876364
 20
3.705692269392816
 30
0.0
 11
13.71795180454843
 21
4.754913485177607
 31
0.0
  0
LINE
  5
B2AF
330
B2A3
100
AcDbEntity
  8
0
  6
CONTINUOUS
100
AcDbLine
 10
12.86831133953877
 20
3.231753811087759
 30
0.0
 11
13.91753754152154
 21
4.280980013070531
 31
0.0
  0
LINE
  5
B2B0
330
B2A3
100
AcDbEntity
  8
0
  6
CONTINUOUS
100
AcDbLine
 10
13.0678920903139
 20
2.757815352782702
 30
0.0
 11
14.11712327849465
 21
3.807046540963456
 31
0.0
  0
LINE
  5
B2B1
330
B2A3
100
AcDbEntity
  8
0
  6
CONTINUOUS
100
AcDbLine
 10
13.26747284108903
 20
2.283876894477644
 30
0.0
 11
14.31670901546777
 21
3.333113068856379
 31
0.0
  0
LINE
  5
B2B2
330
B2A3
100
AcDbEntity
  8
0
  6
CONTINUOUS
100
AcDbLine
 10
16.36767838827179
 20
8.751678487061342
 30
0.0
 11
16.50332410898388
 21
8.887324207773432
 31
0.0
  0
LINE
  5
B2B3
330
B2A3
100
AcDbEntity
  8
0
  6
CONTINUOUS
100
AcDbLine
 10
15.96190732182191
 20
7.67238821153127
 30
0.0
 11
16.68735328004734
 21
8.397834169756699
 31
0.0
  0
LINE
  5
B2B4
330
B2A3
100
AcDbEntity
  8
0
  6
CONTINUOUS
100
AcDbLine
 10
15.55613625537202
 20
6.593097936001196
 30
0.0
 11
16.87138245111079
 21
7.908344131739965
 31
0.0
  0
LINE
  5
B2B5
330
B2A3
100
AcDbEntity
  8
0
  6
CONTINUOUS
100
AcDbLine
 10
15.15036518892213
 20
5.513807660471122
 30
0.0
 11
17.05541162217424
 21
7.418854093723231
 31
0.0
  0
LINE
  5
B2B6
330
B2A3
100
AcDbEntity
  8
0
  6
CONTINUOUS
100
AcDbLine
 10
14.74459412247225
 20
4.434517384941048
 30
0.0
 11
17.2394407932377
 21
6.929364055706499
 31
0.0
  0
LINE
  5
B2B7
330
B2A3
100
AcDbEntity
  8
0
  6
CONTINUOUS
100
AcDbLine
 10
14.33882305602236
 20
3.355227109410975
 30
0.0
 11
17.42346996430115
 21
6.439874017689766
 31
0.0
  0
LINE
  5
B2B8
330
B2A3
100
AcDbEntity
  8
0
  6
CONTINUOUS
100
AcDbLine
 10
13.46705359186416
 20
1.809938436172586
 30
0.0
 11
16.0819338255367
 21
4.424818669845129
 31
0.0
  0
LINE
  5
B2B9
330
B2A3
100
AcDbEntity
  8
0
  6
CONTINUOUS
100
AcDbLine
 10
16.63283254238972
 20
4.975717386698149
 30
0.0
 11
17.60749913536461
 21
5.950383979673033
 31
0.0
  0
LINE
  5
B2BA
330
B2A3
100
AcDbEntity
  8
0
  6
CONTINUOUS
100
AcDbLine
 10
13.66663434263929
 20
1.335999977867529
 30
0.0
 11
15.67604797733754
 21
3.345413612565779
 31
0.0
  0
LINE
  5
B2BB
330
B2A3
100
AcDbEntity
  8
0
  6
CONTINUOUS
100
AcDbLine
 10
13.86621509341442
 20
0.8620615195624723
 30
0.0
 11
15.27016212913838
 21
2.26600855528643
 31
0.0
  0
LINE
  5
B2BC
330
B2A3
100
AcDbEntity
  8
0
  6
CONTINUOUS
100
AcDbLine
 10
16.81682257348267
 20
4.486188208710908
 30
0.0
 11
17.79152830642806
 21
5.460893941656299
 31
0.0
  0
LINE
  5
B2BD
330
B2A3
100
AcDbEntity
  8
0
  6
CONTINUOUS
100
AcDbLine
 10
17.00081260457561
 20
3.996659030723667
 30
0.0
 11
17.97555747749151
 21
4.971403903639565
 31
0.0
  0
LINE
  5
B2BE
330
B2A3
100
AcDbEntity
  8
0
  6
CONTINUOUS
100
AcDbLine
 10
20.74362343514722
 20
8.412989070375462
 30
0.0
 11
21.09373436476302
 21
8.763099999991256
 31
0.0
  0
LINE
  5
B2BF
330
B2A3
100
AcDbEntity
  8
0
  6
CONTINUOUS
100
AcDbLine
 10
20.25401257174777
 20
7.249858997895826
 30
0.0
 11
21.7672535738432
 21
8.763099999991255
 31
0.0
  0
LINE
  5
B2C0
330
B2A3
100
AcDbEntity
  8
0
  6
CONTINUOUS
100
AcDbLine
 10
14.06579584418955
 20
0.3881230612574149
 30
0.0
 11
14.86427628093921
 21
1.186603498007082
 31
0.0
  0
LINE
  5
B2C1
330
B2A3
100
AcDbEntity
  8
0
  6
CONTINUOUS
100
AcDbLine
 10
14.26537659496467
 20
-0.0858153970476412
 30
0.0
 11
14.45839043274005
 21
0.1071984407277329
 31
0.0
  0
LINE
  5
B2C2
330
B2A3
100
AcDbEntity
  8
0
  6
CONTINUOUS
100
AcDbLine
 10
17.18480263566856
 20
3.507129852736426
 30
0.0
 11
18.15958664855496
 21
4.481913865622833
 31
0.0
  0
LINE
  5
B2C3
330
B2A3
100
AcDbEntity
  8
0
  6
CONTINUOUS
100
AcDbLine
 10
17.3687926667615
 20
3.017600674749186
 30
0.0
 11
18.34361581961842
 21
3.9924238276061
 31
0.0
  0
LINE
  5
B2C4
330
B2A3
100
AcDbEntity
  8
0
  6
CONTINUOUS
100
AcDbLine
 10
19.76440170834832
 20
6.086728925416191
 30
0.0
 11
22.33924590259489
 21
8.661573119662755
 31
0.0
  0
LINE
  5
B2C5
330
B2A3
100
AcDbEntity
  8
0
  6
CONTINUOUS
100
AcDbLine
 10
19.27479084494887
 20
4.923598852936555
 30
0.0
 11
21.84929622842713
 21
7.498104236414807
 31
0.0
  0
LINE
  5
B2C6
330
B2A3
100
AcDbEntity
  8
0
  6
CONTINUOUS
100
AcDbLine
 10
17.55278269785445
 20
2.528071496761945
 30
0.0
 11
18.52764499068187
 21
3.502933789589366
 31
0.0
  0
LINE
  5
B2C7
330
B2A3
100
AcDbEntity
  8
0
  6
CONTINUOUS
100
AcDbLine
 10
18.78517998154942
 20
3.760468780456919
 30
0.0
 11
21.35934655425936
 21
6.33463535316686
 31
0.0
  0
LINE
  5
B2C8
330
B2A3
100
AcDbEntity
  8
0
  6
CONTINUOUS
100
AcDbLine
 10
17.73677272894739
 20
2.038542318774704
 30
0.0
 11
20.8693968800916
 21
5.171166469918914
 31
0.0
  0
LINE
  5
B2C9
330
B2A3
100
AcDbEntity
  8
0
  6
CONTINUOUS
100
AcDbLine
 10
17.92076276004034
 20
1.549013140787464
 30
0.0
 11
20.37944720592384
 21
4.007697586670968
 31
0.0
  0
LINE
  5
B2CA
330
B2A3
100
AcDbEntity
  8
0
  6
CONTINUOUS
100
AcDbLine
 10
18.10475279113329
 20
1.059483962800223
 30
0.0
 11
19.88949753175608
 21
2.84422870342302
 31
0.0
  0
LINE
  5
B2CB
330
B2A3
100
AcDbEntity
  8
0
  6
CONTINUOUS
100
AcDbLine
 10
18.28874282222623
 20
0.5699547848129822
 30
0.0
 11
19.39954785758832
 21
1.680759820175074
 31
0.0
  0
LINE
  5
B2CC
330
B2A3
100
AcDbEntity
  8
0
  6
CONTINUOUS
100
AcDbLine
 10
18.47273285331918
 20
0.0804256068257416
 30
0.0
 11
18.90959818342056
 21
0.517290936927127
 31
0.0
  0
LINE
  5
B2CD
330
B2A3
100
AcDbEntity
  8
0
  6
CONTINUOUS
100
AcDbLine
 10
14.3590401358224
 20
-0.1570118376323384
 30
0.0
 11
14.24903296539946
 21
-0.0470046672093929
 31
0.0
  0
LINE
  5
B2CE
330
B2A3
100
AcDbEntity
  8
0
  6
CONTINUOUS
100
AcDbLine
 10
14.54309291258661
 20
0.332454594683643
 30
0.0
 11
13.75908329123172
 21
1.116464216038529
 31
0.0
  0
LINE
  5
B2CF
330
B2A3
100
AcDbEntity
  8
0
  6
CONTINUOUS
100
AcDbLine
 10
14.72714568935081
 20
0.8219210269996244
 30
0.0
 11
13.26913361706399
 21
2.27993309928645
 31
0.0
  0
LINE
  5
B2D0
330
B2A3
100
AcDbEntity
  8
0
  6
CONTINUOUS
100
AcDbLine
 10
14.91119846611502
 20
1.311387459315606
 30
0.0
 11
12.77918394289625
 21
3.443401982534371
 31
0.0
  0
LINE
  5
B2D1
330
B2A3
100
AcDbEntity
  8
0
  6
CONTINUOUS
100
AcDbLine
 10
15.09525124287922
 20
1.800853891631587
 30
0.0
 11
12.28923426872852
 21
4.606870865782293
 31
0.0
  0
LINE
  5
B2D2
330
B2A3
100
AcDbEntity
  8
0
  6
CONTINUOUS
100
AcDbLine
 10
15.27930401964343
 20
2.290320323947569
 30
0.0
 11
11.79928459456078
 21
5.770339749030213
 31
0.0
  0
LINE
  5
B2D3
330
B2A3
100
AcDbEntity
  8
0
  6
CONTINUOUS
100
AcDbLine
 10
15.46335679640763
 20
2.77978675626355
 30
0.0
 11
14.48885470994921
 21
3.754288842721972
 31
0.0
  0
LINE
  5
B2D4
330
B2A3
100
AcDbEntity
  8
0
  6
CONTINUOUS
100
AcDbLine
 10
13.88507249233704
 20
4.358071060334137
 30
0.0
 11
11.30933492039305
 21
6.933808632278135
 31
0.0
  0
LINE
  5
B2D5
330
B2A3
100
AcDbEntity
  8
0
  6
CONTINUOUS
100
AcDbLine
 10
18.75840522805855
 20
0.1582575336928151
 30
0.0
 11
18.25383727664818
 21
0.6628254851031863
 31
0.0
  0
LINE
  5
B2D6
330
B2A3
100
AcDbEntity
  8
0
  6
CONTINUOUS
100
AcDbLine
 10
15.64740957317184
 20
3.269253188579531
 30
0.0
 11
14.67288388101266
 21
4.243778880738705
 31
0.0
  0
LINE
  5
B2D7
330
B2A3
100
AcDbEntity
  8
0
  6
CONTINUOUS
100
AcDbLine
 10
13.39509276772158
 20
5.521569994029786
 30
0.0
 11
10.81938524622531
 21
8.097277515526056
 31
0.0
  0
LINE
  5
B2D8
330
B2A3
100
AcDbEntity
  8
0
  6
CONTINUOUS
100
AcDbLine
 10
18.95798597883369
 20
0.6321959919978686
 30
0.0
 11
17.84825644852853
 21
1.741925522303024
 31
0.0
  0
LINE
  5
B2D9
330
B2A3
100
AcDbEntity
  8
0
  6
CONTINUOUS
100
AcDbLine
 10
19.15756672960882
 20
1.106134450302922
 30
0.0
 11
17.44267562040888
 21
2.821025559502861
 31
0.0
  0
LINE
  5
B2DA
330
B2A3
100
AcDbEntity
  8
0
  6
CONTINUOUS
100
AcDbLine
 10
15.83146234993604
 20
3.758719620895513
 30
0.0
 11
14.85691305207612
 21
4.733268918755439
 31
0.0
  0
LINE
  5
B2DB
330
B2A3
100
AcDbEntity
  8
0
  6
CONTINUOUS
100
AcDbLine
 10
16.01551512670025
 20
4.248186053211494
 30
0.0
 11
15.04094222313957
 21
5.222758956772172
 31
0.0
  0
LINE
  5
B2DC
330
B2A3
100
AcDbEntity
  8
0
  6
CONTINUOUS
100
AcDbLine
 10
12.90511304310612
 20
6.685068927725435
 30
0.0
 11
10.8270819708403
 21
8.763099999991255
 31
0.0
  0
LINE
  5
B2DD
330
B2A3
100
AcDbEntity
  8
0
  6
CONTINUOUS
100
AcDbLine
 10
12.41513331849066
 20
7.848567861421083
 30
0.0
 11
11.50060117992049
 21
8.763099999991255
 31
0.0
  0
LINE
  5
B2DE
330
B2A3
100
AcDbEntity
  8
0
  6
CONTINUOUS
100
AcDbLine
 10
19.35714748038395
 20
1.580072908607975
 30
0.0
 11
17.03709479228923
 21
3.900125596702697
 31
0.0
  0
LINE
  5
B2DF
330
B2A3
100
AcDbEntity
  8
0
  6
CONTINUOUS
100
AcDbLine
 10
19.55672823115909
 20
2.054011366913028
 30
0.0
 11
16.63151396416958
 21
4.979225633902534
 31
0.0
  0
LINE
  5
B2E0
330
B2A3
100
AcDbEntity
  8
0
  6
CONTINUOUS
100
AcDbLine
 10
16.19956790346445
 20
4.737652485527476
 30
0.0
 11
15.22497139420302
 21
5.712248994788904
 31
0.0
  0
LINE
  5
B2E1
330
B2A3
100
AcDbEntity
  8
0
  6
CONTINUOUS
100
AcDbLine
 10
16.38362068022866
 20
5.227118917843457
 30
0.0
 11
15.40900056526648
 21
6.201739032805637
 31
0.0
  0
LINE
  5
B2E2
330
B2A3
100
AcDbEntity
  8
0
  6
CONTINUOUS
100
AcDbLine
 10
19.75630898193422
 20
2.527949825218081
 30
0.0
 11
18.70774536448286
 21
3.576513442669441
 31
0.0
  0
LINE
  5
B2E3
330
B2A3
100
AcDbEntity
  8
0
  6
CONTINUOUS
100
AcDbLine
 10
19.95588973270936
 20
3.001888283523134
 30
0.0
 11
18.90726987211446
 21
4.050508144118028
 31
0.0
  0
LINE
  5
B2E4
330
B2A3
100
AcDbEntity
  8
0
  6
CONTINUOUS
100
AcDbLine
 10
20.15547048348449
 20
3.475826741828186
 30
0.0
 11
19.10679437974606
 21
4.524502845566614
 31
0.0
  0
LINE
  5
B2E5
330
B2A3
100
AcDbEntity
  8
0
  6
CONTINUOUS
100
AcDbLine
 10
20.35505123425962
 20
3.94976520013324
 30
0.0
 11
19.30631888737766
 21
4.998497547015201
 31
0.0
  0
LINE
  5
B2E6
330
B2A3
100
AcDbEntity
  8
0
  6
CONTINUOUS
100
AcDbLine
 10
20.55463198503475
 20
4.423703658438292
 30
0.0
 11
19.50584339500926
 21
5.472492248463787
 31
0.0
  0
LINE
  5
B2E7
330
B2A3
100
AcDbEntity
  8
0
  6
CONTINUOUS
100
AcDbLine
 10
18.37481191085755
 20
3.909446896294752
 30
0.0
 11
15.59302973632993
 21
6.691229070822371
 31
0.0
  0
LINE
  5
B2E8
330
B2A3
100
AcDbEntity
  8
0
  6
CONTINUOUS
100
AcDbLine
 10
17.96904084440766
 20
4.988737171824825
 30
0.0
 11
15.77705890739338
 21
7.180719108839104
 31
0.0
  0
LINE
  5
B2E9
330
B2A3
100
AcDbEntity
  8
0
  6
CONTINUOUS
100
AcDbLine
 10
17.56326977795777
 20
6.068027447354899
 30
0.0
 11
15.96108807845684
 21
7.670209146855838
 31
0.0
  0
LINE
  5
B2EA
330
B2A3
100
AcDbEntity
  8
0
  6
CONTINUOUS
100
AcDbLine
 10
17.15749871150789
 20
7.147317722884972
 30
0.0
 11
16.14511724952029
 21
8.15969918487257
 31
0.0
  0
LINE
  5
B2EB
330
B2A3
100
AcDbEntity
  8
0
  6
CONTINUOUS
100
AcDbLine
 10
16.751727645058
 20
8.226607998415046
 30
0.0
 11
16.32914642058374
 21
8.649189222889303
 31
0.0
  0
LINE
  5
B2EC
330
B2A3
100
AcDbEntity
  8
0
  6
CONTINUOUS
100
AcDbLine
 10
20.75421273580989
 20
4.897642116743345
 30
0.0
 11
19.70536790264086
 21
5.946486949912374
 31
0.0
  0
LINE
  5
B2ED
330
B2A3
100
AcDbEntity
  8
0
  6
CONTINUOUS
100
AcDbLine
 10
20.95379348658502
 20
5.371580575048398
 30
0.0
 11
19.90489241027246
 21
6.42048165136096
 31
0.0
  0
LINE
  5
B2EE
330
B2A3
100
AcDbEntity
  8
0
  6
CONTINUOUS
100
AcDbLine
 10
21.15337423736015
 20
5.845519033353452
 30
0.0
 11
20.10441691790406
 21
6.894476352809547
 31
0.0
  0
LINE
  5
B2EF
330
B2A3
100
AcDbEntity
  8
0
  6
CONTINUOUS
100
AcDbLine
 10
21.35295498813529
 20
6.319457491658505
 30
0.0
 11
20.30394142553566
 21
7.368471054258134
 31
0.0
  0
LINE
  5
B2F0
330
B2A3
100
AcDbEntity
  8
0
  6
CONTINUOUS
100
AcDbLine
 10
21.55253573891042
 20
6.793395949963558
 30
0.0
 11
20.50346593316726
 21
7.842465755706721
 31
0.0
  0
LINE
  5
B2F1
330
B2A3
100
AcDbEntity
  8
0
  6
CONTINUOUS
100
AcDbLine
 10
21.75211648968556
 20
7.267334408268612
 30
0.0
 11
20.70299044079886
 21
8.316460457155308
 31
0.0
  0
LINE
  5
B2F2
330
B2A3
100
AcDbEntity
  8
0
  6
CONTINUOUS
100
AcDbLine
 10
21.95169724046069
 20
7.741272866573663
 30
0.0
 11
20.9298701070431
 21
8.763099999991256
 31
0.0
  0
LINE
  5
B2F3
330
B2A3
100
AcDbEntity
  8
0
  6
CONTINUOUS
100
AcDbLine
 10
22.15127799123582
 20
8.215211324878716
 30
0.0
 11
21.60338931612328
 21
8.763099999991256
 31
0.0
  0
LINE
  5
B2F4
330
B2A3
100
AcDbEntity
  8
0
  6
CONTINUOUS
100
AcDbLine
 10
22.35085874201096
 20
8.689149783183769
 30
0.0
 11
22.27690852520347
 21
8.763099999991255
 31
0.0
  0
ENDBLK
  5
B3E6
330
B2A3
100
AcDbEntity
  8
0
100
AcDbBlockEnd
  0
BLOCK
  5
B3E7
330
B2F5
100
AcDbEntity
  8
0
100
AcDbBlockBegin
  2
*X22
 70
     1
 10
0.0
 20
0.0
 30
0.0
  3
*X22
  1

  0
LINE
  5
B2F6
330
B2F5
100
AcDbEntity
  8
0
  6
CONTINUOUS
100
AcDbLine
 10
23.19462913593892
 20
8.169917934846424
 30
0.0
 11
23.70775465517246
 21
8.683043454079957
 31
0.0
  0
LINE
  5
B2F7
330
B2F5
100
AcDbEntity
  8
0
  6
CONTINUOUS
100
AcDbLine
 10
22.64923161835078
 20
6.951001208178088
 30
0.0
 11
23.9159364069932
 21
8.217705996820516
 31
0.0
  0
LINE
  5
B2F8
330
B2F5
100
AcDbEntity
  8
0
  6
CONTINUOUS
100
AcDbLine
 10
22.10383410076263
 20
5.732084481509751
 30
0.0
 11
24.12411815881395
 21
7.752368539561078
 31
0.0
  0
LINE
  5
B2F9
330
B2F5
100
AcDbEntity
  8
0
  6
CONTINUOUS
100
AcDbLine
 10
21.55843658317447
 20
4.513167754841414
 30
0.0
 11
24.3322999106347
 21
7.287031082301639
 31
0.0
  0
LINE
  5
B2FA
330
B2F5
100
AcDbEntity
  8
0
  6
CONTINUOUS
100
AcDbLine
 10
21.01303906558632
 20
3.294251028173077
 30
0.0
 11
24.54048166245544
 21
6.821693625042199
 31
0.0
  0
LINE
  5
B2FB
330
B2F5
100
AcDbEntity
  8
0
  6
CONTINUOUS
100
AcDbLine
 10
20.46764154799817
 20
2.075334301504738
 30
0.0
 11
23.28571549467848
 21
4.89340824818505
 31
0.0
  0
LINE
  5
B2FC
330
B2F5
100
AcDbEntity
  8
0
  6
CONTINUOUS
100
AcDbLine
 10
19.92224403041002
 20
0.8564175748364002
 30
0.0
 11
22.74075865492779
 21
3.674932199354171
 31
0.0
  0
LINE
  5
B2FD
330
B2F5
100
AcDbEntity
  8
0
  6
CONTINUOUS
100
AcDbLine
 10
23.67305085490148
 20
5.280743608408048
 30
0.0
 11
24.74866341427619
 21
6.356356167782759
 31
0.0
  0
LINE
  5
B2FE
330
B2F5
100
AcDbEntity
  8
0
  6
CONTINUOUS
100
AcDbLine
 10
23.88118970842314
 20
4.815363252849522
 30
0.0
 11
24.95684516609694
 21
5.89101871052332
 31
0.0
  0
LINE
  5
B2FF
330
B2F5
100
AcDbEntity
  8
0
  6
CONTINUOUS
100
AcDbLine
 10
19.73925852647308
 20
-0.0000871381807288
 30
0.0
 11
23.4103456646501
 21
3.670999999996297
 31
0.0
  0
LINE
  5
B300
330
B2F5
100
AcDbEntity
  8
0
  6
CONTINUOUS
100
AcDbLine
 10
24.0893285619448
 20
4.349982897290997
 30
0.0
 11
25.16502691791769
 21
5.42568125326388
 31
0.0
  0
LINE
  5
B301
330
B2F5
100
AcDbEntity
  8
0
  6
CONTINUOUS
100
AcDbLine
 10
20.41282099582748
 20
-0.0000438779065108
 30
0.0
 11
21.64944178675636
 21
1.236576913022366
 31
0.0
  0
LINE
  5
B302
330
B2F5
100
AcDbEntity
  8
0
  6
CONTINUOUS
100
AcDbLine
 10
22.78126487373161
 20
2.36839999999762
 30
0.0
 11
24.08386487373029
 21
3.670999999996297
 31
0.0
  0
LINE
  5
B303
330
B2F5
100
AcDbEntity
  8
0
  6
CONTINUOUS
100
AcDbLine
 10
24.29746741546646
 20
3.884602541732471
 30
0.0
 11
25.37320866973843
 21
4.960343796004441
 31
0.0
  0
LINE
  5
B304
330
B2F5
100
AcDbEntity
  8
0
  6
CONTINUOUS
100
AcDbLine
 10
21.08638346518189
 20
-0.0000006176322938
 30
0.0
 11
21.10379033335899
 21
0.0174062505448083
 31
0.0
  0
LINE
  5
B305
330
B2F5
100
AcDbEntity
  8
0
  6
CONTINUOUS
100
AcDbLine
 10
23.4547840828118
 20
2.36839999999762
 30
0.0
 11
25.58139042155918
 21
4.495006338745002
 31
0.0
  0
LINE
  5
B306
330
B2F5
100
AcDbEntity
  8
0
  6
CONTINUOUS
100
AcDbLine
 10
29.30199999996933
 20
8.215615917155148
 30
0.0
 11
29.84948408280543
 21
8.763099999991255
 31
0.0
  0
LINE
  5
B307
330
B2F5
100
AcDbEntity
  8
0
  6
CONTINUOUS
100
AcDbLine
 10
24.12830329189199
 20
2.36839999999762
 30
0.0
 11
25.78957217337993
 21
4.029668881485562
 31
0.0
  0
LINE
  5
B308
330
B2F5
100
AcDbEntity
  8
0
  6
CONTINUOUS
100
AcDbLine
 10
29.30199999996933
 20
7.54209670807496
 30
0.0
 11
30.52300329188562
 21
8.763099999991255
 31
0.0
  0
LINE
  5
B309
330
B2F5
100
AcDbEntity
  8
0
  6
CONTINUOUS
100
AcDbLine
 10
24.80182250097217
 20
2.36839999999762
 30
0.0
 11
25.99775392520067
 21
3.564331424226122
 31
0.0
  0
LINE
  5
B30A
330
B2F5
100
AcDbEntity
  8
0
  6
CONTINUOUS
100
AcDbLine
 10
29.30199999996933
 20
6.868577498994774
 30
0.0
 11
30.74199999996926
 21
8.308577498994712
 31
0.0
  0
LINE
  5
B30B
330
B2F5
100
AcDbEntity
  8
0
  6
CONTINUOUS
100
AcDbLine
 10
25.13028238392013
 20
2.023340673865392
 30
0.0
 11
26.20593567702142
 21
3.098993966966683
 31
0.0
  0
LINE
  5
B30C
330
B2F5
100
AcDbEntity
  8
0
  6
CONTINUOUS
100
AcDbLine
 10
25.33838066033617
 20
1.557919741201244
 30
0.0
 11
26.41411742884217
 21
2.633656509707244
 31
0.0
  0
LINE
  5
B30D
330
B2F5
100
AcDbEntity
  8
0
  6
CONTINUOUS
100
AcDbLine
 10
25.54647893675221
 20
1.092498808537098
 30
0.0
 11
26.62229918066291
 21
2.168319052447804
 31
0.0
  0
LINE
  5
B30E
330
B2F5
100
AcDbEntity
  8
0
  6
CONTINUOUS
100
AcDbLine
 10
25.75457721316825
 20
0.62707787587295
 30
0.0
 11
26.83048093248366
 21
1.702981595188365
 31
0.0
  0
LINE
  5
B30F
330
B2F5
100
AcDbEntity
  8
0
  6
CONTINUOUS
100
AcDbLine
 10
29.30199999996933
 20
6.195058289914587
 30
0.0
 11
30.74199999996926
 21
7.635058289914522
 31
0.0
  0
LINE
  5
B310
330
B2F5
100
AcDbEntity
  8
0
  6
CONTINUOUS
100
AcDbLine
 10
29.30199999996933
 20
5.521539080834401
 30
0.0
 11
30.74199999996926
 21
6.961539080834331
 31
0.0
  0
LINE
  5
B311
330
B2F5
100
AcDbEntity
  8
0
  6
CONTINUOUS
100
AcDbLine
 10
29.30199999996933
 20
4.848019871754214
 30
0.0
 11
30.74199999996925
 21
6.288019871754143
 31
0.0
  0
LINE
  5
B312
330
B2F5
100
AcDbEntity
  8
0
  6
CONTINUOUS
100
AcDbLine
 10
29.30199999996933
 20
4.174500662674028
 30
0.0
 11
30.74199999996925
 21
5.614500662673953
 31
0.0
  0
LINE
  5
B313
330
B2F5
100
AcDbEntity
  8
0
  6
CONTINUOUS
100
AcDbLine
 10
25.96267548958429
 20
0.1616569432088024
 30
0.0
 11
27.18411854636669
 21
1.383099999991207
 31
0.0
  0
LINE
  5
B314
330
B2F5
100
AcDbEntity
  8
0
  6
CONTINUOUS
100
AcDbLine
 10
29.30199999996933
 20
3.500981453593841
 30
0.0
 11
30.74199999996925
 21
4.940981453593762
 31
0.0
  0
LINE
  5
B315
330
B2F5
100
AcDbEntity
  8
0
  6
CONTINUOUS
100
AcDbLine
 10
26.50763775544691
 20
0.0330999999912356
 30
0.0
 11
27.85763775544689
 21
1.383099999991223
 31
0.0
  0
LINE
  5
B316
330
B2F5
100
AcDbEntity
  8
0
  6
CONTINUOUS
100
AcDbLine
 10
29.30199999996933
 20
2.827462244513656
 30
0.0
 11
30.74199999996925
 21
4.267462244513574
 31
0.0
  0
LINE
  5
B317
330
B2F5
100
AcDbEntity
  8
0
  6
CONTINUOUS
100
AcDbLine
 10
27.18115696452709
 20
0.0330999999912356
 30
0.0
 11
28.55073879889363
 21
1.402681834357775
 31
0.0
  0
LINE
  5
B318
330
B2F5
100
AcDbEntity
  8
0
  6
CONTINUOUS
100
AcDbLine
 10
29.28241816560272
 20
2.134361201066866
 30
0.0
 11
30.74199999996924
 21
3.593943035433383
 31
0.0
  0
LINE
  5
B319
330
B2F5
100
AcDbEntity
  8
0
  6
CONTINUOUS
100
AcDbLine
 10
27.85467617360728
 20
0.0330999999912356
 30
0.0
 11
30.74199999996924
 21
2.920423826353195
 31
0.0
  0
LINE
  5
B31A
330
B2F5
100
AcDbEntity
  8
0
  6
CONTINUOUS
100
AcDbLine
 10
28.53897559587887
 20
0.0438802131826428
 30
0.0
 11
30.73121978677781
 21
2.236124404081585
 31
0.0
  0
LINE
  5
B31B
330
B2F5
100
AcDbEntity
  8
0
  6
CONTINUOUS
100
AcDbLine
 10
29.45140055588722
 20
0.2827859641107988
 30
0.0
 11
30.49231403584965
 21
1.323699444073236
 31
0.0
  0
LINE
  5
B31C
330
B2F5
100
AcDbEntity
  8
0
  6
CONTINUOUS
100
AcDbLine
 10
19.59027867740337
 20
-0.0000967065718083
 30
0.0
 11
19.55485265190471
 21
0.035329318926844
 31
0.0
  0
LINE
  5
B31D
330
B2F5
100
AcDbEntity
  8
0
  6
CONTINUOUS
100
AcDbLine
 10
20.26375463176586
 20
-0.0000534518541091
 30
0.0
 11
19.76305575737534
 21
0.5006454225364014
 31
0.0
  0
LINE
  5
B31E
330
B2F5
100
AcDbEntity
  8
0
  6
CONTINUOUS
100
AcDbLine
 10
20.93723058612834
 20
-0.0000101971364099
 30
0.0
 11
19.97125886284597
 21
0.965961526145958
 31
0.0
  0
LINE
  5
B31F
330
B2F5
100
AcDbEntity
  8
0
  6
CONTINUOUS
100
AcDbLine
 10
21.25514828313686
 20
0.355591314935257
 30
0.0
 11
20.1794619683166
 21
1.431277629755512
 31
0.0
  0
LINE
  5
B320
330
B2F5
100
AcDbEntity
  8
0
  6
CONTINUOUS
100
AcDbLine
 10
21.46338838394921
 20
0.8208704232030986
 30
0.0
 11
20.38766507378723
 21
1.896593733365069
 31
0.0
  0
LINE
  5
B321
330
B2F5
100
AcDbEntity
  8
0
  6
CONTINUOUS
100
AcDbLine
 10
21.67162848476155
 20
1.28614953147094
 30
0.0
 11
20.59586817925786
 21
2.361909836974626
 31
0.0
  0
LINE
  5
B322
330
B2F5
100
AcDbEntity
  8
0
  6
CONTINUOUS
100
AcDbLine
 10
21.8798685855739
 20
1.751428639738782
 30
0.0
 11
20.80407128472849
 21
2.827225940584183
 31
0.0
  0
LINE
  5
B323
330
B2F5
100
AcDbEntity
  8
0
  6
CONTINUOUS
100
AcDbLine
 10
22.08810868638624
 20
2.216707748006623
 30
0.0
 11
21.01227439019912
 21
3.292542044193739
 31
0.0
  0
LINE
  5
B324
330
B2F5
100
AcDbEntity
  8
0
  6
CONTINUOUS
100
AcDbLine
 10
22.60993564347543
 20
2.36839999999762
 30
0.0
 11
21.22047749566975
 21
3.757858147803296
 31
0.0
  0
LINE
  5
B325
330
B2F5
100
AcDbEntity
  8
0
  6
CONTINUOUS
100
AcDbLine
 10
23.28345485255561
 20
2.36839999999762
 30
0.0
 11
21.42868060114038
 21
4.223174251412853
 31
0.0
  0
LINE
  5
B326
330
B2F5
100
AcDbEntity
  8
0
  6
CONTINUOUS
100
AcDbLine
 10
26.29227406164219
 20
0.0330999999912356
 30
0.0
 11
25.80009199592872
 21
0.5252820657046957
 31
0.0
  0
LINE
  5
B327
330
B2F5
100
AcDbEntity
  8
0
  6
CONTINUOUS
100
AcDbLine
 10
23.9569740616358
 20
2.36839999999762
 30
0.0
 11
21.63688370661101
 21
4.688490355022409
 31
0.0
  0
LINE
  5
B328
330
B2F5
100
AcDbEntity
  8
0
  6
CONTINUOUS
100
AcDbLine
 10
26.96579327072237
 20
0.0330999999912356
 30
0.0
 11
25.2554132311971
 21
1.743480039516508
 31
0.0
  0
LINE
  5
B329
330
B2F5
100
AcDbEntity
  8
0
  6
CONTINUOUS
100
AcDbLine
 10
24.63049327071599
 20
2.36839999999762
 30
0.0
 11
23.32789327071731
 21
3.670999999996297
 31
0.0
  0
LINE
  5
B32A
330
B2F5
100
AcDbEntity
  8
0
  6
CONTINUOUS
100
AcDbLine
 10
22.92098674744635
 20
4.077906523267254
 30
0.0
 11
21.84508681208164
 21
5.153806458631966
 31
0.0
  0
LINE
  5
B32B
330
B2F5
100
AcDbEntity
  8
0
  6
CONTINUOUS
100
AcDbLine
 10
27.63931247980256
 20
0.0330999999912356
 30
0.0
 11
24.0014124797975
 21
3.670999999996297
 31
0.0
  0
LINE
  5
B32C
330
B2F5
100
AcDbEntity
  8
0
  6
CONTINUOUS
100
AcDbLine
 10
23.129125600968
 20
4.5432868788258
 30
0.0
 11
22.05328991755227
 21
5.619122562241522
 31
0.0
  0
LINE
  5
B32D
330
B2F5
100
AcDbEntity
  8
0
  6
CONTINUOUS
100
AcDbLine
 10
28.31283168888275
 20
0.0330999999912356
 30
0.0
 11
24.16488385994816
 21
4.181047828925828
 31
0.0
  0
LINE
  5
B32E
330
B2F5
100
AcDbEntity
  8
0
  6
CONTINUOUS
100
AcDbLine
 10
23.33726445448964
 20
5.008667234384345
 30
0.0
 11
22.2614930230229
 21
6.084438665851079
 31
0.0
  0
LINE
  5
B32F
330
B2F5
100
AcDbEntity
  8
0
  6
CONTINUOUS
100
AcDbLine
 10
28.92085740005492
 20
0.0985934978992438
 30
0.0
 11
27.63635089796295
 21
1.383099999991217
 31
0.0
  0
LINE
  5
B330
330
B2F5
100
AcDbEntity
  8
0
  6
CONTINUOUS
100
AcDbLine
 10
26.43704649509776
 20
2.582404402856405
 30
0.0
 11
23.61992702019732
 21
5.399523877756844
 31
0.0
  0
LINE
  5
B331
330
B2F5
100
AcDbEntity
  8
0
  6
CONTINUOUS
100
AcDbLine
 10
23.54540330801128
 20
5.47404758994289
 30
0.0
 11
22.46969612849353
 21
6.549754769460635
 31
0.0
  0
LINE
  5
B332
330
B2F5
100
AcDbEntity
  8
0
  6
CONTINUOUS
100
AcDbLine
 10
29.42225615078443
 20
0.2707139562499279
 30
0.0
 11
28.30987010704312
 21
1.383099999991234
 31
0.0
  0
LINE
  5
B333
330
B2F5
100
AcDbEntity
  8
0
  6
CONTINUOUS
100
AcDbLine
 10
25.89179548232307
 20
3.801174624711282
 30
0.0
 11
22.67789923396416
 21
7.015070873070191
 31
0.0
  0
LINE
  5
B334
330
B2F5
100
AcDbEntity
  8
0
  6
CONTINUOUS
100
AcDbLine
 10
29.83624534690007
 20
0.5302439692144705
 30
0.0
 11
28.85811781497101
 21
1.508371501143527
 31
0.0
  0
LINE
  5
B335
330
B2F5
100
AcDbEntity
  8
0
  6
CONTINUOUS
100
AcDbLine
 10
25.34654446954838
 20
5.01994484656616
 30
0.0
 11
22.88610233943479
 21
7.480386976679748
 31
0.0
  0
LINE
  5
B336
330
B2F5
100
AcDbEntity
  8
0
  6
CONTINUOUS
100
AcDbLine
 10
30.17865975401872
 20
0.8613487711760022
 30
0.0
 11
29.18888744090175
 21
1.851121084292977
 31
0.0
  0
LINE
  5
B337
330
B2F5
100
AcDbEntity
  8
0
  6
CONTINUOUS
100
AcDbLine
 10
24.80129345677369
 20
6.238715068421037
 30
0.0
 11
23.09430544490542
 21
7.945703080289305
 31
0.0
  0
LINE
  5
B338
330
B2F5
100
AcDbEntity
  8
0
  6
CONTINUOUS
100
AcDbLine
 10
30.45496647202376
 20
1.258561262251155
 30
0.0
 11
29.30199999996933
 21
2.411527734305588
 31
0.0
  0
LINE
  5
B339
330
B2F5
100
AcDbEntity
  8
0
  6
CONTINUOUS
100
AcDbLine
 10
24.256042443999
 20
7.457485290275915
 30
0.0
 11
23.30250855037605
 21
8.411019183898862
 31
0.0
  0
LINE
  5
B33A
330
B2F5
100
AcDbEntity
  8
0
  6
CONTINUOUS
100
AcDbLine
 10
30.64868582078271
 20
1.738361122572387
 30
0.0
 11
29.30199999996933
 21
3.085046943385775
 31
0.0
  0
LINE
  5
B33B
330
B2F5
100
AcDbEntity
  8
0
  6
CONTINUOUS
100
AcDbLine
 10
23.71079143122431
 20
8.676255512130794
 30
0.0
 11
23.51071165584668
 21
8.876335287508416
 31
0.0
  0
LINE
  5
B33C
330
B2F5
100
AcDbEntity
  8
0
  6
CONTINUOUS
100
AcDbLine
 10
30.73802122914428
 20
2.322544923291007
 30
0.0
 11
29.30199999996933
 21
3.758566152465961
 31
0.0
  0
LINE
  5
B33D
330
B2F5
100
AcDbEntity
  8
0
  6
CONTINUOUS
100
AcDbLine
 10
30.74199999996924
 20
2.992085361546236
 30
0.0
 11
29.30199999996933
 21
4.432085361546148
 31
0.0
  0
LINE
  5
B33E
330
B2F5
100
AcDbEntity
  8
0
  6
CONTINUOUS
100
AcDbLine
 10
30.74199999996924
 20
3.665604570626419
 30
0.0
 11
29.30199999996933
 21
5.105604570626333
 31
0.0
  0
LINE
  5
B33F
330
B2F5
100
AcDbEntity
  8
0
  6
CONTINUOUS
100
AcDbLine
 10
30.74199999996925
 20
4.339123779706602
 30
0.0
 11
29.30199999996933
 21
5.77912377970652
 31
0.0
  0
LINE
  5
B340
330
B2F5
100
AcDbEntity
  8
0
  6
CONTINUOUS
100
AcDbLine
 10
30.74199999996925
 20
5.012642988786785
 30
0.0
 11
29.30199999996933
 21
6.452642988786707
 31
0.0
  0
LINE
  5
B341
330
B2F5
100
AcDbEntity
  8
0
  6
CONTINUOUS
100
AcDbLine
 10
30.74199999996925
 20
5.68616219786697
 30
0.0
 11
29.30199999996933
 21
7.126162197866894
 31
0.0
  0
LINE
  5
B342
330
B2F5
100
AcDbEntity
  8
0
  6
CONTINUOUS
100
AcDbLine
 10
30.74199999996925
 20
6.359681406947153
 30
0.0
 11
29.30199999996933
 21
7.799681406947081
 31
0.0
  0
LINE
  5
B343
330
B2F5
100
AcDbEntity
  8
0
  6
CONTINUOUS
100
AcDbLine
 10
30.74199999996926
 20
7.033200616027337
 30
0.0
 11
29.30199999996933
 21
8.473200616027269
 31
0.0
  0
LINE
  5
B344
330
B2F5
100
AcDbEntity
  8
0
  6
CONTINUOUS
100
AcDbLine
 10
30.74199999996926
 20
7.706719825107518
 30
0.0
 11
29.68561982508552
 21
8.763099999991255
 31
0.0
  0
LINE
  5
B345
330
B2F5
100
AcDbEntity
  8
0
  6
CONTINUOUS
100
AcDbLine
 10
30.74199999996926
 20
8.380239034187703
 30
0.0
 11
30.35913903416571
 21
8.763099999991255
 31
0.0
  0
ENDBLK
  5
B3E8
330
B2F5
100
AcDbEntity
  8
0
100
AcDbBlockEnd
  0
BLOCK
  5
B3E9
330
B346
100
AcDbEntity
  8
0
100
AcDbBlockBegin
  2
*X23
 70
     1
 10
0.0
 20
0.0
 30
0.0
  3
*X23
  1

  0
LINE
  5
B347
330
B346
100
AcDbEntity
  8
0
  6
CONTINUOUS
100
AcDbLine
 10
31.64199999996833
 20
8.535058289913598
 30
0.0
 11
31.87004171004599
 21
8.763099999991255
 31
0.0
  0
LINE
  5
B348
330
B346
100
AcDbEntity
  8
0
  6
CONTINUOUS
100
AcDbLine
 10
31.64199999996833
 20
7.861539080833412
 30
0.0
 11
32.54356091912618
 21
8.763099999991255
 31
0.0
  0
LINE
  5
B349
330
B346
100
AcDbEntity
  8
0
  6
CONTINUOUS
100
AcDbLine
 10
31.64199999996833
 20
7.188019871753226
 30
0.0
 11
33.08199999996839
 21
8.628019871753281
 31
0.0
  0
LINE
  5
B34A
330
B346
100
AcDbEntity
  8
0
  6
CONTINUOUS
100
AcDbLine
 10
31.64199999996833
 20
6.51450066267304
 30
0.0
 11
33.08199999996839
 21
7.954500662673095
 31
0.0
  0
LINE
  5
B34B
330
B346
100
AcDbEntity
  8
0
  6
CONTINUOUS
100
AcDbLine
 10
31.64199999996833
 20
5.840981453592853
 30
0.0
 11
33.08199999996839
 21
7.280981453592908
 31
0.0
  0
LINE
  5
B34C
330
B346
100
AcDbEntity
  8
0
  6
CONTINUOUS
100
AcDbLine
 10
31.64199999996833
 20
5.167462244512667
 30
0.0
 11
33.08199999996839
 21
6.607462244512721
 31
0.0
  0
LINE
  5
B34D
330
B346
100
AcDbEntity
  8
0
  6
CONTINUOUS
100
AcDbLine
 10
31.64199999996833
 20
4.493943035432481
 30
0.0
 11
33.08199999996839
 21
5.933943035432535
 31
0.0
  0
LINE
  5
B34E
330
B346
100
AcDbEntity
  8
0
  6
CONTINUOUS
100
AcDbLine
 10
31.64199999996833
 20
3.820423826352293
 30
0.0
 11
33.08199999996839
 21
5.260423826352348
 31
0.0
  0
LINE
  5
B34F
330
B346
100
AcDbEntity
  8
0
  6
CONTINUOUS
100
AcDbLine
 10
31.64199999996833
 20
3.146904617272106
 30
0.0
 11
33.08199999996839
 21
4.586904617272161
 31
0.0
  0
LINE
  5
B350
330
B346
100
AcDbEntity
  8
0
  6
CONTINUOUS
100
AcDbLine
 10
36.23199999996837
 20
8.410423826352325
 30
0.0
 11
36.5846761736073
 21
8.763099999991255
 31
0.0
  0
LINE
  5
B351
330
B346
100
AcDbEntity
  8
0
  6
CONTINUOUS
100
AcDbLine
 10
36.23199999996837
 20
7.73690461727214
 30
0.0
 11
37.25819538268748
 21
8.763099999991255
 31
0.0
  0
LINE
  5
B352
330
B346
100
AcDbEntity
  8
0
  6
CONTINUOUS
100
AcDbLine
 10
31.64257403601376
 20
2.473959444237348
 30
0.0
 11
33.08199999996839
 21
3.913385408191974
 31
0.0
  0
LINE
  5
B353
330
B346
100
AcDbEntity
  8
0
  6
CONTINUOUS
100
AcDbLine
 10
36.23199999996837
 20
7.063385408191953
 30
0.0
 11
37.67199999996831
 21
8.503385408191894
 31
0.0
  0
LINE
  5
B354
330
B346
100
AcDbEntity
  8
0
  6
CONTINUOUS
100
AcDbLine
 10
31.72013636841932
 20
1.87800256756272
 30
0.0
 11
33.08199999996839
 21
3.239866199111788
 31
0.0
  0
LINE
  5
B355
330
B346
100
AcDbEntity
  8
0
  6
CONTINUOUS
100
AcDbLine
 10
36.23199999996837
 20
6.389866199111767
 30
0.0
 11
37.67199999996831
 21
7.829866199111708
 31
0.0
  0
LINE
  5
B356
330
B346
100
AcDbEntity
  8
0
  6
CONTINUOUS
100
AcDbLine
 10
31.89042734314753
 20
1.374774333210744
 30
0.0
 11
33.08199999996839
 21
2.566346990031601
 31
0.0
  0
LINE
  5
B357
330
B346
100
AcDbEntity
  8
0
  6
CONTINUOUS
100
AcDbLine
 10
36.23199999996837
 20
5.71634699003158
 30
0.0
 11
37.67199999996831
 21
7.156346990031521
 31
0.0
  0
LINE
  5
B358
330
B346
100
AcDbEntity
  8
0
  6
CONTINUOUS
100
AcDbLine
 10
32.14210568064475
 20
0.952933461627778
 30
0.0
 11
33.18745552475986
 21
1.998283305742888
 31
0.0
  0
LINE
  5
B359
330
B346
100
AcDbEntity
  8
0
  6
CONTINUOUS
100
AcDbLine
 10
36.23199999996837
 20
5.042827780951393
 30
0.0
 11
37.67199999996831
 21
6.482827780951334
 31
0.0
  0
LINE
  5
B35A
330
B346
100
AcDbEntity
  8
0
  6
CONTINUOUS
100
AcDbLine
 10
32.45820639400955
 20
0.5955149659123915
 30
0.0
 11
33.47242681921943
 21
1.60973539112227
 31
0.0
  0
LINE
  5
B35B
330
B346
100
AcDbEntity
  8
0
  6
CONTINUOUS
100
AcDbLine
 10
36.23199999996837
 20
4.369308571871207
 30
0.0
 11
37.67199999996831
 21
5.809308571871147
 31
0.0
  0
LINE
  5
B35C
330
B346
100
AcDbEntity
  8
0
  6
CONTINUOUS
100
AcDbLine
 10
32.83432456621412
 20
0.2981139290367771
 30
0.0
 11
33.89722476612215
 21
1.361014128944803
 31
0.0
  0
LINE
  5
B35D
330
B346
100
AcDbEntity
  8
0
  6
CONTINUOUS
100
AcDbLine
 10
36.23199999996837
 20
3.69578936279102
 30
0.0
 11
37.67199999996831
 21
5.135789362790962
 31
0.0
  0
LINE
  5
B35E
330
B346
100
AcDbEntity
  8
0
  6
CONTINUOUS
100
AcDbLine
 10
33.2711633111245
 20
0.0614334648669672
 30
0.0
 11
34.43247338014423
 21
1.222743533886696
 31
0.0
  0
LINE
  5
B35F
330
B346
100
AcDbEntity
  8
0
  6
CONTINUOUS
100
AcDbLine
 10
36.23199999996837
 20
3.022270153710834
 30
0.0
 11
37.67199999996831
 21
4.462270153710775
 31
0.0
  0
LINE
  5
B360
330
B346
100
AcDbEntity
  8
0
  6
CONTINUOUS
100
AcDbLine
 10
33.76515245874577
 20
-0.1180965965919523
 30
0.0
 11
35.1587445516215
 21
1.27549549628378
 31
0.0
  0
LINE
  5
B361
330
B346
100
AcDbEntity
  8
0
  6
CONTINUOUS
100
AcDbLine
 10
36.21639478609585
 20
2.333145730758136
 30
0.0
 11
37.67199999996831
 21
3.788750944630588
 31
0.0
  0
LINE
  5
B362
330
B346
100
AcDbEntity
  8
0
  6
CONTINUOUS
100
AcDbLine
 10
34.34060583368432
 20
-0.2161624307335863
 30
0.0
 11
37.67199999996831
 21
3.115231735550401
 31
0.0
  0
LINE
  5
B363
330
B346
100
AcDbEntity
  8
0
  6
CONTINUOUS
100
AcDbLine
 10
35.01698193613905
 20
-0.2133055373590427
 30
0.0
 11
37.66876712070525
 21
2.438479647207154
 31
0.0
  0
LINE
  5
B364
330
B346
100
AcDbEntity
  8
0
  6
CONTINUOUS
100
AcDbLine
 10
35.90743367693304
 20
0.0036269943547609
 30
0.0
 11
37.51723902192366
 21
1.613432339345381
 31
0.0
  0
LINE
  5
B365
330
B346
100
AcDbEntity
  8
0
  6
CONTINUOUS
100
AcDbLine
 10
32.55309425579761
 20
0.5074718966376706
 30
0.0
 11
32.27784730925847
 21
0.7827188431768102
 31
0.0
  0
LINE
  5
B366
330
B346
100
AcDbEntity
  8
0
  6
CONTINUOUS
100
AcDbLine
 10
33.87496468909684
 20
-0.1408793275813673
 30
0.0
 11
31.67993083278052
 21
2.054154528734943
 31
0.0
  0
LINE
  5
B367
330
B346
100
AcDbEntity
  8
0
  6
CONTINUOUS
100
AcDbLine
 10
34.64362813207632
 20
-0.2360235614806649
 30
0.0
 11
31.64199999996833
 21
2.765604570627322
 31
0.0
  0
LINE
  5
B368
330
B346
100
AcDbEntity
  8
0
  6
CONTINUOUS
100
AcDbLine
 10
35.25801106796118
 20
-0.1768872882853429
 30
0.0
 11
31.64199999996833
 21
3.439123779707508
 31
0.0
  0
LINE
  5
B369
330
B346
100
AcDbEntity
  8
0
  6
CONTINUOUS
100
AcDbLine
 10
35.79065650332146
 20
-0.0360135145654361
 30
0.0
 11
34.54143210838231
 21
1.213210880373721
 31
0.0
  0
LINE
  5
B36A
330
B346
100
AcDbEntity
  8
0
  6
CONTINUOUS
100
AcDbLine
 10
33.08199999996839
 20
2.67264298878764
 30
0.0
 11
31.64199999996833
 21
4.112642988787695
 31
0.0
  0
LINE
  5
B36B
330
B346
100
AcDbEntity
  8
0
  6
CONTINUOUS
100
AcDbLine
 10
36.25975597779143
 20
0.1684062200447833
 30
0.0
 11
35.15395110240023
 21
1.274211095435983
 31
0.0
  0
LINE
  5
B36C
330
B346
100
AcDbEntity
  8
0
  6
CONTINUOUS
100
AcDbLine
 10
33.08199999996839
 20
3.346162197867826
 30
0.0
 11
31.64199999996833
 21
4.786162197867881
 31
0.0
  0
LINE
  5
B36D
330
B346
100
AcDbEntity
  8
0
  6
CONTINUOUS
100
AcDbLine
 10
36.67226329638774
 20
0.4294181105286579
 30
0.0
 11
35.63766478748767
 21
1.464016619428737
 31
0.0
  0
LINE
  5
B36E
330
B346
100
AcDbEntity
  8
0
  6
CONTINUOUS
100
AcDbLine
 10
33.08199999996839
 20
4.019681406948012
 30
0.0
 11
31.64199999996833
 21
5.459681406948068
 31
0.0
  0
LINE
  5
B36F
330
B346
100
AcDbEntity
  8
0
  6
CONTINUOUS
100
AcDbLine
 10
37.01677749710036
 20
0.7584231188962329
 30
0.0
 11
35.99563422741351
 21
1.779566388583076
 31
0.0
  0
LINE
  5
B370
330
B346
100
AcDbEntity
  8
0
  6
CONTINUOUS
100
AcDbLine
 10
33.08199999996839
 20
4.693200616028199
 30
0.0
 11
31.64199999996833
 21
6.133200616028255
 31
0.0
  0
LINE
  5
B371
330
B346
100
AcDbEntity
  8
0
  6
CONTINUOUS
100
AcDbLine
 10
37.29859977568887
 20
1.1501200493879
 30
0.0
 11
36.20680593341555
 21
2.241913891661226
 31
0.0
  0
LINE
  5
B372
330
B346
100
AcDbEntity
  8
0
  6
CONTINUOUS
100
AcDbLine
 10
33.08199999996839
 20
5.366719825108386
 30
0.0
 11
31.64199999996833
 21
6.80671982510844
 31
0.0
  0
LINE
  5
B373
330
B346
100
AcDbEntity
  8
0
  6
CONTINUOUS
100
AcDbLine
 10
37.5148623517228
 20
1.607376682434161
 30
0.0
 11
36.23199999996837
 21
2.890239034188594
 31
0.0
  0
LINE
  5
B374
330
B346
100
AcDbEntity
  8
0
  6
CONTINUOUS
100
AcDbLine
 10
33.08199999996839
 20
6.040239034188573
 30
0.0
 11
31.64199999996833
 21
7.480239034188627
 31
0.0
  0
LINE
  5
B375
330
B346
100
AcDbEntity
  8
0
  6
CONTINUOUS
100
AcDbLine
 10
37.64705163358367
 20
2.148706609653477
 30
0.0
 11
36.23199999996837
 21
3.56375824326878
 31
0.0
  0
LINE
  5
B376
330
B346
100
AcDbEntity
  8
0
  6
CONTINUOUS
100
AcDbLine
 10
33.08199999996839
 20
6.713758243268758
 30
0.0
 11
31.64199999996833
 21
8.153758243268815
 31
0.0
  0
LINE
  5
B377
330
B346
100
AcDbEntity
  8
0
  6
CONTINUOUS
100
AcDbLine
 10
37.67199999996831
 20
2.797277452349026
 30
0.0
 11
36.23199999996837
 21
4.237277452348967
 31
0.0
  0
LINE
  5
B378
330
B346
100
AcDbEntity
  8
0
  6
CONTINUOUS
100
AcDbLine
 10
37.67199999996831
 20
3.470796661429213
 30
0.0
 11
36.23199999996837
 21
4.910796661429154
 31
0.0
  0
LINE
  5
B379
330
B346
100
AcDbEntity
  8
0
  6
CONTINUOUS
100
AcDbLine
 10
37.67199999996831
 20
4.144315870509399
 30
0.0
 11
36.23199999996837
 21
5.58431587050934
 31
0.0
  0
LINE
  5
B37A
330
B346
100
AcDbEntity
  8
0
  6
CONTINUOUS
100
AcDbLine
 10
33.08199999996839
 20
7.387277452348945
 30
0.0
 11
31.70617745232608
 21
8.763099999991255
 31
0.0
  0
LINE
  5
B37B
330
B346
100
AcDbEntity
  8
0
  6
CONTINUOUS
100
AcDbLine
 10
33.08199999996839
 20
8.060796661429132
 30
0.0
 11
32.37969666140626
 21
8.763099999991255
 31
0.0
  0
LINE
  5
B37C
330
B346
100
AcDbEntity
  8
0
  6
CONTINUOUS
100
AcDbLine
 10
33.08199999996839
 20
8.734315870509318
 30
0.0
 11
33.05321587048645
 21
8.763099999991255
 31
0.0
  0
LINE
  5
B37D
330
B346
100
AcDbEntity
  8
0
  6
CONTINUOUS
100
AcDbLine
 10
37.67199999996831
 20
4.817835079589585
 30
0.0
 11
36.23199999996837
 21
6.257835079589526
 31
0.0
  0
LINE
  5
B37E
330
B346
100
AcDbEntity
  8
0
  6
CONTINUOUS
100
AcDbLine
 10
37.67199999996831
 20
5.491354288669771
 30
0.0
 11
36.23199999996837
 21
6.931354288669713
 31
0.0
  0
LINE
  5
B37F
330
B346
100
AcDbEntity
  8
0
  6
CONTINUOUS
100
AcDbLine
 10
37.67199999996831
 20
6.164873497749958
 30
0.0
 11
36.23199999996837
 21
7.6048734977499
 31
0.0
  0
LINE
  5
B380
330
B346
100
AcDbEntity
  8
0
  6
CONTINUOUS
100
AcDbLine
 10
37.67199999996831
 20
6.838392706830144
 30
0.0
 11
36.23199999996837
 21
8.278392706830086
 31
0.0
  0
LINE
  5
B381
330
B346
100
AcDbEntity
  8
0
  6
CONTINUOUS
100
AcDbLine
 10
37.67199999996831
 20
7.511911915910332
 30
0.0
 11
36.42081191588738
 21
8.763099999991255
 31
0.0
  0
LINE
  5
B382
330
B346
100
AcDbEntity
  8
0
  6
CONTINUOUS
100
AcDbLine
 10
37.67199999996831
 20
8.185431124990519
 30
0.0
 11
37.09433112496757
 21
8.763099999991255
 31
0.0
  0
ENDBLK
  5
B3EA
330
B346
100
AcDbEntity
  8
0
100
AcDbBlockEnd
  0
BLOCK
  5
B3EB
330
B383
100
AcDbEntity
  8
0
100
AcDbBlockBegin
  2
*X24
 70
     1
 10
0.0
 20
0.0
 30
0.0
  3
*X24
  1

  0
LINE
  5
B384
330
B383
100
AcDbEntity
  8
0
  6
CONTINUOUS
100
AcDbLine
 10
38.60499999996136
 20
8.762866199104765
 30
0.0
 11
38.71672554182345
 21
8.874591740966855
 31
0.0
  0
LINE
  5
B385
330
B383
100
AcDbEntity
  8
0
  6
CONTINUOUS
100
AcDbLine
 10
38.60499999996136
 20
8.089346990024577
 30
0.0
 11
39.03418785440363
 21
8.518534844466847
 31
0.0
  0
LINE
  5
B386
330
B383
100
AcDbEntity
  8
0
  6
CONTINUOUS
100
AcDbLine
 10
38.60499999996136
 20
7.41582778094439
 30
0.0
 11
39.35165016698382
 21
8.16247794796684
 31
0.0
  0
LINE
  5
B387
330
B383
100
AcDbEntity
  8
0
  6
CONTINUOUS
100
AcDbLine
 10
38.60499999996136
 20
6.742308571864204
 30
0.0
 11
39.66911247956399
 21
7.806421051466834
 31
0.0
  0
LINE
  5
B388
330
B383
100
AcDbEntity
  8
0
  6
CONTINUOUS
100
AcDbLine
 10
38.60499999996136
 20
6.068789362784018
 30
0.0
 11
39.98657479214418
 21
7.450364154966827
 31
0.0
  0
LINE
  5
B389
330
B383
100
AcDbEntity
  8
0
  6
CONTINUOUS
100
AcDbLine
 10
38.60499999996136
 20
5.395270153703832
 30
0.0
 11
40.30403710472435
 21
7.09430725846682
 31
0.0
  0
LINE
  5
B38A
330
B383
100
AcDbEntity
  8
0
  6
CONTINUOUS
100
AcDbLine
 10
38.60499999996136
 20
4.721750944623645
 30
0.0
 11
40.62149941730453
 21
6.738250361966813
 31
0.0
  0
LINE
  5
B38B
330
B383
100
AcDbEntity
  8
0
  6
CONTINUOUS
100
AcDbLine
 10
38.60499999996136
 20
4.048231735543458
 30
0.0
 11
40.93896172988471
 21
6.382193465466806
 31
0.0
  0
LINE
  5
B38C
330
B383
100
AcDbEntity
  8
0
  6
CONTINUOUS
100
AcDbLine
 10
38.60499999996136
 20
3.374712526463272
 30
0.0
 11
40.02599999995994
 21
4.795712526461843
 31
0.0
  0
LINE
  5
B38D
330
B383
100
AcDbEntity
  8
0
  6
CONTINUOUS
100
AcDbLine
 10
38.60499999996136
 20
2.701193317383085
 30
0.0
 11
40.02599999995994
 21
4.122193317381657
 31
0.0
  0
LINE
  5
B38E
330
B383
100
AcDbEntity
  8
0
  6
CONTINUOUS
100
AcDbLine
 10
40.28339754687704
 20
5.053110073378947
 30
0.0
 11
41.25642404246489
 21
6.026136568966799
 31
0.0
  0
LINE
  5
B38F
330
B383
100
AcDbEntity
  8
0
  6
CONTINUOUS
100
AcDbLine
 10
40.60085985945722
 20
4.697053176878939
 30
0.0
 11
41.57388635504507
 21
5.670079672466793
 31
0.0
  0
LINE
  5
B390
330
B383
100
AcDbEntity
  8
0
  6
CONTINUOUS
100
AcDbLine
 10
43.57899999995641
 20
8.348712526458318
 30
0.0
 11
43.99338747348935
 21
8.763099999991255
 31
0.0
  0
LINE
  5
B391
330
B383
100
AcDbEntity
  8
0
  6
CONTINUOUS
100
AcDbLine
 10
43.57899999995641
 20
7.675193317378131
 30
0.0
 11
44.66690668256953
 21
8.763099999991255
 31
0.0
  0
LINE
  5
B392
330
B383
100
AcDbEntity
  8
0
  6
CONTINUOUS
100
AcDbLine
 10
38.60499999996136
 20
2.027674108302898
 30
0.0
 11
40.02599999995994
 21
3.44867410830147
 31
0.0
  0
LINE
  5
B393
330
B383
100
AcDbEntity
  8
0
  6
CONTINUOUS
100
AcDbLine
 10
38.60499999996136
 20
1.354154899222712
 30
0.0
 11
40.02599999995994
 21
2.775154899221284
 31
0.0
  0
LINE
  5
B394
330
B383
100
AcDbEntity
  8
0
  6
CONTINUOUS
100
AcDbLine
 10
38.60499999996136
 20
0.6806356901425255
 30
0.0
 11
40.02599999995994
 21
2.101635690141098
 31
0.0
  0
LINE
  5
B395
330
B383
100
AcDbEntity
  8
0
  6
CONTINUOUS
100
AcDbLine
 10
38.60499999996136
 20
0.0071164810623383
 30
0.0
 11
40.02599999995994
 21
1.428116481060911
 31
0.0
  0
LINE
  5
B396
330
B383
100
AcDbEntity
  8
0
  6
CONTINUOUS
100
AcDbLine
 10
40.9183221720374
 20
4.340996280378933
 30
0.0
 11
41.89134866762525
 21
5.314022775966786
 31
0.0
  0
LINE
  5
B397
330
B383
100
AcDbEntity
  8
0
  6
CONTINUOUS
100
AcDbLine
 10
41.23578448461758
 20
3.984939383878926
 30
0.0
 11
42.20881098020543
 21
4.957965879466778
 31
0.0
  0
LINE
  5
B398
330
B383
100
AcDbEntity
  8
0
  6
CONTINUOUS
100
AcDbLine
 10
41.55324679719776
 20
3.628882487378919
 30
0.0
 11
42.52627329278561
 21
4.601908982966772
 31
0.0
  0
LINE
  5
B399
330
B383
100
AcDbEntity
  8
0
  6
CONTINUOUS
100
AcDbLine
 10
41.87070910977793
 20
3.272825590878912
 30
0.0
 11
42.84373560536579
 21
4.245852086466765
 31
0.0
  0
LINE
  5
B39A
330
B383
100
AcDbEntity
  8
0
  6
CONTINUOUS
100
AcDbLine
 10
43.57899999995641
 20
7.001674108297943
 30
0.0
 11
44.99999999995498
 21
8.422674108296516
 31
0.0
  0
LINE
  5
B39B
330
B383
100
AcDbEntity
  8
0
  6
CONTINUOUS
100
AcDbLine
 10
43.57899999995641
 20
6.328154899217758
 30
0.0
 11
44.99999999995498
 21
7.749154899216329
 31
0.0
  0
LINE
  5
B39C
330
B383
100
AcDbEntity
  8
0
  6
CONTINUOUS
100
AcDbLine
 10
43.57899999995641
 20
5.654635690137571
 30
0.0
 11
44.99999999995498
 21
7.075635690136142
 31
0.0
  0
LINE
  5
B39D
330
B383
100
AcDbEntity
  8
0
  6
CONTINUOUS
100
AcDbLine
 10
43.57899999995641
 20
4.981116481057384
 30
0.0
 11
44.99999999995498
 21
6.402116481055955
 31
0.0
  0
LINE
  5
B39E
330
B383
100
AcDbEntity
  8
0
  6
CONTINUOUS
100
AcDbLine
 10
39.27140272797921
 20
-0.0000000000000009
 30
0.0
 11
40.02599999995994
 21
0.7545972719807246
 31
0.0
  0
LINE
  5
B39F
330
B383
100
AcDbEntity
  8
0
  6
CONTINUOUS
100
AcDbLine
 10
39.9449219370594
 20
-0.0000000000000009
 30
0.0
 11
40.02599999995994
 21
0.0810780629005379
 31
0.0
  0
LINE
  5
B3A0
330
B383
100
AcDbEntity
  8
0
  6
CONTINUOUS
100
AcDbLine
 10
42.18817142235812
 20
2.916768694378905
 30
0.0
 11
43.16119791794597
 21
3.889795189966758
 31
0.0
  0
LINE
  5
B3A1
330
B383
100
AcDbEntity
  8
0
  6
CONTINUOUS
100
AcDbLine
 10
42.50563373493829
 20
2.560711797878898
 30
0.0
 11
43.47866023052615
 21
3.533738293466751
 31
0.0
  0
LINE
  5
B3A2
330
B383
100
AcDbEntity
  8
0
  6
CONTINUOUS
100
AcDbLine
 10
43.57899999995641
 20
4.307597271977198
 30
0.0
 11
44.99999999995498
 21
5.728597271975769
 31
0.0
  0
LINE
  5
B3A3
330
B383
100
AcDbEntity
  8
0
  6
CONTINUOUS
100
AcDbLine
 10
43.57899999995641
 20
3.634078062897011
 30
0.0
 11
44.99999999995498
 21
5.055078062895582
 31
0.0
  0
LINE
  5
B3A4
330
B383
100
AcDbEntity
  8
0
  6
CONTINUOUS
100
AcDbLine
 10
42.82309604751848
 20
2.204654901378891
 30
0.0
 11
44.99999999995498
 21
4.381558853815395
 31
0.0
  0
LINE
  5
B3A5
330
B383
100
AcDbEntity
  8
0
  6
CONTINUOUS
100
AcDbLine
 10
43.14055836009865
 20
1.848598004878885
 30
0.0
 11
44.99999999995498
 21
3.70803964473521
 31
0.0
  0
LINE
  5
B3A6
330
B383
100
AcDbEntity
  8
0
  6
CONTINUOUS
100
AcDbLine
 10
43.45802067267883
 20
1.492541108378878
 30
0.0
 11
44.99999999995498
 21
3.034520435655023
 31
0.0
  0
LINE
  5
B3A7
330
B383
100
AcDbEntity
  8
0
  6
CONTINUOUS
100
AcDbLine
 10
43.77548298525902
 20
1.136484211878871
 30
0.0
 11
44.99999999995498
 21
2.361001226574837
 31
0.0
  0
LINE
  5
B3A8
330
B383
100
AcDbEntity
  8
0
  6
CONTINUOUS
100
AcDbLine
 10
44.09294529783919
 20
0.7804273153788639
 30
0.0
 11
44.99999999995498
 21
1.687482017494649
 31
0.0
  0
LINE
  5
B3A9
330
B383
100
AcDbEntity
  8
0
  6
CONTINUOUS
100
AcDbLine
 10
44.41040761041938
 20
0.4243704188788566
 30
0.0
 11
44.99999999995498
 21
1.013962808414463
 31
0.0
  0
LINE
  5
B3AA
330
B383
100
AcDbEntity
  8
0
  6
CONTINUOUS
100
AcDbLine
 10
44.72786992299955
 20
0.0683135223788494
 30
0.0
 11
44.99999999995498
 21
0.340443599334276
 31
0.0
  0
LINE
  5
B3AB
330
B383
100
AcDbEntity
  8
0
  6
CONTINUOUS
100
AcDbLine
 10
39.12223903415696
 20
-0.0000000000000009
 30
0.0
 11
38.60499999996136
 21
0.5172390341955961
 31
0.0
  0
LINE
  5
B3AC
330
B383
100
AcDbEntity
  8
0
  6
CONTINUOUS
100
AcDbLine
 10
39.79575824323715
 20
-0.0000000000000009
 30
0.0
 11
38.60499999996136
 21
1.190758243275783
 31
0.0
  0
LINE
  5
B3AD
330
B383
100
AcDbEntity
  8
0
  6
CONTINUOUS
100
AcDbLine
 10
40.02599999995994
 20
0.443277452357397
 30
0.0
 11
38.60499999996136
 21
1.864277452355969
 31
0.0
  0
LINE
  5
B3AE
330
B383
100
AcDbEntity
  8
0
  6
CONTINUOUS
100
AcDbLine
 10
40.02599999995994
 20
1.116796661437583
 30
0.0
 11
38.60499999996136
 21
2.537796661436155
 31
0.0
  0
LINE
  5
B3AF
330
B383
100
AcDbEntity
  8
0
  6
CONTINUOUS
100
AcDbLine
 10
40.02599999995994
 20
1.79031587051777
 30
0.0
 11
38.60499999996136
 21
3.211315870516341
 31
0.0
  0
LINE
  5
B3B0
330
B383
100
AcDbEntity
  8
0
  6
CONTINUOUS
100
AcDbLine
 10
40.02599999995994
 20
2.463835079597956
 30
0.0
 11
38.60499999996136
 21
3.884835079596527
 31
0.0
  0
LINE
  5
B3B1
330
B383
100
AcDbEntity
  8
0
  6
CONTINUOUS
100
AcDbLine
 10
40.02599999995994
 20
3.137354288678143
 30
0.0
 11
38.60499999996136
 21
4.558354288676714
 31
0.0
  0
LINE
  5
B3B2
330
B383
100
AcDbEntity
  8
0
  6
CONTINUOUS
100
AcDbLine
 10
40.02599999995994
 20
3.810873497758329
 30
0.0
 11
38.60499999996136
 21
5.2318734977569
 31
0.0
  0
LINE
  5
B3B3
330
B383
100
AcDbEntity
  8
0
  6
CONTINUOUS
100
AcDbLine
 10
40.02599999995994
 20
4.484392706838515
 30
0.0
 11
38.60499999996136
 21
5.905392706837086
 31
0.0
  0
LINE
  5
B3B4
330
B383
100
AcDbEntity
  8
0
  6
CONTINUOUS
100
AcDbLine
 10
44.99999999995498
 20
0.183911915923658
 30
0.0
 11
41.53858364506288
 21
3.64532827081576
 31
0.0
  0
LINE
  5
B3B5
330
B383
100
AcDbEntity
  8
0
  6
CONTINUOUS
100
AcDbLine
 10
40.02599999995994
 20
5.157911915918703
 30
0.0
 11
38.60499999996136
 21
6.578911915917274
 31
0.0
  0
LINE
  5
B3B6
330
B383
100
AcDbEntity
  8
0
  6
CONTINUOUS
100
AcDbLine
 10
44.99999999995498
 20
0.8574311250038447
 30
0.0
 11
38.60499999996136
 21
7.25243112499746
 31
0.0
  0
LINE
  5
B3B7
330
B383
100
AcDbEntity
  8
0
  6
CONTINUOUS
100
AcDbLine
 10
44.99999999995498
 20
1.530950334084031
 30
0.0
 11
38.60499999996136
 21
7.925950334077647
 31
0.0
  0
LINE
  5
B3B8
330
B383
100
AcDbEntity
  8
0
  6
CONTINUOUS
100
AcDbLine
 10
44.99999999995498
 20
2.204469543164218
 30
0.0
 11
43.57899999995641
 21
3.625469543162789
 31
0.0
  0
LINE
  5
B3B9
330
B383
100
AcDbEntity
  8
0
  6
CONTINUOUS
100
AcDbLine
 10
41.89876730984767
 20
5.305702233271528
 30
0.0
 11
38.60499999996136
 21
8.599469543157834
 31
0.0
  0
LINE
  5
B3BA
330
B383
100
AcDbEntity
  8
0
  6
CONTINUOUS
100
AcDbLine
 10
44.99999999995498
 20
2.877988752244405
 30
0.0
 11
43.57899999995641
 21
4.298988752242975
 31
0.0
  0
LINE
  5
B3BB
330
B383
100
AcDbEntity
  8
0
  6
CONTINUOUS
100
AcDbLine
 10
44.99999999995498
 20
3.551507961324591
 30
0.0
 11
43.57899999995641
 21
4.972507961323163
 31
0.0
  0
LINE
  5
B3BC
330
B383
100
AcDbEntity
  8
0
  6
CONTINUOUS
100
AcDbLine
 10
44.99999999995498
 20
4.225027170404777
 30
0.0
 11
43.57899999995641
 21
5.646027170403348
 31
0.0
  0
LINE
  5
B3BD
330
B383
100
AcDbEntity
  8
0
  6
CONTINUOUS
100
AcDbLine
 10
44.99999999995498
 20
4.898546379484964
 30
0.0
 11
43.57899999995641
 21
6.319546379483535
 31
0.0
  0
LINE
  5
B3BE
330
B383
100
AcDbEntity
  8
0
  6
CONTINUOUS
100
AcDbLine
 10
44.99999999995498
 20
5.572065588565151
 30
0.0
 11
43.57899999995641
 21
6.993065588563722
 31
0.0
  0
LINE
  5
B3BF
330
B383
100
AcDbEntity
  8
0
  6
CONTINUOUS
100
AcDbLine
 10
44.99999999995498
 20
6.245584797645336
 30
0.0
 11
43.57899999995641
 21
7.666584797643908
 31
0.0
  0
LINE
  5
B3C0
330
B383
100
AcDbEntity
  8
0
  6
CONTINUOUS
100
AcDbLine
 10
44.99999999995498
 20
6.919104006725522
 30
0.0
 11
43.57899999995641
 21
8.340104006724093
 31
0.0
  0
LINE
  5
B3C1
330
B383
100
AcDbEntity
  8
0
  6
CONTINUOUS
100
AcDbLine
 10
44.99999999995498
 20
7.592623215805709
 30
0.0
 11
43.82952321576943
 21
8.763099999991255
 31
0.0
  0
LINE
  5
B3C2
330
B383
100
AcDbEntity
  8
0
  6
CONTINUOUS
100
AcDbLine
 10
44.99999999995498
 20
8.266142424885896
 30
0.0
 11
44.50304242484962
 21
8.763099999991255
 31
0.0
  0
ENDBLK
  5
B3EC
330
B383
100
AcDbEntity
  8
0
100
AcDbBlockEnd
  0
BLOCK
  5
B3ED
330
B3C3
100
AcDbEntity
  8
0
100
AcDbBlockBegin
  2
*X25
 70
     1
 10
0.0
 20
0.0
 30
0.0
  3
*X25
  1

  0
LINE
  5
B3C4
330
B3C3
100
AcDbEntity
  8
0
  6
CONTINUOUS
100
AcDbLine
 10
0.0
 20
8.548461116714023
 30
0.0
 11
0.2146388832772324
 21
8.763099999991255
 31
0.0
  0
LINE
  5
B3C5
330
B3C3
100
AcDbEntity
  8
0
  6
CONTINUOUS
100
AcDbLine
 10
-0.0000000000000002
 20
7.874941907633837
 30
0.0
 11
0.8881580923574184
 21
8.763099999991255
 31
0.0
  0
LINE
  5
B3C6
330
B3C3
100
AcDbEntity
  8
0
  6
CONTINUOUS
100
AcDbLine
 10
0.0
 20
7.20142269855365
 30
0.0
 11
1.420999999998572
 21
8.622422698552223
 31
0.0
  0
LINE
  5
B3C7
330
B3C3
100
AcDbEntity
  8
0
  6
CONTINUOUS
100
AcDbLine
 10
-0.0000000000000001
 20
6.527903489473465
 30
0.0
 11
1.420999999998571
 21
7.948903489472036
 31
0.0
  0
LINE
  5
B3C8
330
B3C3
100
AcDbEntity
  8
0
  6
CONTINUOUS
100
AcDbLine
 10
-0.0000000000000002
 20
5.854384280393278
 30
0.0
 11
1.420999999998571
 21
7.275384280391849
 31
0.0
  0
LINE
  5
B3C9
330
B3C3
100
AcDbEntity
  8
0
  6
CONTINUOUS
100
AcDbLine
 10
-0.0000000000000002
 20
5.180865071313091
 30
0.0
 11
1.420999999998571
 21
6.601865071311663
 31
0.0
  0
LINE
  5
B3CA
330
B3C3
100
AcDbEntity
  8
0
  6
CONTINUOUS
100
AcDbLine
 10
0.0
 20
4.507345862232905
 30
0.0
 11
1.420999999998571
 21
5.928345862231477
 31
0.0
  0
LINE
  5
B3CB
330
B3C3
100
AcDbEntity
  8
0
  6
CONTINUOUS
100
AcDbLine
 10
-0.0000000000000003
 20
3.833826653152718
 30
0.0
 11
1.420999999998571
 21
5.25482665315129
 31
0.0
  0
LINE
  5
B3CC
330
B3C3
100
AcDbEntity
  8
0
  6
CONTINUOUS
100
AcDbLine
 10
-0.0000000000000002
 20
3.160307444072532
 30
0.0
 11
1.420999999998571
 21
4.581307444071103
 31
0.0
  0
LINE
  5
B3CD
330
B3C3
100
AcDbEntity
  8
0
  6
CONTINUOUS
100
AcDbLine
 10
-0.0000000000000001
 20
2.486788234992345
 30
0.0
 11
1.420999999998571
 21
3.907788234990917
 31
0.0
  0
LINE
  5
B3CE
330
B3C3
100
AcDbEntity
  8
0
  6
CONTINUOUS
100
AcDbLine
 10
-0.0000000000000006
 20
1.813269025912159
 30
0.0
 11
1.420999999998571
 21
3.234269025910731
 31
0.0
  0
LINE
  5
B3CF
330
B3C3
100
AcDbEntity
  8
0
  6
CONTINUOUS
100
AcDbLine
 10
0.0
 20
1.139749816831973
 30
0.0
 11
1.420999999998571
 21
2.560749816830544
 31
0.0
  0
LINE
  5
B3D0
330
B3C3
100
AcDbEntity
  8
0
  6
CONTINUOUS
100
AcDbLine
 10
0.0000000000000002
 20
0.466230607751787
 30
0.0
 11
1.420999999998571
 21
1.887230607750358
 31
0.0
  0
LINE
  5
B3D1
330
B3C3
100
AcDbEntity
  8
0
  6
CONTINUOUS
100
AcDbLine
 10
0.2072886013284003
 20
-0.0000000000000009
 30
0.0
 11
1.420999999998571
 21
1.213711398670171
 31
0.0
  0
LINE
  5
B3D2
330
B3C3
100
AcDbEntity
  8
0
  6
CONTINUOUS
100
AcDbLine
 10
0.8808078104085864
 20
-0.0000000000000009
 30
0.0
 11
1.420999999998571
 21
0.5401921895899839
 31
0.0
  0
LINE
  5
B3D3
330
B3C3
100
AcDbEntity
  8
0
  6
CONTINUOUS
100
AcDbLine
 10
0.0581249075061505
 20
-0.0000000000000009
 30
0.0
 11
-0.0000000000000002
 21
0.0581249075061496
 31
0.0
  0
LINE
  5
B3D4
330
B3C3
100
AcDbEntity
  8
0
  6
CONTINUOUS
100
AcDbLine
 10
0.7316441165863372
 20
-0.0000000000000009
 30
0.0
 11
-0.0000000000000002
 21
0.7316441165863363
 31
0.0
  0
LINE
  5
B3D5
330
B3C3
100
AcDbEntity
  8
0
  6
CONTINUOUS
100
AcDbLine
 10
1.405163325666523
 20
-0.0000000000000009
 30
0.0
 11
-0.0000000000000002
 21
1.405163325666523
 31
0.0
  0
LINE
  5
B3D6
330
B3C3
100
AcDbEntity
  8
0
  6
CONTINUOUS
100
AcDbLine
 10
1.420999999998572
 20
0.6576825347481381
 30
0.0
 11
-0.0000000000000001
 21
2.07868253474671
 31
0.0
  0
LINE
  5
B3D7
330
B3C3
100
AcDbEntity
  8
0
  6
CONTINUOUS
100
AcDbLine
 10
1.420999999998571
 20
1.331201743828324
 30
0.0
 11
-0.0000000000000001
 21
2.752201743826896
 31
0.0
  0
LINE
  5
B3D8
330
B3C3
100
AcDbEntity
  8
0
  6
CONTINUOUS
100
AcDbLine
 10
1.420999999998571
 20
2.004720952908511
 30
0.0
 11
-0.0000000000000002
 21
3.425720952907082
 31
0.0
  0
LINE
  5
B3D9
330
B3C3
100
AcDbEntity
  8
0
  6
CONTINUOUS
100
AcDbLine
 10
1.420999999998571
 20
2.678240161988697
 30
0.0
 11
-0.0000000000000001
 21
4.099240161987269
 31
0.0
  0
LINE
  5
B3DA
330
B3C3
100
AcDbEntity
  8
0
  6
CONTINUOUS
100
AcDbLine
 10
1.420999999998572
 20
3.351759371068884
 30
0.0
 11
0.0
 21
4.772759371067455
 31
0.0
  0
LINE
  5
B3DB
330
B3C3
100
AcDbEntity
  8
0
  6
CONTINUOUS
100
AcDbLine
 10
1.420999999998571
 20
4.02527858014907
 30
0.0
 11
-0.0000000000000003
 21
5.446278580147642
 31
0.0
  0
LINE
  5
B3DC
330
B3C3
100
AcDbEntity
  8
0
  6
CONTINUOUS
100
AcDbLine
 10
1.420999999998571
 20
4.698797789229257
 30
0.0
 11
0.0
 21
6.119797789227828
 31
0.0
  0
LINE
  5
B3DD
330
B3C3
100
AcDbEntity
  8
0
  6
CONTINUOUS
100
AcDbLine
 10
1.420999999998571
 20
5.372316998309444
 30
0.0
 11
-0.0000000000000001
 21
6.793316998308015
 31
0.0
  0
LINE
  5
B3DE
330
B3C3
100
AcDbEntity
  8
0
  6
CONTINUOUS
100
AcDbLine
 10
1.420999999998572
 20
6.045836207389629
 30
0.0
 11
-0.0000000000000004
 21
7.466836207388202
 31
0.0
  0
LINE
  5
B3DF
330
B3C3
100
AcDbEntity
  8
0
  6
CONTINUOUS
100
AcDbLine
 10
1.420999999998571
 20
6.719355416469816
 30
0.0
 11
0.0
 21
8.140355416468388
 31
0.0
  0
LINE
  5
B3E0
330
B3C3
100
AcDbEntity
  8
0
  6
CONTINUOUS
100
AcDbLine
 10
1.420999999998571
 20
7.392874625550003
 30
0.0
 11
0.0507746255573185
 21
8.763099999991255
 31
0.0
  0
LINE
  5
B3E1
330
B3C3
100
AcDbEntity
  8
0
  6
CONTINUOUS
100
AcDbLine
 10
1.420999999998571
 20
8.06639383463019
 30
0.0
 11
0.7242938346375052
 21
8.763099999991255
 31
0.0
  0
LINE
  5
B3E2
330
B3C3
100
AcDbEntity
  8
0
  6
CONTINUOUS
100
AcDbLine
 10
1.420999999998571
 20
8.739913043710375
 30
0.0
 11
1.397813043717691
 21
8.763099999991255
 31
0.0
  0
ENDBLK
  5
B3EE
330
B3C3
100
AcDbEntity
  8
0
100
AcDbBlockEnd
  0
ENDSEC
  0
SECTION
  2
ENTITIES
  0
LINE
  5
AF68
330
18
100
AcDbEntity
  8
01
100
AcDbLine
 10
5489.277550712131
 20
983.9725402408726
 30
0.0000000001127424
 11
5537.277550712131
 21
983.9725402408726
 31
0.0000000001127424
  0
LINE
  5
AF69
330
18
100
AcDbEntity
  8
01
100
AcDbLine
 10
5488.277550712131
 20
992.4725402408726
 30
0.0000000001127424
 11
5488.277550712131
 21
984.9725402408726
 31
0.0000000001127424
  0
ARC
  5
AF6A
330
18
100
AcDbEntity
  8
01
100
AcDbCircle
 10
5489.277550712131
 20
984.9725402408726
 30
0.0000000001127424
 40
1.0
100
AcDbArc
 50
180.0
 51
270.0
  0
LINE
  5
AF6B
330
18
100
AcDbEntity
  8
01
100
AcDbLine
 10
5538.277550712131
 20
992.4725402408726
 30
0.0000000001127424
 11
5538.277550712131
 21
984.9725402408726
 31
0.0000000001127424
  0
ARC
  5
AF6C
330
18
100
AcDbEntity
  8
01
100
AcDbCircle
 10
5537.277550712131
 20
984.9725402408726
 30
0.0000000001127424
 40
1.0
100
AcDbArc
 50
270.0
 51
0.0
  0
ARC
  5
AF6D
330
18
100
AcDbEntity
  8
01
100
AcDbCircle
 10
5513.277550712131
 20
832.4738585539753
 30
0.0000000001127424
 40
25.0
100
AcDbArc
 50
40.31254771350656
 51
0.2964480742310561
  0
LINE
  5
AF6F
330
18
100
AcDbEntity
  8
01
100
AcDbLine
 10
5363.277550712131
 20
857.4738585539753
 30
0.0000000001127424
 11
5363.277550712131
 21
807.4738585539753
 31
0.0000000001127424
  0
LINE
  5
AF70
330
18
100
AcDbEntity
  8
01
100
AcDbLine
 10
5371.777550712131
 20
808.4738585539753
 30
0.0000000001127424
 11
5371.777550712131
 21
856.4738585539753
 31
0.0000000001127424
  0
LINE
  5
AF71
330
18
100
AcDbEntity
  8
01
100
AcDbLine
 10
5363.277550712131
 20
807.4738585539753
 30
0.0000000001127424
 11
5370.777550712131
 21
807.4738585539753
 31
0.0000000001127424
  0
ARC
  5
AF72
330
18
100
AcDbEntity
  8
01
100
AcDbCircle
 10
5370.777550712131
 20
808.4738585539753
 30
0.0000000001127424
 40
1.0
100
AcDbArc
 50
270.0
 51
0.0
  0
LINE
  5
AF73
330
18
100
AcDbEntity
  8
01
100
AcDbLine
 10
5363.277550712131
 20
857.4738585539753
 30
0.0000000001127424
 11
5370.777550712131
 21
857.4738585539753
 31
0.0000000001127424
  0
ARC
  5
AF74
330
18
100
AcDbEntity
  8
01
100
AcDbCircle
 10
5370.777550712131
 20
856.4738585539753
 30
0.0000000001127424
 40
1.0
100
AcDbArc
 50
0.0
 51
90.0
  0
LINE
  5
AF75
330
18
100
AcDbEntity
  8
01
100
AcDbLine
 10
5361.149265329701
 20
832.4738585539753
 30
0.0000000001127424
 11
5383.777550712131
 21
832.4738585539753
 31
0.0000000001127424
  0
LINE
  5
AF76
330
18
100
AcDbEntity
  8
01
100
AcDbLine
 10
5488.277550712131
 20
992.4725402408726
 30
0.0000000001127424
 11
5538.277550712131
 21
992.4725402408726
 31
0.0000000001127424
  0
LINE
  5
AF77
330
18
100
AcDbEntity
  8
01
  6
BYBLOCK
100
AcDbLine
 10
5462.278318554449
 20
992.4725402408726
 30
0.0000000001127424
 11
5616.03269870948
 21
992.4725402408726
 31
0.0000000001127424
  0
LINE
  5
AF78
330
18
100
AcDbEntity
  8
01
100
AcDbLine
 10
5513.277550712131
 20
997.4725402408726
 30
0.0000000001127424
 11
5513.277550712131
 21
970.9725402408726
 31
0.0000000001127424
  0
LINE
  5
AF7D
330
18
100
AcDbEntity
  8
01
100
AcDbLine
 10
5363.277550712131
 20
952.4738585539753
 30
0.0000000001127424
 11
5363.277550712131
 21
762.4738585539753
 31
0.0000000001127424
  0
LINE
  5
AF7E
330
18
100
AcDbEntity
  8
1CENTER
100
AcDbLine
 10
5377.777550712131
 20
817.4738585539753
 30
0.0000000001127424
 11
5377.777550712131
 21
825.4738585539753
 31
0.0000000001127424
  0
LINE
  5
AF7F
330
18
100
AcDbEntity
  8
01
100
AcDbLine
 10
5483.277550712131
 20
832.4738585539753
 30
0.0000000001127424
 11
5543.277550712131
 21
832.4738585539753
 31
0.0000000001127424
  0
LINE
  5
AF80
330
18
100
AcDbEntity
  8
01
100
AcDbLine
 10
5513.277550712131
 20
862.4738585539753
 30
0.0000000001127424
 11
5513.277550712131
 21
802.4738585539753
 31
0.0000000001127424
  0
TEXT
  5
AF81
330
18
100
AcDbEntity
  8
1TEXT
100
AcDbText
 10
5363.277550712131
 20
992.4725402408726
 30
0.0000000001127424
 40
10.0
  1
N3C
 41
1.0171875
100
AcDbText
  0
LINE
  5
AF82
330
18
100
AcDbEntity
  8
01
100
AcDbLine
 10
5414.633103652358
 20
826.2454617860335
 30
0.0000000001127424
 11
5416.123919713747
 21
826.6980559708641
 31
0.0000000001127424
  0
LINE
  5
AF83
330
18
100
AcDbEntity
  8
01
100
AcDbLine
 10
5416.230567687088
 20
826.7291933610081
 30
0.0000000001127424
 11
5416.123826181512
 21
826.6983449815029
 31
0.0000000001127424
  0
LINE
  5
AF84
330
18
100
AcDbEntity
  8
01
100
AcDbLine
 10
5418.503190052146
 20
851.8793143231901
 30
0.0000000001127424
 11
5418.967396363403
 21
851.6898153799602
 31
0.0000000001127424
  0
LINE
  5
AF85
330
18
100
AcDbEntity
  8
01
100
AcDbLine
 10
5419.320156927621
 20
851.5067973393866
 30
0.0000000001127424
 11
5418.967420537223
 21
851.689873375873
 31
0.0000000001127424
  0
LINE
  5
AF86
330
18
100
AcDbEntity
  8
01
100
AcDbLine
 10
5396.047906595484
 20
848.2548772557861
 30
0.0000000001127424
 11
5395.982742467335
 21
849.3192258432482
 31
0.0000000001127424
  0
LINE
  5
AF87
330
18
100
AcDbEntity
  8
01
100
AcDbLine
 10
5395.982840390649
 20
849.3192276759437
 30
0.0000000001127424
 11
5395.981244359588
 21
849.5165729827768
 31
0.0000000001127424
  0
ARC
  5
AF88
330
18
100
AcDbEntity
  8
01
100
AcDbCircle
 10
5409.707012839433
 20
849.067686030146
 30
0.0000000001127424
 40
13.73310489725905
100
AcDbArc
 50
157.1258773756004
 51
178.1268751981759
  0
LINE
  5
AF89
330
18
100
AcDbEntity
  8
01
100
AcDbLine
 10
5397.053865533231
 20
854.4058492151339
 30
0.0000000001127424
 11
5397.061812938335
 21
854.4284738749334
 31
0.0000000001127424
  0
ARC
  5
AF8A
330
18
100
AcDbEntity
  8
01
100
AcDbCircle
 10
5398.933456982294
 20
853.6871258149354
 30
0.0000000001127424
 40
2.013120881191917
100
AcDbArc
 50
114.9915855680003
 51
158.3922441622113
  0
LINE
  5
AF8B
330
18
100
AcDbEntity
  8
01
100
AcDbLine
 10
5418.731547525098
 20
851.7828632023743
 30
0.0000000001127424
 11
5418.967721931067
 21
851.6896857399229
 31
0.0000000001127424
  0
LINE
  5
AF8C
330
18
100
AcDbEntity
  8
01
100
AcDbLine
 10
5418.967689533406
 20
851.6895987097096
 30
0.0000000001127424
 11
5419.108639391943
 21
851.6254982636506
 31
0.0000000001127424
  0
ARC
  5
AF8D
330
18
100
AcDbEntity
  8
01
100
AcDbCircle
 10
5399.330252900172
 20
852.8177814953833
 30
0.0000000001127424
 40
2.968711956950105
100
AcDbArc
 50
85.45139364002976
 51
114.8526989204676
  0
LINE
  5
AF90
330
18
100
AcDbEntity
  8
01
100
AcDbLine
 10
5372.277535337313
 20
845.3787168408226
 30
0.0000000001127424
 11
5378.993957882866
 21
845.8971795261677
 31
0.0000000001127424
  0
ARC
  5
AF92
330
18
100
AcDbEntity
  8
01
100
AcDbCircle
 10
5417.733408705619
 20
829.1932896142675
 30
0.0000000001127424
 40
1.62637527812117
100
AcDbArc
 50
339.7697270489529
 51
359.3529176670819
  0
LINE
  5
AF94
330
18
100
AcDbEntity
  8
01
100
AcDbLine
 10
5416.350987975011
 20
826.7679612042325
 30
0.0000000001127424
 11
5416.230567687088
 21
826.7291933610081
 31
0.0000000001127424
  0
LINE
  5
AF95
330
18
100
AcDbEntity
  8
01
100
AcDbLine
 10
5372.277535337313
 20
845.3787168408226
 30
0.0000000001127424
 11
5372.277565192217
 21
820.3199950647981
 31
0.0000000001127424
  0
SPLINE
  5
AF96
330
18
100
AcDbEntity
  8
1DIM
100
AcDbSpline
210
0.0
220
0.0
230
1.0
 70
     8
 71
     3
 72
    13
 73
     9
 74
     0
 42
0.0000000001
 43
0.0000000001
 40
1.022758186394553
 40
1.022758186394553
 40
1.022758186394553
 40
1.022758186394553
 40
19.16974290966603
 40
34.5622501936958
 40
43.47004669500184
 40
45.95104555884003
 40
47.65769294553009
 40
48.22628856925304
 40
48.22628856925304
 40
48.22628856925304
 40
48.22628856925304
 10
5372.27755119002
 20
832.0727421140482
 30
0.0000000001127424
 10
5378.315171867282
 20
832.3202727470193
 30
0.0000000001127424
 10
5389.475977084914
 20
832.7722989950812
 30
0.0000000001127424
 10
5403.688527176413
 20
833.1048683648924
 30
0.0000000001127424
 10
5412.50585802051
 20
832.3438562863657
 30
0.0000000001127424
 10
5416.933611378183
 20
831.8173263194994
 30
0.0000000001127424
 10
5418.22085099254
 20
830.701851598264
 30
0.0000000001127424
 10
5418.520180450976
 20
830.0057541441188
 30
0.0000000001127424
 10
5418.580896162186
 20
829.8256923772419
 30
0.0000000001127424
  0
SPLINE
  5
AF97
330
18
100
AcDbEntity
  8
1DIM
100
AcDbSpline
210
0.0
220
0.0
230
1.0
 70
     8
 71
     3
 72
    14
 73
    10
 74
     0
 42
0.0000000001
 43
0.0000000001
 40
0.6445100819610194
 40
0.6445100819610194
 40
0.6445100819610194
 40
0.6445100819610194
 40
1.267223270871801
 40
2.256791850010462
 40
3.759440384403517
 40
5.218307461689858
 40
5.837098605474792
 40
6.969259685357242
 40
7.912188272057365
 40
7.912188272057365
 40
7.912188272057365
 40
7.912188272057365
 10
5397.960528076231
 20
855.4498800492775
 30
0.0000000001127424
 10
5398.095939546258
 20
855.2915283597058
 30
0.0000000001127424
 10
5398.4113097266
 20
854.8609348141645
 30
0.0000000001127424
 10
5398.674140997307
 20
853.8264088532569
 30
0.0000000001127424
 10
5398.738054317249
 20
852.5213914795877
 30
0.0000000001127424
 10
5398.798376011618
 20
851.3108839996817
 30
0.0000000001127424
 10
5398.62293675505
 20
850.2734477141757
 30
0.0000000001127424
 10
5398.538173285119
 20
849.2742535722682
 30
0.0000000001127424
 10
5397.875570960647
 20
848.9535227186975
 30
0.0000000001127424
 10
5397.574481960291
 20
848.8077814067246
 30
0.0000000001127424
  0
SPLINE
  5
AF98
330
18
100
AcDbEntity
  8
1DIM
100
AcDbSpline
210
0.0
220
0.0
230
1.0
 70
     8
 71
     3
 72
    14
 73
    10
 74
     0
 42
0.0000000001
 43
0.0000000001
 40
0.80083972585277
 40
0.80083972585277
 40
0.80083972585277
 40
0.80083972585277
 40
5.770968380825738
 40
14.42739980947128
 40
21.64280824055746
 40
31.86708497496882
 40
40.85546687830048
 40
46.13141246715511
 40
46.65179340511682
 40
46.65179340511682
 40
46.65179340511682
 40
46.65179340511682
 10
5372.2775602848
 20
824.4390361275186
 30
0.0000000001127424
 10
5373.934148344475
 20
824.4292182230201
 30
0.0000000001127424
 10
5378.476018310444
 20
824.3930095978549
 30
0.0000000001127424
 10
5385.42335123566
 20
824.0568684531827
 30
0.0000000001127424
 10
5394.113557826819
 20
824.6052383818696
 30
0.0000000001127424
 10
5402.884719464386
 20
825.458245950877
 30
0.0000000001127424
 10
5410.960889327023
 20
826.5973158953839
 30
0.0000000001127424
 10
5415.814639202297
 20
827.5719457768464
 30
0.0000000001127424
 10
5417.643372300612
 20
828.1887367033414
 30
0.0000000001127424
 10
5417.807059196612
 20
828.2456693249283
 30
0.0000000001127424
  0
ARC
  5
AF99
330
18
100
AcDbEntity
  8
1DIM
100
AcDbCircle
 10
5417.396420968297
 20
829.4262946869267
 30
0.0000000001127424
 40
1.25
100
AcDbArc
 50
289.1783988344069
 51
18.63378728585412
  0
LINE
  5
AF9D
330
18
100
AcDbEntity
  8
01
100
AcDbLine
 10
5494.329336460494
 20
936.388900238263
 30
0.0000000001127424
 11
5494.154428076762
 21
936.411140217333
 31
0.0000000001127424
  0
LINE
  5
AF9E
330
18
100
AcDbEntity
  8
01
100
AcDbLine
 10
5494.154427281538
 20
936.4111402517433
 30
0.0000000001127424
 11
5493.811753790006
 21
936.4834201732351
 31
0.0000000001127424
  0
ARC
  5
AF9F
330
18
100
AcDbEntity
  8
01
100
AcDbCircle
 10
5636.402323436756
 20
999.2409121982014
 30
0.0000000001127424
 40
113.4322481768704
100
AcDbArc
 50
187.9906417210494
 51
192.2612991851738
  0
LINE
  5
AFA0
330
18
100
AcDbEntity
  8
01
100
AcDbLine
 10
5544.782110473408
 20
959.5500934511842
 30
0.0000000001127424
 11
5544.73728428569
 21
959.5522222020268
 31
0.0000000001127424
  0
ARC
  5
AFA2
330
18
100
AcDbEntity
  8
01
100
AcDbCircle
 10
5549.313927226497
 20
980.3545996327125
 30
0.0000000001127424
 40
24.31910284272136
100
AcDbArc
 50
192.35434366007
 51
199.1038842582076
  0
LINE
  5
AFA4
330
18
100
AcDbEntity
  8
01
100
AcDbLine
 10
5633.647733702784
 20
938.309260262301
 30
0.0000000001127424
 11
5633.494511838816
 21
937.2391376637233
 31
0.0000000001127424
  0
ARC
  5
AFA5
330
18
100
AcDbEntity
  8
01
100
AcDbCircle
 10
5631.425808514493
 20
937.3357907422987
 30
0.0000000001127424
 40
2.041054676902837
100
AcDbArc
 50
271.1147284380016
 51
343.8228212619838
  0
LINE
  5
AFA6
330
18
100
AcDbEntity
  8
01
100
AcDbLine
 10
5632.555970701846
 20
959.7690158224286
 30
0.0000000001127424
 11
5632.530494546828
 21
959.768849001493
 31
0.0000000001127424
  0
ARC
  5
AFA7
330
18
100
AcDbEntity
  8
01
100
AcDbCircle
 10
5545.827295509738
 20
981.0196230801016
 30
0.0000000001127424
 40
21.49467829427076
100
AcDbArc
 50
230.8449279796868
 51
267.1531714434232
  0
ARC
  5
AFA8
330
18
100
AcDbEntity
  8
01
100
AcDbCircle
 10
5543.858531372607
 20
979.0837975369877
 30
0.0000000001127424
 40
18.75278399381474
100
AcDbArc
 50
200.3614785397549
 51
231.7282490525244
  0
LINE
  5
AFA9
330
18
100
AcDbEntity
  8
01
100
AcDbLine
 10
5632.555290308596
 20
959.7690158798109
 30
0.0000000001127424
 11
5632.834021943167
 21
959.7512408700973
 31
0.0000000001127424
  0
ARC
  5
AFAA
330
18
100
AcDbEntity
  8
01
100
AcDbCircle
 10
5502.275539393539
 20
954.5675094292624
 30
0.0000000001127424
 40
132.3743905913842
100
AcDbArc
 50
352.9451135056468
 51
1.388016331899413
  0
LINE
  5
AFAB
330
18
100
AcDbEntity
  8
01
100
AcDbLine
 10
5633.462394727256
 20
937.0994051169155
 30
0.0000000001127424
 11
5633.49449926028
 21
937.2391643946039
 31
0.0000000001127424
  0
LINE
  5
AFAC
330
18
100
AcDbEntity
  8
01
100
AcDbLine
 10
5488.291926607712
 20
983.4725371410286
 30
0.0000000001127424
 11
5524.071413111474
 21
983.472541580014
 31
0.0000000001127424
  0
ARC
  5
AFAD
330
18
100
AcDbEntity
  8
01
100
AcDbCircle
 10
5632.68681107876
 20
957.8317350337743
 30
0.0000000001127424
 40
1.925142512718844
100
AcDbArc
 50
358.282204517194
 51
85.61445308468177
  0
SPLINE
  5
AFAE
330
18
100
AcDbEntity
  8
1DIM
100
AcDbSpline
210
0.0
220
0.0
230
1.0
 70
     8
 71
     3
 72
    11
 73
     7
 74
     0
 42
0.0000000001
 43
0.0000000001
 40
1.192076879049868
 40
1.192076879049868
 40
1.192076879049868
 40
1.192076879049868
 40
9.984188269419404
 40
23.49881130272928
 40
36.11964824379923
 40
43.44514625863291
 40
43.44514625863291
 40
43.44514625863291
 40
43.44514625863291
 10
5518.58066256341
 20
983.4725408988193
 30
0.0000000001127424
 10
5519.084461055593
 20
980.5778105648633
 30
0.0000000001127424
 10
5520.481595187487
 20
973.2637016146246
 30
0.0000000001127424
 10
5526.626343598019
 20
962.8161920674802
 30
0.0000000001127424
 10
5537.051930523691
 20
957.1004647119962
 30
0.0000000001127424
 10
5543.745560503213
 20
957.0884066519266
 30
0.0000000001127424
 10
5546.20386541163
 20
957.0839782045309
 30
0.0000000001127424
  0
LINE
  5
AFAF
330
18
100
AcDbEntity
  8
1DIM
100
AcDbLine
 10
5546.20386541163
 20
957.0839782045309
 30
0.0000000001127424
 11
5630.973860348144
 21
957.4801858045525
 31
0.0000000001127424
  0
SPLINE
  5
AFB0
330
18
100
AcDbEntity
  8
1DIM
100
AcDbSpline
210
0.0
220
0.0
230
1.0
 70
     8
 71
     3
 72
     9
 73
     5
 74
     0
 42
0.0000000001
 43
0.0000000001
 40
0.0
 40
0.0
 40
0.0
 40
0.0
 40
1.780128230459749
 40
3.667012630284078
 40
3.667012630284078
 40
3.667012630284078
 40
3.667012630284078
 10
5630.973860348144
 20
957.4801858045525
 30
0.0000000001127424
 10
5631.591175820025
 20
957.5495333198578
 30
0.0000000001127424
 10
5632.862827824374
 20
957.6923871941763
 30
0.0000000001127424
 10
5633.627094294563
 20
958.6902883694424
 30
0.0000000001127424
 10
5633.99813678547
 20
959.2412025166204
 30
0.0000000001127424
  0
LINE
  5
AFB1
330
18
100
AcDbEntity
  8
01
100
AcDbLine
 10
5633.386047087271
 20
936.7671353704759
 30
0.0000000001127424
 11
5633.462394727256
 21
937.0994051169155
 31
0.0000000001127424
  0
SPLINE
  5
AFB2
330
18
100
AcDbEntity
  8
01
100
AcDbSpline
210
0.0
220
0.0
230
1.0
 70
  1064
 71
     3
 72
     9
 73
     5
 74
     3
 42
0.000000001
 43
0.0000000001
 44
0.0000000001
 40
0.0
 40
0.0
 40
0.0
 40
0.0
 40
60.25453840279351
 40
137.1439649883166
 40
137.1439649883166
 40
137.1439649883166
 40
137.1439649883166
 10
5631.46552103983
 20
935.2950986861338
 30
0.0000000001127424
 10
5611.380228440606
 20
935.2323328253658
 30
0.0000000001127424
 10
5565.664557255901
 20
935.0894728974699
 30
0.0000000001127424
 10
5519.955824841482
 20
935.9220935293264
 30
0.0000000001127424
 10
5494.329336460494
 20
936.388900238263
 30
0.0000000001127424
 11
5631.46552103983
 21
935.2950986861338
 31
0.0000000001127424
 11
5571.210982637037
 21
935.2950986861338
 31
0.0000000001127424
 11
5494.329336460494
 21
936.388900238263
 31
0.0000000001127424
  0
SPLINE
  5
AFB3
330
18
100
AcDbEntity
  8
01
100
AcDbSpline
210
0.0
220
0.0
230
1.0
 70
  1064
 71
     3
 72
    11
 73
     7
 74
     5
 42
0.000000001
 43
0.0000000001
 44
0.0000000001
 40
0.0
 40
0.0
 40
0.0
 40
0.0
 40
18.89354310575455
 40
31.4931264288414
 40
40.92847968629191
 40
44.04403917286493
 40
44.04403917286493
 40
44.04403917286493
 40
44.04403917286493
 10
5488.291926607712
 20
983.4725371410286
 30
0.0000000001127424
 10
5488.585523958591
 20
977.1803999415897
 30
0.0000000001127424
 10
5489.074913293277
 20
966.6922098112171
 30
0.0000000001127424
 10
5490.04484143098
 20
953.0904718930099
 30
0.0000000001127424
 10
5490.813010893147
 20
944.7254446814416
 30
0.0000000001127424
 10
5491.646684656619
 20
940.6243800643283
 30
0.0000000001127424
 10
5491.853630578041
 20
939.6063576277547
 30
0.0000000001127424
 11
5488.291926607712
 21
983.4725371410286
 31
0.0000000001127424
 11
5489.265193734902
 21
964.6040787464449
 31
0.0000000001127424
 11
5490.169140675663
 21
952.0369637297158
 31
0.0000000001127424
 11
5491.260542276301
 21
942.6649450763516
 31
0.0000000001127424
 11
5491.853630578041
 21
939.6063576277547
 31
0.0000000001127424
  0
ARC
  5
AFB4
330
18
100
AcDbEntity
  8
01
100
AcDbCircle
 10
5512.482084894938
 20
849.0200925627905
 30
0.0000000001127424
 40
28.68412319827765
100
AcDbArc
 50
260.2477433191623
 51
274.6345995745736
  0
ARC
  5
AFB5
330
18
100
AcDbEntity
  8
01
100
AcDbCircle
 10
5515.290430577579
 20
889.8155587027909
 30
0.0000000001127424
 40
69.35680360758283
100
AcDbArc
 50
252.4607836664957
 51
259.0152014586286
  0
ARC
  5
AFB6
330
18
100
AcDbEntity
  8
01
100
AcDbCircle
 10
5495.981259371064
 20
828.5239706968318
 30
0.0000000001127424
 40
5.095968972172928
100
AcDbArc
 50
220.9612426595335
 51
251.7947580361596
  0
ARC
  5
AFB7
330
18
100
AcDbEntity
  8
01
100
AcDbCircle
 10
5509.925599572021
 20
840.2684979943833
 30
0.0000000001127424
 40
23.32677656708962
100
AcDbArc
 50
203.0736833524221
 51
220.2924664164737
  0
ARC
  5
AFB8
330
18
100
AcDbEntity
  8
01
100
AcDbCircle
 10
5490.299342638851
 20
831.9422934831819
 30
0.0000000001127424
 40
2.007676678485943
100
AcDbArc
 50
136.5368186018318
 51
203.9782411566925
  0
ARC
  5
AFB9
330
18
100
AcDbEntity
  8
01
100
AcDbCircle
 10
5620.3900543658
 20
313.2628929615512
 30
0.0000000001127424
 40
542.5407924919214
100
AcDbArc
 50
88.82352768684768
 51
98.1813542404197
  0
LINE
  5
AFBB
330
18
100
AcDbEntity
  8
01
100
AcDbLine
 10
5631.632396935875
 20
844.2139364395089
 30
0.0000000001127424
 11
5632.088499363571
 21
844.2315756775956
 31
0.0000000001127424
  0
ARC
  5
AFBC
330
18
100
AcDbEntity
  8
01
100
AcDbCircle
 10
5632.088180764346
 20
846.2309125037982
 30
0.0000000001127424
 40
1.999386624620067
100
AcDbArc
 50
270.009130631491
 51
338.7066058691472
  0
LINE
  5
AFBD
330
18
100
AcDbEntity
  8
01
100
AcDbLine
 10
5631.683302442575
 20
844.2143720313561
 30
0.0000000001127424
 11
5631.628529666678
 21
844.2136682059063
 31
0.0000000001127424
  0
ARC
  5
AFBE
330
18
100
AcDbEntity
  8
01
100
AcDbCircle
 10
5631.488023753212
 20
853.6911392166653
 30
0.0000000001127424
 40
2.005706264543189
100
AcDbArc
 50
34.93398599847686
 51
88.98201921458994
  0
LINE
  5
AFBF
330
18
100
AcDbEntity
  8
01
100
AcDbLine
 10
5633.400332058482
 20
854.3704456014993
 30
0.0000000001127424
 11
5633.13639829462
 21
854.8337567496164
 31
0.0000000001127424
  0
ARC
  5
AFC0
330
18
100
AcDbEntity
  8
01
100
AcDbCircle
 10
5619.046186867668
 20
848.220516772788
 30
0.0000000001127424
 40
15.61611268119628
100
AcDbArc
 50
5.076284338201434
 51
23.19387460776276
  0
ARC
  5
AFC2
330
18
100
AcDbEntity
  8
01
100
AcDbCircle
 10
5572.239968538805
 20
748.18390854669
 30
0.0000000001127424
 40
90.9949814507619
100
AcDbArc
 50
106.7601531759938
 51
118.7555945302967
  0
ARC
  5
AFC3
330
18
100
AcDbEntity
  8
01
100
AcDbCircle
 10
5626.000625865864
 20
848.8689442820319
 30
0.0000000001127424
 40
8.631696689375087
100
AcDbArc
 50
337.4097466241327
 51
4.873569415500325
  0
ARC
  5
AFC6
330
18
100
AcDbEntity
  8
01
100
AcDbCircle
 10
5513.735097306587
 20
830.6677089931841
 30
0.0000000001127424
 40
10.29433590197223
100
AcDbArc
 50
276.0287229605097
 51
302.8329050161983
  0
SPLINE
  5
AFC7
330
18
100
AcDbEntity
  8
01
100
AcDbSpline
210
0.0
220
0.0
230
1.0
 70
  1064
 71
     3
 72
     9
 73
     5
 74
     3
 42
0.000000001
 43
0.0000000001
 44
0.0000000001
 40
0.0
 40
0.0
 40
0.0
 40
0.0
 40
1.75007567459819
 40
5.644072680203584
 40
5.644072680203584
 40
5.644072680203584
 40
5.644072680203584
 10
5502.074592373382
 20
821.7295261614445
 30
0.0000000001127424
 10
5502.635820980126
 20
821.5673529729147
 30
0.0000000001127424
 10
5504.445808452467
 20
821.0443371535831
 30
0.0000000001127424
 10
5506.326079813482
 20
820.8704452074618
 30
0.0000000001127424
 10
5507.623329417514
 20
820.7504724934552
 30
0.0000000001127424
 11
5502.074592373382
 21
821.7295261614445
 31
0.0000000001127424
 11
5503.765035665437
 21
821.2765732464877
 31
0.0000000001127424
 11
5507.623329417514
 21
820.7504724934552
 31
0.0000000001127424
  0
LINE
  5
AFC9
330
18
100
AcDbEntity
  8
01
100
AcDbLine
 10
5633.970060602872
 20
845.5531792556853
 30
0.0000000001127424
 11
5633.951075466483
 21
845.5048476282786
 31
0.0000000001127424
  0
LINE
  5
B0FD
330
18
100
AcDbEntity
  8
01
100
AcDbLine
 10
5513.277550712131
 20
857.4738585539753
 30
0.0000000002254849
 11
5476.977550712131
 21
857.4738585539753
 31
0.0000000002254849
1001
ACAD
1000
DSTYLE
1002
{
1070
     3
1000
φ<>
1070
    40
1040
1.3
1070
    45
1040
0.5
1002
}
  0
LINE
  5
B0FE
330
18
100
AcDbEntity
  8
01
100
AcDbLine
 10
5513.277550712131
 20
807.4738585539762
 30
0.0000000002254849
 11
5476.977550712131
 21
807.4738585539762
 31
0.0000000002254849
1001
ACAD
1000
DSTYLE
1002
{
1070
     3
1000
φ<>
1070
    40
1040
1.3
1070
    45
1040
0.5
1002
}
  0
LINE
  5
B0FF
330
18
100
AcDbEntity
  8
01
100
AcDbLine
 10
5478.277550712131
 20
854.8738585539753
 30
0.0000000002254849
 11
5478.277550712131
 21
810.0738585539763
 31
0.0000000002254849
1001
ACAD
1000
DSTYLE
1002
{
1070
     3
1000
φ<>
1070
    40
1040
1.3
1070
    45
1040
0.5
1002
}
  0
LINE
  5
B103
330
18
100
AcDbEntity
  8
01
100
AcDbLine
 10
5397.574410654636
 20
848.8079263571499
 30
0.0000000001127424
 11
5397.574447773251
 21
848.8078592657666
 31
0.0000000001127424
  0
LINE
  5
B104
330
18
100
AcDbEntity
  8
01
100
AcDbLine
 10
5397.574447773251
 20
848.8078592657666
 30
0.0000000001127424
 11
5397.574476319911
 21
848.8077942523714
 31
0.0000000001127424
  0
LINE
  5
B105
330
18
100
AcDbEntity
  8
01
100
AcDbLine
 10
5397.574476319911
 20
848.8077942523714
 30
0.0000000001127424
 11
5397.574487456959
 21
848.8077625061978
 31
0.0000000001127424
  0
LINE
  5
B106
330
18
100
AcDbEntity
  8
01
100
AcDbLine
 10
5397.574487456959
 20
848.8077625061978
 30
0.0000000001127424
 11
5397.574496544861
 21
848.8077312570567
 31
0.0000000001127424
  0
LINE
  5
B107
330
18
100
AcDbEntity
  8
01
100
AcDbLine
 10
5397.574496544861
 20
848.8077312570567
 30
0.0000000001127424
 11
5397.574503614898
 21
848.8077004974584
 31
0.0000000001127424
  0
LINE
  5
B108
330
18
100
AcDbEntity
  8
01
100
AcDbLine
 10
5397.574503614898
 20
848.8077004974584
 30
0.0000000001127424
 11
5397.57450869835
 21
848.807670219916
 31
0.0000000001127424
  0
LINE
  5
B109
330
18
100
AcDbEntity
  8
01
100
AcDbLine
 10
5397.57450869835
 20
848.807670219916
 30
0.0000000001127424
 11
5397.574511826499
 21
848.8076404169396
 31
0.0000000001127424
  0
LINE
  5
B10A
330
18
100
AcDbEntity
  8
01
100
AcDbLine
 10
5397.574511826499
 20
848.8076404169396
 30
0.0000000001127424
 11
5397.574513030623
 21
848.8076110810421
 31
0.0000000001127424
  0
LINE
  5
B10B
330
18
100
AcDbEntity
  8
01
100
AcDbLine
 10
5397.574513030623
 20
848.8076110810421
 30
0.0000000001127424
 11
5397.574512342007
 21
848.8075822047349
 31
0.0000000001127424
  0
LINE
  5
B10C
330
18
100
AcDbEntity
  8
01
100
AcDbLine
 10
5397.574512342007
 20
848.8075822047349
 30
0.0000000001127424
 11
5397.574509791929
 21
848.8075537805294
 31
0.0000000001127424
  0
LINE
  5
B10D
330
18
100
AcDbEntity
  8
01
100
AcDbLine
 10
5397.574509791929
 20
848.8075537805294
 30
0.0000000001127424
 11
5397.574505411671
 21
848.8075258009371
 31
0.0000000001127424
  0
LINE
  5
B10E
330
18
100
AcDbEntity
  8
01
100
AcDbLine
 10
5397.574505411671
 20
848.8075258009371
 30
0.0000000001127424
 11
5397.574499232514
 21
848.8074982584699
 31
0.0000000001127424
  0
LINE
  5
B10F
330
18
100
AcDbEntity
  8
01
100
AcDbLine
 10
5397.574499232514
 20
848.8074982584699
 30
0.0000000001127424
 11
5397.574491285738
 21
848.8074711456393
 31
0.0000000001127424
  0
LINE
  5
B110
330
18
100
AcDbEntity
  8
01
100
AcDbLine
 10
5397.574491285738
 20
848.8074711456393
 30
0.0000000001127424
 11
5397.574481602624
 21
848.8074444549575
 31
0.0000000001127424
  0
LINE
  5
B111
330
18
100
AcDbEntity
  8
01
100
AcDbLine
 10
5397.574481602624
 20
848.8074444549575
 30
0.0000000001127424
 11
5397.574470214455
 21
848.8074181789357
 31
0.0000000001127424
  0
LINE
  5
B112
330
18
100
AcDbEntity
  8
01
100
AcDbLine
 10
5397.574470214455
 20
848.8074181789357
 30
0.0000000001127424
 11
5397.574457152509
 21
848.8073923100851
 31
0.0000000001127424
  0
LINE
  5
B113
330
18
100
AcDbEntity
  8
01
100
AcDbLine
 10
5397.574457152509
 20
848.8073923100851
 30
0.0000000001127424
 11
5397.574426132414
 21
848.8073417639466
 31
0.0000000001127424
  0
LINE
  5
B114
330
18
100
AcDbEntity
  8
01
100
AcDbLine
 10
5397.574426132414
 20
848.8073417639466
 30
0.0000000001127424
 11
5397.574388792586
 21
848.8072927566341
 31
0.0000000001127424
  0
LINE
  5
B115
330
18
100
AcDbEntity
  8
01
100
AcDbLine
 10
5397.574388792586
 20
848.8072927566341
 30
0.0000000001127424
 11
5397.574345383273
 21
848.8072452282418
 31
0.0000000001127424
  0
LINE
  5
B116
330
18
100
AcDbEntity
  8
01
100
AcDbLine
 10
5397.574345383273
 20
848.8072452282418
 30
0.0000000001127424
 11
5397.574296154722
 21
848.8071991188626
 31
0.0000000001127424
  0
LINE
  5
B117
330
18
100
AcDbEntity
  8
01
100
AcDbLine
 10
5397.574296154722
 20
848.8071991188626
 30
0.0000000001127424
 11
5397.574241357179
 21
848.8071543685901
 31
0.0000000001127424
  0
LINE
  5
B118
330
18
100
AcDbEntity
  8
01
100
AcDbLine
 10
5397.574241357179
 20
848.8071543685901
 30
0.0000000001127424
 11
5397.574116056107
 21
848.8070687057361
 31
0.0000000001127424
  0
LINE
  5
B119
330
18
100
AcDbEntity
  8
01
100
AcDbLine
 10
5397.574116056107
 20
848.8070687057361
 30
0.0000000001127424
 11
5397.573971482036
 21
848.8069877604271
 31
0.0000000001127424
  0
LINE
  5
B11A
330
18
100
AcDbEntity
  8
01
100
AcDbLine
 10
5397.573971482036
 20
848.8069877604271
 30
0.0000000001127424
 11
5397.573632522795
 21
848.8068381054245
 31
0.0000000001127424
  0
LINE
  5
B11B
330
18
100
AcDbEntity
  8
01
100
AcDbLine
 10
5397.573632522795
 20
848.8068381054245
 30
0.0000000001127424
 11
5397.571681714491
 21
848.8062716532713
 31
0.0000000001127424
  0
LINE
  5
B11C
330
18
100
AcDbEntity
  8
01
100
AcDbLine
 10
5397.571681714491
 20
848.8062716532713
 30
0.0000000001127424
 11
5397.570447938413
 21
848.805893491895
 31
0.0000000001127424
  0
LINE
  5
B11D
330
18
100
AcDbEntity
  8
01
100
AcDbLine
 10
5397.570447938413
 20
848.805893491895
 30
0.0000000001127424
 11
5397.56935975055
 21
848.8054838354187
 31
0.0000000001127424
  0
LINE
  5
B11E
330
18
100
AcDbEntity
  8
01
100
AcDbLine
 10
5397.56935975055
 20
848.8054838354187
 30
0.0000000001127424
 11
5397.568397097984
 21
848.8050472234968
 31
0.0000000001127424
  0
LINE
  5
B11F
330
18
100
AcDbEntity
  8
01
100
AcDbLine
 10
5397.568397097984
 20
848.8050472234968
 30
0.0000000001127424
 11
5397.567539927801
 21
848.8045881957823
 31
0.0000000001127424
  0
LINE
  5
B120
330
18
100
AcDbEntity
  8
01
100
AcDbLine
 10
5397.567539927801
 20
848.8045881957823
 30
0.0000000001127424
 11
5397.566061822919
 21
848.8036210515911
 31
0.0000000001127424
  0
LINE
  5
B121
330
18
100
AcDbEntity
  8
01
100
AcDbLine
 10
5397.566061822919
 20
848.8036210515911
 30
0.0000000001127424
 11
5397.563489073459
 21
848.8016175184598
 31
0.0000000001127424
  0
LINE
  5
B122
330
18
100
AcDbEntity
  8
01
100
AcDbLine
 10
5397.563489073459
 20
848.8016175184598
 30
0.0000000001127424
 11
5397.561156516379
 21
848.8000449516339
 31
0.0000000001127424
  0
LINE
  5
B123
330
18
100
AcDbEntity
  8
01
100
AcDbLine
 10
5397.561156516379
 20
848.8000449516339
 30
0.0000000001127424
 11
5397.549888835521
 21
848.7943223958814
 31
0.0000000001127424
  0
LINE
  5
B124
330
18
100
AcDbEntity
  8
01
100
AcDbLine
 10
5397.549888835521
 20
848.7943223958814
 30
0.0000000001127424
 11
5397.530950991617
 21
848.7846940115228
 31
0.0000000001127424
  0
LINE
  5
B125
330
18
100
AcDbEntity
  8
01
100
AcDbLine
 10
5397.530950991617
 20
848.7846940115228
 30
0.0000000001127424
 11
5397.506786809829
 21
848.7728893413705
 31
0.0000000001127424
  0
LINE
  5
B126
330
18
100
AcDbEntity
  8
01
100
AcDbLine
 10
5397.506786809829
 20
848.7728893413705
 30
0.0000000001127424
 11
5397.477515192423
 21
848.7590374802598
 31
0.0000000001127424
  0
LINE
  5
B127
330
18
100
AcDbEntity
  8
01
100
AcDbLine
 10
5397.477515192423
 20
848.7590374802598
 30
0.0000000001127424
 11
5397.404125259842
 21
848.7257085645037
 31
0.0000000001127424
  0
LINE
  5
B128
330
18
100
AcDbEntity
  8
01
100
AcDbLine
 10
5397.404125259842
 20
848.7257085645037
 30
0.0000000001127424
 11
5397.311732412025
 21
848.6857400229355
 31
0.0000000001127424
  0
LINE
  5
B129
330
18
100
AcDbEntity
  8
01
100
AcDbLine
 10
5397.311732412025
 20
848.6857400229355
 30
0.0000000001127424
 11
5397.201287867123
 21
848.6401646142363
 31
0.0000000001127424
  0
LINE
  5
B12A
330
18
100
AcDbEntity
  8
01
100
AcDbLine
 10
5397.201287867123
 20
848.6401646142363
 30
0.0000000001127424
 11
5397.07374284329
 21
848.590015097087
 31
0.0000000001127424
  0
LINE
  5
B12B
330
18
100
AcDbEntity
  8
01
100
AcDbLine
 10
5397.07374284329
 20
848.590015097087
 30
0.0000000001127424
 11
5396.930048558679
 21
848.5363242301682
 31
0.0000000001127424
  0
LINE
  5
B12C
330
18
100
AcDbEntity
  8
01
100
AcDbLine
 10
5396.930048558679
 20
848.5363242301682
 30
0.0000000001127424
 11
5396.597882738367
 21
848.4222060538145
 31
0.0000000001127424
  0
LINE
  5
B12D
330
18
100
AcDbEntity
  8
01
100
AcDbLine
 10
5396.597882738367
 20
848.4222060538145
 30
0.0000000001127424
 11
5396.210223989878
 21
848.3021289274202
 31
0.0000000001127424
  0
LINE
  5
B12E
330
18
100
AcDbEntity
  8
01
100
AcDbLine
 10
5396.210223989878
 20
848.3021289274202
 30
0.0000000001127424
 11
5395.77091774021
 21
848.1775339368778
 31
0.0000000001127424
  0
LINE
  5
B12F
330
18
100
AcDbEntity
  8
01
100
AcDbLine
 10
5395.77091774021
 20
848.1775339368778
 30
0.0000000001127424
 11
5395.283767607223
 21
848.0497864094855
 31
0.0000000001127424
  0
LINE
  5
B130
330
18
100
AcDbEntity
  8
01
100
AcDbLine
 10
5395.283767607223
 20
848.0497864094855
 30
0.0000000001127424
 11
5394.752577208777
 21
847.9202516725413
 31
0.0000000001127424
  0
LINE
  5
B131
330
18
100
AcDbEntity
  8
01
100
AcDbLine
 10
5394.752577208777
 20
847.9202516725413
 30
0.0000000001127424
 11
5394.180920243911
 21
847.7902377161272
 31
0.0000000001127424
  0
LINE
  5
B132
330
18
100
AcDbEntity
  8
01
100
AcDbLine
 10
5394.180920243911
 20
847.7902377161272
 30
0.0000000001127424
 11
5392.92633826136
 21
847.5328957156921
 31
0.0000000001127424
  0
LINE
  5
B133
330
18
100
AcDbEntity
  8
01
100
AcDbLine
 10
5392.92633826136
 20
847.5328957156921
 30
0.0000000001127424
 11
5391.535146343532
 21
847.2833209925884
 31
0.0000000001127424
  0
LINE
  5
B134
330
18
100
AcDbEntity
  8
01
100
AcDbLine
 10
5391.535146343532
 20
847.2833209925884
 30
0.0000000001127424
 11
5390.018344777976
 21
847.0445763835296
 31
0.0000000001127424
  0
LINE
  5
B135
330
18
100
AcDbEntity
  8
01
100
AcDbLine
 10
5390.018344777976
 20
847.0445763835296
 30
0.0000000001127424
 11
5388.388135546687
 21
846.8184569685177
 31
0.0000000001127424
  0
LINE
  5
B136
330
18
100
AcDbEntity
  8
01
100
AcDbLine
 10
5388.388135546687
 20
846.8184569685177
 30
0.0000000001127424
 11
5386.658061900253
 21
846.6055990638665
 31
0.0000000001127424
  0
LINE
  5
B137
330
18
100
AcDbEntity
  8
01
100
AcDbLine
 10
5386.658061900253
 20
846.6055990638665
 30
0.0000000001127424
 11
5384.841684958316
 21
846.406591168251
 31
0.0000000001127424
  0
LINE
  5
B138
330
18
100
AcDbEntity
  8
01
100
AcDbLine
 10
5384.841684958316
 20
846.406591168251
 30
0.0000000001127424
 11
5382.9511238883
 21
846.2220749542576
 31
0.0000000001127424
  0
LINE
  5
B139
330
18
100
AcDbEntity
  8
01
100
AcDbLine
 10
5382.9511238883
 20
846.2220749542576
 30
0.0000000001127424
 11
5380.997576014799
 21
846.0523885660878
 31
0.0000000001127424
  0
LINE
  5
B13A
330
18
100
AcDbEntity
  8
01
100
AcDbLine
 10
5380.997576014799
 20
846.0523885660878
 30
0.0000000001127424
 11
5378.993949292684
 21
845.8971613716653
 31
0.0000000001127424
  0
LINE
  5
B13B
330
18
100
AcDbEntity
  8
01
100
AcDbLine
 10
5419.105668400927
 20
851.6270943913119
 30
0.0000000001127424
 11
5419.219655271136
 21
851.5721303873743
 31
0.0000000001127424
  0
LINE
  5
B13C
330
18
100
AcDbEntity
  8
01
100
AcDbLine
 10
5419.219655271136
 20
851.5721303873743
 30
0.0000000001127424
 11
5419.38132504611
 21
851.4884703908506
 31
0.0000000001127424
  0
LINE
  5
B13D
330
18
100
AcDbEntity
  8
01
100
AcDbLine
 10
5419.38132504611
 20
851.4884703908506
 30
0.0000000001127424
 11
5419.537704316193
 21
851.3952895322473
 31
0.0000000001127424
  0
LINE
  5
B13E
330
18
100
AcDbEntity
  8
01
100
AcDbLine
 10
5419.537704316193
 20
851.3952895322473
 30
0.0000000001127424
 11
5419.645309651591
 21
851.3217460163546
 31
0.0000000001127424
  0
LINE
  5
B13F
330
18
100
AcDbEntity
  8
01
100
AcDbLine
 10
5419.645309651591
 20
851.3217460163546
 30
0.0000000001127424
 11
5419.74889548818
 21
851.2424558101789
 31
0.0000000001127424
  0
LINE
  5
B140
330
18
100
AcDbEntity
  8
01
100
AcDbLine
 10
5419.74889548818
 20
851.2424558101789
 30
0.0000000001127424
 11
5419.848166993018
 21
851.1576571145088
 31
0.0000000001127424
  0
LINE
  5
B141
330
18
100
AcDbEntity
  8
01
100
AcDbLine
 10
5419.848166993018
 20
851.1576571145088
 30
0.0000000001127424
 11
5419.942829333162
 21
851.067588130134
 31
0.0000000001127424
  0
LINE
  5
B142
330
18
100
AcDbEntity
  8
01
100
AcDbLine
 10
5419.942829333162
 20
851.067588130134
 30
0.0000000001127424
 11
5420.032587675669
 21
850.9724870578434
 31
0.0000000001127424
  0
LINE
  5
B143
330
18
100
AcDbEntity
  8
01
100
AcDbLine
 10
5420.032587675669
 20
850.9724870578434
 30
0.0000000001127424
 11
5420.143360387787
 21
850.8393002984262
 31
0.0000000001127424
  0
LINE
  5
B144
330
18
100
AcDbEntity
  8
01
100
AcDbLine
 10
5420.143360387787
 20
850.8393002984262
 30
0.0000000001127424
 11
5420.244362196627
 21
850.6984588505748
 31
0.0000000001127424
  0
LINE
  5
B145
330
18
100
AcDbEntity
  8
01
100
AcDbLine
 10
5420.244362196627
 20
850.6984588505748
 30
0.0000000001127424
 11
5420.334931546455
 21
850.5507078348583
 31
0.0000000001127424
  0
LINE
  5
B146
330
18
100
AcDbEntity
  8
01
100
AcDbLine
 10
5420.334931546455
 20
850.5507078348583
 30
0.0000000001127424
 11
5420.414406881533
 21
850.3967923718465
 31
0.0000000001127424
  0
LINE
  5
B147
330
18
100
AcDbEntity
  8
01
100
AcDbLine
 10
5420.414406881533
 20
850.3967923718465
 30
0.0000000001127424
 11
5420.482126646126
 21
850.2374575821086
 31
0.0000000001127424
  0
LINE
  5
B148
330
18
100
AcDbEntity
  8
01
100
AcDbLine
 10
5420.482126646126
 20
850.2374575821086
 30
0.0000000001127424
 11
5420.528139393165
 21
850.1044236145558
 31
0.0000000001127424
  0
LINE
  5
B149
330
18
100
AcDbEntity
  8
01
100
AcDbLine
 10
5420.528139393165
 20
850.1044236145558
 30
0.0000000001127424
 11
5420.56596798906
 21
849.9688630516785
 31
0.0000000001127424
  0
LINE
  5
B14A
330
18
100
AcDbEntity
  8
01
100
AcDbLine
 10
5420.56596798906
 20
849.9688630516785
 30
0.0000000001127424
 11
5420.595640880117
 21
849.8313407842875
 31
0.0000000001127424
  0
LINE
  5
B14B
330
18
100
AcDbEntity
  8
01
100
AcDbLine
 10
5420.595640880117
 20
849.8313407842875
 30
0.0000000001127424
 11
5420.61718651264
 21
849.6924217031942
 31
0.0000000001127424
  0
LINE
  5
B14C
330
18
100
AcDbEntity
  8
01
100
AcDbLine
 10
5420.61718651264
 20
849.6924217031942
 30
0.0000000001127424
 11
5420.630633332937
 21
849.5526706992086
 31
0.0000000001127424
  0
LINE
  5
B14D
330
18
100
AcDbEntity
  8
01
100
AcDbLine
 10
5420.630633332937
 20
849.5526706992086
 30
0.0000000001127424
 11
5420.635321372292
 21
849.2393810966073
 31
0.0000000001127424
  0
LINE
  5
B14E
330
18
100
AcDbEntity
  8
01
100
AcDbLine
 10
5420.635321372292
 20
849.2393810966073
 30
0.0000000001127424
 11
5420.623995876691
 21
848.9766281888637
 31
0.0000000001127424
  0
LINE
  5
B14F
330
18
100
AcDbEntity
  8
01
100
AcDbLine
 10
5420.623995876691
 20
848.9766281888637
 30
0.0000000001127424
 11
5420.604054558527
 21
848.6664266401635
 31
0.0000000001127424
  0
LINE
  5
B150
330
18
100
AcDbEntity
  8
01
100
AcDbLine
 10
5420.604054558527
 20
848.6664266401635
 30
0.0000000001127424
 11
5420.540626820553
 21
847.9071533762958
 31
0.0000000001127424
  0
LINE
  5
B151
330
18
100
AcDbEntity
  8
01
100
AcDbLine
 10
5420.540626820553
 20
847.9071533762958
 30
0.0000000001127424
 11
5420.453580521095
 21
846.9641455805931
 31
0.0000000001127424
  0
LINE
  5
B152
330
18
100
AcDbEntity
  8
01
100
AcDbLine
 10
5420.453580521095
 20
846.9641455805931
 30
0.0000000001127424
 11
5420.349430884139
 21
845.7269362386646
 31
0.0000000001127424
  0
LINE
  5
B153
330
18
100
AcDbEntity
  8
01
100
AcDbLine
 10
5420.349430884139
 20
845.7269362386646
 30
0.0000000001127424
 11
5420.232905630695
 21
844.123283578735
 31
0.0000000001127424
  0
LINE
  5
B154
330
18
100
AcDbEntity
  8
01
100
AcDbLine
 10
5420.232905630695
 20
844.123283578735
 30
0.0000000001127424
 11
5420.108291784832
 21
842.2189332420344
 31
0.0000000001127424
  0
LINE
  5
B155
330
18
100
AcDbEntity
  8
01
100
AcDbLine
 10
5420.108291784832
 20
842.2189332420344
 30
0.0000000001127424
 11
5419.975834033631
 21
840.074397820576
 31
0.0000000001127424
  0
LINE
  5
B156
330
18
100
AcDbEntity
  8
01
100
AcDbLine
 10
5419.975834033631
 20
840.074397820576
 30
0.0000000001127424
 11
5419.835883895841
 21
837.6507773779258
 31
0.0000000001127424
  0
LINE
  5
B157
330
18
100
AcDbEntity
  8
01
100
AcDbLine
 10
5419.835883895841
 20
837.6507773779258
 30
0.0000000001127424
 11
5419.684692603016
 21
834.9622113986006
 31
0.0000000001127424
  0
LINE
  5
B158
330
18
100
AcDbEntity
  8
01
100
AcDbLine
 10
5419.684692603016
 20
834.9622113986006
 30
0.0000000001127424
 11
5419.522420075234
 21
832.2732418234114
 31
0.0000000001127424
  0
LINE
  5
B159
330
18
100
AcDbEntity
  8
01
100
AcDbLine
 10
5419.522420075234
 20
832.2732418234114
 30
0.0000000001127424
 11
5419.439346665025
 21
830.9329215013572
 31
0.0000000001127424
  0
LINE
  5
B15A
330
18
100
AcDbEntity
  8
01
100
AcDbLine
 10
5419.439346665025
 20
830.9329215013572
 30
0.0000000001127424
 11
5419.359668087534
 21
829.1759338704769
 31
0.0000000001127424
  0
LINE
  5
B15B
330
18
100
AcDbEntity
  8
01
100
AcDbLine
 10
5399.565831398229
 20
855.7771308372526
 30
0.0000000001127424
 11
5402.880514880895
 21
855.4471467649951
 31
0.0000000001127424
  0
LINE
  5
B15C
330
18
100
AcDbEntity
  8
01
100
AcDbLine
 10
5402.880514880895
 20
855.4471467649951
 30
0.0000000001127424
 11
5406.336769998123
 21
854.985055474393
 31
0.0000000001127424
  0
LINE
  5
B15D
330
18
100
AcDbEntity
  8
01
100
AcDbLine
 10
5406.336769998123
 20
854.985055474393
 30
0.0000000001127424
 11
5408.150945514293
 21
854.6828347310352
 31
0.0000000001127424
  0
LINE
  5
B15E
330
18
100
AcDbEntity
  8
01
100
AcDbLine
 10
5408.150945514293
 20
854.6828347310352
 30
0.0000000001127424
 11
5409.496069536867
 21
854.4299161811027
 31
0.0000000001127424
  0
LINE
  5
B15F
330
18
100
AcDbEntity
  8
01
100
AcDbLine
 10
5409.496069536867
 20
854.4299161811027
 30
0.0000000001127424
 11
5410.627726204126
 21
854.2002843663372
 31
0.0000000001127424
  0
LINE
  5
B160
330
18
100
AcDbEntity
  8
01
100
AcDbLine
 10
5410.627726204126
 20
854.2002843663372
 30
0.0000000001127424
 11
5411.8323460352
 21
853.9384588812659
 31
0.0000000001127424
  0
LINE
  5
B161
330
18
100
AcDbEntity
  8
01
100
AcDbLine
 10
5411.8323460352
 20
853.9384588812659
 30
0.0000000001127424
 11
5413.463724057201
 21
853.5443085191214
 31
0.0000000001127424
  0
LINE
  5
B162
330
18
100
AcDbEntity
  8
01
100
AcDbLine
 10
5413.463724057201
 20
853.5443085191214
 30
0.0000000001127424
 11
5414.398592847484
 21
853.2922797405499
 31
0.0000000001127424
  0
LINE
  5
B163
330
18
100
AcDbEntity
  8
01
100
AcDbLine
 10
5414.398592847484
 20
853.2922797405499
 30
0.0000000001127424
 11
5415.2895298874
 21
853.0313708141421
 31
0.0000000001127424
  0
LINE
  5
B164
330
18
100
AcDbEntity
  8
01
100
AcDbLine
 10
5415.2895298874
 20
853.0313708141421
 30
0.0000000001127424
 11
5416.150661628451
 21
852.7568687032567
 31
0.0000000001127424
  0
LINE
  5
B165
330
18
100
AcDbEntity
  8
01
100
AcDbLine
 10
5416.150661628451
 20
852.7568687032567
 30
0.0000000001127424
 11
5417.047605245547
 21
852.4456455919585
 31
0.0000000001127424
  0
LINE
  5
B166
330
18
100
AcDbEntity
  8
01
100
AcDbLine
 10
5417.047605245547
 20
852.4456455919585
 30
0.0000000001127424
 11
5417.803663347157
 21
852.1614070698338
 31
0.0000000001127424
  0
LINE
  5
B167
330
18
100
AcDbEntity
  8
01
100
AcDbLine
 10
5417.803663347157
 20
852.1614070698338
 30
0.0000000001127424
 11
5418.052141782918
 21
852.0633815474612
 31
0.0000000001127424
  0
LINE
  5
B168
330
18
100
AcDbEntity
  8
01
100
AcDbLine
 10
5418.052141782918
 20
852.0633815474612
 30
0.0000000001127424
 11
5418.246996298132
 21
851.9847830564872
 31
0.0000000001127424
  0
LINE
  5
B169
330
18
100
AcDbEntity
  8
01
100
AcDbLine
 10
5418.246996298132
 20
851.9847830564872
 30
0.0000000001127424
 11
5418.400926605404
 21
851.9217251360178
 31
0.0000000001127424
  0
LINE
  5
B16A
330
18
100
AcDbEntity
  8
01
100
AcDbLine
 10
5418.400926605404
 20
851.9217251360178
 30
0.0000000001127424
 11
5418.520659268293
 21
851.872032527664
 31
0.0000000001127424
  0
LINE
  5
B16B
330
18
100
AcDbEntity
  8
01
100
AcDbLine
 10
5418.520659268293
 20
851.872032527664
 30
0.0000000001127424
 11
5418.617681375835
 21
851.8314068800282
 31
0.0000000001127424
  0
LINE
  5
B16C
330
18
100
AcDbEntity
  8
01
100
AcDbLine
 10
5418.617681375835
 20
851.8314068800282
 30
0.0000000001127424
 11
5418.694701313068
 21
851.7989202359495
 31
0.0000000001127424
  0
LINE
  5
B16D
330
18
100
AcDbEntity
  8
01
100
AcDbLine
 10
5418.694701313068
 20
851.7989202359495
 30
0.0000000001127424
 11
5418.752969495305
 21
851.7742061067047
 31
0.0000000001127424
  0
LINE
  5
B16E
330
18
100
AcDbEntity
  8
01
100
AcDbLine
 10
5418.752969495305
 20
851.7742061067047
 30
0.0000000001127424
 11
5418.793685012912
 21
851.7569057580304
 31
0.0000000001127424
  0
LINE
  5
B16F
330
18
100
AcDbEntity
  8
01
100
AcDbLine
 10
5418.793685012912
 20
851.7569057580304
 30
0.0000000001127424
 11
5418.807723758466
 21
851.7509404899338
 31
0.0000000001127424
  0
LINE
  5
B170
330
18
100
AcDbEntity
  8
01
100
AcDbLine
 10
5418.807723758466
 20
851.7509404899338
 30
0.0000000001127424
 11
5418.812993308296
 21
851.7489521659659
 31
0.0000000001127424
  0
LINE
  5
B171
330
18
100
AcDbEntity
  8
01
100
AcDbLine
 10
5418.812993308296
 20
851.7489521659659
 30
0.0000000001127424
 11
5418.815458802718
 21
851.7478901201803
 31
0.0000000001127424
  0
LINE
  5
B172
330
18
100
AcDbEntity
  8
01
100
AcDbLine
 10
5418.815458802718
 20
851.7478901201803
 30
0.0000000001127424
 11
5418.816597606758
 21
851.7473214510574
 31
0.0000000001127424
  0
LINE
  5
B173
330
18
100
AcDbEntity
  8
01
100
AcDbLine
 10
5418.816597606758
 20
851.7473214510574
 30
0.0000000001127424
 11
5418.817654116093
 21
851.7467198081495
 31
0.0000000001127424
  0
LINE
  5
B174
330
18
100
AcDbEntity
  8
01
100
AcDbLine
 10
5418.817654116093
 20
851.7467198081495
 30
0.0000000001127424
 11
5418.81954039435
 21
851.7455265277117
 31
0.0000000001127424
  0
LINE
  5
B175
330
18
100
AcDbEntity
  8
01
100
AcDbLine
 10
5418.81954039435
 20
851.7455265277117
 30
0.0000000001127424
 11
5418.820055825022
 21
851.7452457087948
 31
0.0000000001127424
  0
LINE
  5
B176
330
18
100
AcDbEntity
  8
01
100
AcDbLine
 10
5418.820055825022
 20
851.7452457087948
 30
0.0000000001127424
 11
5418.820615116602
 21
851.7449824149512
 31
0.0000000001127424
  0
LINE
  5
B177
330
18
100
AcDbEntity
  8
01
100
AcDbLine
 10
5418.820615116602
 20
851.7449824149512
 30
0.0000000001127424
 11
5418.821231427325
 21
851.7447419084792
 31
0.0000000001127424
  0
LINE
  5
B178
330
18
100
AcDbEntity
  8
01
100
AcDbLine
 10
5418.821231427325
 20
851.7447419084792
 30
0.0000000001127424
 11
5418.821917915421
 21
851.7445294516779
 31
0.0000000001127424
  0
LINE
  5
B179
330
18
100
AcDbEntity
  8
01
100
AcDbLine
 10
5418.821917915421
 20
851.7445294516779
 30
0.0000000001127424
 11
5418.822687739125
 21
851.7443503068444
 31
0.0000000001127424
  0
LINE
  5
B17A
330
18
100
AcDbEntity
  8
01
100
AcDbLine
 10
5418.822687739125
 20
851.7443503068444
 30
0.0000000001127424
 11
5418.823554056669
 21
851.7442097362778
 31
0.0000000001127424
  0
LINE
  5
B17B
330
18
100
AcDbEntity
  8
01
100
AcDbLine
 10
5418.823554056669
 20
851.7442097362778
 30
0.0000000001127424
 11
5418.824756274778
 21
851.7440466747471
 31
0.0000000001127424
  0
LINE
  5
B17C
330
18
100
AcDbEntity
  8
01
100
AcDbLine
 10
5418.824756274778
 20
851.7440466747471
 30
0.0000000001127424
 11
5418.825010834723
 21
851.7439873717999
 31
0.0000000001127424
  0
LINE
  5
B17D
330
18
100
AcDbEntity
  8
01
100
AcDbLine
 10
5418.825010834723
 20
851.7439873717999
 30
0.0000000001127424
 11
5418.825124256415
 21
851.7439521438523
 31
0.0000000001127424
  0
LINE
  5
B17E
330
18
100
AcDbEntity
  8
01
100
AcDbLine
 10
5418.825124256415
 20
851.7439521438523
 30
0.0000000001127424
 11
5418.8252267522
 21
851.7439125204764
 31
0.0000000001127424
  0
LINE
  5
B17F
330
18
100
AcDbEntity
  8
01
100
AcDbLine
 10
5418.8252267522
 20
851.7439125204764
 30
0.0000000001127424
 11
5418.825317056789
 21
851.743867993338
 31
0.0000000001127424
  0
LINE
  5
B180
330
18
100
AcDbEntity
  8
01
100
AcDbLine
 10
5418.825317056789
 20
851.743867993338
 30
0.0000000001127424
 11
5418.825357241982
 21
851.7438437320029
 31
0.0000000001127424
  0
LINE
  5
B181
330
18
100
AcDbEntity
  8
01
100
AcDbLine
 10
5418.825357241982
 20
851.7438437320029
 30
0.0000000001127424
 11
5418.825393904891
 21
851.7438180541021
 31
0.0000000001127424
  0
LINE
  5
B182
330
18
100
AcDbEntity
  8
01
100
AcDbLine
 10
5418.825393904891
 20
851.7438180541021
 30
0.0000000001127424
 11
5418.825426887357
 21
851.7437908960933
 31
0.0000000001127424
  0
LINE
  5
B183
330
18
100
AcDbEntity
  8
01
100
AcDbLine
 10
5418.825426887357
 20
851.7437908960933
 30
0.0000000001127424
 11
5418.825456031218
 21
851.7437621944346
 31
0.0000000001127424
  0
LINE
  5
B184
330
18
100
AcDbEntity
  8
01
100
AcDbLine
 10
5418.825456031218
 20
851.7437621944346
 30
0.0000000001127424
 11
5418.825481178312
 21
851.7437318855841
 31
0.0000000001127424
  0
LINE
  5
B185
330
18
100
AcDbEntity
  8
01
100
AcDbLine
 10
5418.825481178312
 20
851.7437318855841
 30
0.0000000001127424
 11
5418.825492203646
 21
851.7437161086059
 31
0.0000000001127424
  0
LINE
  5
B186
330
18
100
AcDbEntity
  8
01
100
AcDbLine
 10
5418.825492203646
 20
851.7437161086059
 30
0.0000000001127424
 11
5418.825502170478
 21
851.743699906001
 31
0.0000000001127424
  0
LINE
  5
B187
330
18
100
AcDbEntity
  8
01
100
AcDbLine
 10
5418.825502170478
 20
851.743699906001
 30
0.0000000001127424
 11
5418.825511059038
 21
851.7436832698272
 31
0.0000000001127424
  0
LINE
  5
B188
330
18
100
AcDbEntity
  8
01
100
AcDbLine
 10
5418.825511059038
 20
851.7436832698272
 30
0.0000000001127424
 11
5418.825518849556
 21
851.7436661921424
 31
0.0000000001127424
  0
LINE
  5
B189
330
18
100
AcDbEntity
  8
01
100
AcDbLine
 10
5418.825518849556
 20
851.7436661921424
 30
0.0000000001127424
 11
5418.825525522261
 21
851.7436486650031
 31
0.0000000001127424
  0
LINE
  5
B18A
330
18
100
AcDbEntity
  8
01
100
AcDbLine
 10
5418.825525522261
 20
851.7436486650031
 30
0.0000000001127424
 11
5418.825531057384
 21
851.743630680467
 31
0.0000000001127424
  0
LINE
  5
B18B
330
18
100
AcDbEntity
  8
01
100
AcDbLine
 10
5418.825531057384
 20
851.743630680467
 30
0.0000000001127424
 11
5418.825535435153
 21
851.7436122305912
 31
0.0000000001127424
  0
LINE
  5
B18C
330
18
100
AcDbEntity
  8
01
100
AcDbLine
 10
5418.825535435153
 20
851.7436122305912
 30
0.0000000001127424
 11
5418.825538635801
 21
851.743593307433
 31
0.0000000001127424
  0
LINE
  5
B18D
330
18
100
AcDbEntity
  8
01
100
AcDbLine
 10
5418.825538635801
 20
851.743593307433
 30
0.0000000001127424
 11
5418.825540639554
 21
851.7435739030498
 31
0.0000000001127424
  0
LINE
  5
B18E
330
18
100
AcDbEntity
  8
01
100
AcDbLine
 10
5418.825540639554
 20
851.7435739030498
 30
0.0000000001127424
 11
5418.825541426644
 21
851.7435540094984
 31
0.0000000001127424
  0
LINE
  5
B18F
330
18
100
AcDbEntity
  8
01
100
AcDbLine
 10
5418.825541426644
 20
851.7435540094984
 30
0.0000000001127424
 11
5418.825540977301
 21
851.7435336188364
 31
0.0000000001127424
  0
LINE
  5
B190
330
18
100
AcDbEntity
  8
01
100
AcDbLine
 10
5418.825540977301
 20
851.7435336188364
 30
0.0000000001127424
 11
5418.825539271755
 21
851.7435127231215
 31
0.0000000001127424
  0
LINE
  5
B191
330
18
100
AcDbEntity
  8
01
100
AcDbLine
 10
5418.825539271755
 20
851.7435127231215
 30
0.0000000001127424
 11
5418.825536290234
 21
851.7434913144102
 31
0.0000000001127424
  0
LINE
  5
B192
330
18
100
AcDbEntity
  8
01
100
AcDbLine
 10
5418.825536290234
 20
851.7434913144102
 30
0.0000000001127424
 11
5418.825526420192
 21
851.7434469262294
 31
0.0000000001127424
  0
LINE
  5
B193
330
18
100
AcDbEntity
  8
01
100
AcDbLine
 10
5418.825526420192
 20
851.7434469262294
 30
0.0000000001127424
 11
5418.825515521188
 21
851.7434122294048
 31
0.0000000001127424
  0
LINE
  5
B194
330
18
100
AcDbEntity
  8
01
100
AcDbLine
 10
5418.825515521188
 20
851.7434122294048
 30
0.0000000001127424
 11
5418.825501551071
 21
851.743376297919
 31
0.0000000001127424
  0
LINE
  5
B195
330
18
100
AcDbEntity
  8
01
100
AcDbLine
 10
5419.259448954242
 20
828.6308734518384
 30
0.0000000001127424
 11
5419.218127909176
 21
828.5380316075675
 31
0.0000000001127424
  0
LINE
  5
B196
330
18
100
AcDbEntity
  8
01
100
AcDbLine
 10
5419.218127909176
 20
828.5380316075675
 30
0.0000000001127424
 11
5419.17023728191
 21
828.448142316191
 31
0.0000000001127424
  0
LINE
  5
B197
330
18
100
AcDbEntity
  8
01
100
AcDbLine
 10
5419.17023728191
 20
828.448142316191
 30
0.0000000001127424
 11
5419.11644908474
 21
828.3613944022732
 31
0.0000000001127424
  0
LINE
  5
B198
330
18
100
AcDbEntity
  8
01
100
AcDbLine
 10
5419.11644908474
 20
828.3613944022732
 30
0.0000000001127424
 11
5419.057435329958
 21
828.27797669038
 31
0.0000000001127424
  0
LINE
  5
B199
330
18
100
AcDbEntity
  8
01
100
AcDbLine
 10
5419.057435329958
 20
828.27797669038
 30
0.0000000001127424
 11
5418.993868029861
 21
828.1980780050758
 31
0.0000000001127424
  0
LINE
  5
B19A
330
18
100
AcDbEntity
  8
01
100
AcDbLine
 10
5418.993868029861
 20
828.1980780050758
 30
0.0000000001127424
 11
5418.875359927135
 21
828.0687537051649
 31
0.0000000001127424
  0
LINE
  5
B19B
330
18
100
AcDbEntity
  8
01
100
AcDbLine
 10
5418.875359927135
 20
828.0687537051649
 30
0.0000000001127424
 11
5418.680868699636
 21
827.8921824168224
 31
0.0000000001127424
  0
LINE
  5
B19C
330
18
100
AcDbEntity
  8
01
100
AcDbLine
 10
5418.680868699636
 20
827.8921824168224
 30
0.0000000001127424
 11
5418.505791452328
 21
827.7566066271488
 31
0.0000000001127424
  0
LINE
  5
B19D
330
18
100
AcDbEntity
  8
01
100
AcDbLine
 10
5418.505791452328
 20
827.7566066271488
 30
0.0000000001127424
 11
5418.323088433604
 21
827.6314376345149
 31
0.0000000001127424
  0
LINE
  5
B19E
330
18
100
AcDbEntity
  8
01
100
AcDbLine
 10
5418.323088433604
 20
827.6314376345149
 30
0.0000000001127424
 11
5417.912169313564
 21
827.3923997250054
 31
0.0000000001127424
  0
LINE
  5
B19F
330
18
100
AcDbEntity
  8
01
100
AcDbLine
 10
5417.912169313564
 20
827.3923997250054
 30
0.0000000001127424
 11
5417.446406225877
 21
827.1704690547281
 31
0.0000000001127424
  0
LINE
  5
B1A0
330
18
100
AcDbEntity
  8
01
100
AcDbLine
 10
5417.446406225877
 20
827.1704690547281
 30
0.0000000001127424
 11
5416.930111554948
 21
826.9652310301722
 31
0.0000000001127424
  0
LINE
  5
B1A1
330
18
100
AcDbEntity
  8
01
100
AcDbLine
 10
5416.930111554948
 20
826.9652310301722
 30
0.0000000001127424
 11
5416.351104365206
 21
826.7679987770907
 31
0.0000000001127424
  0
LINE
  5
B1A2
330
18
100
AcDbEntity
  8
01
100
AcDbLine
 10
5380.991264533037
 20
820.4651385737093
 30
0.0000000001127424
 11
5380.658882330888
 21
820.4612361384065
 31
0.0000000001127424
  0
LINE
  5
B1A3
330
18
100
AcDbEntity
  8
01
100
AcDbLine
 10
5380.658882330888
 20
820.4612361384065
 30
0.0000000001127424
 11
5380.203895758623
 21
820.4663859797151
 31
0.0000000001127424
  0
LINE
  5
B1A4
330
18
100
AcDbEntity
  8
01
100
AcDbLine
 10
5380.203895758623
 20
820.4663859797151
 30
0.0000000001127424
 11
5379.639457892412
 21
820.4758941126497
 31
0.0000000001127424
  0
LINE
  5
B1A5
330
18
100
AcDbEntity
  8
01
100
AcDbLine
 10
5379.639457892412
 20
820.4758941126497
 30
0.0000000001127424
 11
5378.988517951006
 21
820.4848662806185
 31
0.0000000001127424
  0
LINE
  5
B1A6
330
18
100
AcDbEntity
  8
01
100
AcDbLine
 10
5378.988517951006
 20
820.4848662806185
 30
0.0000000001127424
 11
5378.281074713701
 21
820.4881640864046
 31
0.0000000001127424
  0
LINE
  5
B1A7
330
18
100
AcDbEntity
  8
01
100
AcDbLine
 10
5378.281074713701
 20
820.4881640864046
 30
0.0000000001127424
 11
5377.549980353349
 21
820.4820529413851
 31
0.0000000001127424
  0
LINE
  5
B1A8
330
18
100
AcDbEntity
  8
01
100
AcDbLine
 10
5377.549980353349
 20
820.4820529413851
 30
0.0000000001127424
 11
5376.830192755693
 21
820.464739937845
 31
0.0000000001127424
  0
LINE
  5
B1A9
330
18
100
AcDbEntity
  8
01
100
AcDbLine
 10
5376.830192755693
 20
820.464739937845
 30
0.0000000001127424
 11
5376.155662726396
 21
820.4373923731478
 31
0.0000000001127424
  0
LINE
  5
B1AA
330
18
100
AcDbEntity
  8
01
100
AcDbLine
 10
5376.155662726396
 20
820.4373923731478
 30
0.0000000001127424
 11
5375.558418463701
 21
820.4034358454378
 31
0.0000000001127424
  0
LINE
  5
B1AB
330
18
100
AcDbEntity
  8
01
100
AcDbLine
 10
5375.558418463701
 20
820.4034358454378
 30
0.0000000001127424
 11
5375.065178107256
 21
820.3689662409456
 31
0.0000000001127424
  0
LINE
  5
B1AC
330
18
100
AcDbEntity
  8
01
100
AcDbLine
 10
5375.065178107256
 20
820.3689662409456
 30
0.0000000001127424
 11
5374.695549201006
 21
820.3412352991731
 31
0.0000000001127424
  0
LINE
  5
B1AD
330
18
100
AcDbEntity
  8
01
100
AcDbLine
 10
5374.695549201006
 20
820.3412352991731
 30
0.0000000001127424
 11
5374.439827155107
 21
820.3276378107698
 31
0.0000000001127424
  0
LINE
  5
B1AE
330
18
100
AcDbEntity
  8
01
100
AcDbLine
 10
5372.277565192217
 20
820.3199950647981
 30
0.0000000001127424
 11
5373.087089728349
 21
820.3210612726839
 31
0.0000000001127424
  0
LINE
  5
B1AF
330
18
100
AcDbEntity
  8
01
100
AcDbLine
 10
5373.087089728349
 20
820.3210612726839
 30
0.0000000001127424
 11
5374.439827155107
 21
820.3276378107698
 31
0.0000000001127424
  0
LINE
  5
B1B0
330
18
100
AcDbEntity
  8
01
100
AcDbLine
 10
5380.991264533037
 20
820.4651385737093
 30
0.0000000001127424
 11
5384.525032233232
 21
820.6379214716585
 31
0.0000000001127424
  0
LINE
  5
B1B1
330
18
100
AcDbEntity
  8
01
100
AcDbLine
 10
5384.525032233232
 20
820.6379214716585
 30
0.0000000001127424
 11
5388.013527106279
 21
820.9010516596468
 31
0.0000000001127424
  0
LINE
  5
B1B2
330
18
100
AcDbEntity
  8
01
100
AcDbLine
 10
5388.013527106279
 20
820.9010516596468
 30
0.0000000001127424
 11
5391.459114264482
 21
821.2654792261751
 31
0.0000000001127424
  0
LINE
  5
B1B3
330
18
100
AcDbEntity
  8
01
100
AcDbLine
 10
5391.459114264482
 20
821.2654792261751
 30
0.0000000001127424
 11
5394.880226325029
 21
821.7413703394564
 31
0.0000000001127424
  0
LINE
  5
B1B4
330
18
100
AcDbEntity
  8
01
100
AcDbLine
 10
5394.880226325029
 20
821.7413703394564
 30
0.0000000001127424
 11
5398.294639777178
 21
822.3324252558382
 31
0.0000000001127424
  0
LINE
  5
B1B5
330
18
100
AcDbEntity
  8
01
100
AcDbLine
 10
5398.294639777178
 20
822.3324252558382
 30
0.0000000001127424
 11
5401.693748663896
 21
823.0083705378206
 31
0.0000000001127424
  0
LINE
  5
B1B6
330
18
100
AcDbEntity
  8
01
100
AcDbLine
 10
5401.693748663896
 20
823.0083705378206
 30
0.0000000001127424
 11
5405.031913947099
 21
823.7270232630403
 31
0.0000000001127424
  0
LINE
  5
B1B7
330
18
100
AcDbEntity
  8
01
100
AcDbLine
 10
5405.031913947099
 20
823.7270232630403
 30
0.0000000001127424
 11
5408.269081305498
 21
824.510487694803
 31
0.0000000001127424
  0
LINE
  5
B1B8
330
18
100
AcDbEntity
  8
01
100
AcDbLine
 10
5408.269081305498
 20
824.510487694803
 30
0.0000000001127424
 11
5411.464653204912
 21
825.3515750361116
 31
0.0000000001127424
  0
LINE
  5
B1B9
330
18
100
AcDbEntity
  8
01
100
AcDbLine
 10
5411.464653204912
 20
825.3515750361116
 30
0.0000000001127424
 11
5414.633103652358
 21
826.2454617860335
 31
0.0000000001127424
  0
LINE
  5
B1BA
330
18
100
AcDbEntity
  8
01
100
AcDbLine
 10
5544.73728428569
 20
959.5522222020268
 30
0.0000000001127424
 11
5557.056829989674
 21
959.1295029001594
 31
0.0000000001127424
  0
LINE
  5
B1BB
330
18
100
AcDbEntity
  8
01
100
AcDbLine
 10
5557.056829989674
 20
959.1295029001594
 30
0.0000000001127424
 11
5569.501119557408
 21
958.9773044272893
 31
0.0000000001127424
  0
LINE
  5
B1BC
330
18
100
AcDbEntity
  8
01
100
AcDbLine
 10
5569.501119557408
 20
958.9773044272893
 30
0.0000000001127424
 11
5582.028830082693
 21
959.0203032844706
 31
0.0000000001127424
  0
LINE
  5
B1BD
330
18
100
AcDbEntity
  8
01
100
AcDbLine
 10
5582.028830082693
 20
959.0203032844706
 30
0.0000000001127424
 11
5594.6177253236
 21
959.1812718598858
 31
0.0000000001127424
  0
LINE
  5
B1BE
330
18
100
AcDbEntity
  8
01
100
AcDbLine
 10
5594.6177253236
 20
959.1812718598858
 30
0.0000000001127424
 11
5607.249088401711
 21
959.3857935776668
 31
0.0000000001127424
  0
LINE
  5
B1BF
330
18
100
AcDbEntity
  8
01
100
AcDbLine
 10
5607.249088401711
 20
959.3857935776668
 30
0.0000000001127424
 11
5619.889103382451
 21
959.5898713893403
 31
0.0000000001127424
  0
LINE
  5
B1C0
330
18
100
AcDbEntity
  8
01
100
AcDbLine
 10
5619.889103382451
 20
959.5898713893403
 30
0.0000000001127424
 11
5632.531800152034
 21
959.7688544296402
 31
0.0000000001127424
  0
LINE
  5
B1C1
330
18
100
AcDbEntity
  8
01
100
AcDbLine
 10
5493.814210212988
 20
936.482471942682
 30
0.0000000001127424
 11
5493.72125277464
 21
936.5216373465942
 31
0.0000000001127424
  0
LINE
  5
B1C2
330
18
100
AcDbEntity
  8
01
100
AcDbLine
 10
5493.72125277464
 20
936.5216373465942
 30
0.0000000001127424
 11
5493.63067545498
 21
936.5664296093873
 31
0.0000000001127424
  0
LINE
  5
B1C3
330
18
100
AcDbEntity
  8
01
100
AcDbLine
 10
5493.63067545498
 20
936.5664296093873
 30
0.0000000001127424
 11
5493.542675476698
 21
936.6164015629588
 31
0.0000000001127424
  0
LINE
  5
B1C4
330
18
100
AcDbEntity
  8
01
100
AcDbLine
 10
5493.542675476698
 20
936.6164015629588
 30
0.0000000001127424
 11
5493.375196435037
 21
936.7300958700271
 31
0.0000000001127424
  0
LINE
  5
B1C5
330
18
100
AcDbEntity
  8
01
100
AcDbLine
 10
5493.375196435037
 20
936.7300958700271
 30
0.0000000001127424
 11
5493.218988944475
 21
936.8601330717793
 31
0.0000000001127424
  0
LINE
  5
B1C6
330
18
100
AcDbEntity
  8
01
100
AcDbLine
 10
5493.218988944475
 20
936.8601330717793
 30
0.0000000001127424
 11
5493.109542790383
 21
936.9661404151534
 31
0.0000000001127424
  0
LINE
  5
B1C7
330
18
100
AcDbEntity
  8
01
100
AcDbLine
 10
5493.109542790383
 20
936.9661404151534
 30
0.0000000001127424
 11
5493.006147541037
 21
937.0780724320125
 31
0.0000000001127424
  0
LINE
  5
B1C8
330
18
100
AcDbEntity
  8
01
100
AcDbLine
 10
5493.006147541037
 20
937.0780724320125
 30
0.0000000001127424
 11
5492.874297477621
 21
937.2381305223394
 31
0.0000000001127424
  0
LINE
  5
B1C9
330
18
100
AcDbEntity
  8
01
100
AcDbLine
 10
5492.874297477621
 20
937.2381305223394
 30
0.0000000001127424
 11
5492.6945173668
 21
937.4918527605773
 31
0.0000000001127424
  0
LINE
  5
B1CA
330
18
100
AcDbEntity
  8
01
100
AcDbLine
 10
5492.6945173668
 20
937.4918527605773
 30
0.0000000001127424
 11
5492.555038336519
 21
937.7216938714068
 31
0.0000000001127424
  0
LINE
  5
B1CB
330
18
100
AcDbEntity
  8
01
100
AcDbLine
 10
5492.555038336519
 20
937.7216938714068
 30
0.0000000001127424
 11
5492.428687945739
 21
937.9590411965946
 31
0.0000000001127424
  0
LINE
  5
B1CC
330
18
100
AcDbEntity
  8
01
100
AcDbLine
 10
5492.428687945739
 20
937.9590411965946
 30
0.0000000001127424
 11
5492.201109533925
 21
938.4725051214064
 31
0.0000000001127424
  0
LINE
  5
B1CD
330
18
100
AcDbEntity
  8
01
100
AcDbLine
 10
5492.201109533925
 20
938.4725051214064
 30
0.0000000001127424
 11
5492.009885451801
 21
939.0248701775213
 31
0.0000000001127424
  0
LINE
  5
B1CE
330
18
100
AcDbEntity
  8
01
100
AcDbLine
 10
5492.009885451801
 20
939.0248701775213
 30
0.0000000001127424
 11
5491.853630578041
 21
939.6063576277547
 31
0.0000000001127424
  0
LINE
  5
B1CF
330
18
100
AcDbEntity
  8
01
100
AcDbLine
 10
5545.994867982045
 20
835.3183230371988
 30
0.0000000001127424
 11
5550.737683246169
 21
836.7117859326067
 31
0.0000000001127424
  0
LINE
  5
B1D0
330
18
100
AcDbEntity
  8
01
100
AcDbLine
 10
5550.737683246169
 20
836.7117859326067
 30
0.0000000001127424
 11
5554.320983973125
 21
837.6656468037672
 31
0.0000000001127424
  0
LINE
  5
B1D1
330
18
100
AcDbEntity
  8
01
100
AcDbLine
 10
5554.320983973125
 20
837.6656468037672
 30
0.0000000001127424
 11
5557.923706880431
 21
838.5433681069817
 31
0.0000000001127424
  0
LINE
  5
B1D2
330
18
100
AcDbEntity
  8
01
100
AcDbLine
 10
5557.923706880431
 20
838.5433681069817
 30
0.0000000001127424
 11
5562.753661584663
 21
839.5991381747231
 31
0.0000000001127424
  0
LINE
  5
B1D3
330
18
100
AcDbEntity
  8
01
100
AcDbLine
 10
5562.753661584663
 20
839.5991381747231
 30
0.0000000001127424
 11
5570.044840575822
 21
840.9527858215793
 31
0.0000000001127424
  0
LINE
  5
B1D4
330
18
100
AcDbEntity
  8
01
100
AcDbLine
 10
5570.044840575822
 20
840.9527858215793
 30
0.0000000001127424
 11
5574.93139408035
 21
841.7110363873526
 31
0.0000000001127424
  0
LINE
  5
B1D5
330
18
100
AcDbEntity
  8
01
100
AcDbLine
 10
5574.93139408035
 20
841.7110363873526
 30
0.0000000001127424
 11
5582.292251241738
 21
842.6203192866769
 31
0.0000000001127424
  0
LINE
  5
B1D6
330
18
100
AcDbEntity
  8
01
100
AcDbLine
 10
5582.292251241738
 20
842.6203192866769
 30
0.0000000001127424
 11
5587.216657247608
 21
843.0655657350549
 31
0.0000000001127424
  0
LINE
  5
B1D7
330
18
100
AcDbEntity
  8
01
100
AcDbLine
 10
5587.216657247608
 20
843.0655657350549
 30
0.0000000001127424
 11
5594.620168977825
 21
843.509150490177
 31
0.0000000001127424
  0
LINE
  5
B1D8
330
18
100
AcDbEntity
  8
01
100
AcDbLine
 10
5594.620168977825
 20
843.509150490177
 30
0.0000000001127424
 11
5600.797349652158
 21
843.7032191698468
 31
0.0000000001127424
  0
LINE
  5
B1D9
330
18
100
AcDbEntity
  8
01
100
AcDbLine
 10
5600.797349652158
 20
843.7032191698468
 30
0.0000000001127424
 11
5606.977083510032
 21
843.7909737214491
 31
0.0000000001127424
  0
LINE
  5
B1DA
330
18
100
AcDbEntity
  8
01
100
AcDbLine
 10
5606.977083510032
 20
843.7909737214491
 30
0.0000000001127424
 11
5613.157327450598
 21
843.8350834989174
 31
0.0000000001127424
  0
LINE
  5
B1DB
330
18
100
AcDbEntity
  8
01
100
AcDbLine
 10
5613.157327450598
 20
843.8350834989174
 30
0.0000000001127424
 11
5619.3297747757
 21
843.921902807369
 31
0.0000000001127424
  0
LINE
  5
B1DC
330
18
100
AcDbEntity
  8
01
100
AcDbLine
 10
5619.3297747757
 20
843.921902807369
 30
0.0000000001127424
 11
5631.632396935875
 21
844.2139364395089
 31
0.0000000001127424
  0
LINE
  5
B1DD
330
18
100
AcDbEntity
  8
01
100
AcDbLine
 10
5518.394128050999
 20
846.241362578462
 30
0.0000000001127424
 11
5520.682734982497
 21
846.6910771787193
 31
0.0000000001127424
  0
LINE
  5
B1DE
330
18
100
AcDbEntity
  8
01
100
AcDbLine
 10
5520.682734982497
 20
846.6910771787193
 30
0.0000000001127424
 11
5523.477874178668
 21
847.1954844686784
 31
0.0000000001127424
  0
LINE
  5
B1DF
330
18
100
AcDbEntity
  8
01
100
AcDbLine
 10
5523.477874178668
 20
847.1954844686784
 30
0.0000000001127424
 11
5526.755717838966
 21
847.7567508838761
 31
0.0000000001127424
  0
LINE
  5
B1E0
330
18
100
AcDbEntity
  8
01
100
AcDbLine
 10
5526.755717838966
 20
847.7567508838761
 30
0.0000000001127424
 11
5530.458875204056
 21
848.3572303796536
 31
0.0000000001127424
  0
LINE
  5
B1E1
330
18
100
AcDbEntity
  8
01
100
AcDbLine
 10
5530.458875204056
 20
848.3572303796536
 30
0.0000000001127424
 11
5534.504071925537
 21
848.9817903460207
 31
0.0000000001127424
  0
LINE
  5
B1E2
330
18
100
AcDbEntity
  8
01
100
AcDbLine
 10
5534.504071925537
 20
848.9817903460207
 30
0.0000000001127424
 11
5538.782659918102
 21
849.6269097364916
 31
0.0000000001127424
  0
LINE
  5
B1E3
330
18
100
AcDbEntity
  8
01
100
AcDbLine
 10
5538.782659918102
 20
849.6269097364916
 30
0.0000000001127424
 11
5543.179977940045
 21
850.2934565204487
 31
0.0000000001127424
  0
LINE
  5
B1E4
330
18
100
AcDbEntity
  8
01
100
AcDbLine
 10
5528.477423659305
 20
827.9640425209654
 30
0.0000000001127424
 11
5526.514197854126
 21
826.8918630466355
 31
0.0000000001127424
  0
LINE
  5
B1E5
330
18
100
AcDbEntity
  8
01
100
AcDbLine
 10
5526.514197854126
 20
826.8918630466355
 30
0.0000000001127424
 11
5525.052939147573
 21
826.0078935676556
 31
0.0000000001127424
  0
LINE
  5
B1E6
330
18
100
AcDbEntity
  8
01
100
AcDbLine
 10
5525.052939147573
 20
826.0078935676556
 30
0.0000000001127424
 11
5523.868432034152
 21
825.2291924226274
 31
0.0000000001127424
  0
LINE
  5
B1E7
330
18
100
AcDbEntity
  8
01
100
AcDbLine
 10
5523.868432034152
 20
825.2291924226274
 30
0.0000000001127424
 11
5522.818470115979
 21
824.495956702569
 31
0.0000000001127424
  0
LINE
  5
B1E8
330
18
100
AcDbEntity
  8
01
100
AcDbLine
 10
5522.818470115979
 20
824.495956702569
 30
0.0000000001127424
 11
5522.310898711487
 21
824.1308306042997
 31
0.0000000001127424
  0
LINE
  5
B1E9
330
18
100
AcDbEntity
  8
01
100
AcDbLine
 10
5522.310898711487
 20
824.1308306042997
 30
0.0000000001127424
 11
5521.797081953427
 21
823.7568890403099
 31
0.0000000001127424
  0
LINE
  5
B1EA
330
18
100
AcDbEntity
  8
01
100
AcDbLine
 10
5521.797081953427
 20
823.7568890403099
 30
0.0000000001127424
 11
5521.529441105146
 21
823.562839497959
 31
0.0000000001127424
  0
LINE
  5
B1EB
330
18
100
AcDbEntity
  8
01
100
AcDbLine
 10
5521.529441105146
 20
823.562839497959
 30
0.0000000001127424
 11
5521.251384223895
 21
823.3618635870575
 31
0.0000000001127424
  0
LINE
  5
B1EC
330
18
100
AcDbEntity
  8
01
100
AcDbLine
 10
5521.251384223895
 20
823.3618635870575
 30
0.0000000001127424
 11
5520.964182720944
 21
823.1525577928824
 31
0.0000000001127424
  0
LINE
  5
B1ED
330
18
100
AcDbEntity
  8
01
100
AcDbLine
 10
5520.964182720944
 20
823.1525577928824
 30
0.0000000001127424
 11
5520.667250307396
 21
822.934940066159
 31
0.0000000001127424
  0
LINE
  5
B1EE
330
18
100
AcDbEntity
  8
01
100
AcDbLine
 10
5520.667250307396
 20
822.934940066159
 30
0.0000000001127424
 11
5520.352922736692
 21
822.7138323313707
 31
0.0000000001127424
  0
LINE
  5
B1EF
330
18
100
AcDbEntity
  8
01
100
AcDbLine
 10
5520.352922736692
 20
822.7138323313707
 30
0.0000000001127424
 11
5520.186389103741
 21
822.6037830649702
 31
0.0000000001127424
  0
LINE
  5
B1F0
330
18
100
AcDbEntity
  8
01
100
AcDbLine
 10
5520.186389103741
 20
822.6037830649702
 30
0.0000000001127424
 11
5520.015211651859
 21
822.4929190989687
 31
0.0000000001127424
  0
LINE
  5
B1F1
330
18
100
AcDbEntity
  8
01
100
AcDbLine
 10
5520.015211651859
 20
822.4929190989687
 30
0.0000000001127424
 11
5519.847797367421
 21
822.3754870729631
 31
0.0000000001127424
  0
LINE
  5
B1F2
330
18
100
AcDbEntity
  8
01
100
AcDbLine
 10
5519.847797367421
 20
822.3754870729631
 30
0.0000000001127424
 11
5519.691173189867
 21
822.2466918169448
 31
0.0000000001127424
  0
LINE
  5
B1F3
330
18
100
AcDbEntity
  8
01
100
AcDbLine
 10
5519.691173189867
 20
822.2466918169448
 30
0.0000000001127424
 11
5519.610734826346
 21
822.1805859803417
 31
0.0000000001127424
  0
LINE
  5
B1F4
330
18
100
AcDbEntity
  8
01
100
AcDbLine
 10
5519.610734826346
 20
822.1805859803417
 30
0.0000000001127424
 11
5519.526497873192
 21
822.1195510034254
 31
0.0000000001127424
  0
LINE
  5
B1F5
330
18
100
AcDbEntity
  8
01
100
AcDbLine
 10
5519.526497873192
 20
822.1195510034254
 30
0.0000000001127424
 11
5519.4462769027
 21
822.0727024385096
 31
0.0000000001127424
  0
LINE
  5
B1F6
330
18
100
AcDbEntity
  8
01
100
AcDbLine
 10
5519.4462769027
 20
822.0727024385096
 30
0.0000000001127424
 11
5519.383144486025
 21
822.0431162735131
 31
0.0000000001127424
  0
LINE
  5
B1F7
330
18
100
AcDbEntity
  8
01
100
AcDbLine
 10
5519.383144486025
 20
822.0431162735131
 30
0.0000000001127424
 11
5519.317973848324
 21
822.0187584355522
 31
0.0000000001127424
  0
LINE
  5
B1F8
330
18
100
AcDbEntity
  8
01
100
AcDbLine
 10
5518.393337979021
 20
846.2411965271381
 30
0.0000000001127424
 11
5515.711578655058
 21
845.642933182241
 31
0.0000000001127424
  0
LINE
  5
B1F9
330
18
100
AcDbEntity
  8
01
100
AcDbLine
 10
5515.711578655058
 20
845.642933182241
 30
0.0000000001127424
 11
5513.049871682491
 21
844.9615356395389
 31
0.0000000001127424
  0
LINE
  5
B1FA
330
18
100
AcDbEntity
  8
01
100
AcDbLine
 10
5513.049871682491
 20
844.9615356395389
 30
0.0000000001127424
 11
5510.39472881025
 21
844.1741166557613
 31
0.0000000001127424
  0
LINE
  5
B1FB
330
18
100
AcDbEntity
  8
01
100
AcDbLine
 10
5510.39472881025
 20
844.1741166557613
 30
0.0000000001127424
 11
5507.976196885193
 21
843.3683776639477
 31
0.0000000001127424
  0
LINE
  5
B1FC
330
18
100
AcDbEntity
  8
01
100
AcDbLine
 10
5507.976196885193
 20
843.3683776639477
 30
0.0000000001127424
 11
5503.266566621528
 21
841.6162145476228
 31
0.0000000001127424
  0
LINE
  5
B1FD
330
18
100
AcDbEntity
  8
01
100
AcDbLine
 10
5503.266566621528
 20
841.6162145476228
 30
0.0000000001127424
 11
5501.580719121623
 21
840.941953573807
 31
0.0000000001127424
  0
LINE
  5
B1FE
330
18
100
AcDbEntity
  8
01
100
AcDbLine
 10
5501.580719121623
 20
840.941953573807
 30
0.0000000001127424
 11
5500.666843852174
 21
840.5743011723985
 31
0.0000000001127424
  0
LINE
  5
B1FF
330
18
100
AcDbEntity
  8
01
100
AcDbLine
 10
5500.666843852174
 20
840.5743011723985
 30
0.0000000001127424
 11
5499.000335064901
 21
839.8975406313134
 31
0.0000000001127424
  0
LINE
  5
B200
330
18
100
AcDbEntity
  8
01
100
AcDbLine
 10
5499.000335064901
 20
839.8975406313134
 30
0.0000000001127424
 11
5496.762414054924
 21
838.9212206415204
 31
0.0000000001127424
  0
LINE
  5
B201
330
18
100
AcDbEntity
  8
01
100
AcDbLine
 10
5496.762414054924
 20
838.9212206415204
 30
0.0000000001127424
 11
5495.543185402415
 21
838.329704685626
 31
0.0000000001127424
  0
LINE
  5
B202
330
18
100
AcDbEntity
  8
01
100
AcDbLine
 10
5495.543185402415
 20
838.329704685626
 30
0.0000000001127424
 11
5494.347753777366
 21
837.6914043801694
 31
0.0000000001127424
  0
LINE
  5
B203
330
18
100
AcDbEntity
  8
01
100
AcDbLine
 10
5494.347753777366
 20
837.6914043801694
 30
0.0000000001127424
 11
5493.401207693562
 21
837.134263156373
 31
0.0000000001127424
  0
LINE
  5
B204
330
18
100
AcDbEntity
  8
01
100
AcDbLine
 10
5493.401207693562
 20
837.134263156373
 30
0.0000000001127424
 11
5492.029795267824
 21
836.2215603171439
 31
0.0000000001127424
  0
LINE
  5
B205
330
18
100
AcDbEntity
  8
01
100
AcDbLine
 10
5492.029795267824
 20
836.2215603171439
 30
0.0000000001127424
 11
5491.236947283735
 21
835.6212695478807
 31
0.0000000001127424
  0
LINE
  5
B206
330
18
100
AcDbEntity
  8
01
100
AcDbLine
 10
5491.236947283735
 20
835.6212695478807
 30
0.0000000001127424
 11
5490.108420159927
 21
834.64696434909
 31
0.0000000001127424
  0
LINE
  5
B207
330
18
100
AcDbEntity
  8
01
100
AcDbLine
 10
5490.108420159927
 20
834.64696434909
 30
0.0000000001127424
 11
5489.416977497343
 21
833.9651656193664
 31
0.0000000001127424
  0
LINE
  5
B208
330
18
100
AcDbEntity
  8
01
100
AcDbLine
 10
5489.416977497343
 20
833.9651656193664
 30
0.0000000001127424
 11
5488.894364315439
 21
833.4035855722104
 31
0.0000000001127424
  0
LINE
  5
B209
330
18
100
AcDbEntity
  8
01
  6
BYBLOCK
100
AcDbLine
 10
5477.580882818132
 20
854.8738585539753
 30
0.0000000002254849
 11
5478.277550712131
 21
857.4738585539753
 31
0.0000000002254849
  0
LINE
  5
B20A
330
18
100
AcDbEntity
  8
01
  6
BYBLOCK
100
AcDbLine
 10
5478.277550712131
 20
857.4738585539753
 30
0.0000000002254849
 11
5478.974218606131
 21
854.8738585539753
 31
0.0000000002254849
  0
LINE
  5
B20B
330
18
100
AcDbEntity
  8
01
  6
BYBLOCK
100
AcDbLine
 10
5478.277550712131
 20
857.4738585539753
 30
0.0000000002254849
 11
5478.277550712131
 21
854.8738585539753
 31
0.0000000002254849
  0
LINE
  5
B20C
330
18
100
AcDbEntity
  8
01
  6
BYBLOCK
100
AcDbLine
 10
5478.974218606131
 20
810.0738585539763
 30
0.0000000002254849
 11
5478.277550712131
 21
807.4738585539762
 31
0.0000000002254849
  0
LINE
  5
B20D
330
18
100
AcDbEntity
  8
01
  6
BYBLOCK
100
AcDbLine
 10
5478.277550712131
 20
807.4738585539762
 30
0.0000000002254849
 11
5477.580882818132
 21
810.0738585539763
 31
0.0000000002254849
  0
LINE
  5
B20E
330
18
100
AcDbEntity
  8
01
  6
BYBLOCK
100
AcDbLine
 10
5478.277550712131
 20
807.4738585539762
 30
0.0000000002254849
 11
5478.277550712131
 21
810.0738585539763
 31
0.0000000002254849
  0
TEXT
  5
B20F
330
18
100
AcDbEntity
  8
01
  6
CONTINUOUS
100
AcDbText
 10
5477.367550712132
 20
824.2743556473761
 30
0.0000000002254849
 40
4.55
  1
φ50
 50
90.0
100
AcDbText
1001
ACAD
1000
DSTYLE
1002
{
1070
     3
1000
φ<>
1070
    40
1040
1.3
1070
    45
1040
0.5
1002
}
  0
LINE
  5
B210
330
18
100
AcDbEntity
  8
1DIM
100
AcDbLine
 10
5513.277550712131
 20
970.9725402408726
 30
0.0000000002254849
 11
5513.277550712131
 21
906.1725402408726
 31
0.0000000002254849
1001
ACAD
1000
DSTYLE
1002
{
1070
    40
1040
1.3
1070
    45
1040
121.0
1002
}
  0
LINE
  5
B211
330
18
100
AcDbEntity
  8
1DIM
100
AcDbLine
 10
5634.611088428344
 20
957.7740256224356
 30
0.0000000002254849
 11
5634.611088428344
 21
906.1725402408726
 31
0.0000000002254849
1001
ACAD
1000
DSTYLE
1002
{
1070
    40
1040
1.3
1070
    45
1040
121.0
1002
}
  0
LINE
  5
B212
330
18
100
AcDbEntity
  8
1DIM
100
AcDbLine
 10
5515.877550712132
 20
907.4725402408726
 30
0.0000000002254849
 11
5632.011088428344
 21
907.4725402408726
 31
0.0000000002254849
1001
ACAD
1000
DSTYLE
1002
{
1070
    40
1040
1.3
1070
    45
1040
121.0
1002
}
  0
LINE
  5
B216
330
18
100
AcDbEntity
  8
1DIM
100
AcDbLine
 10
5488.291926607712
 20
983.4725371410286
 30
0.0000000002254849
 11
5488.291926607712
 21
896.1725402408726
 31
0.0000000002254849
1001
ACAD
1000
DSTYLE
1002
{
1070
    40
1040
1.3
1070
    45
1040
0.5
1002
}
  0
LINE
  5
B217
330
18
100
AcDbEntity
  8
1DIM
100
AcDbLine
 10
5634.611088428344
 20
957.7740256224356
 30
0.0000000002254849
 11
5634.611088428344
 21
896.1725402408726
 31
0.0000000002254849
1001
ACAD
1000
DSTYLE
1002
{
1070
    40
1040
1.3
1070
    45
1040
0.5
1002
}
  0
LINE
  5
B218
330
18
100
AcDbEntity
  8
1DIM
100
AcDbLine
 10
5490.891926607713
 20
897.4725402408726
 30
0.0000000002254849
 11
5632.011088428344
 21
897.4725402408726
 31
0.0000000002254849
1001
ACAD
1000
DSTYLE
1002
{
1070
    40
1040
1.3
1070
    45
1040
0.5
1002
}
  0
LINE
  5
B21C
330
18
100
AcDbEntity
  8
1DIM
100
AcDbLine
 10
5632.834021943168
 20
959.7512408700973
 30
0.0000000002254849
 11
5669.577550712132
 21
959.7512408700973
 31
0.0000000002254849
1001
ACAD
1000
DSTYLE
1002
{
1070
    40
1040
1.3
1070
    45
1040
0.5
1002
}
  0
LINE
  5
B21D
330
18
100
AcDbEntity
  8
1DIM
100
AcDbLine
 10
5616.03269870948
 20
992.4725402408726
 30
0.0000000002254849
 11
5669.577550712132
 21
992.4725402408726
 31
0.0000000002254849
1001
ACAD
1000
DSTYLE
1002
{
1070
    40
1040
1.3
1070
    45
1040
0.5
1002
}
  0
LINE
  5
B21E
330
18
100
AcDbEntity
  8
1DIM
100
AcDbLine
 10
5668.277550712131
 20
962.3512408700973
 30
0.0000000002254849
 11
5668.277550712131
 21
989.8725402408726
 31
0.0000000002254849
1001
ACAD
1000
DSTYLE
1002
{
1070
    40
1040
1.3
1070
    45
1040
0.5
1002
}
  0
LINE
  5
B222
330
18
100
AcDbEntity
  8
1DIM
100
AcDbLine
 10
5631.46552103983
 20
935.2950986861338
 30
0.0000000002254849
 11
5679.577550712132
 21
935.2950986861338
 31
0.0000000002254849
1001
ACAD
1000
DSTYLE
1002
{
1070
    40
1040
1.3
1070
    45
1040
0.5
1002
}
  0
LINE
  5
B223
330
18
100
AcDbEntity
  8
1DIM
100
AcDbLine
 10
5616.03269870948
 20
992.4725402408726
 30
0.0000000002254849
 11
5679.577550712132
 21
992.4725402408726
 31
0.0000000002254849
1001
ACAD
1000
DSTYLE
1002
{
1070
    40
1040
1.3
1070
    45
1040
0.5
1002
}
  0
LINE
  5
B224
330
18
100
AcDbEntity
  8
1DIM
100
AcDbLine
 10
5678.277550712131
 20
937.8950986861338
 30
0.0000000002254849
 11
5678.277550712131
 21
989.8725402408726
 31
0.0000000002254849
1001
ACAD
1000
DSTYLE
1002
{
1070
    40
1040
1.3
1070
    45
1040
0.5
1002
}
  0
LINE
  5
B228
330
18
100
AcDbEntity
  8
1DIM
100
AcDbLine
 10
5514.799786172861
 20
820.4297588039785
 30
0.0000000002254849
 11
5669.577550712132
 21
820.4297588039785
 31
0.0000000002254849
1001
ACAD
1000
DSTYLE
1002
{
1070
    40
1040
1.3
1070
   271
1070
     1
1002
}
  0
LINE
  5
B229
330
18
100
AcDbEntity
  8
1DIM
100
AcDbLine
 10
5631.523657495111
 20
855.6965289184604
 30
0.0000000002254849
 11
5669.577550712132
 21
855.6965289184604
 31
0.0000000002254849
1001
ACAD
1000
DSTYLE
1002
{
1070
    40
1040
1.3
1070
   271
1070
     1
1002
}
  0
LINE
  5
B22A
330
18
100
AcDbEntity
  8
1DIM
100
AcDbLine
 10
5668.277550712131
 20
823.0297588039786
 30
0.0000000002254849
 11
5668.277550712131
 21
853.0965289184604
 31
0.0000000002254849
1001
ACAD
1000
DSTYLE
1002
{
1070
    40
1040
1.3
1070
   271
1070
     1
1002
}
  0
LINE
  5
B22E
330
18
100
AcDbEntity
  8
0
  6
BYBLOCK
100
AcDbLine
 10
5515.877550712132
 20
906.7758723468726
 30
0.0000000002254849
 11
5513.277550712131
 21
907.4725402408726
 31
0.0000000002254849
  0
LINE
  5
B22F
330
18
100
AcDbEntity
  8
0
  6
BYBLOCK
100
AcDbLine
 10
5513.277550712131
 20
907.4725402408726
 30
0.0000000002254849
 11
5515.877550712132
 21
908.1692081348726
 31
0.0000000002254849
  0
LINE
  5
B230
330
18
100
AcDbEntity
  8
0
  6
BYBLOCK
100
AcDbLine
 10
5513.277550712131
 20
907.4725402408726
 30
0.0000000002254849
 11
5515.877550712132
 21
907.4725402408726
 31
0.0000000002254849
  0
LINE
  5
B231
330
18
100
AcDbEntity
  8
0
  6
BYBLOCK
100
AcDbLine
 10
5632.011088428344
 20
908.1692081348726
 30
0.0000000002254849
 11
5634.611088428344
 21
907.4725402408726
 31
0.0000000002254849
  0
LINE
  5
B232
330
18
100
AcDbEntity
  8
0
  6
BYBLOCK
100
AcDbLine
 10
5634.611088428344
 20
907.4725402408726
 30
0.0000000002254849
 11
5632.011088428344
 21
906.7758723468726
 31
0.0000000002254849
  0
LINE
  5
B233
330
18
100
AcDbEntity
  8
0
  6
BYBLOCK
100
AcDbLine
 10
5634.611088428344
 20
907.4725402408726
 30
0.0000000002254849
 11
5632.011088428344
 21
907.4725402408726
 31
0.0000000002254849
  0
TEXT
  5
B234
330
18
100
AcDbEntity
  8
1DIM
  6
CONTINUOUS
100
AcDbText
 10
5569.394319570238
 20
908.3825402408726
 30
0.0000000002254849
 40
4.55
  1
121
100
AcDbText
1001
ACAD
1000
DSTYLE
1002
{
1070
    40
1040
1.3
1070
    45
1040
121.0
1002
}
  0
LINE
  5
B235
330
18
100
AcDbEntity
  8
0
  6
BYBLOCK
100
AcDbLine
 10
5490.891926607713
 20
896.7758723468726
 30
0.0000000002254849
 11
5488.291926607712
 21
897.4725402408726
 31
0.0000000002254849
  0
LINE
  5
B236
330
18
100
AcDbEntity
  8
0
  6
BYBLOCK
100
AcDbLine
 10
5488.291926607712
 20
897.4725402408726
 30
0.0000000002254849
 11
5490.891926607713
 21
898.1692081348726
 31
0.0000000002254849
  0
LINE
  5
B237
330
18
100
AcDbEntity
  8
0
  6
BYBLOCK
100
AcDbLine
 10
5488.291926607712
 20
897.4725402408726
 30
0.0000000002254849
 11
5490.891926607713
 21
897.4725402408726
 31
0.0000000002254849
  0
LINE
  5
B238
330
18
100
AcDbEntity
  8
0
  6
BYBLOCK
100
AcDbLine
 10
5632.011088428344
 20
898.1692081348726
 30
0.0000000002254849
 11
5634.611088428344
 21
897.4725402408726
 31
0.0000000002254849
  0
LINE
  5
B239
330
18
100
AcDbEntity
  8
0
  6
BYBLOCK
100
AcDbLine
 10
5634.611088428344
 20
897.4725402408726
 30
0.0000000002254849
 11
5632.011088428344
 21
896.7758723468726
 31
0.0000000002254849
  0
LINE
  5
B23A
330
18
100
AcDbEntity
  8
0
  6
BYBLOCK
100
AcDbLine
 10
5634.611088428344
 20
897.4725402408726
 30
0.0000000002254849
 11
5632.011088428344
 21
897.4725402408726
 31
0.0000000002254849
  0
TEXT
  5
B23B
330
18
100
AcDbEntity
  8
1DIM
  6
CONTINUOUS
100
AcDbText
 10
5553.09404224025
 20
898.3825402408726
 30
0.0000000002254849
 40
4.55
  1
146.5
100
AcDbText
1001
ACAD
1000
DSTYLE
1002
{
1070
    40
1040
1.3
1070
    45
1040
0.5
1002
}
  0
LINE
  5
B23C
330
18
100
AcDbEntity
  8
0
  6
BYBLOCK
100
AcDbLine
 10
5668.974218606131
 20
962.3512408700973
 30
0.0000000002254849
 11
5668.277550712131
 21
959.7512408700973
 31
0.0000000002254849
  0
LINE
  5
B23D
330
18
100
AcDbEntity
  8
0
  6
BYBLOCK
100
AcDbLine
 10
5668.277550712131
 20
959.7512408700973
 30
0.0000000002254849
 11
5667.580882818132
 21
962.3512408700973
 31
0.0000000002254849
  0
LINE
  5
B23E
330
18
100
AcDbEntity
  8
0
  6
BYBLOCK
100
AcDbLine
 10
5668.277550712131
 20
959.7512408700973
 30
0.0000000002254849
 11
5668.277550712131
 21
962.3512408700973
 31
0.0000000002254849
  0
LINE
  5
B23F
330
18
100
AcDbEntity
  8
0
  6
BYBLOCK
100
AcDbLine
 10
5667.580882818132
 20
989.8725402408726
 30
0.0000000002254849
 11
5668.277550712131
 21
992.4725402408726
 31
0.0000000002254849
  0
LINE
  5
B240
330
18
100
AcDbEntity
  8
0
  6
BYBLOCK
100
AcDbLine
 10
5668.277550712131
 20
992.4725402408726
 30
0.0000000002254849
 11
5668.974218606131
 21
989.8725402408726
 31
0.0000000002254849
  0
LINE
  5
B241
330
18
100
AcDbEntity
  8
0
  6
BYBLOCK
100
AcDbLine
 10
5668.277550712131
 20
992.4725402408726
 30
0.0000000002254849
 11
5668.277550712131
 21
989.8725402408726
 31
0.0000000002254849
  0
TEXT
  5
B242
330
18
100
AcDbEntity
  8
1DIM
  6
CONTINUOUS
100
AcDbText
 10
5667.367550712132
 20
969.286890555486
 30
0.0000000002254849
 40
4.55
  1
32.5
 50
90.0
100
AcDbText
1001
ACAD
1000
DSTYLE
1002
{
1070
    40
1040
1.3
1070
    45
1040
0.5
1002
}
  0
LINE
  5
B243
330
18
100
AcDbEntity
  8
0
  6
BYBLOCK
100
AcDbLine
 10
5678.974218606131
 20
937.8950986861338
 30
0.0000000002254849
 11
5678.277550712131
 21
935.2950986861338
 31
0.0000000002254849
  0
LINE
  5
B244
330
18
100
AcDbEntity
  8
0
  6
BYBLOCK
100
AcDbLine
 10
5678.277550712131
 20
935.2950986861338
 30
0.0000000002254849
 11
5677.580882818132
 21
937.8950986861338
 31
0.0000000002254849
  0
LINE
  5
B245
330
18
100
AcDbEntity
  8
0
  6
BYBLOCK
100
AcDbLine
 10
5678.277550712131
 20
935.2950986861338
 30
0.0000000002254849
 11
5678.277550712131
 21
937.8950986861338
 31
0.0000000002254849
  0
LINE
  5
B246
330
18
100
AcDbEntity
  8
0
  6
BYBLOCK
100
AcDbLine
 10
5677.580882818132
 20
989.8725402408726
 30
0.0000000002254849
 11
5678.277550712131
 21
992.4725402408726
 31
0.0000000002254849
  0
LINE
  5
B247
330
18
100
AcDbEntity
  8
0
  6
BYBLOCK
100
AcDbLine
 10
5678.277550712131
 20
992.4725402408726
 30
0.0000000002254849
 11
5678.974218606131
 21
989.8725402408726
 31
0.0000000002254849
  0
LINE
  5
B248
330
18
100
AcDbEntity
  8
0
  6
BYBLOCK
100
AcDbLine
 10
5678.277550712131
 20
992.4725402408726
 30
0.0000000002254849
 11
5678.277550712131
 21
989.8725402408726
 31
0.0000000002254849
  0
TEXT
  5
B249
330
18
100
AcDbEntity
  8
1DIM
  6
CONTINUOUS
100
AcDbText
 10
5677.367550712131
 20
960.0763541857259
 30
0.0000000002254849
 40
4.55
  1
57
 50
90.0
100
AcDbText
1001
ACAD
1000
DSTYLE
1002
{
1070
    40
1040
1.3
1070
    45
1040
0.5
1002
}
  0
LINE
  5
B24A
330
18
100
AcDbEntity
  8
0
  6
BYBLOCK
100
AcDbLine
 10
5668.974218606131
 20
823.0297588039786
 30
0.0000000002254849
 11
5668.277550712131
 21
820.4297588039785
 31
0.0000000002254849
  0
LINE
  5
B24B
330
18
100
AcDbEntity
  8
0
  6
BYBLOCK
100
AcDbLine
 10
5668.277550712131
 20
820.4297588039785
 30
0.0000000002254849
 11
5667.580882818132
 21
823.0297588039786
 31
0.0000000002254849
  0
LINE
  5
B24C
330
18
100
AcDbEntity
  8
0
  6
BYBLOCK
100
AcDbLine
 10
5668.277550712131
 20
820.4297588039785
 30
0.0000000002254849
 11
5668.277550712131
 21
823.0297588039786
 31
0.0000000002254849
  0
LINE
  5
B24D
330
18
100
AcDbEntity
  8
0
  6
BYBLOCK
100
AcDbLine
 10
5667.580882818132
 20
853.0965289184604
 30
0.0000000002254849
 11
5668.277550712131
 21
855.6965289184604
 31
0.0000000002254849
  0
LINE
  5
B24E
330
18
100
AcDbEntity
  8
0
  6
BYBLOCK
100
AcDbLine
 10
5668.277550712131
 20
855.6965289184604
 30
0.0000000002254849
 11
5668.974218606131
 21
853.0965289184604
 31
0.0000000002254849
  0
LINE
  5
B24F
330
18
100
AcDbEntity
  8
0
  6
BYBLOCK
100
AcDbLine
 10
5668.277550712131
 20
855.6965289184604
 30
0.0000000002254849
 11
5668.277550712131
 21
853.0965289184604
 31
0.0000000002254849
  0
TEXT
  5
B250
330
18
100
AcDbEntity
  8
1DIM
  6
CONTINUOUS
100
AcDbText
 10
5667.367550712131
 20
834.2714771945521
 30
0.0000000002254849
 40
4.55
  1
35
 50
90.0
100
AcDbText
1001
ACAD
1000
DSTYLE
1002
{
1070
    40
1040
1.3
1070
   271
1070
     1
1002
}
  0
VIEWPORT
  5
57
330
15
100
AcDbEntity
 67
     1
  8
0
100
AcDbViewport
 68
     1
 10
0.0
 20
0.0
 30
0.0
 40
663.4332925336597
 41
297.0
 68
     1
 69
     1
1001
ACAD
1000
MVIEW
1002
{
1070
    16
1010
0.0
1020
0.0
1030
0.0
1010
0.0
1020
0.0
1030
1.0
1040
0.0
1040
297.0
1040
5.728000000000009
1040
25.339
1040
50.0
1040
0.0
1040
0.0
1070
    16
1070
   100
1070
     0
1070
     1
1070
     0
1070
     0
1070
     0
1070
     0
1040
0.0
1040
0.0
1040
0.0
1040
10.0
1040
10.0
1040
10.0
1040
10.0
1070
     0
1002
{
1002
}
1002
}
  0
ENDSEC
  0
SECTION
  2
OBJECTS
  0
DICTIONARY
  5
C
330
0
100
AcDbDictionary
  3
ACAD_COLOR
350
18D
  3
ACAD_GROUP
350
D
  3
ACAD_LAYOUT
350
18E
  3
ACAD_MATERIAL
350
18C
  3
ACAD_MLEADERSTYLE
350
9583
  3
ACAD_MLINESTYLE
350
1B
  3
ACAD_PLOTSETTINGS
350
18F
  3
ACAD_SCALELIST
350
9561
  3
ACAD_VISUALSTYLE
350
9550
  3
ACDBHEADERROUNDTRIPXREC
350
B251
  3
ACDBVARIABLEDICTIONARY
350
37
  3
AEC_PROPERTY_SET_DEFS
350
AF64
  3
CONTENTDICTIONARY
350
D8
  3
DRAWINGVARIABLESDICT
350
20
  3
DWGPROPS
350
B254
1001
ACAD
1000
TREAT_AS_HARD
1070
     0
  0
DICTIONARY
  5
96D9
330
2
100
AcDbDictionary
  3
ACAD_LAYERSTATES
360
96DA
1001
ACAD
1000
TREAT_AS_HARD
1070
     1
  0
DICTIONARY
  5
9593
330
E
100
AcDbDictionary
  3
ADSK_XREC_LAYER_RECONCILED
360
9594
1001
ACAD
1000
TREAT_AS_HARD
1070
     1
  0
DICTIONARY
  5
9595
330
29
100
AcDbDictionary
  3
ADSK_XREC_LAYER_RECONCILED
360
9596
1001
ACAD
1000
TREAT_AS_HARD
1070
     1
  0
DICTIONARY
  5
9597
330
31
100
AcDbDictionary
  3
ADSK_XREC_LAYER_RECONCILED
360
9598
1001
ACAD
1000
TREAT_AS_HARD
1070
     1
  0
DICTIONARY
  5
959D
330
243
100
AcDbDictionary
  3
ADSK_XREC_LAYER_RECONCILED
360
959E
1001
ACAD
1000
TREAT_AS_HARD
1070
     1
  0
DICTIONARY
  5
95A3
330
24E
100
AcDbDictionary
  3
ADSK_XREC_LAYER_RECONCILED
360
95A4
1001
ACAD
1000
TREAT_AS_HARD
1070
     1
  0
DICTIONARY
  5
88F
330
18
100
AcDbDictionary
  3
ACAD_SORTENTS
360
890
1001
ACAD
1000
TREAT_AS_HARD
1070
     1
  0
DICTIONARY
  5
18D
102
{ACAD_REACTORS
330
C
102
}
330
C
100
AcDbDictionary
1001
ACAD
1000
TREAT_AS_HARD
1070
     0
  0
DICTIONARY
  5
D
102
{ACAD_REACTORS
330
C
102
}
330
C
100
AcDbDictionary
1001
ACAD
1000
TREAT_AS_HARD
1070
     0
  0
DICTIONARY
  5
18E
102
{ACAD_REACTORS
330
C
102
}
330
C
100
AcDbDictionary
1001
ACAD
1000
TREAT_AS_HARD
1070
     0
  0
DICTIONARY
  5
18C
102
{ACAD_REACTORS
330
C
102
}
330
C
100
AcDbDictionary
  3
BYBLOCK
350
9540
  3
BYLAYER
350
9538
  3
GLOBAL
350
9548
1001
ACAD
1000
TREAT_AS_HARD
1070
     0
  0
DICTIONARY
  5
9583
102
{ACAD_REACTORS
330
C
102
}
330
C
100
AcDbDictionary
  3
STANDARD
350
9584
1001
ACAD
1000
TREAT_AS_HARD
1070
     0
  0
DICTIONARY
  5
1B
102
{ACAD_REACTORS
330
C
102
}
330
C
100
AcDbDictionary
  3
STANDARD
350
1C
1001
ACAD
1000
TREAT_AS_HARD
1070
     0
  0
DICTIONARY
  5
18F
102
{ACAD_REACTORS
330
C
102
}
330
C
100
AcDbDictionary
1001
ACAD
1000
TREAT_AS_HARD
1070
     0
  0
DICTIONARY
  5
9561
102
{ACAD_REACTORS
330
C
102
}
330
C
100
AcDbDictionary
  3
A0
350
9562
  3
A1
350
9563
  3
A2
350
9564
  3
A3
350
9565
  3
A4
350
9566
  3
A5
350
9567
  3
A6
350
9568
  3
A7
350
9569
  3
A8
350
956A
  3
A9
350
956B
  3
B0
350
956C
  3
B1
350
956D
  3
B2
350
956E
  3
B3
350
956F
  3
B4
350
9570
  3
B5
350
9571
  3
B6
350
9572
  3
B7
350
9573
  3
B8
350
9574
  3
B9
350
9575
  3
C0
350
9576
  3
C1
350
9577
  3
C2
350
9578
  3
C3
350
9579
  3
C4
350
957A
  3
C5
350
957B
  3
C6
350
957C
  3
C7
350
957D
  3
C8
350
957E
  3
C9
350
957F
  3
D0
350
9580
  3
D1
350
9581
  3
D2
350
9582
1001
ACAD
1000
TREAT_AS_HARD
1070
     0
  0
DICTIONARY
  5
9550
102
{ACAD_REACTORS
330
C
102
}
330
C
100
AcDbDictionary
  3
2DWIREFRAME
350
9556
  3
3D_HIDDEN
350
9558
  3
3DWIREFRAME
350
9557
  3
BASIC
350
9555
  3
BRIGHTEN
350
955C
  3
COLORCHANGE
350
9560
  3
CONCEPTUAL
350
9559
  3
DIM
350
955B
  3
EDGECOLOROFF
350
A211
  3
FACEPATTERN
350
955F
  3
FLAT
350
9551
  3
FLATWITHEDGES
350
9552
  3
GOURAUD
350
9553
  3
GOURAUDWITHEDGES
350
9554
  3
HIDDEN
350
A260
  3
JITTEROFF
350
A20F
  3
LINEPATTERN
350
955E
  3
MODELING
350
A266
  3
OVERHANGOFF
350
A210
  3
REALISTIC
350
955A
  3
SHADED
350
A265
  3
SHADED_WITH_EDGES
350
A264
  3
SHADES_OF_GRAY
350
A261
  3
SKETCHY
350
A262
  3
THICKEN
350
955D
  3
WIREFRAME
350
A25F
  3
X-RAY
350
A263
1001
ACAD
1000
TREAT_AS_HARD
1070
     0
  0
DICTIONARY
  5
B251
102
{ACAD_REACTORS
330
C
102
}
330
C
100
AcDbDictionary
  3
COLORDICT
350
B252
  3
MATERIALDICT
350
B253
1001
ACAD
1000
TREAT_AS_HARD
1070
     0
  0
DICTIONARY
  5
37
102
{ACAD_REACTORS
330
C
102
}
330
C
100
AcDbDictionary
  3
CANNOSCALE
350
B083
  3
CMLEADERSTYLE
350
9627
  3
CTABLESTYLE
350
29E
  3
DIMADEC
350
38
  3
DIMASSOC
350
1CE
  3
HIDETEXT
350
704E
  3
INDEXCTL
350
962A
  3
INTERSECTIONCOLOR
350
7052
  3
INTERSECTIONDISPLAY
350
7051
  3
MSLTSCALE
350
AB30
  3
OBSCOLOR
350
704F
  3
OBSLTYPE
350
7050
  3
PROJECTNAME
350
1CF
  3
SORTENTS
350
9629
  3
XCLIPFRAME
350
B063
1001
ACAD
1000
TREAT_AS_HARD
1070
     0
  0
DICTIONARY
  5
AF64
102
{ACAD_REACTORS
330
C
102
}
330
C
100
AcDbDictionary
1001
ACAD
1000
TREAT_AS_HARD
1070
     0
  0
DICTIONARY
  5
D8
102
{ACAD_REACTORS
330
C
102
}
330
C
100
AcDbDictionary
1001
ACAD
1000
TREAT_AS_HARD
1070
     0
  0
DICTIONARY
  5
20
102
{ACAD_REACTORS
330
C
102
}
330
C
100
AcDbDictionary
1001
DRAWINGVARIABLESXDATA
1000
POLARANG
1000
0.261799387799149410000000
1000
POLARMODE
1000
1
1000
POLARSTYLE
1000
1
1001
ACAD
1000
TREAT_AS_HARD
1070
     0
  0
XRECORD
  5
B254
102
{ACAD_REACTORS
330
C
102
}
330
C
100
AcDbXrecord
  1
DWGPROPS COOKIE
  2

  3

  4

  6

  7

  8
3684
  9

300
=
301
=
302
=
303
=
304
=
305
=
306
=
307
=
308
=
309
=
 40
0.0
 41
2451318.246352917
 42
2458152.256209005
  1

 90
        0
  0
DICTIONARY
  5
96DA
102
{ACAD_REACTORS
330
96D9
102
}
330
96D9
100
AcDbDictionary
1001
ACAD
1000
TREAT_AS_HARD
1070
     0
  0
ACAD_PROXY_OBJECT
  5
9594
102
{ACAD_REACTORS
330
9593
102
}
330
9593
100
AcDbZombieObject
 90
      499
 91
      516
 93
       34
310
40C8804040
  0
ACAD_PROXY_OBJECT
  5
9596
102
{ACAD_REACTORS
330
9595
102
}
330
9595
100
AcDbZombieObject
 90
      499
 91
      516
 93
       34
310
40C8804040
  0
ACAD_PROXY_OBJECT
  5
9598
102
{ACAD_REACTORS
330
9597
102
}
330
9597
100
AcDbZombieObject
 90
      499
 91
      516
 93
       34
310
40C8804040
  0
ACAD_PROXY_OBJECT
  5
959E
102
{ACAD_REACTORS
330
959D
102
}
330
959D
100
AcDbZombieObject
 90
      499
 91
      516
 93
       34
310
40C8804040
  0
ACAD_PROXY_OBJECT
  5
95A4
102
{ACAD_REACTORS
330
95A3
102
}
330
95A3
100
AcDbZombieObject
 90
      499
 91
      516
 93
       34
310
40C8804040
  0
SORTENTSTABLE
  5
890
102
{ACAD_REACTORS
330
88F
102
}
330
88F
100
AcDbSortentsTable
330
18
331
AF6F
  5
AF7C
331
AF70
  5
AF7D
331
AF71
  5
AF7E
331
AF72
  5
AF7F
331
AF73
  5
AF80
331
AF74
  5
AF81
331
AF75
  5
AF82
331
AF76
  5
AF83
331
AF77
  5
AF84
331
AF78
  5
AF85
331
0
  5
AF86
331
0
  5
AF87
331
0
  5
AF88
331
0
  5
AF89
331
AF7D
  5
B0FE
331
AF7E
  5
B0FF
331
AF7F
  5
B100
331
AF80
  5
B101
331
AF81
  5
B102
331
AF82
  5
B103
331
AF83
  5
B104
331
AF84
  5
B105
331
AF85
  5
B106
331
AF86
  5
B107
331
AF87
  5
B108
331
AF88
  5
B109
331
AF89
  5
B10A
331
AF8A
  5
B10B
331
AF8B
  5
B10C
331
AF8C
  5
B10D
331
AF8D
  5
B10E
331
AF90
  5
B167
331
AF92
  5
B1A2
331
AF94
  5
B1B0
331
AF95
  5
B1B1
331
AF96
  5
B1B2
331
AF97
  5
B1B3
331
AF98
  5
B1B4
331
AF99
  5
B1B5
331
AF9D
  5
B1CE
331
AF9E
  5
B1CF
331
AF9F
  5
B1D0
331
AFA0
  5
B1D1
331
AFA2
  5
B1D9
331
AFA4
  5
B1E8
331
AFA5
  5
B1E9
331
AFA6
  5
B1EA
331
AFA7
  5
B1EB
331
AFA8
  5
B1EC
331
AFA9
  5
B1ED
331
AFAA
  5
B1EE
331
AFAB
  5
B1EF
331
AFAC
  5
B1F0
331
AFAD
  5
B1F1
331
AFAE
  5
B1F2
331
AFAF
  5
B1F3
331
AFB0
  5
B1F4
331
AFB1
  5
B1F5
331
AFB2
  5
B1F6
331
AFB3
  5
B1F7
331
AFB4
  5
B1F8
331
AFB5
  5
B1F9
331
AFB6
  5
B1FA
331
AFB7
  5
B1FB
331
AFB8
  5
B1FC
331
AFB9
  5
B1FD
331
AFBB
  5
B20C
331
AFBC
  5
B20D
331
AFBD
  5
B20F
331
AFBE
  5
B210
331
AFBF
  5
B211
331
AFC0
  5
B212
331
AFC2
  5
B21A
331
AFC3
  5
B21B
331
AFC6
  5
B244
331
AFC7
  5
B245
331
0
  5
B20E
331
AFC9
  5
B250
331
B0FD
  5
AF6F
331
B0FE
  5
AF70
331
B0FF
  5
AF71
331
0
  5
AF72
331
0
  5
AF73
331
0
  5
AF74
331
B103
  5
B10F
331
B104
  5
B110
331
B105
  5
B111
331
B106
  5
B112
331
B107
  5
B113
331
B108
  5
B114
331
B109
  5
B115
331
B10A
  5
B116
331
B10B
  5
B117
331
B10C
  5
B118
331
B10D
  5
B119
331
B10E
  5
B11A
331
B10F
  5
B11B
331
B110
  5
B11C
331
B111
  5
B11D
331
B112
  5
B11E
331
B113
  5
B11F
331
B114
  5
B120
331
B115
  5
B121
331
B116
  5
B122
331
B117
  5
B123
331
B118
  5
B124
331
B119
  5
B125
331
B11A
  5
B126
331
B11B
  5
B127
331
B11C
  5
B128
331
B11D
  5
B129
331
B11E
  5
B12A
331
B11F
  5
B12B
331
B120
  5
B12C
331
B121
  5
B12D
331
B122
  5
B12E
331
B123
  5
B12F
331
B124
  5
B130
331
B125
  5
B131
331
B126
  5
B132
331
B127
  5
B133
331
B128
  5
B134
331
B129
  5
B135
331
B12A
  5
B136
331
B12B
  5
B137
331
B12C
  5
B138
331
B12D
  5
B139
331
B12E
  5
B13A
331
B12F
  5
B13B
331
B130
  5
B13C
331
B131
  5
B13D
331
B132
  5
B13E
331
B133
  5
B13F
331
B134
  5
B140
331
B135
  5
B141
331
B136
  5
B142
331
B137
  5
B143
331
B138
  5
B144
331
B139
  5
B145
331
B13A
  5
B146
331
B13B
  5
B147
331
B13C
  5
B148
331
B13D
  5
B149
331
B13E
  5
B14A
331
B13F
  5
B14B
331
B140
  5
B14C
331
B141
  5
B14D
331
B142
  5
B14E
331
B143
  5
B14F
331
B144
  5
B150
331
B145
  5
B151
331
B146
  5
B152
331
B147
  5
B153
331
B148
  5
B154
331
B149
  5
B155
331
B14A
  5
B156
331
B14B
  5
B157
331
B14C
  5
B158
331
B14D
  5
B159
331
B14E
  5
B15A
331
B14F
  5
B15B
331
B150
  5
B15C
331
B151
  5
B15D
331
B152
  5
B15E
331
B153
  5
B15F
331
B154
  5
B160
331
B155
  5
B161
331
B156
  5
B162
331
B157
  5
B163
331
B158
  5
B164
331
B159
  5
B165
331
B15A
  5
B166
331
B15B
  5
B168
331
B15C
  5
B169
331
B15D
  5
B16A
331
B15E
  5
B16B
331
B15F
  5
B16C
331
B160
  5
B16D
331
B161
  5
B16E
331
B162
  5
B16F
331
B163
  5
B170
331
B164
  5
B171
331
B165
  5
B172
331
B166
  5
B173
331
B167
  5
B174
331
B168
  5
B175
331
B169
  5
B176
331
B16A
  5
B177
331
B16B
  5
B178
331
B16C
  5
B179
331
B16D
  5
B17A
331
B16E
  5
B17B
331
B16F
  5
B17C
331
B170
  5
B17D
331
B171
  5
B17E
331
B172
  5
B17F
331
B173
  5
B180
331
B174
  5
B181
331
B175
  5
B182
331
B176
  5
B183
331
B177
  5
B184
331
B178
  5
B185
331
B179
  5
B186
331
B17A
  5
B187
331
B17B
  5
B188
331
B17C
  5
B189
331
B17D
  5
B18A
331
B17E
  5
B18B
331
B17F
  5
B18C
331
B180
  5
B18D
331
B181
  5
B18E
331
B182
  5
B18F
331
B183
  5
B190
331
B184
  5
B191
331
B185
  5
B192
331
B186
  5
B193
331
B187
  5
B194
331
B188
  5
B195
331
B189
  5
B196
331
B18A
  5
B197
331
B18B
  5
B198
331
B18C
  5
B199
331
B18D
  5
B19A
331
B18E
  5
B19B
331
B18F
  5
B19C
331
B190
  5
B19D
331
B191
  5
B19E
331
B192
  5
B19F
331
B193
  5
B1A0
331
B194
  5
B1A1
331
B195
  5
B1A3
331
B196
  5
B1A4
331
B197
  5
B1A5
331
B198
  5
B1A6
331
B199
  5
B1A7
331
B19A
  5
B1A8
331
B19B
  5
B1A9
331
B19C
  5
B1AA
331
B19D
  5
B1AB
331
B19E
  5
B1AC
331
B19F
  5
B1AD
331
B1A0
  5
B1AE
331
B1A1
  5
B1AF
331
B1A2
  5
B1B6
331
B1A3
  5
B1B7
331
B1A4
  5
B1B8
331
B1A5
  5
B1B9
331
B1A6
  5
B1BA
331
B1A7
  5
B1BB
331
B1A8
  5
B1BC
331
B1A9
  5
B1BD
331
B1AA
  5
B1BE
331
B1AB
  5
B1BF
331
B1AC
  5
B1C0
331
B1AD
  5
B1C1
331
B1AE
  5
B1C2
331
B1AF
  5
B1C3
331
B1B0
  5
B1C4
331
B1B1
  5
B1C5
331
B1B2
  5
B1C6
331
B1B3
  5
B1C7
331
B1B4
  5
B1C8
331
B1B5
  5
B1C9
331
B1B6
  5
B1CA
331
B1B7
  5
B1CB
331
B1B8
  5
B1CC
331
B1B9
  5
B1CD
331
B1BA
  5
B1D2
331
B1BB
  5
B1D3
331
B1BC
  5
B1D4
331
B1BD
  5
B1D5
331
B1BE
  5
B1D6
331
B1BF
  5
B1D7
331
B1C0
  5
B1D8
331
B1C1
  5
B1DA
331
B1C2
  5
B1DB
331
B1C3
  5
B1DC
331
B1C4
  5
B1DD
331
B1C5
  5
B1DE
331
B1C6
  5
B1DF
331
B1C7
  5
B1E0
331
B1C8
  5
B1E1
331
B1C9
  5
B1E2
331
B1CA
  5
B1E3
331
B1CB
  5
B1E4
331
B1CC
  5
B1E5
331
B1CD
  5
B1E6
331
B1CE
  5
B1E7
331
B1CF
  5
B1FE
331
B1D0
  5
B1FF
331
B1D1
  5
B200
331
B1D2
  5
B201
331
B1D3
  5
B202
331
B1D4
  5
B203
331
B1D5
  5
B204
331
B1D6
  5
B205
331
B1D7
  5
B206
331
B1D8
  5
B207
331
B1D9
  5
B208
331
B1DA
  5
B209
331
B1DB
  5
B20A
331
B1DC
  5
B20B
331
B1DD
  5
B213
331
B1DE
  5
B214
331
B1DF
  5
B215
331
B1E0
  5
B216
331
B1E1
  5
B217
331
B1E2
  5
B218
331
B1E3
  5
B219
331
B1E4
  5
B21C
331
B1E5
  5
B21D
331
B1E6
  5
B21E
331
B1E7
  5
B21F
331
B1E8
  5
B220
331
B1E9
  5
B221
331
B1EA
  5
B222
331
B1EB
  5
B223
331
B1EC
  5
B224
331
B1ED
  5
B225
331
B1EE
  5
B226
331
B1EF
  5
B227
331
B1F0
  5
B228
331
B1F1
  5
B229
331
B1F2
  5
B22D
331
B1F3
  5
B22E
331
B1F4
  5
B22F
331
B1F5
  5
B230
331
B1F6
  5
B231
331
B1F7
  5
B232
331
B1F8
  5
B233
331
B1F9
  5
B234
331
B1FA
  5
B235
331
B1FB
  5
B236
331
B1FC
  5
B237
331
B1FD
  5
B238
331
B1FE
  5
B239
331
B1FF
  5
B23A
331
B200
  5
B23B
331
B201
  5
B23C
331
B202
  5
B23D
331
B203
  5
B23E
331
B204
  5
B23F
331
B205
  5
B240
331
B206
  5
B241
331
B207
  5
B242
331
B208
  5
B243
331
B209
  5
AF75
331
B20A
  5
AF76
331
B20B
  5
AF77
331
B20C
  5
AF78
331
B20D
  5
AF79
331
B20E
  5
AF7A
331
B20F
  5
AF7B
331
B210
  5
AF8A
331
B211
  5
AF8B
331
B212
  5
AF8C
331
0
  5
AF8D
331
0
  5
AF90
331
0
  5
AF92
331
B216
  5
AFA6
331
B217
  5
AFA7
331
B218
  5
AFAB
331
0
  5
AF97
331
0
  5
AF98
331
0
  5
AF99
331
B21C
  5
AFB3
331
B21D
  5
AFB4
331
B21E
  5
AFB5
331
0
  5
AFA0
331
0
  5
AFA2
331
0
  5
AFA4
331
B222
  5
AFBE
331
B223
  5
AFBF
331
B224
  5
AFC0
331
0
  5
AFA8
331
0
  5
AFA9
331
0
  5
AFAA
331
B228
  5
B246
331
B229
  5
B247
331
B22A
  5
B248
331
0
  5
B22A
331
0
  5
B22B
331
0
  5
B22C
331
B22E
  5
AF94
331
B22F
  5
AF95
331
B230
  5
AF96
331
B231
  5
AF9D
331
B232
  5
AF9E
331
B233
  5
AF9F
331
B234
  5
AFA5
331
B235
  5
AFAC
331
B236
  5
AFAD
331
B237
  5
AFAE
331
B238
  5
AFAF
331
B239
  5
AFB0
331
B23A
  5
AFB1
331
B23B
  5
AFB2
331
B23C
  5
AFB6
331
B23D
  5
AFB7
331
B23E
  5
AFB8
331
B23F
  5
AFB9
331
B240
  5
AFBB
331
B241
  5
AFBC
331
B242
  5
AFBD
331
B243
  5
AFC2
331
B244
  5
AFC3
331
B245
  5
AFC6
331
B246
  5
AFC7
331
B247
  5
AFC8
331
B248
  5
AFC9
331
B249
  5
B0FD
331
B24A
  5
B249
331
B24B
  5
B24A
331
B24C
  5
B24B
331
B24D
  5
B24C
331
B24E
  5
B24D
331
B24F
  5
B24E
331
B250
  5
B24F
  0
MATERIAL
  5
9540
102
{ACAD_REACTORS
330
18C
102
}
102
{ACAD_XDICTIONARY
360
B3EF
102
}
330
18C
100
AcDbMaterial
  1
BYBLOCK
 72
     0
 73
     2
 43
0.0208333333333333
 43
0.0
 43
0.0
 43
0.0
 43
0.0
 43
0.0208333333333333
 43
0.0
 43
0.0
 43
0.0
 43
0.0
 43
1.0
 43
0.0
 43
0.0
 43
0.0
 43
0.0
 43
1.0
 77
     0
 78
     2
 47
0.0208333333333333
 47
0.0
 47
0.0
 47
0.0
 47
0.0
 47
0.0208333333333333
 47
0.0
 47
0.0
 47
0.0
 47
0.0
 47
1.0
 47
0.0
 47
0.0
 47
0.0
 47
0.0
 47
1.0
171
     0
172
     2
 49
0.0208333333333333
 49
0.0
 49
0.0
 49
0.0
 49
0.0
 49
0.0208333333333333
 49
0.0
 49
0.0
 49
0.0
 49
0.0
 49
1.0
 49
0.0
 49
0.0
 49
0.0
 49
0.0
 49
1.0
175
     0
176
     2
142
0.0208333333333333
142
0.0
142
0.0
142
0.0
142
0.0
142
0.0208333333333333
142
0.0
142
0.0
142
0.0
142
0.0
142
1.0
142
0.0
142
0.0
142
0.0
142
0.0
142
1.0
179
     0
270
     2
144
0.0208333333333333
144
0.0
144
0.0
144
0.0
144
0.0
144
0.0208333333333333
144
0.0
144
0.0
144
0.0
144
0.0
144
1.0
144
0.0
144
0.0
144
0.0
144
0.0
144
1.0
274
     2
147
0.0208333333333333
147
0.0
147
0.0
147
0.0
147
0.0
147
0.0208333333333333
147
0.0
147
0.0
147
0.0
147
0.0
147
1.0
147
0.0
147
0.0
147
0.0
147
0.0
147
1.0
  0
MATERIAL
  5
9538
102
{ACAD_REACTORS
330
18C
102
}
102
{ACAD_XDICTIONARY
360
B3F1
102
}
330
18C
100
AcDbMaterial
  1
BYLAYER
 72
     0
 73
     2
 43
0.0208333333333333
 43
0.0
 43
0.0
 43
0.0
 43
0.0
 43
0.0208333333333333
 43
0.0
 43
0.0
 43
0.0
 43
0.0
 43
1.0
 43
0.0
 43
0.0
 43
0.0
 43
0.0
 43
1.0
 77
     0
 78
     2
 47
0.0208333333333333
 47
0.0
 47
0.0
 47
0.0
 47
0.0
 47
0.0208333333333333
 47
0.0
 47
0.0
 47
0.0
 47
0.0
 47
1.0
 47
0.0
 47
0.0
 47
0.0
 47
0.0
 47
1.0
171
     0
172
     2
 49
0.0208333333333333
 49
0.0
 49
0.0
 49
0.0
 49
0.0
 49
0.0208333333333333
 49
0.0
 49
0.0
 49
0.0
 49
0.0
 49
1.0
 49
0.0
 49
0.0
 49
0.0
 49
0.0
 49
1.0
175
     0
176
     2
142
0.0208333333333333
142
0.0
142
0.0
142
0.0
142
0.0
142
0.0208333333333333
142
0.0
142
0.0
142
0.0
142
0.0
142
1.0
142
0.0
142
0.0
142
0.0
142
0.0
142
1.0
179
     0
270
     2
144
0.0208333333333333
144
0.0
144
0.0
144
0.0
144
0.0
144
0.0208333333333333
144
0.0
144
0.0
144
0.0
144
0.0
144
1.0
144
0.0
144
0.0
144
0.0
144
0.0
144
1.0
274
     2
147
0.0208333333333333
147
0.0
147
0.0
147
0.0
147
0.0
147
0.0208333333333333
147
0.0
147
0.0
147
0.0
147
0.0
147
1.0
147
0.0
147
0.0
147
0.0
147
0.0
147
1.0
  0
MATERIAL
  5
9548
102
{ACAD_REACTORS
330
18C
102
}
102
{ACAD_XDICTIONARY
360
B3F3
102
}
330
18C
100
AcDbMaterial
  1
GLOBAL
 72
     0
 73
     2
 43
0.0208333333333333
 43
0.0
 43
0.0
 43
0.0
 43
0.0
 43
0.0208333333333333
 43
0.0
 43
0.0
 43
0.0
 43
0.0
 43
1.0
 43
0.0
 43
0.0
 43
0.0
 43
0.0
 43
1.0
 77
     0
 78
     2
 47
0.0208333333333333
 47
0.0
 47
0.0
 47
0.0
 47
0.0
 47
0.0208333333333333
 47
0.0
 47
0.0
 47
0.0
 47
0.0
 47
1.0
 47
0.0
 47
0.0
 47
0.0
 47
0.0
 47
1.0
171
     0
172
     2
 49
0.0208333333333333
 49
0.0
 49
0.0
 49
0.0
 49
0.0
 49
0.0208333333333333
 49
0.0
 49
0.0
 49
0.0
 49
0.0
 49
1.0
 49
0.0
 49
0.0
 49
0.0
 49
0.0
 49
1.0
175
     0
176
     2
142
0.0208333333333333
142
0.0
142
0.0
142
0.0
142
0.0
142
0.0208333333333333
142
0.0
142
0.0
142
0.0
142
0.0
142
1.0
142
0.0
142
0.0
142
0.0
142
0.0
142
1.0
179
     0
270
     2
144
0.0208333333333333
144
0.0
144
0.0
144
0.0
144
0.0
144
0.0208333333333333
144
0.0
144
0.0
144
0.0
144
0.0
144
1.0
144
0.0
144
0.0
144
0.0
144
0.0
144
1.0
274
     2
147
0.0208333333333333
147
0.0
147
0.0
147
0.0
147
0.0
147
0.0208333333333333
147
0.0
147
0.0
147
0.0
147
0.0
147
1.0
147
0.0
147
0.0
147
0.0
147
0.0
147
1.0
  0
ACAD_PROXY_OBJECT
  5
9584
102
{ACAD_REACTORS
330
9583
102
}
330
9583
100
AcDbZombieObject
 90
      499
 91
      511
 93
      610
310
40901902A4063FBFFFFFE000000000000002040AD7A3703D0AD73F4214DD185B99185C990000000000000104090141901A00000000000004100000000000000041025764000000000000300FC0
340
12
340
0
340
F
340
0
 94
        0
1001
ACAD_MLEADERVER
1070
     2
  0
MLINESTYLE
  5
1C
102
{ACAD_REACTORS
330
1B
102
}
330
1B
100
AcDbMlineStyle
  2
STANDARD
 70
     0
  3

 62
   256
 51
90.0
 52
90.0
 71
     2
 49
0.5
 62
   256
  6
BYLAYER
 49
-0.5
 62
   256
  6
BYLAYER
  0
ACAD_PROXY_OBJECT
  5
9562
102
{ACAD_REACTORS
330
9561
102
}
330
9561
100
AcDbZombieObject
 90
      499
 91
      510
 93
       41
310
903313A31580
  0
ACAD_PROXY_OBJECT
  5
9563
102
{ACAD_REACTORS
330
9561
102
}
330
9561
100
AcDbZombieObject
 90
      499
 91
      510
 93
      105
310
903313A324000000000000004000
  0
ACAD_PROXY_OBJECT
  5
9564
102
{ACAD_REACTORS
330
9561
102
}
330
9561
100
AcDbZombieObject
 90
      499
 91
      510
 93
      105
310
903313A344000000000000104000
  0
ACAD_PROXY_OBJECT
  5
9565
102
{ACAD_REACTORS
330
9561
102
}
330
9561
100
AcDbZombieObject
 90
      499
 91
      510
 93
      105
310
903313A354000000000000144000
  0
ACAD_PROXY_OBJECT
  5
9566
102
{ACAD_REACTORS
330
9561
102
}
330
9561
100
AcDbZombieObject
 90
      499
 91
      510
 93
      105
310
903313A384000000000000204000
  0
ACAD_PROXY_OBJECT
  5
9567
102
{ACAD_REACTORS
330
9561
102
}
330
9561
100
AcDbZombieObject
 90
      499
 91
      510
 93
      113
310
904313A31304000000000000244000
  0
ACAD_PROXY_OBJECT
  5
9568
102
{ACAD_REACTORS
330
9561
102
}
330
9561
100
AcDbZombieObject
 90
      499
 91
      510
 93
      113
310
904313A31364000000000000304000
  0
ACAD_PROXY_OBJECT
  5
9569
102
{ACAD_REACTORS
330
9561
102
}
330
9561
100
AcDbZombieObject
 90
      499
 91
      510
 93
      113
310
904313A32304000000000000344000
  0
ACAD_PROXY_OBJECT
  5
956A
102
{ACAD_REACTORS
330
9561
102
}
330
9561
100
AcDbZombieObject
 90
      499
 91
      510
 93
      113
310
904313A333040000000000003E4000
  0
ACAD_PROXY_OBJECT
  5
956B
102
{ACAD_REACTORS
330
9561
102
}
330
9561
100
AcDbZombieObject
 90
      499
 91
      510
 93
      113
310
904313A34304000000000000444000
  0
ACAD_PROXY_OBJECT
  5
956C
102
{ACAD_REACTORS
330
9561
102
}
330
9561
100
AcDbZombieObject
 90
      499
 91
      510
 93
      113
310
904313A35304000000000000494000
  0
ACAD_PROXY_OBJECT
  5
956D
102
{ACAD_REACTORS
330
9561
102
}
330
9561
100
AcDbZombieObject
 90
      499
 91
      510
 93
      121
310
905313A3130304000000000000594000
  0
ACAD_PROXY_OBJECT
  5
956E
102
{ACAD_REACTORS
330
9561
102
}
330
9561
100
AcDbZombieObject
 90
      499
 91
      510
 93
      105
310
903323A310000000000000010100
  0
ACAD_PROXY_OBJECT
  5
956F
102
{ACAD_REACTORS
330
9561
102
}
330
9561
100
AcDbZombieObject
 90
      499
 91
      510
 93
      105
310
903343A310000000000000410100
  0
ACAD_PROXY_OBJECT
  5
9570
102
{ACAD_REACTORS
330
9561
102
}
330
9561
100
AcDbZombieObject
 90
      499
 91
      510
 93
      105
310
903383A310000000000000810100
  0
ACAD_PROXY_OBJECT
  5
9571
102
{ACAD_REACTORS
330
9561
102
}
330
9561
100
AcDbZombieObject
 90
      499
 91
      510
 93
      113
310
90431303A310000000000000910100
  0
ACAD_PROXY_OBJECT
  5
9572
102
{ACAD_REACTORS
330
9561
102
}
330
9561
100
AcDbZombieObject
 90
      499
 91
      510
 93
      121
310
9053130303A310000000000001650100
  0
ACAD_PROXY_OBJECT
  5
9573
102
{ACAD_REACTORS
330
9561
102
}
330
9561
100
AcDbZombieObject
 90
      499
 91
      510
 93
      257
310
90E312F31323822203D2031272D3022000000000000200FC000000000000284000
  0
ACAD_PROXY_OBJECT
  5
9574
102
{ACAD_REACTORS
330
9561
102
}
330
9561
100
AcDbZombieObject
 90
      499
 91
      510
 93
      249
310
90D312F363422203D2031272D3022000000000000240FC000000000000284000
  0
ACAD_PROXY_OBJECT
  5
9575
102
{ACAD_REACTORS
330
9561
102
}
330
9561
100
AcDbZombieObject
 90
      499
 91
      510
 93
      249
310
90D312F333222203D2031272D3022000000000000280FC000000000000284000
  0
ACAD_PROXY_OBJECT
  5
9576
102
{ACAD_REACTORS
330
9561
102
}
330
9561
100
AcDbZombieObject
 90
      499
 91
      510
 93
      249
310
90D312F313622203D2031272D30220000000000002C0FC000000000000284000
  0
ACAD_PROXY_OBJECT
  5
9577
102
{ACAD_REACTORS
330
9561
102
}
330
9561
100
AcDbZombieObject
 90
      499
 91
      510
 93
      249
310
90D332F333222203D2031272D30220000000000002E0FC000000000000284000
  0
ACAD_PROXY_OBJECT
  5
9578
102
{ACAD_REACTORS
330
9561
102
}
330
9561
100
AcDbZombieObject
 90
      499
 91
      510
 93
      241
310
90C312F3822203D2031272D3022000000000000300FC000000000000284000
  0
ACAD_PROXY_OBJECT
  5
9579
102
{ACAD_REACTORS
330
9561
102
}
330
9561
100
AcDbZombieObject
 90
      499
 91
      510
 93
      249
310
90D332F313622203D2031272D3022000000000000320FC000000000000284000
  0
ACAD_PROXY_OBJECT
  5
957A
102
{ACAD_REACTORS
330
9561
102
}
330
9561
100
AcDbZombieObject
 90
      499
 91
      510
 93
      241
310
90C312F3422203D2031272D3022000000000000340FC000000000000284000
  0
ACAD_PROXY_OBJECT
  5
957B
102
{ACAD_REACTORS
330
9561
102
}
330
9561
100
AcDbZombieObject
 90
      499
 91
      510
 93
      241
310
90C332F3822203D2031272D3022000000000000360FC000000000000284000
  0
ACAD_PROXY_OBJECT
  5
957C
102
{ACAD_REACTORS
330
9561
102
}
330
9561
100
AcDbZombieObject
 90
      499
 91
      510
 93
      241
310
90C312F3222203D2031272D3022000000000000380FC000000000000284000
  0
ACAD_PROXY_OBJECT
  5
957D
102
{ACAD_REACTORS
330
9561
102
}
330
9561
100
AcDbZombieObject
 90
      499
 91
      510
 93
      241
310
90C332F3422203D2031272D30220000000000003A0FC000000000000284000
  0
ACAD_PROXY_OBJECT
  5
957E
102
{ACAD_REACTORS
330
9561
102
}
330
9561
100
AcDbZombieObject
 90
      499
 91
      510
 93
      161
310
90A3122203D2031272D30224000000000000284000
  0
ACAD_PROXY_OBJECT
  5
957F
102
{ACAD_REACTORS
330
9561
102
}
330
9561
100
AcDbZombieObject
 90
      499
 91
      510
 93
      257
310
90E312D312F3222203D2031272D30220000000000003E0FC000000000000284000
  0
ACAD_PROXY_OBJECT
  5
9580
102
{ACAD_REACTORS
330
9561
102
}
330
9561
100
AcDbZombieObject
 90
      499
 91
      510
 93
      225
310
90A3322203D2031272D302200000000000002100000000000000284000
  0
ACAD_PROXY_OBJECT
  5
9581
102
{ACAD_REACTORS
330
9561
102
}
330
9561
100
AcDbZombieObject
 90
      499
 91
      510
 93
      225
310
90A3622203D2031272D302200000000000006100000000000000284000
  0
ACAD_PROXY_OBJECT
  5
9582
102
{ACAD_REACTORS
330
9561
102
}
330
9561
100
AcDbZombieObject
 90
      499
 91
      510
 93
      249
310
90D31272D3022203D2031272D30220000000000000A100000000000000284000
  0
ACAD_PROXY_OBJECT
  5
9556
102
{ACAD_REACTORS
330
9550
102
}
330
9550
100
AcDbZombieObject
 90
      499
 91
      509
 93
      436
310
42CC9915DA5C99599C985B595049028333333333333E3BF0000000000000FB0107901411070040501600405405064090741402480A0340
1001
ACAD
1000
AcDbSavedByObjectVersion
1070
     0
  0
ACAD_PROXY_OBJECT
  5
9558
102
{ACAD_REACTORS
330
9550
102
}
330
9550
100
AcDbZombieObject
 90
      499
 91
      509
 93
      500
310
424CD108121A5919195B90640502408333333333333E3BF0000000000000FB01079024090700405020000000000001110200405405064090740C02480A0340
1001
ACAD
1000
AcDbSavedByObjectVersion
1070
     0
  0
ACAD_PROXY_OBJECT
  5
9557
102
{ACAD_REACTORS
330
9550
102
}
330
9550
100
AcDbZombieObject
 90
      499
 91
      509
 93
      436
310
42CCD915DA5C99599C985B595059028333333333333E3BF0000000000000FB0107901411070040501600405405064090741402480A0340
1001
ACAD
1000
AcDbSavedByObjectVersion
1070
     0
  0
ACAD_PROXY_OBJECT
  5
9555
102
{ACAD_REACTORS
330
9550
102
}
330
9550
100
AcDbZombieObject
 90
      499
 91
      509
 93
      388
310
4150985CDA58D07406404333333333333E3BF0000000000000FB0107A41107004050150841D405064090741402480A0350
1001
ACAD
1000
AcDbSavedByObjectVersion
1070
     0
  0
ACAD_PROXY_OBJECT
  5
955C
102
{ACAD_REACTORS
330
9550
102
}
330
9550
100
AcDbZombieObject
 90
      499
 91
      509
 93
      428
310
42109C9A59DA1D195B90C409028333333333333E3BF0000000000000FB010790141107004050150841D405064090741402480A029950
1001
ACAD
1000
AcDbSavedByObjectVersion
1070
     0
  0
ACAD_PROXY_OBJECT
  5
9560
102
{ACAD_REACTORS
330
9550
102
}
330
9550
100
AcDbZombieObject
 90
      499
 91
      509
 93
      452
310
42D0DBDB1BDC90DA185B99D95104090240C333333333333E3BF0000000000000FB0108901411070040501508421405064090741402480A0350
1001
ACAD
1000
AcDbSavedByObjectVersion
1070
     0
  0
ACAD_PROXY_OBJECT
  5
9559
102
{ACAD_REACTORS
330
9550
102
}
330
9550
100
AcDbZombieObject
 90
      499
 91
      509
 93
      500
310
4290DBDB98D95C1D1D585B10940D028333333333333E3BF0000000000000FB0107902409070040501000000000000111010841D405064090740C02480A0340
1001
ACAD
1000
AcDbSavedByObjectVersion
1070
     0
  0
ACAD_PROXY_OBJECT
  5
955B
102
{ACAD_REACTORS
330
9550
102
}
330
9550
100
AcDbZombieObject
 90
      499
 91
      509
 93
      412
310
40D11A5B50B409028333333333333E3BF0000000000000FB010790141107004050150841D405064090741402480A02677FFFFFD0
1001
ACAD
1000
AcDbSavedByObjectVersion
1070
     0
  0
ACAD_PROXY_OBJECT
  5
A211
102
{ACAD_REACTORS
330
9550
102
}
330
9550
100
AcDbZombieObject
 90
      499
 91
      509
 93
      452
310
43115919D950DBDB1BDC93D999916409028333333333333E3BF0000000000000FB010790141107004050150841D405064090741402480A0350
1001
ACAD
1000
AcDbSavedByObjectVersion
1070
     0
  0
ACAD_PROXY_OBJECT
  5
955F
102
{ACAD_REACTORS
330
9550
102
}
330
9550
100
AcDbZombieObject
 90
      499
 91
      509
 93
      444
310
42D19858D95C185D1D195C9B90F409028333333333333E3BF0000000000000FB010790141107004050150841D405064090741402480A0350
1001
ACAD
1000
AcDbSavedByObjectVersion
1070
     0
  0
ACAD_PROXY_OBJECT
  5
9551
102
{ACAD_REACTORS
330
9550
102
}
330
9550
100
AcDbZombieObject
 90
      499
 91
      509
 93
      388
310
41119B185D240901404333333333333E3BF0000000000000F9010740A41107004050150841D405064090741402480A1B50
1001
ACAD
1000
AcDbSavedByObjectVersion
1070
     0
  0
ACAD_PROXY_OBJECT
  5
9552
102
{ACAD_REACTORS
330
9550
102
}
330
9550
100
AcDbZombieObject
 90
      499
 91
      509
 93
      476
310
43519B185D15DA5D1A115919D95CD0140901404333333333333E3BF0000000000000F9010740901411070040501600405405064090741402480A1B50
1001
ACAD
1000
AcDbSavedByObjectVersion
1070
     0
  0
ACAD_PROXY_OBJECT
  5
9553
102
{ACAD_REACTORS
330
9550
102
}
330
9550
100
AcDbZombieObject
 90
      499
 91
      509
 93
      412
310
41D1DBDD5C985D5910240902404333333333333E3BF0000000000000F9010740A411070040501641D405064090741402480A1B50
1001
ACAD
1000
AcDbSavedByObjectVersion
1070
     0
  0
ACAD_PROXY_OBJECT
  5
9554
102
{ACAD_REACTORS
330
9550
102
}
330
9550
100
AcDbZombieObject
 90
      499
 91
      509
 93
      500
310
4411DBDD5C985D5915DA5D1A115919D95CD0340902404333333333333E3BF0000000000000F9010740901411070040501600405405064090741402480A1B50
1001
ACAD
1000
AcDbSavedByObjectVersion
1070
     0
  0
ACAD_PROXY_OBJECT
  5
A260
102
{ACAD_REACTORS
330
9550
102
}
330
9550
100
AcDbZombieObject
 90
      499
 91
      509
 93
      476
310
41921A5919195B90640502408333333333333E3BF0000000000000FB01079024090700405020000000000001110200405405064090740C02480A0340
1001
ACAD
1000
AcDbSavedByObjectVersion
1070
     0
  0
ACAD_PROXY_OBJECT
  5
A20F
102
{ACAD_REACTORS
330
9550
102
}
330
9550
100
AcDbZombieObject
 90
      499
 91
      509
 93
      428
310
42529A5D1D195C93D999914409028333333333333E3BF0000000000000FB010790141107004050150A41D405064090741402480A0350
1001
ACAD
1000
AcDbSavedByObjectVersion
1070
     0
  0
ACAD_PROXY_OBJECT
  5
955E
102
{ACAD_REACTORS
330
9550
102
}
330
9550
100
AcDbZombieObject
 90
      499
 91
      509
 93
      444
310
42D31A5B995C185D1D195C9B90E409028333333333333E3BF0000000000000FB010790141107004050750841D405064090741402483A0350
1001
ACAD
1000
AcDbSavedByObjectVersion
1070
     0
  0
ACAD_PROXY_OBJECT
  5
A266
102
{ACAD_REACTORS
330
9550
102
}
330
9550
100
AcDbZombieObject
 90
      499
 91
      509
 93
      484
310
42135BD9195B1A5B99D0A409028333333333333E3BF0000000000000F901074090290700405010000000000201990108421405064090741402480A1B40
1001
ACAD
1000
AcDbSavedByObjectVersion
1070
     0
  0
ACAD_PROXY_OBJECT
  5
A210
102
{ACAD_REACTORS
330
9550
102
}
330
9550
100
AcDbZombieObject
 90
      499
 91
      509
 93
      444
310
42D3DD995C9A185B99D3D999915409028333333333333E3BF0000000000000FB010790141107004050150941D405064090741402480A0350
1001
ACAD
1000
AcDbSavedByObjectVersion
1070
     0
  0
ACAD_PROXY_OBJECT
  5
955A
102
{ACAD_REACTORS
330
9550
102
}
330
9550
100
AcDbZombieObject
 90
      499
 91
      509
 93
      420
310
425499585B1A5CDD1A58D08409028333333333333E3BF0000000000000FB01079019070040501508421405064090741402480A1B40
1001
ACAD
1000
AcDbSavedByObjectVersion
1070
     0
  0
ACAD_PROXY_OBJECT
  5
A265
102
{ACAD_REACTORS
330
9550
102
}
330
9550
100
AcDbZombieObject
 90
      499
 91
      509
 93
      420
310
4194DA1859195911B40902404333333333333E3BF0000000000000F9010740A41107004050150800405405064090840C02480A0B40
1001
ACAD
1000
AcDbSavedByObjectVersion
1070
     0
  0
ACAD_PROXY_OBJECT
  5
A264
102
{ACAD_REACTORS
330
9550
102
}
330
9550
100
AcDbZombieObject
 90
      499
 91
      509
 93
      516
310
4454DA18591959081DDA5D1A08195919D95CD1A40902404333333333333E3BF0000000000000F901074090142907004050250800405405064090740C02480A0B40
1001
ACAD
1000
AcDbSavedByObjectVersion
1070
     0
  0
ACAD_PROXY_OBJECT
  5
A261
102
{ACAD_REACTORS
330
9550
102
}
330
9550
100
AcDbZombieObject
 90
      499
 91
      509
 93
      532
310
4394DA1859195CC81BD98811DC985E5174090240C333333333333E3BF0000000000000FB01079024090741D01000000000000111010841D405064090740C02480A0340
1001
ACAD
1000
AcDbSavedByObjectVersion
1070
     0
  0
ACAD_PROXY_OBJECT
  5
A262
102
{ACAD_REACTORS
330
9550
102
}
330
9550
100
AcDbZombieObject
 90
      499
 91
      509
 93
      476
310
41D4DAD95D18DA1E51840502408333333333333E3BF0000000000000FB01079024090741D01000000000000111010B41D405064090741802480A0340
1001
ACAD
1000
AcDbSavedByObjectVersion
1070
     0
  0
ACAD_PROXY_OBJECT
  5
955D
102
{ACAD_REACTORS
330
9550
102
}
330
9550
100
AcDbZombieObject
 90
      499
 91
      509
 93
      412
310
41D51A1A58DAD95B90D409028333333333333E3BF0000000000000FB010790141107004050150C41D405064090741402480A0350
1001
ACAD
1000
AcDbSavedByObjectVersion
1070
     0
  0
ACAD_PROXY_OBJECT
  5
A25F
102
{ACAD_REACTORS
330
9550
102
}
330
9550
100
AcDbZombieObject
 90
      499
 91
      509
 93
      420
310
4255DA5C99599C985B595059028333333333333E3BF0000000000000FB0107901411070040501600405405064090740C02480A0340
1001
ACAD
1000
AcDbSavedByObjectVersion
1070
     0
  0
ACAD_PROXY_OBJECT
  5
A263
102
{ACAD_REACTORS
330
9550
102
}
330
9550
100
AcDbZombieObject
 90
      499
 91
      509
 93
      404
310
41560B54985E51940902404000000000000E03F0000000000000FB010740501907004050150841D405064090740C02480A1B40
1001
ACAD
1000
AcDbSavedByObjectVersion
1070
     0
  0
XRECORD
  5
B252
102
{ACAD_REACTORS
330
B251
102
}
330
B251
100
AcDbXrecord
340
18D
  0
XRECORD
  5
B253
102
{ACAD_REACTORS
330
B251
102
}
330
B251
100
AcDbXrecord
340
18C
  0
DICTIONARYVAR
  5
B083
102
{ACAD_REACTORS
330
37
102
}
330
37
100
DictionaryVariables
280
     0
  1
1:1
  0
DICTIONARYVAR
  5
9627
102
{ACAD_REACTORS
330
37
102
}
330
37
100
DictionaryVariables
280
     0
  1
Standard
  0
DICTIONARYVAR
  5
29E
102
{ACAD_REACTORS
330
37
102
}
330
37
100
DictionaryVariables
280
     0
  1
Standard
  0
DICTIONARYVAR
  5
38
102
{ACAD_REACTORS
330
37
102
}
330
37
100
DictionaryVariables
280
     0
  1
-1
  0
DICTIONARYVAR
  5
1CE
102
{ACAD_REACTORS
330
37
102
}
330
37
100
DictionaryVariables
280
     0
  1
2
  0
DICTIONARYVAR
  5
704E
102
{ACAD_REACTORS
330
37
102
}
330
37
100
DictionaryVariables
280
     0
  1
1
  0
DICTIONARYVAR
  5
962A
102
{ACAD_REACTORS
330
37
102
}
330
37
100
DictionaryVariables
280
     0
  1
0
  0
DICTIONARYVAR
  5
7052
102
{ACAD_REACTORS
330
37
102
}
330
37
100
DictionaryVariables
280
     0
  1
8
  0
DICTIONARYVAR
  5
7051
102
{ACAD_REACTORS
330
37
102
}
330
37
100
DictionaryVariables
280
     0
  1
1
  0
DICTIONARYVAR
  5
AB30
102
{ACAD_REACTORS
330
37
102
}
330
37
100
DictionaryVariables
280
     0
  1
0
  0
DICTIONARYVAR
  5
704F
102
{ACAD_REACTORS
330
37
102
}
330
37
100
DictionaryVariables
280
     0
  1
8
  0
DICTIONARYVAR
  5
7050
102
{ACAD_REACTORS
330
37
102
}
330
37
100
DictionaryVariables
280
     0
  1
2
  0
DICTIONARYVAR
  5
1CF
102
{ACAD_REACTORS
330
37
102
}
330
37
100
DictionaryVariables
280
     0
  1

  0
DICTIONARYVAR
  5
9629
102
{ACAD_REACTORS
330
37
102
}
330
37
100
DictionaryVariables
280
     0
  1
127
  0
DICTIONARYVAR
  5
B063
102
{ACAD_REACTORS
330
37
102
}
330
37
100
DictionaryVariables
280
     0
  1
2
  0
DICTIONARY
  5
B3EF
330
9540
100
AcDbDictionary
  3
ACAD_XREC_ROUNDTRIP
360
B3F0
1001
ACAD
1000
TREAT_AS_HARD
1070
     1
  0
DICTIONARY
  5
B3F1
330
9538
100
AcDbDictionary
  3
ACAD_XREC_ROUNDTRIP
360
B3F2
1001
ACAD
1000
TREAT_AS_HARD
1070
     1
  0
DICTIONARY
  5
B3F3
330
9548
100
AcDbDictionary
  3
ACAD_XREC_ROUNDTRIP
360
B3F4
1001
ACAD
1000
TREAT_AS_HARD
1070
     1
  0
XRECORD
  5
B3F0
102
{ACAD_REACTORS
330
B3EF
102
}
330
B3EF
100
AcDbXrecord
102
MATERIAL
148
0.0
149
0.0
149
0.0
 93
        0
 94
      127
282
     0
 72
     0
 77
     0
171
     0
175
     0
179
     0
273
     0
  0
XRECORD
  5
B3F2
102
{ACAD_REACTORS
330
B3F1
102
}
330
B3F1
100
AcDbXrecord
102
MATERIAL
148
0.0
149
0.0
149
0.0
 93
        0
 94
      127
282
     0
 72
     0
 77
     0
171
     0
175
     0
179
     0
273
     0
  0
XRECORD
  5
B3F4
102
{ACAD_REACTORS
330
B3F3
102
}
330
B3F3
100
AcDbXrecord
102
MATERIAL
148
0.0
149
0.0
149
0.0
 93
        0
 94
      127
282
     0
 72
     0
 77
     0
171
     0
175
     0
179
     0
273
     0
  0
ENDSEC
  0
EOF
