  0
SECTION
  2
HEADER
  9
$ACADVER
  1
AC1012
  9
$DWGCODEPAGE
  3
ansi_932
  9
$INSBASE
 10
0.0
 20
0.0
 30
0.0
  9
$EXTMIN
 10
5468.92611477635
 20
775.0680484006512
 30
0.0
  9
$EXTMAX
 10
5787.354400158781
 20
1085.160589670257
 30
0.0
  9
$LIMMIN
 10
0.0
 20
0.0
  9
$LIMMAX
 10
420.0
 20
297.0
  9
$ORTHOMODE
 70
     0
  9
$REGENMODE
 70
     1
  9
$FILLMODE
 70
     1
  9
$QTEXTMODE
 70
     0
  9
$MIRRTEXT
 70
     0
  9
$DRAGMODE
 70
     2
  9
$LTSCALE
 40
0.5
  9
$OSMODE
 70
 14463
  9
$ATTMODE
 70
     1
  9
$TEXTSIZE
 40
4.0
  9
$TRACEWID
 40
1.0
  9
$TEXTSTYLE
  7
STANDARD
  9
$CLAYER
  8
1TEXT
  9
$CELTYPE
  6
BYLAYER
  9
$CECOLOR
 62
   256
  9
$CELTSCALE
 40
1.0
  9
$DELOBJ
 70
     1
  9
$DISPSILH
 70
     0
  9
$DIMSCALE
 40
1.0
  9
$DIMASZ
 40
2.0
  9
$DIMEXO
 40
0.0
  9
$DIMDLI
 40
7.0
  9
$DIMRND
 40
0.0
  9
$DIMDLE
 40
0.0
  9
$DIMEXE
 40
1.0
  9
$DIMTP
 40
0.0
  9
$DIMTM
 40
0.0
  9
$DIMTXT
 40
3.5
  9
$DIMCEN
 40
0.0
  9
$DIMTSZ
 40
0.0
  9
$DIMTOL
 70
     0
  9
$DIMLIM
 70
     0
  9
$DIMTIH
 70
     0
  9
$DIMTOH
 70
     0
  9
$DIMSE1
 70
     0
  9
$DIMSE2
 70
     0
  9
$DIMTAD
 70
     1
  9
$DIMZIN
 70
     8
  9
$DIMBLK
  1

  9
$DIMASO
 70
     1
  9
$DIMSHO
 70
     1
  9
$DIMPOST
  1
 
  9
$DIMAPOST
  1

  9
$DIMALT
 70
     0
  9
$DIMALTD
 70
     2
  9
$DIMALTF
 40
25.4
  9
$DIMLFAC
 40
1.0
  9
$DIMTOFL
 70
     1
  9
$DIMTVP
 40
0.0
  9
$DIMTIX
 70
     0
  9
$DIMSOXD
 70
     0
  9
$DIMSAH
 70
     1
  9
$DIMBLK1
  1
OPEN30
  9
$DIMBLK2
  1
OPEN30
  9
$DIMSTYLE
  2
NEWX10
  9
$DIMCLRD
 70
   256
  9
$DIMCLRE
 70
   256
  9
$DIMCLRT
 70
   201
  9
$DIMTFAC
 40
0.7
  9
$DIMGAP
 40
0.7
  9
$DIMJUST
 70
     0
  9
$DIMSD1
 70
     0
  9
$DIMSD2
 70
     0
  9
$DIMTOLJ
 70
     1
  9
$DIMTZIN
 70
     8
  9
$DIMALTZ
 70
     0
  9
$DIMALTTZ
 70
     0
  9
$DIMFIT
 70
     3
  9
$DIMUPT
 70
     0
  9
$DIMUNIT
 70
     2
  9
$DIMDEC
 70
     2
  9
$DIMTDEC
 70
     4
  9
$DIMALTU
 70
     2
  9
$DIMALTTD
 70
     2
  9
$DIMTXSTY
  7
STANDARD
  9
$DIMAUNIT
 70
     0
  9
$LUNITS
 70
     2
  9
$LUPREC
 70
     4
  9
$SKETCHINC
 40
1.0
  9
$FILLETRAD
 40
0.0
  9
$AUNITS
 70
     0
  9
$AUPREC
 70
     2
  9
$MENU
  1
acad
  9
$ELEVATION
 40
0.0
  9
$PELEVATION
 40
0.0
  9
$THICKNESS
 40
0.0
  9
$LIMCHECK
 70
     0
  9
$CHAMFERA
 40
10.0
  9
$CHAMFERB
 40
10.0
  9
$CHAMFERC
 40
20.0
  9
$CHAMFERD
 40
0.0
  9
$SKPOLY
 70
     0
  9
$TDCREATE
 40
2451318.621352917
  9
$TDUPDATE
 40
2458152.632000382
  9
$TDINDWG
 40
1.4805758333
  9
$TDUSRTIMER
 40
1.4805758333
  9
$USRTIMER
 70
     1
  9
$ANGBASE
 50
0.0
  9
$ANGDIR
 70
     0
  9
$PDMODE
 70
     0
  9
$PDSIZE
 40
0.0
  9
$PLINEWID
 40
0.0
  9
$COORDS
 70
     2
  9
$SPLFRAME
 70
     0
  9
$SPLINETYPE
 70
     6
  9
$SPLINESEGS
 70
     8
  9
$ATTDIA
 70
     0
  9
$ATTREQ
 70
     1
  9
$HANDLING
 70
     1
  9
$HANDSEED
  5
B47A
  9
$SURFTAB1
 70
     6
  9
$SURFTAB2
 70
     6
  9
$SURFTYPE
 70
     6
  9
$SURFU
 70
     6
  9
$SURFV
 70
     6
  9
$UCSNAME
  2

  9
$UCSORG
 10
0.0
 20
0.0
 30
0.0
  9
$UCSXDIR
 10
1.0
 20
0.0
 30
0.0
  9
$UCSYDIR
 10
0.0
 20
1.0
 30
0.0
  9
$PUCSNAME
  2

  9
$PUCSORG
 10
0.0
 20
0.0
 30
0.0
  9
$PUCSXDIR
 10
1.0
 20
0.0
 30
0.0
  9
$PUCSYDIR
 10
0.0
 20
1.0
 30
0.0
  9
$USERI1
 70
     0
  9
$USERI2
 70
     0
  9
$USERI3
 70
     0
  9
$USERI4
 70
     0
  9
$USERI5
 70
     0
  9
$USERR1
 40
0.0
  9
$USERR2
 40
0.0
  9
$USERR3
 40
0.0
  9
$USERR4
 40
0.0
  9
$USERR5
 40
0.0
  9
$WORLDVIEW
 70
     1
  9
$SHADEDGE
 70
     3
  9
$SHADEDIF
 70
    70
  9
$TILEMODE
 70
     1
  9
$MAXACTVP
 70
    48
  9
$PINSBASE
 10
0.0
 20
0.0
 30
0.0
  9
$PLIMCHECK
 70
     0
  9
$PEXTMIN
 10
1.000000000000000E+20
 20
1.000000000000000E+20
 30
1.000000000000000E+20
  9
$PEXTMAX
 10
-1.000000000000000E+20
 20
-1.000000000000000E+20
 30
-1.000000000000000E+20
  9
$PLIMMIN
 10
0.0
 20
0.0
  9
$PLIMMAX
 10
420.0
 20
297.0
  9
$UNITMODE
 70
     0
  9
$VISRETAIN
 70
     1
  9
$PLINEGEN
 70
     0
  9
$PSLTSCALE
 70
     1
  9
$TREEDEPTH
 70
  3020
  9
$PICKSTYLE
 70
     1
  9
$CMLSTYLE
  2
STANDARD
  9
$CMLJUST
 70
     0
  9
$CMLSCALE
 40
20.0
  9
$SAVEIMAGES
 70
     1
  0
ENDSEC
  0
SECTION
  2
CLASSES
  0
CLASS
  1
DICTIONARYVAR
  2
AcDbDictionaryVar
  3
ObjectDBX Classes
 90
        0
280
     0
281
     0
  0
CLASS
  1
IDBUFFER
  2
AcDbIdBuffer
  3
ObjectDBX Classes
 90
    32768
280
     0
281
     0
  0
CLASS
  1
LWPOLYLINE
  2
AcDbPolyline
  3
ObjectDBX Classes
 90
    32768
280
     0
281
     1
  0
CLASS
  1
ACDBDICTIONARYWDFLT
  2
AcDbDictionaryWithDefault
  3
ObjectDBX Classes
 90
    32768
280
     0
281
     0
  0
CLASS
  1
ACDBPLACEHOLDER
  2
AcDbPlaceHolder
  3
ObjectDBX Classes
 90
        0
280
     0
281
     0
  0
CLASS
  1
LAYOUT
  2
AcDbLayout
  3
ObjectDBX Classes
 90
        0
280
     0
281
     0
  0
CLASS
  1
TABLESTYLE
  2
AcDbTableStyle
  3
ObjectDBX Classes
 90
     4095
280
     0
281
     0
  0
CLASS
  1
SORTENTSTABLE
  2
AcDbSortentsTable
  3
ObjectDBX Classes
 90
    32768
280
     0
281
     0
  0
CLASS
  1
MATERIAL
  2
AcDbMaterial
  3
ObjectDBX Classes
 90
     1153
280
     0
281
     0
  0
CLASS
  1
VISUALSTYLE
  2
AcDbVisualStyle
  3
ObjectDBX Classes
 90
     4095
280
     0
281
     0
  0
CLASS
  1
SCALE
  2
AcDbScale
  3
ObjectDBX Classes
 90
     1153
280
     0
281
     0
  0
CLASS
  1
MLEADERSTYLE
  2
AcDbMLeaderStyle
  3
ACDB_MLEADERSTYLE_CLASS
 90
     4095
280
     0
281
     0
  0
CLASS
  1
CELLSTYLEMAP
  2
AcDbCellStyleMap
  3
ObjectDBX Classes
 90
     1152
280
     0
281
     0
  0
CLASS
  1
SUN
  2
AcDbSun
  3
SCENEOE
 90
     1153
280
     0
281
     0
  0
CLASS
  1
AEC_REFEDIT_STATUS_TRACKER
  2
AecDbRefEditStatusTracker
  3
AecArchBase60|Product Desc: Autodesk Architectural Desktop 2007 |Company: Autodesk,Inc. |WEB Address: www.autodesk.com
 90
      129
280
     1
281
     0
  0
CLASS
  1
NPOCOLLECTION
  2
AcDbImpNonPersistentObjectsCollection
  3
ObjectDBX Classes
 90
     1153
280
     1
281
     0
  0
CLASS
  1
XRECORD
  2
AcDbXrecord
  3
ObjectDBX Classes
 90
    32768
280
     0
281
     0
  0
CLASS
  1
HATCH
  2
AcDbHatch
  3
ObjectDBX Classes
 90
    32768
280
     0
281
     1
  0
ENDSEC
  0
SECTION
  2
TABLES
  0
TABLE
  2
VPORT
  5
8
330
0
100
AcDbSymbolTable
 70
     1
  0
VPORT
  5
952D
330
8
100
AcDbSymbolTableRecord
100
AcDbViewportTableRecord
  2
*ACTIVE
 70
     0
 10
0.0
 20
0.0
 11
1.0
 21
1.0
 12
5628.140257467565
 22
930.1143190354542
 13
0.0
 23
0.0
 14
10.0
 24
10.0
 15
10.0
 25
10.0
 16
0.0
 26
0.0
 36
1.0
 17
0.0
 27
0.0
 37
0.0
 40
332.941465363156
 41
2.233782129742962
 42
50.0
 43
0.0
 44
0.0
 50
0.0
 51
0.0
 71
    16
 72
   100
 73
     1
 74
     1
 75
     0
 76
     0
 77
     0
 78
     0
  0
ENDTAB
  0
TABLE
  2
LTYPE
  5
5
330
0
100
AcDbSymbolTable
 70
     2
  0
LTYPE
  5
12
330
5
100
AcDbSymbolTableRecord
100
AcDbLinetypeTableRecord
  2
BYBLOCK
 70
     0
  3

 72
    65
 73
     0
 40
0.0
  0
LTYPE
  5
13
330
5
100
AcDbSymbolTableRecord
100
AcDbLinetypeTableRecord
  2
BYLAYER
 70
     0
  3

 72
    65
 73
     0
 40
0.0
  0
LTYPE
  5
14
330
5
100
AcDbSymbolTableRecord
100
AcDbLinetypeTableRecord
  2
CONTINUOUS
 70
     0
  3
Solid line
 72
    65
 73
     0
 40
0.0
  0
LTYPE
  5
9837
330
5
100
AcDbSymbolTableRecord
100
AcDbLinetypeTableRecord
  2
CENTER2
 70
     0
  3
Center (.5x) ___ _ ___ _ ___ _ ___ _ ___ _ ___
 72
    65
 73
     4
 40
28.575
 49
19.05
 74
     0
 49
-3.175
 74
     0
 49
3.175
 74
     0
 49
-3.175
 74
     0
  0
ENDTAB
  0
TABLE
  2
LAYER
  5
2
102
{ACAD_XDICTIONARY
360
96D9
102
}
330
0
100
AcDbSymbolTable
 70
     5
  0
LAYER
  5
E
102
{ACAD_XDICTIONARY
360
9593
102
}
330
2
100
AcDbSymbolTableRecord
100
AcDbLayerTableRecord
  2
0
 70
     0
 62
     7
  6
CONTINUOUS
  0
LAYER
  5
29
102
{ACAD_XDICTIONARY
360
9595
102
}
330
2
100
AcDbSymbolTableRecord
100
AcDbLayerTableRecord
  2
1CENTER
 70
     0
 62
     7
  6
CENTER2
  0
LAYER
  5
31
102
{ACAD_XDICTIONARY
360
9597
102
}
330
2
100
AcDbSymbolTableRecord
100
AcDbLayerTableRecord
  2
1TEXT
 70
     0
 62
     7
  6
CONTINUOUS
  0
LAYER
  5
243
102
{ACAD_XDICTIONARY
360
959D
102
}
330
2
100
AcDbSymbolTableRecord
100
AcDbLayerTableRecord
  2
01
 70
     0
 62
     1
  6
CONTINUOUS
  0
LAYER
  5
24E
102
{ACAD_XDICTIONARY
360
95A3
102
}
330
2
100
AcDbSymbolTableRecord
100
AcDbLayerTableRecord
  2
1DIM
 70
     0
 62
     7
  6
CONTINUOUS
  0
ENDTAB
  0
TABLE
  2
STYLE
  5
3
330
0
100
AcDbSymbolTable
 70
     1
  0
STYLE
  5
F
330
3
100
AcDbSymbolTableRecord
100
AcDbTextStyleTableRecord
  2
STANDARD
 70
     0
 40
0.0
 41
1.0
 50
0.0
 71
     0
 42
4.0
  3
txt.shx
  4
extfont.shx
  0
ENDTAB
  0
TABLE
  2
VIEW
  5
6
330
0
100
AcDbSymbolTable
 70
     0
  0
ENDTAB
  0
TABLE
  2
UCS
  5
7
330
0
100
AcDbSymbolTable
 70
     5
  0
UCS
  5
AEDB
330
7
100
AcDbSymbolTableRecord
100
AcDbUCSTableRecord
  2
U
 70
     0
 10
0.0
 20
0.0
 30
0.0
 11
1.0
 21
0.0
 31
0.0
 12
0.0
 22
2.220446049250313E-16
 32
1.0
 79
     0
146
0.0
  0
UCS
  5
AEDC
330
7
100
AcDbSymbolTableRecord
100
AcDbUCSTableRecord
  2
L
 70
     0
 10
0.0
 20
0.0
 30
0.0
 11
-2.220446049250313E-16
 21
-1.0
 31
2.220446049250313E-16
 12
0.0
 22
2.220446049250313E-16
 32
1.0
 79
     0
146
0.0
  0
UCS
  5
AEDD
330
7
100
AcDbSymbolTableRecord
100
AcDbUCSTableRecord
  2
R
 70
     0
 10
0.0
 20
0.0
 30
0.0
 11
3.445052403072690E-16
 21
1.0
 31
-2.220446049250313E-16
 12
0.0
 22
2.220446049250313E-16
 32
1.0
 79
     0
146
0.0
  0
UCS
  5
AEDE
330
7
100
AcDbSymbolTableRecord
100
AcDbUCSTableRecord
  2
ISOME
 70
     0
 10
0.0
 20
0.0
 30
0.0
 11
0.7071450863198264
 21
-0.7070684729403536
 31
-3.830824619477369E-5
 12
0.4082704059428736
 22
0.408270407740115
 32
0.8164744636514737
 79
     0
146
0.0
  0
UCS
  5
AEDF
330
7
100
AcDbSymbolTableRecord
100
AcDbUCSTableRecord
  2
PERSPECTIVE
 70
     0
 10
0.0
 20
0.0
 30
0.0
 11
0.8191477691768962
 21
-0.5735823260466402
 31
-0.0004974931557765183
 12
0.1584844715982971
 22
0.225502028986108
 32
0.961265575782966
 79
     0
146
0.0
  0
ENDTAB
  0
TABLE
  2
APPID
  5
9
330
0
100
AcDbSymbolTable
 70
    13
  0
APPID
  5
10
330
9
100
AcDbSymbolTableRecord
100
AcDbRegAppTableRecord
  2
ACAD
 70
     0
  0
APPID
  5
21
330
9
100
AcDbSymbolTableRecord
100
AcDbRegAppTableRecord
  2
DRAWINGVARIABLESXDATA
 70
     0
  0
APPID
  5
64
330
9
100
AcDbSymbolTableRecord
100
AcDbRegAppTableRecord
  2
CONTENTTABDATA
 70
     0
  0
APPID
  5
65
330
9
100
AcDbSymbolTableRecord
100
AcDbRegAppTableRecord
  2
CONTENTCURRENTTAB
 70
     0
  0
APPID
  5
66
330
9
100
AcDbSymbolTableRecord
100
AcDbRegAppTableRecord
  2
CONTENTBLOCKDESCRIPTION
 70
     0
  0
APPID
  5
67
330
9
100
AcDbSymbolTableRecord
100
AcDbRegAppTableRecord
  2
CONTENTBLOCKICON
 70
     0
  0
APPID
  5
68
330
9
100
AcDbSymbolTableRecord
100
AcDbRegAppTableRecord
  2
CONTENTLONGBLOCKNAME
 70
     0
  0
APPID
  5
2AE
330
9
100
AcDbSymbolTableRecord
100
AcDbRegAppTableRecord
  2
ACAD_PSEXT
 70
     0
  0
APPID
  5
9585
330
9
100
AcDbSymbolTableRecord
100
AcDbRegAppTableRecord
  2
ACAD_MLEADERVER
 70
     0
  0
APPID
  5
A2E3
330
9
100
AcDbSymbolTableRecord
100
AcDbRegAppTableRecord
  2
ACADANNOTATIVE
 70
     0
  0
APPID
  5
A2E4
330
9
100
AcDbSymbolTableRecord
100
AcDbRegAppTableRecord
  2
ACDBBLOCKREPETAG
 70
     0
  0
APPID
  5
AF65
330
9
100
AcDbSymbolTableRecord
100
AcDbRegAppTableRecord
  2
ACAECLAYERSTANDARD
 70
     0
  0
APPID
  5
B0E3
330
9
100
AcDbSymbolTableRecord
100
AcDbRegAppTableRecord
  2
ACAD_EXEMPT_FROM_CAD_STAND
 70
     0
  0
ENDTAB
  0
TABLE
  2
DIMSTYLE
  5
A
330
0
100
AcDbSymbolTable
 70
     1
  0
DIMSTYLE
105
48
330
A
100
AcDbSymbolTableRecord
100
AcDbDimStyleTableRecord
  2
NEWX10
 70
     0
  3
 
  4

  5

  6
OPEN30
  7
OPEN30
 40
1.0
 41
2.0
 42
0.0
 43
7.0
 44
1.0
 45
0.0
 46
0.0
 47
0.0
 48
0.0
140
3.5
141
0.0
142
0.0
143
25.4
144
1.0
145
0.0
146
0.7
147
0.7
 71
     0
 72
     0
 73
     0
 74
     0
 75
     0
 76
     0
 77
     1
 78
     8
170
     0
171
     2
172
     1
173
     1
174
     0
175
     0
176
   256
177
   256
178
   201
179
     1
270
     2
271
     2
272
     4
273
     2
274
     2
340
F
275
     0
280
     0
281
     0
282
     0
283
     1
284
     8
285
     0
286
     0
287
     3
288
     0
  0
ENDTAB
  0
TABLE
  2
BLOCK_RECORD
  5
1
330
0
100
AcDbSymbolTable
 70
     8
  0
BLOCK_RECORD
  5
18
102
{ACAD_XDICTIONARY
360
88F
102
}
330
1
100
AcDbSymbolTableRecord
100
AcDbBlockTableRecord
  2
*MODEL_SPACE
  0
BLOCK_RECORD
  5
15
330
1
100
AcDbSymbolTableRecord
100
AcDbBlockTableRecord
  2
*PAPER_SPACE
  0
BLOCK_RECORD
  5
42
330
1
100
AcDbSymbolTableRecord
100
AcDbBlockTableRecord
  2
_OPEN30
  0
BLOCK_RECORD
  5
A333
330
1
100
AcDbSymbolTableRecord
100
AcDbBlockTableRecord
  2
A3WAKUKAWAJUN2017_HYOUDAI_
  0
BLOCK_RECORD
  5
B2DA
330
1
100
AcDbSymbolTableRecord
100
AcDbBlockTableRecord
  2
*X23
  0
BLOCK_RECORD
  5
B328
330
1
100
AcDbSymbolTableRecord
100
AcDbBlockTableRecord
  2
*X24
  0
BLOCK_RECORD
  5
B37A
330
1
100
AcDbSymbolTableRecord
100
AcDbBlockTableRecord
  2
*X25
  0
BLOCK_RECORD
  5
B3CB
330
1
100
AcDbSymbolTableRecord
100
AcDbBlockTableRecord
  2
*X26
  0
BLOCK_RECORD
  5
B408
330
1
100
AcDbSymbolTableRecord
100
AcDbBlockTableRecord
  2
*X27
  0
BLOCK_RECORD
  5
B448
330
1
100
AcDbSymbolTableRecord
100
AcDbBlockTableRecord
  2
*X28
  0
ENDTAB
  0
ENDSEC
  0
SECTION
  2
BLOCKS
  0
BLOCK
  5
19
330
18
100
AcDbEntity
  8
0
100
AcDbBlockBegin
  2
*MODEL_SPACE
 70
     0
 10
0.0
 20
0.0
 30
0.0
  3
*MODEL_SPACE
  1

  0
ENDBLK
  5
1A
330
18
100
AcDbEntity
  8
0
100
AcDbBlockEnd
  0
BLOCK
  5
16
330
15
100
AcDbEntity
 67
     1
  8
0
100
AcDbBlockBegin
  2
*PAPER_SPACE
 70
     0
 10
0.0
 20
0.0
 30
0.0
  3
*PAPER_SPACE
  1

  0
ENDBLK
  5
17
330
15
100
AcDbEntity
 67
     1
  8
0
100
AcDbBlockEnd
  0
BLOCK
  5
43
330
42
100
AcDbEntity
  8
0
100
AcDbBlockBegin
  2
_OPEN30
 70
     0
 10
0.0
 20
0.0
 30
0.0
  3
_OPEN30
  1

  0
LINE
  5
44
330
42
100
AcDbEntity
  8
0
  6
BYBLOCK
 62
     0
100
AcDbLine
 10
-1.0
 20
0.26794919
 30
0.0
 11
0.0
 21
0.0
 31
0.0
  0
LINE
  5
45
330
42
100
AcDbEntity
  8
0
  6
BYBLOCK
 62
     0
100
AcDbLine
 10
0.0
 20
0.0
 30
0.0
 11
-1.0
 21
-0.26794919
 31
0.0
  0
LINE
  5
46
330
42
100
AcDbEntity
  8
0
  6
BYBLOCK
 62
     0
100
AcDbLine
 10
0.0
 20
0.0
 30
0.0
 11
-1.0
 21
0.0
 31
0.0
  0
ENDBLK
  5
47
330
42
100
AcDbEntity
  8
0
100
AcDbBlockEnd
  0
BLOCK
  5
AA56
330
A333
100
AcDbEntity
  8
0
100
AcDbBlockBegin
  2
A3WAKUKAWAJUN2017_HYOUDAI_
 70
     0
 10
0.0
 20
0.0
 30
0.0
  3
A3WAKUKAWAJUN2017_HYOUDAI_
  1

  0
LINE
  5
A335
330
A333
100
AcDbEntity
  8
0
100
AcDbLine
 10
13.26299999998673
 20
-0.0001000000000317
 30
0.0
 11
9.236999999990758
 21
8.999899999990987
 31
0.0
1001
ACAD
1000
ASC_BOUNDS
1002
{
1070
    19
1005
A376
1002
}
  0
LINE
  5
A336
330
A333
100
AcDbEntity
  8
0
100
AcDbLine
 10
5.657999999994331
 20
0.9999999999989768
 30
0.0
 11
9.236999999990758
 21
8.999999999991019
 31
0.0
1001
ACAD
1000
ASC_BOUNDS
1002
{
1070
    19
1005
A376
1002
}
  0
LINE
  5
A337
330
A333
100
AcDbEntity
  8
0
100
AcDbLine
 10
18.59199999998134
 20
-0.2368999999997641
 30
0.0
 11
16.46099999998353
 21
5.432899999994561
 31
0.0
1001
ACAD
1000
ASC_BOUNDS
1002
{
1070
    19
1005
A377
1002
}
  0
LINE
  5
A338
330
A333
100
AcDbEntity
  8
0
100
AcDbLine
 10
18.59199999998134
 20
-0.2368999999997641
 30
0.0
 11
22.38199999997767
 21
8.763099999991255
 31
0.0
1001
ACAD
1000
ASC_BOUNDS
1002
{
1070
    19
1005
A377
1002
}
  0
LINE
  5
A339
330
A333
100
AcDbEntity
  8
0
100
AcDbLine
 10
14.32899999998563
 20
-0.2368999999997641
 30
0.0
 11
16.46099999998353
 21
5.432899999994561
 31
0.0
1001
ACAD
1000
ASC_BOUNDS
1002
{
1070
    19
1005
A377
1002
}
  0
LINE
  5
A33A
330
A333
100
AcDbEntity
  8
0
100
AcDbLine
 10
14.32899999998563
 20
-0.2368999999997641
 30
0.0
 11
10.53899999998941
 21
8.763099999991255
 31
0.0
1001
ACAD
1000
ASC_BOUNDS
1002
{
1070
    19
1005
A377
1002
}
  0
LINE
  5
A33B
330
A333
100
AcDbEntity
  8
0
100
AcDbLine
 10
19.53899999998043
 20
-0.0001000000000317
 30
0.0
 11
23.56599999997638
 21
8.999899999990987
 31
0.0
1001
ACAD
1000
ASC_BOUNDS
1002
{
1070
    19
1005
A378
1002
}
  0
LINE
  5
A33C
330
A333
100
AcDbEntity
  8
0
100
AcDbLine
 10
26.97358892824991
 20
1.383099999991202
 30
0.0
 11
23.56599999997638
 21
8.999899999990987
 31
0.0
1001
ACAD
1000
ASC_BOUNDS
1002
{
1070
    19
1005
A378
1002
}
  0
LINE
  5
A33D
330
A333
100
AcDbEntity
  8
0
100
AcDbLine
 10
5.657999999994331
 20
0.9999999999989768
 30
0.0
 11
3.181999999996833
 21
4.668599999995308
 31
0.0
1001
ACAD
1000
ASC_BOUNDS
1002
{
1070
    19
1005
A376
1002
}
  0
LINE
  5
A33E
330
A333
100
AcDbEntity
  8
0
100
AcDbLine
 10
4.617999999995391
 20
-0.0001000000000317
 30
0.0
 11
1.420999999998571
 21
4.736799999995242
 31
0.0
1001
ACAD
1000
ASC_BOUNDS
1002
{
1070
    19
1005
A376
1002
}
  0
LINE
  5
A33F
330
A333
100
AcDbEntity
  8
0
100
AcDbLine
 10
1.420999999998571
 20
8.763099999991255
 30
0.0
 11
1.420999999998571
 21
0.0
 31
0.0
1001
ACAD
1000
ASC_BOUNDS
1002
{
1070
    19
1005
A37B
1002
}
  0
LINE
  5
A340
330
A333
100
AcDbEntity
  8
0
100
AcDbLine
 10
0.0
 20
8.763099999991255
 30
0.0
 11
0.0
 21
0.0
 31
0.0
1001
ACAD
1000
ASC_BOUNDS
1002
{
1070
    19
1005
A37B
1002
}
  0
LINE
  5
A341
330
A333
100
AcDbEntity
  8
0
100
AcDbLine
 10
6.766999999993232
 20
-0.0001000000000317
 30
0.0
 11
7.826999999992154
 21
2.368399999997621
 31
0.0
1001
ACAD
1000
ASC_BOUNDS
1002
{
1070
    19
1005
A376
1002
}
  0
LINE
  5
A342
330
A333
100
AcDbEntity
  8
0
100
AcDbLine
 10
0.0
 20
0.0
 30
0.0
 11
1.420999999998571
 21
0.0
 31
0.0
1001
ACAD
1000
ASC_BOUNDS
1002
{
1070
    19
1005
A37B
1002
}
  0
LINE
  5
A343
330
A333
100
AcDbEntity
  8
0
100
AcDbLine
 10
4.617999999995391
 20
0.0
 30
0.0
 11
6.766999999993232
 21
0.0
 31
0.0
1001
ACAD
1000
ASC_BOUNDS
1002
{
1070
    19
1005
A376
1002
}
  0
LINE
  5
A344
330
A333
100
AcDbEntity
  8
0
100
AcDbLine
 10
11.70599999998831
 20
-0.0001000000000317
 30
0.0
 11
10.64699999998936
 21
2.368399999997621
 31
0.0
1001
ACAD
1000
ASC_BOUNDS
1002
{
1070
    19
1005
A376
1002
}
  0
LINE
  5
A345
330
A333
100
AcDbEntity
  8
0
100
AcDbLine
 10
7.826999999992154
 20
2.368399999997621
 30
0.0
 11
10.64699999998936
 21
2.368399999997621
 31
0.0
1001
ACAD
1000
ASC_BOUNDS
1002
{
1070
    19
1005
A376
1002
}
  0
LINE
  5
A346
330
A333
100
AcDbEntity
  8
0
100
AcDbLine
 10
11.70599999998831
 20
0.0
 30
0.0
 11
13.26299999998673
 21
0.0
 31
0.0
1001
ACAD
1000
ASC_BOUNDS
1002
{
1070
    19
1005
A376
1002
}
  0
LINE
  5
A347
330
A333
100
AcDbEntity
  8
0
100
AcDbLine
 10
22.15599999997789
 20
2.368399999997621
 30
0.0
 11
24.97599999997499
 21
2.368399999997621
 31
0.0
1001
ACAD
1000
ASC_BOUNDS
1002
{
1070
    19
1005
A378
1002
}
  0
LINE
  5
A348
330
A333
100
AcDbEntity
  8
0
100
AcDbLine
 10
19.53899999998043
 20
0.0
 30
0.0
 11
21.09599999997886
 21
0.0
 31
0.0
1001
ACAD
1000
ASC_BOUNDS
1002
{
1070
    19
1005
A378
1002
}
  0
LINE
  5
A349
330
A333
100
AcDbEntity
  8
0
100
AcDbLine
 10
21.09599999997886
 20
-0.0001000000000317
 30
0.0
 11
22.15599999997789
 21
2.368399999997621
 31
0.0
1001
ACAD
1000
ASC_BOUNDS
1002
{
1070
    19
1005
A378
1002
}
  0
LINE
  5
A34A
330
A333
100
AcDbEntity
  8
0
100
AcDbLine
 10
26.02015566812236
 20
0.0330999999912365
 30
0.0
 11
24.97599999997499
 21
2.368399999997621
 31
0.0
1001
ACAD
1000
ASC_BOUNDS
1002
{
1070
    19
1005
A378
1002
}
  0
LINE
  5
A34B
330
A333
100
AcDbEntity
  8
0
100
AcDbLine
 10
14.32399999998563
 20
3.315799999996671
 30
0.0
 11
16.46099999998353
 21
8.999899999990987
 31
0.0
1001
ACAD
1000
ASC_BOUNDS
1002
{
1070
    19
1005
A377
1002
}
  0
LINE
  5
A34C
330
A333
100
AcDbEntity
  8
0
100
AcDbLine
 10
6.432999999993513
 20
8.763099999991255
 30
0.0
 11
3.181999999996833
 21
4.668599999995308
 31
0.0
1001
ACAD
1000
ASC_BOUNDS
1002
{
1070
    19
1005
A376
1002
}
  0
LINE
  5
A34D
330
A333
100
AcDbEntity
  8
0
100
AcDbLine
 10
4.617999999995391
 20
8.763099999991255
 30
0.0
 11
1.420999999998571
 21
4.736799999995242
 31
0.0
1001
ACAD
1000
ASC_BOUNDS
1002
{
1070
    19
1005
A376
1002
}
  0
LINE
  5
A34E
330
A333
100
AcDbEntity
  8
0
100
AcDbLine
 10
0.0
 20
8.763099999991255
 30
0.0
 11
1.420999999998571
 21
8.763099999991255
 31
0.0
1001
ACAD
1000
ASC_BOUNDS
1002
{
1070
    19
1005
A37B
1002
}
  0
LINE
  5
A34F
330
A333
100
AcDbEntity
  8
0
100
AcDbLine
 10
4.617999999995391
 20
8.763099999991255
 30
0.0
 11
6.432999999993513
 21
8.763099999991255
 31
0.0
1001
ACAD
1000
ASC_BOUNDS
1002
{
1070
    19
1005
A376
1002
}
  0
LINE
  5
A350
330
A333
100
AcDbEntity
  8
0
100
AcDbLine
 10
14.32399999998563
 20
3.315799999996671
 30
0.0
 11
12.02999999998792
 21
8.763099999991255
 31
0.0
1001
ACAD
1000
ASC_BOUNDS
1002
{
1070
    19
1005
A377
1002
}
  0
LINE
  5
A351
330
A333
100
AcDbEntity
  8
0
100
AcDbLine
 10
10.06399999998996
 20
3.670999999996297
 30
0.0
 11
9.236999999990758
 21
5.5200999999945
 31
0.0
1001
ACAD
1000
ASC_BOUNDS
1002
{
1070
    19
1005
A376
1002
}
  0
LINE
  5
A352
330
A333
100
AcDbEntity
  8
0
100
AcDbLine
 10
8.409999999991555
 20
3.670999999996297
 30
0.0
 11
9.236999999990758
 21
5.5200999999945
 31
0.0
1001
ACAD
1000
ASC_BOUNDS
1002
{
1070
    19
1005
A376
1002
}
  0
LINE
  5
A353
330
A333
100
AcDbEntity
  8
0
100
AcDbLine
 10
8.409999999991555
 20
3.670999999996297
 30
0.0
 11
10.06399999998996
 21
3.670999999996297
 31
0.0
1001
ACAD
1000
ASC_BOUNDS
1002
{
1070
    19
1005
A376
1002
}
  0
LINE
  5
A354
330
A333
100
AcDbEntity
  8
0
100
AcDbLine
 10
10.53899999998941
 20
8.763099999991255
 30
0.0
 11
12.02999999998792
 21
8.763099999991255
 31
0.0
1001
ACAD
1000
ASC_BOUNDS
1002
{
1070
    19
1005
A377
1002
}
  0
LINE
  5
A355
330
A333
100
AcDbEntity
  8
0
100
AcDbLine
 10
22.7389999999773
 20
3.670999999996297
 30
0.0
 11
23.56599999997638
 21
5.5200999999945
 31
0.0
1001
ACAD
1000
ASC_BOUNDS
1002
{
1070
    19
1005
A378
1002
}
  0
LINE
  5
A356
330
A333
100
AcDbEntity
  8
0
100
AcDbLine
 10
22.7389999999773
 20
3.670999999996297
 30
0.0
 11
24.39299999997559
 21
3.670999999996297
 31
0.0
1001
ACAD
1000
ASC_BOUNDS
1002
{
1070
    19
1005
A378
1002
}
  0
LINE
  5
A357
330
A333
100
AcDbEntity
  8
0
100
AcDbLine
 10
18.59799999998143
 20
3.315799999996671
 30
0.0
 11
20.89099999997916
 21
8.763099999991255
 31
0.0
1001
ACAD
1000
ASC_BOUNDS
1002
{
1070
    19
1005
A377
1002
}
  0
LINE
  5
A358
330
A333
100
AcDbEntity
  8
0
100
AcDbLine
 10
18.59799999998143
 20
3.315799999996671
 30
0.0
 11
16.46099999998353
 21
8.999899999990987
 31
0.0
1001
ACAD
1000
ASC_BOUNDS
1002
{
1070
    19
1005
A377
1002
}
  0
LINE
  5
A359
330
A333
100
AcDbEntity
  8
0
100
AcDbLine
 10
20.89099999997916
 20
8.763099999991255
 30
0.0
 11
22.38199999997767
 21
8.763099999991255
 31
0.0
1001
ACAD
1000
ASC_BOUNDS
1002
{
1070
    19
1005
A377
1002
}
  0
LINE
  5
A35A
330
A333
100
AcDbEntity
  8
0
100
AcDbLine
 10
24.39299999997559
 20
3.670999999996297
 30
0.0
 11
23.56599999997638
 21
5.5200999999945
 31
0.0
1001
ACAD
1000
ASC_BOUNDS
1002
{
1070
    19
1005
A378
1002
}
  0
LINE
  5
A35B
330
A333
100
AcDbEntity
  8
0
100
AcDbLine
 10
44.99999999995498
 20
-0.2368999999997641
 30
0.0
 11
40.02599999995994
 21
5.341799999994635
 31
0.0
1001
ACAD
1000
ASC_BOUNDS
1002
{
1070
    19
1005
A37A
1002
}
  0
LINE
  5
A35C
330
A333
100
AcDbEntity
  8
0
100
AcDbLine
 10
40.02599999995994
 20
5.341799999994635
 30
0.0
 11
40.02599999995994
 21
0.0
 31
0.0
1001
ACAD
1000
ASC_BOUNDS
1002
{
1070
    19
1005
A37A
1002
}
  0
LINE
  5
A35D
330
A333
100
AcDbEntity
  8
0
100
AcDbLine
 10
38.60499999996136
 20
8.999999999991019
 30
0.0
 11
38.60499999996136
 21
0.0
 31
0.0
1001
ACAD
1000
ASC_BOUNDS
1002
{
1070
    19
1005
A37A
1002
}
  0
LINE
  5
A35E
330
A333
100
AcDbEntity
  8
0
100
AcDbLine
 10
44.99999999995498
 20
8.763099999991255
 30
0.0
 11
44.99999999995498
 21
-0.2368999999997641
 31
0.0
1001
ACAD
1000
ASC_BOUNDS
1002
{
1070
    19
1005
A37A
1002
}
  0
LINE
  5
A35F
330
A333
100
AcDbEntity
  8
0
100
AcDbLine
 10
38.60499999996136
 20
0.0
 30
0.0
 11
40.02599999995994
 21
0.0
 31
0.0
1001
ACAD
1000
ASC_BOUNDS
1002
{
1070
    19
1005
A37A
1002
}
  0
LINE
  5
A360
330
A333
100
AcDbEntity
  8
0
100
AcDbLine
 10
43.57899999995641
 20
3.421199999996588
 30
0.0
 11
38.60499999996136
 21
8.999899999990987
 31
0.0
1001
ACAD
1000
ASC_BOUNDS
1002
{
1070
    19
1005
A37A
1002
}
  0
LINE
  5
A361
330
A333
100
AcDbEntity
  8
0
100
AcDbLine
 10
43.57899999995641
 20
8.763099999991255
 30
0.0
 11
43.57899999995641
 21
3.421199999996588
 31
0.0
1001
ACAD
1000
ASC_BOUNDS
1002
{
1070
    19
1005
A37A
1002
}
  0
LINE
  5
A362
330
A333
100
AcDbEntity
  8
0
100
AcDbLine
 10
43.57899999995641
 20
8.763099999991255
 30
0.0
 11
44.99999999995498
 21
8.763099999991255
 31
0.0
1001
ACAD
1000
ASC_BOUNDS
1002
{
1070
    19
1005
A37A
1002
}
  0
LINE
  5
A363
330
A333
100
AcDbEntity
  8
0
100
AcDbLine
 10
37.67199999996831
 20
8.763099999991255
 30
0.0
 11
36.23199999996837
 21
8.763099999991255
 31
0.0
  0
LINE
  5
A364
330
A333
100
AcDbEntity
  8
0
100
AcDbLine
 10
31.64199999996833
 20
8.763099999991255
 30
0.0
 11
31.64199999996833
 21
2.481619422925121
 31
0.0
  0
LINE
  5
A365
330
A333
100
AcDbEntity
  8
0
100
AcDbLine
 10
37.67199999996831
 20
8.763099999991255
 30
0.0
 11
37.67199999996831
 21
2.481619422925121
 31
0.0
  0
LINE
  5
A366
330
A333
100
AcDbEntity
  8
0
100
AcDbLine
 10
36.23199999996837
 20
8.763099999991255
 30
0.0
 11
36.23199999996837
 21
2.481619422925064
 31
0.0
  0
LINE
  5
A367
330
A333
100
AcDbEntity
  8
0
100
AcDbLine
 10
33.08199999996839
 20
8.763099999991255
 30
0.0
 11
33.08199999996839
 21
2.481619422925121
 31
0.0
  0
ARC
  5
A368
330
A333
100
AcDbEntity
  8
0
100
AcDbCircle
 10
34.65699999996832
 20
3.183099999991214
 30
0.0
 40
3.420000000000007
100
AcDbArc
 50
240.0000000000255
 51
299.9999999999766
  0
ARC
  5
A369
330
A333
100
AcDbEntity
  8
0
100
AcDbCircle
 10
34.65699999996832
 20
3.183099999991214
 30
0.0
 40
1.97999999999999
100
AcDbArc
 50
240.000000000026
 51
299.9999999999703
  0
LINE
  5
A36A
330
A333
100
AcDbEntity
  8
0
100
AcDbLine
 10
33.08199999996828
 20
8.763099999991255
 30
0.0
 11
31.64199999996833
 21
8.763099999991255
 31
0.0
  0
ARC
  5
A36B
330
A333
100
AcDbEntity
  8
0
100
AcDbCircle
 10
35.06199999996829
 20
2.481619422925064
 30
0.0
 40
1.17
100
AcDbArc
 50
299.9999999999699
 51
0.0
  0
ARC
  5
A36C
330
A333
100
AcDbEntity
  8
0
100
AcDbCircle
 10
34.25199999996835
 20
2.481619422925121
 30
0.0
 40
1.17
100
AcDbArc
 50
180.0
 51
240.0000000000238
  0
ARC
  5
A36D
330
A333
100
AcDbEntity
  8
0
100
AcDbCircle
 10
35.06199999996841
 20
2.481619422925121
 30
0.0
 40
2.61
100
AcDbArc
 50
299.9999999999756
 51
0.0
  0
ARC
  5
A36E
330
A333
100
AcDbEntity
  8
0
100
AcDbCircle
 10
34.25199999996835
 20
2.481619422925121
 30
0.0
 40
2.61
100
AcDbArc
 50
180.0
 51
240.0000000000244
  0
LINE
  5
A36F
330
A333
100
AcDbEntity
  8
0
100
AcDbLine
 10
29.30199999996933
 20
8.763099999991255
 30
0.0
 11
30.74199999996927
 21
8.763099999991255
 31
0.0
1001
ACAD
1000
ASC_BOUNDS
1002
{
1070
    19
1005
A378
1002
}
  0
LINE
  5
A370
330
A333
100
AcDbEntity
  8
0
100
AcDbLine
 10
30.74199999996927
 20
8.763099999991255
 30
0.0
 11
30.74199999996927
 21
2.373099999991211
 31
0.0
1001
ACAD
1000
ASC_BOUNDS
1002
{
1070
    19
1005
A378
1002
}
  0
LINE
  5
A371
330
A333
100
AcDbEntity
  8
0
100
AcDbLine
 10
26.02015566812236
 20
0.0330999999912365
 30
0.0
 11
28.40199999996923
 21
0.0330999999912365
 31
0.0
1001
ACAD
1000
ASC_BOUNDS
1002
{
1070
    19
1005
A378
1002
}
  0
LINE
  5
A372
330
A333
100
AcDbEntity
  8
0
100
AcDbLine
 10
29.30199999996933
 20
8.763099999991255
 30
0.0
 11
29.30199999996933
 21
2.283099999991236
 31
0.0
1001
ACAD
1000
ASC_BOUNDS
1002
{
1070
    19
1005
A378
1002
}
  0
LINE
  5
A373
330
A333
100
AcDbEntity
  8
0
100
AcDbLine
 10
26.97358892824991
 20
1.383099999991202
 30
0.0
 11
28.40199999996923
 21
1.383099999991202
 31
0.0
1001
ACAD
1000
ASC_BOUNDS
1002
{
1070
    19
1005
A378
1002
}
  0
ARC
  5
A374
330
A333
100
AcDbEntity
  8
0
100
AcDbCircle
 10
28.40199999996923
 20
2.283099999991236
 30
0.0
 40
0.9
100
AcDbArc
 50
270.0
 51
0.0
1001
ACAD
1000
ASC_BOUNDS
1002
{
1070
    19
1005
A378
1002
}
  0
ARC
  5
A375
330
A333
100
AcDbEntity
  8
0
100
AcDbCircle
 10
28.40199999996923
 20
2.373099999991211
 30
0.0
 40
2.34
100
AcDbArc
 50
270.0
 51
0.0
1001
ACAD
1000
ASC_BOUNDS
1002
{
1070
    19
1005
A378
1002
}
  0
INSERT
  5
A376
330
A333
100
AcDbEntity
  8
0
100
AcDbBlockReference
  2
*X23
 10
0.0
 20
0.0
 30
0.0
1001
ACAD
1000
HATCH
1002
{
1070
    19
1000
ANSI37
1040
0.15
1040
0.0
1000
ASC_BOUNDS
1070
     2
1070
     2
1070
    12
1005
A335
1005
A336
1005
A33D
1005
A34C
1005
A34F
1005
A34D
1005
A33E
1005
A343
1005
A341
1005
A345
1005
A344
1005
A346
1070
     2
1070
     3
1005
A351
1005
A353
1005
A352
1000
ASC_SEEDPOINT
1011
3.614004224891801
1021
2.996669441146025
1031
0.0
1000
R14_HATCH_DATA
1000
A376
1011
1.0
1021
0.0
1031
0.0
1011
0.0
1021
1.0
1031
0.0
1011
0.0
1021
0.0
1031
1.0
1040
0.0
1010
0.0
1020
0.0
1030
1.0
1000
ANSI37
1070
     0
1070
     1
1071
        2
1071
        7
1070
     0
1070
     1
1071
       17
1040
13.26299999998673
1040
-0.0001000000000317
1040
9.236999999990758
1040
8.999899999990987
1040
9.236999999990758
1040
8.999999999991019
1040
5.657999999994331
1040
0.9999999999989768
1040
3.181999999996833
1040
4.668599999995308
1040
6.432999999993513
1040
8.763099999991255
1040
4.617999999995391
1040
8.763099999991255
1040
1.420999999998571
1040
4.736799999995242
1040
4.617999999995391
1040
-0.0001000000000317
1040
4.617999999995391
1040
0.0
1040
6.766999999993232
1040
0.0
1040
6.766999999993232
1040
-0.0001000000000317
1040
7.826999999992154
1040
2.368399999997621
1040
10.64699999998936
1040
2.368399999997621
1040
11.70599999998831
1040
-0.0001000000000317
1040
11.70599999998831
1040
0.0
1040
13.26299999998673
1040
0.0
1071
       12
1005
A335
1005
A336
1005
A33D
1005
A34C
1005
A34F
1005
A34D
1005
A33E
1005
A343
1005
A341
1005
A345
1005
A344
1005
A346
1071
       22
1070
     0
1070
     1
1071
        3
1040
9.236999999990758
1040
5.5200999999945
1040
10.06399999998996
1040
3.670999999996297
1040
8.409999999991555
1040
3.670999999996297
1071
        3
1005
A351
1005
A353
1005
A352
1070
     0
1070
     1
1040
0.0
1040
0.15
1070
     0
1070
     2
1040
0.7853981633974483
1040
49.29960901727088
1040
-10.17736998311392
1040
-0.3367596045400932
1040
0.3367596045400932
1070
     0
1040
2.356194490192345
1040
49.29960901727088
1040
-10.17736998311392
1040
-0.3367596045400932
1040
-0.3367596045400932
1070
     0
1040
0.0110235143455945
1071
        2
1040
3.614004224891801
1040
2.996669441146025
1040
0.0
1040
3.614004224891801
1040
2.996669441146025
1040
0.0
1002
}
  0
INSERT
  5
A377
330
A333
100
AcDbEntity
  8
0
100
AcDbBlockReference
  2
*X24
 10
0.0
 20
0.0
 30
0.0
1001
ACAD
1000
HATCH
1002
{
1070
    19
1000
ANSI37
1040
0.15
1040
0.0
1000
ASC_BOUNDS
1070
     1
1070
     2
1070
    10
1005
A337
1005
A338
1005
A359
1005
A357
1005
A358
1005
A34B
1005
A350
1005
A354
1005
A33A
1005
A339
1000
ASC_SEEDPOINT
1011
14.73245321214324
1021
2.798246178283421
1031
0.0
1000
R14_HATCH_DATA
1000
A377
1011
1.0
1021
0.0
1031
0.0
1011
0.0
1021
1.0
1031
0.0
1011
0.0
1021
0.0
1031
1.0
1040
0.0
1010
0.0
1020
0.0
1030
1.0
1000
ANSI37
1070
     0
1070
     1
1071
        1
1071
        7
1070
     0
1070
     1
1071
       10
1040
16.46099999998353
1040
5.432899999994561
1040
18.59199999998134
1040
-0.2368999999997641
1040
22.38199999997767
1040
8.763099999991255
1040
20.89099999997916
1040
8.763099999991255
1040
18.59799999998143
1040
3.315799999996671
1040
16.46099999998353
1040
8.999899999990987
1040
14.32399999998563
1040
3.315799999996671
1040
12.02999999998792
1040
8.763099999991255
1040
10.53899999998941
1040
8.763099999991255
1040
14.32899999998563
1040
-0.2368999999997641
1071
       10
1005
A337
1005
A338
1005
A359
1005
A357
1005
A358
1005
A34B
1005
A350
1005
A354
1005
A33A
1005
A339
1070
     0
1070
     1
1040
0.0
1040
0.15
1070
     0
1070
     2
1040
0.7853981633974483
1040
49.29960901727088
1040
-10.17736998311392
1040
-0.3367596045400932
1040
0.3367596045400932
1070
     0
1040
2.356194490192345
1040
49.29960901727088
1040
-10.17736998311392
1040
-0.3367596045400932
1040
-0.3367596045400932
1070
     0
1040
0.0110235143455945
1071
        1
1040
14.73245321214324
1040
2.798246178283421
1040
0.0
1002
}
  0
INSERT
  5
A378
330
A333
100
AcDbEntity
  8
0
100
AcDbBlockReference
  2
*X25
 10
0.0
 20
0.0
 30
0.0
1001
ACAD
1000
HATCH
1002
{
1070
    19
1000
ANSI37
1040
0.15
1040
0.0
1000
ASC_BOUNDS
1070
     2
1070
     2
1070
    13
1005
A33B
1005
A348
1005
A349
1005
A347
1005
A34A
1005
A371
1005
A375
1005
A370
1005
A36F
1005
A372
1005
A374
1005
A373
1005
A33C
1070
     2
1070
     3
1005
A355
1005
A35A
1005
A356
1000
ASC_SEEDPOINT
1011
21.97929957367762
1021
3.294304244259308
1031
0.0
1000
R14_HATCH_DATA
1000
A378
1011
1.0
1021
0.0
1031
0.0
1011
0.0
1021
1.0
1031
0.0
1011
0.0
1021
0.0
1031
1.0
1040
0.0
1010
0.0
1020
0.0
1030
1.0
1000
ANSI37
1070
     0
1070
     1
1071
        2
1071
        7
1070
     1
1070
     1
1071
       15
1040
23.56599999997638
1040
8.999899999990987
1040
0.0
1040
19.53899999998043
1040
-0.0001000000000317
1040
0.0
1040
19.53899999998043
1040
0.0
1040
0.0
1040
21.09599999997886
1040
0.0
1040
0.0
1040
21.09599999997886
1040
-0.0001000000000317
1040
0.0
1040
22.15599999997789
1040
2.368399999997621
1040
0.0
1040
24.97599999997499
1040
2.368399999997621
1040
0.0
1040
26.02015566812236
1040
0.0330999999912365
1040
0.0
1040
28.40199999996923
1040
0.0330999999912365
1040
0.414213562373095
1040
30.74199999996923
1040
2.373099999991211
1040
0.0
1040
30.74199999996927
1040
8.763099999991255
1040
0.0
1040
29.30199999996933
1040
8.763099999991255
1040
0.0
1040
29.30199999996933
1040
2.283099999991236
1040
-0.414213562373095
1040
28.40199999996923
1040
1.383099999991237
1040
0.0
1040
26.97358892824991
1040
1.383099999991202
1040
0.0
1071
       13
1005
A33B
1005
A348
1005
A349
1005
A347
1005
A34A
1005
A371
1005
A375
1005
A370
1005
A36F
1005
A372
1005
A374
1005
A373
1005
A33C
1071
       22
1070
     0
1070
     1
1071
        3
1040
22.7389999999773
1040
3.670999999996297
1040
23.56599999997638
1040
5.5200999999945
1040
24.39299999997559
1040
3.670999999996297
1071
        3
1005
A355
1005
A35A
1005
A356
1070
     0
1070
     1
1040
0.0
1040
0.15
1070
     0
1070
     2
1040
0.7853981633974483
1040
49.29960901727088
1040
-10.17736998311392
1040
-0.3367596045400932
1040
0.3367596045400932
1070
     0
1040
2.356194490192345
1040
49.29960901727088
1040
-10.17736998311392
1040
-0.3367596045400932
1040
-0.3367596045400932
1070
     0
1040
0.0110235143455945
1071
        2
1040
21.97929957367762
1040
3.294304244259308
1040
0.0
1040
21.97929957367762
1040
3.294304244259308
1040
0.0
1002
}
  0
INSERT
  5
A379
330
A333
100
AcDbEntity
  8
0
100
AcDbBlockReference
  2
*X26
 10
0.0
 20
0.0
 30
0.0
1001
ACAD
1000
HATCH
1002
{
1070
    19
1000
ANSI37
1040
0.15
1040
0.0
1000
R14_HATCH_DATA
1000
A379
1011
1.0
1021
0.0
1031
0.0
1011
0.0
1021
1.0
1031
0.0
1011
0.0
1021
0.0
1031
1.0
1040
0.0
1010
0.0
1020
0.0
1030
1.0
1000
ANSI37
1070
     0
1070
     1
1071
        1
1071
        7
1070
     1
1070
     1
1071
       12
1040
31.64199999996833
1040
2.481619422925121
1040
0.2679491924310942
1040
32.94699999997067
1040
0.2212931190493919
1040
0.2679491924301353
1040
36.36699999995983
1040
0.2212931190459813
1040
0.2679491924321411
1040
37.67199999996831
1040
2.481619422928361
1040
0.0
1040
37.67199999996831
1040
8.763099999991255
1040
0.0
1040
36.23199999996837
1040
8.763099999991255
1040
0.0
1040
36.23199999996837
1040
2.481619422925064
1040
-0.2679491924310291
1040
35.64699999996708
1040
1.468369700498386
1040
-0.267949192430519
1040
33.66699999997093
1040
1.468369700497703
1040
-0.267949192431809
1040
33.08199999996839
1040
2.481619422926997
1040
0.0
1040
33.08199999996839
1040
8.763099999991255
1040
0.0
1040
31.64199999996833
1040
8.763099999991255
1040
0.0
1071
        0
1070
     0
1070
     1
1040
0.0
1040
0.15
1070
     0
1070
     2
1040
0.7853981633974483
1040
49.29960901727088
1040
-10.17736998311392
1040
-0.3367596045400932
1040
0.3367596045400932
1070
     0
1040
2.356194490192345
1040
49.29960901727088
1040
-10.17736998311392
1040
-0.3367596045400932
1040
-0.3367596045400932
1070
     0
1040
0.0110235143455945
1071
        1
1040
32.30357378967278
1040
3.988785755459219
1040
0.0
1002
}
  0
INSERT
  5
A37A
330
A333
100
AcDbEntity
  8
0
100
AcDbBlockReference
  2
*X27
 10
0.0
 20
0.0
 30
0.0
1001
ACAD
1000
HATCH
1002
{
1070
    19
1000
ANSI37
1040
0.15
1040
0.0
1000
ASC_BOUNDS
1070
     1
1070
     2
1070
     8
1005
A35B
1005
A35E
1005
A362
1005
A361
1005
A360
1005
A35D
1005
A35F
1005
A35C
1000
ASC_SEEDPOINT
1011
39.74896370716704
1021
4.484843821435049
1031
0.0
1000
R14_HATCH_DATA
1000
A37A
1011
1.0
1021
0.0
1031
0.0
1011
0.0
1021
1.0
1031
0.0
1011
0.0
1021
0.0
1031
1.0
1040
0.0
1010
0.0
1020
0.0
1030
1.0
1000
ANSI37
1070
     0
1070
     1
1071
        1
1071
        7
1070
     0
1070
     1
1071
        9
1040
40.02599999995994
1040
5.341799999994635
1040
44.99999999995498
1040
-0.2368999999997641
1040
44.99999999995498
1040
8.763099999991255
1040
43.57899999995641
1040
8.763099999991255
1040
43.57899999995641
1040
3.421199999996588
1040
38.60499999996136
1040
8.999899999990987
1040
38.60499999996136
1040
8.999999999991019
1040
38.60499999996136
1040
0.0
1040
40.02599999995994
1040
0.0
1071
        8
1005
A35B
1005
A35E
1005
A362
1005
A361
1005
A360
1005
A35D
1005
A35F
1005
A35C
1070
     0
1070
     1
1040
0.0
1040
0.15
1070
     0
1070
     2
1040
0.7853981633974483
1040
49.29960901727088
1040
-10.17736998311392
1040
-0.3367596045400932
1040
0.3367596045400932
1070
     0
1040
2.356194490192345
1040
49.29960901727088
1040
-10.17736998311392
1040
-0.3367596045400932
1040
-0.3367596045400932
1070
     0
1040
0.0110235143455945
1071
        1
1040
39.74896370716704
1040
4.484843821435049
1040
0.0
1002
}
  0
INSERT
  5
A37B
330
A333
100
AcDbEntity
  8
0
100
AcDbBlockReference
  2
*X28
 10
0.0
 20
0.0
 30
0.0
1001
ACAD
1000
HATCH
1002
{
1070
    19
1000
ANSI37
1040
0.15
1040
0.0
1000
ASC_BOUNDS
1070
     1
1070
     2
1070
     4
1005
A33F
1005
A34E
1005
A340
1005
A342
1000
ASC_SEEDPOINT
1011
1.079051535452663
1021
4.148538732891836
1031
0.0
1000
R14_HATCH_DATA
1000
A37B
1011
1.0
1021
0.0
1031
0.0
1011
0.0
1021
1.0
1031
0.0
1011
0.0
1021
0.0
1031
1.0
1040
0.0
1010
0.0
1020
0.0
1030
1.0
1000
ANSI37
1070
     0
1070
     1
1071
        1
1071
        7
1070
     0
1070
     1
1071
        4
1040
1.420999999998571
1040
0.0
1040
1.420999999998571
1040
8.763099999991255
1040
0.0
1040
8.763099999991255
1040
0.0
1040
0.0
1071
        4
1005
A33F
1005
A34E
1005
A340
1005
A342
1070
     0
1070
     1
1040
0.0
1040
0.15
1070
     0
1070
     2
1040
0.7853981633974483
1040
49.29960901727088
1040
-10.17736998311392
1040
-0.3367596045400932
1040
0.3367596045400932
1070
     0
1040
2.356194490192345
1040
49.29960901727088
1040
-10.17736998311392
1040
-0.3367596045400932
1040
-0.3367596045400932
1070
     0
1040
0.0053004257112761
1071
        1
1040
1.079051535452663
1040
4.148538732891836
1040
0.0
1002
}
  0
ENDBLK
  5
AA57
330
A333
100
AcDbEntity
  8
0
100
AcDbBlockEnd
  0
BLOCK
  5
B468
330
B2DA
100
AcDbEntity
  8
0
100
AcDbBlockBegin
  2
*X23
 70
     1
 10
0.0
 20
0.0
 30
0.0
  3
*X23
  1

  0
LINE
  5
B2DB
330
B2DA
100
AcDbEntity
  8
0
  6
CONTINUOUS
100
AcDbLine
 10
3.418023043697893
 20
7.251849696850613
 30
0.0
 11
4.929273346838536
 21
8.763099999991255
 31
0.0
  0
LINE
  5
B2DC
330
B2DA
100
AcDbEntity
  8
0
  6
CONTINUOUS
100
AcDbLine
 10
1.483656411257782
 20
4.643963855330318
 30
0.0
 11
5.60279255591872
 21
8.763099999991255
 31
0.0
  0
LINE
  5
B2DD
330
B2DA
100
AcDbEntity
  8
0
  6
CONTINUOUS
100
AcDbLine
 10
1.755053947328235
 20
4.241842182320584
 30
0.0
 11
6.276311764998907
 21
8.763099999991255
 31
0.0
  0
LINE
  5
B2DE
330
B2DA
100
AcDbEntity
  8
0
  6
CONTINUOUS
100
AcDbLine
 10
2.026451483398688
 20
3.839720509310849
 30
0.0
 11
4.441040904851878
 21
6.254309930764039
 31
0.0
  0
LINE
  5
B2DF
330
B2DA
100
AcDbEntity
  8
0
  6
CONTINUOUS
100
AcDbLine
 10
2.297849019469139
 20
3.437598836301114
 30
0.0
 11
3.321765168359338
 21
4.461514985191313
 31
0.0
  0
LINE
  5
B2E0
330
B2DA
100
AcDbEntity
  8
0
  6
CONTINUOUS
100
AcDbLine
 10
2.569246555539591
 20
3.03547716329138
 30
0.0
 11
3.593163397972743
 21
4.059394005724531
 31
0.0
  0
LINE
  5
B2E1
330
B2DA
100
AcDbEntity
  8
0
  6
CONTINUOUS
100
AcDbLine
 10
2.840644091610043
 20
2.633355490281646
 30
0.0
 11
3.864561627586149
 21
3.657273026257751
 31
0.0
  0
LINE
  5
B2E2
330
B2DA
100
AcDbEntity
  8
0
  6
CONTINUOUS
100
AcDbLine
 10
3.112041627680496
 20
2.231233817271911
 30
0.0
 11
4.135959857199554
 21
3.25515204679097
 31
0.0
  0
LINE
  5
B2E3
330
B2DA
100
AcDbEntity
  8
0
  6
CONTINUOUS
100
AcDbLine
 10
3.383439163750948
 20
1.829112144262177
 30
0.0
 11
4.40735808681296
 21
2.853031067324189
 31
0.0
  0
LINE
  5
B2E4
330
B2DA
100
AcDbEntity
  8
0
  6
CONTINUOUS
100
AcDbLine
 10
3.654836699821399
 20
1.426990471252442
 30
0.0
 11
4.678756316426365
 21
2.450910087857407
 31
0.0
  0
LINE
  5
B2E5
330
B2DA
100
AcDbEntity
  8
0
  6
CONTINUOUS
100
AcDbLine
 10
3.926234235891853
 20
1.024868798242709
 30
0.0
 11
4.95015454603977
 21
2.048789108390626
 31
0.0
  0
LINE
  5
B2E6
330
B2DA
100
AcDbEntity
  8
0
  6
CONTINUOUS
100
AcDbLine
 10
4.197631771962304
 20
0.6227471252329737
 30
0.0
 11
5.221552775653176
 21
1.646668128923846
 31
0.0
  0
LINE
  5
B2E7
330
B2DA
100
AcDbEntity
  8
0
  6
CONTINUOUS
100
AcDbLine
 10
8.715877546767851
 20
7.835069736359266
 30
0.0
 11
9.435953450375058
 21
8.555145639966472
 31
0.0
  0
LINE
  5
B2E8
330
B2DA
100
AcDbEntity
  8
0
  6
CONTINUOUS
100
AcDbLine
 10
8.170620868422267
 20
6.616293848933497
 30
0.0
 11
9.644120833743461
 21
8.08979381425469
 31
0.0
  0
LINE
  5
B2E9
330
B2DA
100
AcDbEntity
  8
0
  6
CONTINUOUS
100
AcDbLine
 10
7.625364190076684
 20
5.397517961507727
 30
0.0
 11
9.852288217111864
 21
7.624441988542907
 31
0.0
  0
LINE
  5
B2EA
330
B2DA
100
AcDbEntity
  8
0
  6
CONTINUOUS
100
AcDbLine
 10
7.080107511731101
 20
4.178742074081957
 30
0.0
 11
10.06045560048027
 21
7.159090162831124
 31
0.0
  0
LINE
  5
B2EB
330
B2DA
100
AcDbEntity
  8
0
  6
CONTINUOUS
100
AcDbLine
 10
6.534850833385518
 20
2.959966186656187
 30
0.0
 11
10.26862298384867
 21
6.693738337119342
 31
0.0
  0
LINE
  5
B2EC
330
B2DA
100
AcDbEntity
  8
0
  6
CONTINUOUS
100
AcDbLine
 10
4.469029308032756
 20
0.2206254522232385
 30
0.0
 11
5.492951005266582
 21
1.244547149457064
 31
0.0
  0
LINE
  5
B2ED
330
B2DA
100
AcDbEntity
  8
0
  6
CONTINUOUS
100
AcDbLine
 10
5.989594155039935
 20
1.741190299230417
 30
0.0
 11
8.806950407233131
 21
4.558546551423613
 31
0.0
  0
LINE
  5
B2EE
330
B2DA
100
AcDbEntity
  8
0
  6
CONTINUOUS
100
AcDbLine
 10
9.401251593263643
 20
5.152847737454126
 30
0.0
 11
10.47679036721708
 21
6.228386511407559
 31
0.0
  0
LINE
  5
B2EF
330
B2DA
100
AcDbEntity
  8
0
  6
CONTINUOUS
100
AcDbLine
 10
4.921837203428691
 20
-0.0000858614610131
 30
0.0
 11
8.592923064886001
 21
3.670999999996297
 31
0.0
  0
LINE
  5
B2F0
330
B2DA
100
AcDbEntity
  8
0
  6
CONTINUOUS
100
AcDbLine
 10
9.609390446785305
 20
4.6874673818956
 30
0.0
 11
10.68495775058548
 21
5.763034685695775
 31
0.0
  0
LINE
  5
B2F1
330
B2DA
100
AcDbEntity
  8
0
  6
CONTINUOUS
100
AcDbLine
 10
5.595387755019432
 20
-0.0000545189504582
 30
0.0
 11
7.716137258923768
 21
2.120694984953879
 31
0.0
  0
LINE
  5
B2F2
330
B2DA
100
AcDbEntity
  8
0
  6
CONTINUOUS
100
AcDbLine
 10
6.268938306610172
 20
-0.000023176439905
 30
0.0
 11
7.170485805526503
 21
0.9015243224764267
 31
0.0
  0
LINE
  5
B2F3
330
B2DA
100
AcDbEntity
  8
0
  6
CONTINUOUS
100
AcDbLine
 10
7.963842273967511
 20
2.368399999997621
 30
0.0
 11
9.266442273966188
 21
3.670999999996297
 31
0.0
  0
LINE
  5
B2F4
330
B2DA
100
AcDbEntity
  8
0
  6
CONTINUOUS
100
AcDbLine
 10
8.637361483047696
 20
2.368399999997621
 30
0.0
 11
9.939961483046375
 21
3.670999999996297
 31
0.0
  0
LINE
  5
B2F5
330
B2DA
100
AcDbEntity
  8
0
  6
CONTINUOUS
100
AcDbLine
 10
9.817529300306965
 20
4.222087026337075
 30
0.0
 11
10.89312513395388
 21
5.297682859983993
 31
0.0
  0
LINE
  5
B2F6
330
B2DA
100
AcDbEntity
  8
0
  6
CONTINUOUS
100
AcDbLine
 10
10.02566815382863
 20
3.756706670778549
 30
0.0
 11
11.10129251732229
 21
4.832331034272211
 31
0.0
  0
LINE
  5
B2F7
330
B2DA
100
AcDbEntity
  8
0
  6
CONTINUOUS
100
AcDbLine
 10
9.310880692127883
 20
2.368399999997621
 30
0.0
 11
11.30945990069069
 21
4.366979208560428
 31
0.0
  0
LINE
  5
B2F8
330
B2DA
100
AcDbEntity
  8
0
  6
CONTINUOUS
100
AcDbLine
 10
9.98439990120807
 20
2.36839999999762
 30
0.0
 11
11.5176272840591
 21
3.901627382848645
 31
0.0
  0
LINE
  5
B2F9
330
B2DA
100
AcDbEntity
  8
0
  6
CONTINUOUS
100
AcDbLine
 10
10.65037369446246
 20
2.36085458417182
 30
0.0
 11
11.7257946674275
 21
3.436275557136862
 31
0.0
  0
LINE
  5
B2FA
330
B2DA
100
AcDbEntity
  8
0
  6
CONTINUOUS
100
AcDbLine
 10
10.85847197087848
 20
1.895433651507656
 30
0.0
 11
11.9339620507959
 21
2.97092373142508
 31
0.0
  0
LINE
  5
B2FB
330
B2DA
100
AcDbEntity
  8
0
  6
CONTINUOUS
100
AcDbLine
 10
11.0665702472945
 20
1.430012718843491
 30
0.0
 11
12.14212943416431
 21
2.505571905713296
 31
0.0
  0
LINE
  5
B2FC
330
B2DA
100
AcDbEntity
  8
0
  6
CONTINUOUS
100
AcDbLine
 10
11.27466852371052
 20
0.9645917861793256
 30
0.0
 11
12.35029681753271
 21
2.040220080001513
 31
0.0
  0
LINE
  5
B2FD
330
B2DA
100
AcDbEntity
  8
0
  6
CONTINUOUS
100
AcDbLine
 10
11.48276680012654
 20
0.4991708535151611
 30
0.0
 11
12.55846420090111
 21
1.57486825428973
 31
0.0
  0
LINE
  5
B2FE
330
B2DA
100
AcDbEntity
  8
0
  6
CONTINUOUS
100
AcDbLine
 10
11.69086507654257
 20
0.0337499208509957
 30
0.0
 11
12.76663158426952
 21
1.109516428577947
 31
0.0
  0
LINE
  5
B2FF
330
B2DA
100
AcDbEntity
  8
0
  6
CONTINUOUS
100
AcDbLine
 10
12.33057447873954
 20
-0.0000598860322123
 30
0.0
 11
12.97479896763792
 21
0.6441646028661663
 31
0.0
  0
LINE
  5
B300
330
B2DA
100
AcDbEntity
  8
0
  6
CONTINUOUS
100
AcDbLine
 10
13.00413694809395
 20
-0.0000166257579952
 30
0.0
 11
13.18296635100632
 21
0.1788127771543824
 31
0.0
  0
LINE
  5
B301
330
B2DA
100
AcDbEntity
  8
0
  6
CONTINUOUS
100
AcDbLine
 10
4.772852165289667
 20
-0.000092794222212
 30
0.0
 11
4.296495091028902
 21
0.4762642800385528
 31
0.0
  0
LINE
  5
B302
330
B2DA
100
AcDbEntity
  8
0
  6
CONTINUOUS
100
AcDbLine
 10
5.446340034776103
 20
-0.0000614546284616
 30
0.0
 11
2.898195908335625
 21
2.548082671812017
 31
0.0
  0
LINE
  5
B303
330
B2DA
100
AcDbEntity
  8
0
  6
CONTINUOUS
100
AcDbLine
 10
6.119827904262539
 20
-0.0000301150347113
 30
0.0
 11
1.499896725642348
 21
4.61990106358548
 31
0.0
  0
LINE
  5
B304
330
B2DA
100
AcDbEntity
  8
0
  6
CONTINUOUS
100
AcDbLine
 10
6.775136745476159
 20
0.0181802528318542
 30
0.0
 11
5.699826040202669
 21
1.093490958105344
 31
0.0
  0
LINE
  5
B305
330
B2DA
100
AcDbEntity
  8
0
  6
CONTINUOUS
100
AcDbLine
 10
6.983376846288489
 20
0.4834593610997118
 30
0.0
 11
5.908008617934405
 21
1.558827589453796
 31
0.0
  0
LINE
  5
B306
330
B2DA
100
AcDbEntity
  8
0
  6
CONTINUOUS
100
AcDbLine
 10
5.377063484962296
 20
1.416253513345719
 30
0.0
 11
1.702276957014131
 21
5.091040041293883
 31
0.0
  0
LINE
  5
B307
330
B2DA
100
AcDbEntity
  8
0
  6
CONTINUOUS
100
AcDbLine
 10
3.978745891735324
 20
3.488090315652877
 30
0.0
 11
2.000373521109399
 21
5.466462686278803
 31
0.0
  0
LINE
  5
B308
330
B2DA
100
AcDbEntity
  8
0
  6
CONTINUOUS
100
AcDbLine
 10
7.191616947100819
 20
0.948738469367568
 30
0.0
 11
6.11619119566614
 21
2.024164220802247
 31
0.0
  0
LINE
  5
B309
330
B2DA
100
AcDbEntity
  8
0
  6
CONTINUOUS
100
AcDbLine
 10
7.399857047913149
 20
1.414017577635424
 30
0.0
 11
6.324373773397875
 21
2.489500852150698
 31
0.0
  0
LINE
  5
B30A
330
B2DA
100
AcDbEntity
  8
0
  6
CONTINUOUS
100
AcDbLine
 10
7.608097148725479
 20
1.879296685903281
 30
0.0
 11
6.53255635112961
 21
2.95483748349915
 31
0.0
  0
LINE
  5
B30B
330
B2DA
100
AcDbEntity
  8
0
  6
CONTINUOUS
100
AcDbLine
 10
7.816337249537808
 20
2.344575794171138
 30
0.0
 11
6.740738928861345
 21
3.420174114847601
 31
0.0
  0
LINE
  5
B30C
330
B2DA
100
AcDbEntity
  8
0
  6
CONTINUOUS
100
AcDbLine
 10
3.310241080789734
 20
4.830114335678653
 30
0.0
 11
2.298470085204666
 21
5.84188533126372
 31
0.0
  0
LINE
  5
B30D
330
B2DA
100
AcDbEntity
  8
0
  6
CONTINUOUS
100
AcDbLine
 10
3.60832983563551
 20
5.205544789913063
 30
0.0
 11
2.596566649299935
 21
6.217307976248638
 31
0.0
  0
LINE
  5
B30E
330
B2DA
100
AcDbEntity
  8
0
  6
CONTINUOUS
100
AcDbLine
 10
3.906418590481286
 20
5.580975244147473
 30
0.0
 11
2.894663213395203
 21
6.592730621233557
 31
0.0
  0
LINE
  5
B30F
330
B2DA
100
AcDbEntity
  8
0
  6
CONTINUOUS
100
AcDbLine
 10
4.204507345327062
 20
5.956405698381884
 30
0.0
 11
3.192759777490472
 21
6.968153266218474
 31
0.0
  0
LINE
  5
B310
330
B2DA
100
AcDbEntity
  8
0
  6
CONTINUOUS
100
AcDbLine
 10
8.466032252791512
 20
2.368399999997621
 30
0.0
 11
6.948921506593081
 21
3.885510746196053
 31
0.0
  0
LINE
  5
B311
330
B2DA
100
AcDbEntity
  8
0
  6
CONTINUOUS
100
AcDbLine
 10
9.139551461871699
 20
2.36839999999762
 30
0.0
 11
7.157104084324816
 21
4.350847377544504
 31
0.0
  0
LINE
  5
B312
330
B2DA
100
AcDbEntity
  8
0
  6
CONTINUOUS
100
AcDbLine
 10
4.502596100172839
 20
6.331836152616295
 30
0.0
 11
3.49085634158574
 21
7.343575911203393
 31
0.0
  0
LINE
  5
B313
330
B2DA
100
AcDbEntity
  8
0
  6
CONTINUOUS
100
AcDbLine
 10
4.800684855018615
 20
6.707266606850705
 30
0.0
 11
3.788952905681008
 21
7.718998556188312
 31
0.0
  0
LINE
  5
B314
330
B2DA
100
AcDbEntity
  8
0
  6
CONTINUOUS
100
AcDbLine
 10
12.18154012887317
 20
-0.0000694579236642
 30
0.0
 11
11.32140332908496
 21
0.8600673418645499
 31
0.0
  0
LINE
  5
B315
330
B2DA
100
AcDbEntity
  8
0
  6
CONTINUOUS
100
AcDbLine
 10
12.85501608323566
 20
-0.0000262032059659
 30
0.0
 11
10.77672456435345
 21
2.078265315676246
 31
0.0
  0
LINE
  5
B316
330
B2DA
100
AcDbEntity
  8
0
  6
CONTINUOUS
100
AcDbLine
 10
9.813070670951886
 20
2.36839999999762
 30
0.0
 11
8.51047067095321
 21
3.670999999996297
 31
0.0
  0
LINE
  5
B317
330
B2DA
100
AcDbEntity
  8
0
  6
CONTINUOUS
100
AcDbLine
 10
10.48658988003207
 20
2.36839999999762
 30
0.0
 11
9.183989880033396
 21
3.670999999996297
 31
0.0
  0
LINE
  5
B318
330
B2DA
100
AcDbEntity
  8
0
  6
CONTINUOUS
100
AcDbLine
 10
8.441048632286794
 20
3.740422038662712
 30
0.0
 11
7.365286662056551
 21
4.816184008892956
 31
0.0
  0
LINE
  5
B319
330
B2DA
100
AcDbEntity
  8
0
  6
CONTINUOUS
100
AcDbLine
 10
8.649187485808454
 20
4.205802394221237
 30
0.0
 11
7.573469239788285
 21
5.281520640241407
 31
0.0
  0
LINE
  5
B31A
330
B2DA
100
AcDbEntity
  8
0
  6
CONTINUOUS
100
AcDbLine
 10
5.098773609864391
 20
7.082697061085115
 30
0.0
 11
4.087049469776277
 21
8.09442120117323
 31
0.0
  0
LINE
  5
B31B
330
B2DA
100
AcDbEntity
  8
0
  6
CONTINUOUS
100
AcDbLine
 10
5.396862364710167
 20
7.458127515319526
 30
0.0
 11
4.385146033871544
 21
8.469843846158149
 31
0.0
  0
LINE
  5
B31C
330
B2DA
100
AcDbEntity
  8
0
  6
CONTINUOUS
100
AcDbLine
 10
13.04801363231285
 20
0.4804954567970334
 30
0.0
 11
9.85750908911358
 21
3.670999999996297
 31
0.0
  0
LINE
  5
B31D
330
B2DA
100
AcDbEntity
  8
0
  6
CONTINUOUS
100
AcDbLine
 10
8.857326339330116
 20
4.671182749779763
 30
0.0
 11
7.781651817520021
 21
5.746857271589858
 31
0.0
  0
LINE
  5
B31E
330
B2DA
100
AcDbEntity
  8
0
  6
CONTINUOUS
100
AcDbLine
 10
5.694951119555943
 20
7.833557969553937
 30
0.0
 11
4.765409089118624
 21
8.763099999991255
 31
0.0
  0
LINE
  5
B31F
330
B2DA
100
AcDbEntity
  8
0
  6
CONTINUOUS
100
AcDbLine
 10
12.50286117236978
 20
1.699167125820288
 30
0.0
 11
9.68611877250287
 21
4.515909525687196
 31
0.0
  0
LINE
  5
B320
330
B2DA
100
AcDbEntity
  8
0
  6
CONTINUOUS
100
AcDbLine
 10
9.065465192851777
 20
5.136563105338288
 30
0.0
 11
7.989834395251757
 21
6.21219390293831
 31
0.0
  0
LINE
  5
B321
330
B2DA
100
AcDbEntity
  8
0
  6
CONTINUOUS
100
AcDbLine
 10
5.993039874401719
 20
8.208988423788346
 30
0.0
 11
5.43892829819881
 21
8.763099999991255
 31
0.0
  0
LINE
  5
B322
330
B2DA
100
AcDbEntity
  8
0
  6
CONTINUOUS
100
AcDbLine
 10
11.95770871242671
 20
2.917838794843543
 30
0.0
 11
8.19801697298349
 21
6.677530534286761
 31
0.0
  0
LINE
  5
B323
330
B2DA
100
AcDbEntity
  8
0
  6
CONTINUOUS
100
AcDbLine
 10
6.291128629247495
 20
8.584418878022756
 30
0.0
 11
6.112447507278997
 21
8.763099999991255
 31
0.0
  0
LINE
  5
B324
330
B2DA
100
AcDbEntity
  8
0
  6
CONTINUOUS
100
AcDbLine
 10
11.41255625248364
 20
4.136510463866797
 30
0.0
 11
8.406199550715227
 21
7.142867165635211
 31
0.0
  0
LINE
  5
B325
330
B2DA
100
AcDbEntity
  8
0
  6
CONTINUOUS
100
AcDbLine
 10
10.86740379254057
 20
5.355182132890051
 30
0.0
 11
8.614382128446962
 21
7.608203796983664
 31
0.0
  0
LINE
  5
B326
330
B2DA
100
AcDbEntity
  8
0
  6
CONTINUOUS
100
AcDbLine
 10
10.3222513325975
 20
6.573853801913305
 30
0.0
 11
8.822564706178696
 21
8.073540428332114
 31
0.0
  0
LINE
  5
B327
330
B2DA
100
AcDbEntity
  8
0
  6
CONTINUOUS
100
AcDbLine
 10
9.777098872654436
 20
7.792525470936562
 30
0.0
 11
9.030747283910433
 21
8.538877059680566
 31
0.0
  0
ENDBLK
  5
B469
330
B2DA
100
AcDbEntity
  8
0
100
AcDbBlockEnd
  0
BLOCK
  5
B46A
330
B328
100
AcDbEntity
  8
0
100
AcDbBlockBegin
  2
*X24
 70
     1
 10
0.0
 20
0.0
 30
0.0
  3
*X24
  1

  0
LINE
  5
B329
330
B328
100
AcDbEntity
  8
0
  6
CONTINUOUS
100
AcDbLine
 10
10.67292308101235
 20
8.445076852443387
 30
0.0
 11
10.99094622856022
 21
8.763099999991255
 31
0.0
  0
LINE
  5
B32A
330
B328
100
AcDbEntity
  8
0
  6
CONTINUOUS
100
AcDbLine
 10
10.87250383178748
 20
7.971138394138331
 30
0.0
 11
11.6644654376404
 21
8.763099999991255
 31
0.0
  0
LINE
  5
B32B
330
B328
100
AcDbEntity
  8
0
  6
CONTINUOUS
100
AcDbLine
 10
11.07208458256261
 20
7.497199935833273
 30
0.0
 11
12.12126590876355
 21
8.546381262034211
 31
0.0
  0
LINE
  5
B32C
330
B328
100
AcDbEntity
  8
0
  6
CONTINUOUS
100
AcDbLine
 10
11.27166533333774
 20
7.023261477528216
 30
0.0
 11
12.32085164573666
 21
8.072447789927136
 31
0.0
  0
LINE
  5
B32D
330
B328
100
AcDbEntity
  8
0
  6
CONTINUOUS
100
AcDbLine
 10
11.47124608411287
 20
6.549323019223158
 30
0.0
 11
12.52043738270977
 21
7.59851431782006
 31
0.0
  0
LINE
  5
B32E
330
B328
100
AcDbEntity
  8
0
  6
CONTINUOUS
100
AcDbLine
 10
11.670826834888
 20
6.075384560918101
 30
0.0
 11
12.72002311968288
 21
7.124580845712984
 31
0.0
  0
LINE
  5
B32F
330
B328
100
AcDbEntity
  8
0
  6
CONTINUOUS
100
AcDbLine
 10
11.87040758566313
 20
5.601446102613043
 30
0.0
 11
12.91960885665599
 21
6.650647373605907
 31
0.0
  0
LINE
  5
B330
330
B328
100
AcDbEntity
  8
0
  6
CONTINUOUS
100
AcDbLine
 10
12.06998833643825
 20
5.127507644307986
 30
0.0
 11
13.1191945936291
 21
6.176713901498832
 31
0.0
  0
LINE
  5
B331
330
B328
100
AcDbEntity
  8
0
  6
CONTINUOUS
100
AcDbLine
 10
12.26956908721338
 20
4.65356918600293
 30
0.0
 11
13.31878033060221
 21
5.702780429391757
 31
0.0
  0
LINE
  5
B332
330
B328
100
AcDbEntity
  8
0
  6
CONTINUOUS
100
AcDbLine
 10
12.46914983798851
 20
4.179630727697873
 30
0.0
 11
13.51836606757532
 21
5.228846957284683
 31
0.0
  0
LINE
  5
B333
330
B328
100
AcDbEntity
  8
0
  6
CONTINUOUS
100
AcDbLine
 10
12.66873058876364
 20
3.705692269392816
 30
0.0
 11
13.71795180454843
 21
4.754913485177607
 31
0.0
  0
LINE
  5
B334
330
B328
100
AcDbEntity
  8
0
  6
CONTINUOUS
100
AcDbLine
 10
12.86831133953877
 20
3.231753811087759
 30
0.0
 11
13.91753754152154
 21
4.280980013070531
 31
0.0
  0
LINE
  5
B335
330
B328
100
AcDbEntity
  8
0
  6
CONTINUOUS
100
AcDbLine
 10
13.0678920903139
 20
2.757815352782702
 30
0.0
 11
14.11712327849465
 21
3.807046540963456
 31
0.0
  0
LINE
  5
B336
330
B328
100
AcDbEntity
  8
0
  6
CONTINUOUS
100
AcDbLine
 10
13.26747284108903
 20
2.283876894477644
 30
0.0
 11
14.31670901546777
 21
3.333113068856379
 31
0.0
  0
LINE
  5
B337
330
B328
100
AcDbEntity
  8
0
  6
CONTINUOUS
100
AcDbLine
 10
16.36767838827179
 20
8.751678487061342
 30
0.0
 11
16.50332410898388
 21
8.887324207773432
 31
0.0
  0
LINE
  5
B338
330
B328
100
AcDbEntity
  8
0
  6
CONTINUOUS
100
AcDbLine
 10
15.96190732182191
 20
7.67238821153127
 30
0.0
 11
16.68735328004734
 21
8.397834169756699
 31
0.0
  0
LINE
  5
B339
330
B328
100
AcDbEntity
  8
0
  6
CONTINUOUS
100
AcDbLine
 10
15.55613625537202
 20
6.593097936001196
 30
0.0
 11
16.87138245111079
 21
7.908344131739965
 31
0.0
  0
LINE
  5
B33A
330
B328
100
AcDbEntity
  8
0
  6
CONTINUOUS
100
AcDbLine
 10
15.15036518892213
 20
5.513807660471122
 30
0.0
 11
17.05541162217424
 21
7.418854093723231
 31
0.0
  0
LINE
  5
B33B
330
B328
100
AcDbEntity
  8
0
  6
CONTINUOUS
100
AcDbLine
 10
14.74459412247225
 20
4.434517384941048
 30
0.0
 11
17.2394407932377
 21
6.929364055706499
 31
0.0
  0
LINE
  5
B33C
330
B328
100
AcDbEntity
  8
0
  6
CONTINUOUS
100
AcDbLine
 10
14.33882305602236
 20
3.355227109410975
 30
0.0
 11
17.42346996430115
 21
6.439874017689766
 31
0.0
  0
LINE
  5
B33D
330
B328
100
AcDbEntity
  8
0
  6
CONTINUOUS
100
AcDbLine
 10
13.46705359186416
 20
1.809938436172586
 30
0.0
 11
16.0819338255367
 21
4.424818669845129
 31
0.0
  0
LINE
  5
B33E
330
B328
100
AcDbEntity
  8
0
  6
CONTINUOUS
100
AcDbLine
 10
16.63283254238972
 20
4.975717386698149
 30
0.0
 11
17.60749913536461
 21
5.950383979673033
 31
0.0
  0
LINE
  5
B33F
330
B328
100
AcDbEntity
  8
0
  6
CONTINUOUS
100
AcDbLine
 10
13.66663434263929
 20
1.335999977867529
 30
0.0
 11
15.67604797733754
 21
3.345413612565779
 31
0.0
  0
LINE
  5
B340
330
B328
100
AcDbEntity
  8
0
  6
CONTINUOUS
100
AcDbLine
 10
13.86621509341442
 20
0.8620615195624723
 30
0.0
 11
15.27016212913838
 21
2.26600855528643
 31
0.0
  0
LINE
  5
B341
330
B328
100
AcDbEntity
  8
0
  6
CONTINUOUS
100
AcDbLine
 10
16.81682257348267
 20
4.486188208710908
 30
0.0
 11
17.79152830642806
 21
5.460893941656299
 31
0.0
  0
LINE
  5
B342
330
B328
100
AcDbEntity
  8
0
  6
CONTINUOUS
100
AcDbLine
 10
17.00081260457561
 20
3.996659030723667
 30
0.0
 11
17.97555747749151
 21
4.971403903639565
 31
0.0
  0
LINE
  5
B343
330
B328
100
AcDbEntity
  8
0
  6
CONTINUOUS
100
AcDbLine
 10
20.74362343514722
 20
8.412989070375462
 30
0.0
 11
21.09373436476302
 21
8.763099999991256
 31
0.0
  0
LINE
  5
B344
330
B328
100
AcDbEntity
  8
0
  6
CONTINUOUS
100
AcDbLine
 10
20.25401257174777
 20
7.249858997895826
 30
0.0
 11
21.7672535738432
 21
8.763099999991255
 31
0.0
  0
LINE
  5
B345
330
B328
100
AcDbEntity
  8
0
  6
CONTINUOUS
100
AcDbLine
 10
14.06579584418955
 20
0.3881230612574149
 30
0.0
 11
14.86427628093921
 21
1.186603498007082
 31
0.0
  0
LINE
  5
B346
330
B328
100
AcDbEntity
  8
0
  6
CONTINUOUS
100
AcDbLine
 10
14.26537659496467
 20
-0.0858153970476412
 30
0.0
 11
14.45839043274005
 21
0.1071984407277329
 31
0.0
  0
LINE
  5
B347
330
B328
100
AcDbEntity
  8
0
  6
CONTINUOUS
100
AcDbLine
 10
17.18480263566856
 20
3.507129852736426
 30
0.0
 11
18.15958664855496
 21
4.481913865622833
 31
0.0
  0
LINE
  5
B348
330
B328
100
AcDbEntity
  8
0
  6
CONTINUOUS
100
AcDbLine
 10
17.3687926667615
 20
3.017600674749186
 30
0.0
 11
18.34361581961842
 21
3.9924238276061
 31
0.0
  0
LINE
  5
B349
330
B328
100
AcDbEntity
  8
0
  6
CONTINUOUS
100
AcDbLine
 10
19.76440170834832
 20
6.086728925416191
 30
0.0
 11
22.33924590259489
 21
8.661573119662755
 31
0.0
  0
LINE
  5
B34A
330
B328
100
AcDbEntity
  8
0
  6
CONTINUOUS
100
AcDbLine
 10
19.27479084494887
 20
4.923598852936555
 30
0.0
 11
21.84929622842713
 21
7.498104236414807
 31
0.0
  0
LINE
  5
B34B
330
B328
100
AcDbEntity
  8
0
  6
CONTINUOUS
100
AcDbLine
 10
17.55278269785445
 20
2.528071496761945
 30
0.0
 11
18.52764499068187
 21
3.502933789589366
 31
0.0
  0
LINE
  5
B34C
330
B328
100
AcDbEntity
  8
0
  6
CONTINUOUS
100
AcDbLine
 10
18.78517998154942
 20
3.760468780456919
 30
0.0
 11
21.35934655425936
 21
6.33463535316686
 31
0.0
  0
LINE
  5
B34D
330
B328
100
AcDbEntity
  8
0
  6
CONTINUOUS
100
AcDbLine
 10
17.73677272894739
 20
2.038542318774704
 30
0.0
 11
20.8693968800916
 21
5.171166469918914
 31
0.0
  0
LINE
  5
B34E
330
B328
100
AcDbEntity
  8
0
  6
CONTINUOUS
100
AcDbLine
 10
17.92076276004034
 20
1.549013140787464
 30
0.0
 11
20.37944720592384
 21
4.007697586670968
 31
0.0
  0
LINE
  5
B34F
330
B328
100
AcDbEntity
  8
0
  6
CONTINUOUS
100
AcDbLine
 10
18.10475279113329
 20
1.059483962800223
 30
0.0
 11
19.88949753175608
 21
2.84422870342302
 31
0.0
  0
LINE
  5
B350
330
B328
100
AcDbEntity
  8
0
  6
CONTINUOUS
100
AcDbLine
 10
18.28874282222623
 20
0.5699547848129822
 30
0.0
 11
19.39954785758832
 21
1.680759820175074
 31
0.0
  0
LINE
  5
B351
330
B328
100
AcDbEntity
  8
0
  6
CONTINUOUS
100
AcDbLine
 10
18.47273285331918
 20
0.0804256068257416
 30
0.0
 11
18.90959818342056
 21
0.517290936927127
 31
0.0
  0
LINE
  5
B352
330
B328
100
AcDbEntity
  8
0
  6
CONTINUOUS
100
AcDbLine
 10
14.3590401358224
 20
-0.1570118376323384
 30
0.0
 11
14.24903296539946
 21
-0.0470046672093929
 31
0.0
  0
LINE
  5
B353
330
B328
100
AcDbEntity
  8
0
  6
CONTINUOUS
100
AcDbLine
 10
14.54309291258661
 20
0.332454594683643
 30
0.0
 11
13.75908329123172
 21
1.116464216038529
 31
0.0
  0
LINE
  5
B354
330
B328
100
AcDbEntity
  8
0
  6
CONTINUOUS
100
AcDbLine
 10
14.72714568935081
 20
0.8219210269996244
 30
0.0
 11
13.26913361706399
 21
2.27993309928645
 31
0.0
  0
LINE
  5
B355
330
B328
100
AcDbEntity
  8
0
  6
CONTINUOUS
100
AcDbLine
 10
14.91119846611502
 20
1.311387459315606
 30
0.0
 11
12.77918394289625
 21
3.443401982534371
 31
0.0
  0
LINE
  5
B356
330
B328
100
AcDbEntity
  8
0
  6
CONTINUOUS
100
AcDbLine
 10
15.09525124287922
 20
1.800853891631587
 30
0.0
 11
12.28923426872852
 21
4.606870865782293
 31
0.0
  0
LINE
  5
B357
330
B328
100
AcDbEntity
  8
0
  6
CONTINUOUS
100
AcDbLine
 10
15.27930401964343
 20
2.290320323947569
 30
0.0
 11
11.79928459456078
 21
5.770339749030213
 31
0.0
  0
LINE
  5
B358
330
B328
100
AcDbEntity
  8
0
  6
CONTINUOUS
100
AcDbLine
 10
15.46335679640763
 20
2.77978675626355
 30
0.0
 11
14.48885470994921
 21
3.754288842721972
 31
0.0
  0
LINE
  5
B359
330
B328
100
AcDbEntity
  8
0
  6
CONTINUOUS
100
AcDbLine
 10
13.88507249233704
 20
4.358071060334137
 30
0.0
 11
11.30933492039305
 21
6.933808632278135
 31
0.0
  0
LINE
  5
B35A
330
B328
100
AcDbEntity
  8
0
  6
CONTINUOUS
100
AcDbLine
 10
18.75840522805855
 20
0.1582575336928151
 30
0.0
 11
18.25383727664818
 21
0.6628254851031863
 31
0.0
  0
LINE
  5
B35B
330
B328
100
AcDbEntity
  8
0
  6
CONTINUOUS
100
AcDbLine
 10
15.64740957317184
 20
3.269253188579531
 30
0.0
 11
14.67288388101266
 21
4.243778880738705
 31
0.0
  0
LINE
  5
B35C
330
B328
100
AcDbEntity
  8
0
  6
CONTINUOUS
100
AcDbLine
 10
13.39509276772158
 20
5.521569994029786
 30
0.0
 11
10.81938524622531
 21
8.097277515526056
 31
0.0
  0
LINE
  5
B35D
330
B328
100
AcDbEntity
  8
0
  6
CONTINUOUS
100
AcDbLine
 10
18.95798597883369
 20
0.6321959919978686
 30
0.0
 11
17.84825644852853
 21
1.741925522303024
 31
0.0
  0
LINE
  5
B35E
330
B328
100
AcDbEntity
  8
0
  6
CONTINUOUS
100
AcDbLine
 10
19.15756672960882
 20
1.106134450302922
 30
0.0
 11
17.44267562040888
 21
2.821025559502861
 31
0.0
  0
LINE
  5
B35F
330
B328
100
AcDbEntity
  8
0
  6
CONTINUOUS
100
AcDbLine
 10
15.83146234993604
 20
3.758719620895513
 30
0.0
 11
14.85691305207612
 21
4.733268918755439
 31
0.0
  0
LINE
  5
B360
330
B328
100
AcDbEntity
  8
0
  6
CONTINUOUS
100
AcDbLine
 10
16.01551512670025
 20
4.248186053211494
 30
0.0
 11
15.04094222313957
 21
5.222758956772172
 31
0.0
  0
LINE
  5
B361
330
B328
100
AcDbEntity
  8
0
  6
CONTINUOUS
100
AcDbLine
 10
12.90511304310612
 20
6.685068927725435
 30
0.0
 11
10.8270819708403
 21
8.763099999991255
 31
0.0
  0
LINE
  5
B362
330
B328
100
AcDbEntity
  8
0
  6
CONTINUOUS
100
AcDbLine
 10
12.41513331849066
 20
7.848567861421083
 30
0.0
 11
11.50060117992049
 21
8.763099999991255
 31
0.0
  0
LINE
  5
B363
330
B328
100
AcDbEntity
  8
0
  6
CONTINUOUS
100
AcDbLine
 10
19.35714748038395
 20
1.580072908607975
 30
0.0
 11
17.03709479228923
 21
3.900125596702697
 31
0.0
  0
LINE
  5
B364
330
B328
100
AcDbEntity
  8
0
  6
CONTINUOUS
100
AcDbLine
 10
19.55672823115909
 20
2.054011366913028
 30
0.0
 11
16.63151396416958
 21
4.979225633902534
 31
0.0
  0
LINE
  5
B365
330
B328
100
AcDbEntity
  8
0
  6
CONTINUOUS
100
AcDbLine
 10
16.19956790346445
 20
4.737652485527476
 30
0.0
 11
15.22497139420302
 21
5.712248994788904
 31
0.0
  0
LINE
  5
B366
330
B328
100
AcDbEntity
  8
0
  6
CONTINUOUS
100
AcDbLine
 10
16.38362068022866
 20
5.227118917843457
 30
0.0
 11
15.40900056526648
 21
6.201739032805637
 31
0.0
  0
LINE
  5
B367
330
B328
100
AcDbEntity
  8
0
  6
CONTINUOUS
100
AcDbLine
 10
19.75630898193422
 20
2.527949825218081
 30
0.0
 11
18.70774536448286
 21
3.576513442669441
 31
0.0
  0
LINE
  5
B368
330
B328
100
AcDbEntity
  8
0
  6
CONTINUOUS
100
AcDbLine
 10
19.95588973270936
 20
3.001888283523134
 30
0.0
 11
18.90726987211446
 21
4.050508144118028
 31
0.0
  0
LINE
  5
B369
330
B328
100
AcDbEntity
  8
0
  6
CONTINUOUS
100
AcDbLine
 10
20.15547048348449
 20
3.475826741828186
 30
0.0
 11
19.10679437974606
 21
4.524502845566614
 31
0.0
  0
LINE
  5
B36A
330
B328
100
AcDbEntity
  8
0
  6
CONTINUOUS
100
AcDbLine
 10
20.35505123425962
 20
3.94976520013324
 30
0.0
 11
19.30631888737766
 21
4.998497547015201
 31
0.0
  0
LINE
  5
B36B
330
B328
100
AcDbEntity
  8
0
  6
CONTINUOUS
100
AcDbLine
 10
20.55463198503475
 20
4.423703658438292
 30
0.0
 11
19.50584339500926
 21
5.472492248463787
 31
0.0
  0
LINE
  5
B36C
330
B328
100
AcDbEntity
  8
0
  6
CONTINUOUS
100
AcDbLine
 10
18.37481191085755
 20
3.909446896294752
 30
0.0
 11
15.59302973632993
 21
6.691229070822371
 31
0.0
  0
LINE
  5
B36D
330
B328
100
AcDbEntity
  8
0
  6
CONTINUOUS
100
AcDbLine
 10
17.96904084440766
 20
4.988737171824825
 30
0.0
 11
15.77705890739338
 21
7.180719108839104
 31
0.0
  0
LINE
  5
B36E
330
B328
100
AcDbEntity
  8
0
  6
CONTINUOUS
100
AcDbLine
 10
17.56326977795777
 20
6.068027447354899
 30
0.0
 11
15.96108807845684
 21
7.670209146855838
 31
0.0
  0
LINE
  5
B36F
330
B328
100
AcDbEntity
  8
0
  6
CONTINUOUS
100
AcDbLine
 10
17.15749871150789
 20
7.147317722884972
 30
0.0
 11
16.14511724952029
 21
8.15969918487257
 31
0.0
  0
LINE
  5
B370
330
B328
100
AcDbEntity
  8
0
  6
CONTINUOUS
100
AcDbLine
 10
16.751727645058
 20
8.226607998415046
 30
0.0
 11
16.32914642058374
 21
8.649189222889303
 31
0.0
  0
LINE
  5
B371
330
B328
100
AcDbEntity
  8
0
  6
CONTINUOUS
100
AcDbLine
 10
20.75421273580989
 20
4.897642116743345
 30
0.0
 11
19.70536790264086
 21
5.946486949912374
 31
0.0
  0
LINE
  5
B372
330
B328
100
AcDbEntity
  8
0
  6
CONTINUOUS
100
AcDbLine
 10
20.95379348658502
 20
5.371580575048398
 30
0.0
 11
19.90489241027246
 21
6.42048165136096
 31
0.0
  0
LINE
  5
B373
330
B328
100
AcDbEntity
  8
0
  6
CONTINUOUS
100
AcDbLine
 10
21.15337423736015
 20
5.845519033353452
 30
0.0
 11
20.10441691790406
 21
6.894476352809547
 31
0.0
  0
LINE
  5
B374
330
B328
100
AcDbEntity
  8
0
  6
CONTINUOUS
100
AcDbLine
 10
21.35295498813529
 20
6.319457491658505
 30
0.0
 11
20.30394142553566
 21
7.368471054258134
 31
0.0
  0
LINE
  5
B375
330
B328
100
AcDbEntity
  8
0
  6
CONTINUOUS
100
AcDbLine
 10
21.55253573891042
 20
6.793395949963558
 30
0.0
 11
20.50346593316726
 21
7.842465755706721
 31
0.0
  0
LINE
  5
B376
330
B328
100
AcDbEntity
  8
0
  6
CONTINUOUS
100
AcDbLine
 10
21.75211648968556
 20
7.267334408268612
 30
0.0
 11
20.70299044079886
 21
8.316460457155308
 31
0.0
  0
LINE
  5
B377
330
B328
100
AcDbEntity
  8
0
  6
CONTINUOUS
100
AcDbLine
 10
21.95169724046069
 20
7.741272866573663
 30
0.0
 11
20.9298701070431
 21
8.763099999991256
 31
0.0
  0
LINE
  5
B378
330
B328
100
AcDbEntity
  8
0
  6
CONTINUOUS
100
AcDbLine
 10
22.15127799123582
 20
8.215211324878716
 30
0.0
 11
21.60338931612328
 21
8.763099999991256
 31
0.0
  0
LINE
  5
B379
330
B328
100
AcDbEntity
  8
0
  6
CONTINUOUS
100
AcDbLine
 10
22.35085874201096
 20
8.689149783183769
 30
0.0
 11
22.27690852520347
 21
8.763099999991255
 31
0.0
  0
ENDBLK
  5
B46B
330
B328
100
AcDbEntity
  8
0
100
AcDbBlockEnd
  0
BLOCK
  5
B46C
330
B37A
100
AcDbEntity
  8
0
100
AcDbBlockBegin
  2
*X25
 70
     1
 10
0.0
 20
0.0
 30
0.0
  3
*X25
  1

  0
LINE
  5
B37B
330
B37A
100
AcDbEntity
  8
0
  6
CONTINUOUS
100
AcDbLine
 10
23.19462913593892
 20
8.169917934846424
 30
0.0
 11
23.70775465517246
 21
8.683043454079957
 31
0.0
  0
LINE
  5
B37C
330
B37A
100
AcDbEntity
  8
0
  6
CONTINUOUS
100
AcDbLine
 10
22.64923161835078
 20
6.951001208178088
 30
0.0
 11
23.9159364069932
 21
8.217705996820516
 31
0.0
  0
LINE
  5
B37D
330
B37A
100
AcDbEntity
  8
0
  6
CONTINUOUS
100
AcDbLine
 10
22.10383410076263
 20
5.732084481509751
 30
0.0
 11
24.12411815881395
 21
7.752368539561078
 31
0.0
  0
LINE
  5
B37E
330
B37A
100
AcDbEntity
  8
0
  6
CONTINUOUS
100
AcDbLine
 10
21.55843658317447
 20
4.513167754841414
 30
0.0
 11
24.3322999106347
 21
7.287031082301639
 31
0.0
  0
LINE
  5
B37F
330
B37A
100
AcDbEntity
  8
0
  6
CONTINUOUS
100
AcDbLine
 10
21.01303906558632
 20
3.294251028173077
 30
0.0
 11
24.54048166245544
 21
6.821693625042199
 31
0.0
  0
LINE
  5
B380
330
B37A
100
AcDbEntity
  8
0
  6
CONTINUOUS
100
AcDbLine
 10
20.46764154799817
 20
2.075334301504738
 30
0.0
 11
23.28571549467848
 21
4.89340824818505
 31
0.0
  0
LINE
  5
B381
330
B37A
100
AcDbEntity
  8
0
  6
CONTINUOUS
100
AcDbLine
 10
19.92224403041002
 20
0.8564175748364002
 30
0.0
 11
22.74075865492779
 21
3.674932199354171
 31
0.0
  0
LINE
  5
B382
330
B37A
100
AcDbEntity
  8
0
  6
CONTINUOUS
100
AcDbLine
 10
23.67305085490148
 20
5.280743608408048
 30
0.0
 11
24.74866341427619
 21
6.356356167782759
 31
0.0
  0
LINE
  5
B383
330
B37A
100
AcDbEntity
  8
0
  6
CONTINUOUS
100
AcDbLine
 10
23.88118970842314
 20
4.815363252849522
 30
0.0
 11
24.95684516609694
 21
5.89101871052332
 31
0.0
  0
LINE
  5
B384
330
B37A
100
AcDbEntity
  8
0
  6
CONTINUOUS
100
AcDbLine
 10
19.73925852647308
 20
-0.0000871381807288
 30
0.0
 11
23.4103456646501
 21
3.670999999996297
 31
0.0
  0
LINE
  5
B385
330
B37A
100
AcDbEntity
  8
0
  6
CONTINUOUS
100
AcDbLine
 10
24.0893285619448
 20
4.349982897290997
 30
0.0
 11
25.16502691791769
 21
5.42568125326388
 31
0.0
  0
LINE
  5
B386
330
B37A
100
AcDbEntity
  8
0
  6
CONTINUOUS
100
AcDbLine
 10
20.41282099582748
 20
-0.0000438779065108
 30
0.0
 11
21.64944178675636
 21
1.236576913022366
 31
0.0
  0
LINE
  5
B387
330
B37A
100
AcDbEntity
  8
0
  6
CONTINUOUS
100
AcDbLine
 10
22.78126487373161
 20
2.36839999999762
 30
0.0
 11
24.08386487373029
 21
3.670999999996297
 31
0.0
  0
LINE
  5
B388
330
B37A
100
AcDbEntity
  8
0
  6
CONTINUOUS
100
AcDbLine
 10
24.29746741546646
 20
3.884602541732471
 30
0.0
 11
25.37320866973843
 21
4.960343796004441
 31
0.0
  0
LINE
  5
B389
330
B37A
100
AcDbEntity
  8
0
  6
CONTINUOUS
100
AcDbLine
 10
21.08638346518189
 20
-0.0000006176322938
 30
0.0
 11
21.10379033335899
 21
0.0174062505448083
 31
0.0
  0
LINE
  5
B38A
330
B37A
100
AcDbEntity
  8
0
  6
CONTINUOUS
100
AcDbLine
 10
23.4547840828118
 20
2.36839999999762
 30
0.0
 11
25.58139042155918
 21
4.495006338745002
 31
0.0
  0
LINE
  5
B38B
330
B37A
100
AcDbEntity
  8
0
  6
CONTINUOUS
100
AcDbLine
 10
29.30199999996933
 20
8.215615917155148
 30
0.0
 11
29.84948408280543
 21
8.763099999991255
 31
0.0
  0
LINE
  5
B38C
330
B37A
100
AcDbEntity
  8
0
  6
CONTINUOUS
100
AcDbLine
 10
24.12830329189199
 20
2.36839999999762
 30
0.0
 11
25.78957217337993
 21
4.029668881485562
 31
0.0
  0
LINE
  5
B38D
330
B37A
100
AcDbEntity
  8
0
  6
CONTINUOUS
100
AcDbLine
 10
29.30199999996933
 20
7.54209670807496
 30
0.0
 11
30.52300329188562
 21
8.763099999991255
 31
0.0
  0
LINE
  5
B38E
330
B37A
100
AcDbEntity
  8
0
  6
CONTINUOUS
100
AcDbLine
 10
24.80182250097217
 20
2.36839999999762
 30
0.0
 11
25.99775392520067
 21
3.564331424226122
 31
0.0
  0
LINE
  5
B38F
330
B37A
100
AcDbEntity
  8
0
  6
CONTINUOUS
100
AcDbLine
 10
29.30199999996933
 20
6.868577498994774
 30
0.0
 11
30.74199999996926
 21
8.308577498994712
 31
0.0
  0
LINE
  5
B390
330
B37A
100
AcDbEntity
  8
0
  6
CONTINUOUS
100
AcDbLine
 10
25.13028238392013
 20
2.023340673865392
 30
0.0
 11
26.20593567702142
 21
3.098993966966683
 31
0.0
  0
LINE
  5
B391
330
B37A
100
AcDbEntity
  8
0
  6
CONTINUOUS
100
AcDbLine
 10
25.33838066033617
 20
1.557919741201244
 30
0.0
 11
26.41411742884217
 21
2.633656509707244
 31
0.0
  0
LINE
  5
B392
330
B37A
100
AcDbEntity
  8
0
  6
CONTINUOUS
100
AcDbLine
 10
25.54647893675221
 20
1.092498808537098
 30
0.0
 11
26.62229918066291
 21
2.168319052447804
 31
0.0
  0
LINE
  5
B393
330
B37A
100
AcDbEntity
  8
0
  6
CONTINUOUS
100
AcDbLine
 10
25.75457721316825
 20
0.62707787587295
 30
0.0
 11
26.83048093248366
 21
1.702981595188365
 31
0.0
  0
LINE
  5
B394
330
B37A
100
AcDbEntity
  8
0
  6
CONTINUOUS
100
AcDbLine
 10
29.30199999996933
 20
6.195058289914587
 30
0.0
 11
30.74199999996926
 21
7.635058289914522
 31
0.0
  0
LINE
  5
B395
330
B37A
100
AcDbEntity
  8
0
  6
CONTINUOUS
100
AcDbLine
 10
29.30199999996933
 20
5.521539080834401
 30
0.0
 11
30.74199999996926
 21
6.961539080834331
 31
0.0
  0
LINE
  5
B396
330
B37A
100
AcDbEntity
  8
0
  6
CONTINUOUS
100
AcDbLine
 10
29.30199999996933
 20
4.848019871754214
 30
0.0
 11
30.74199999996925
 21
6.288019871754143
 31
0.0
  0
LINE
  5
B397
330
B37A
100
AcDbEntity
  8
0
  6
CONTINUOUS
100
AcDbLine
 10
29.30199999996933
 20
4.174500662674028
 30
0.0
 11
30.74199999996925
 21
5.614500662673953
 31
0.0
  0
LINE
  5
B398
330
B37A
100
AcDbEntity
  8
0
  6
CONTINUOUS
100
AcDbLine
 10
25.96267548958429
 20
0.1616569432088024
 30
0.0
 11
27.18411854636669
 21
1.383099999991207
 31
0.0
  0
LINE
  5
B399
330
B37A
100
AcDbEntity
  8
0
  6
CONTINUOUS
100
AcDbLine
 10
29.30199999996933
 20
3.500981453593841
 30
0.0
 11
30.74199999996925
 21
4.940981453593762
 31
0.0
  0
LINE
  5
B39A
330
B37A
100
AcDbEntity
  8
0
  6
CONTINUOUS
100
AcDbLine
 10
26.50763775544691
 20
0.0330999999912356
 30
0.0
 11
27.85763775544689
 21
1.383099999991223
 31
0.0
  0
LINE
  5
B39B
330
B37A
100
AcDbEntity
  8
0
  6
CONTINUOUS
100
AcDbLine
 10
29.30199999996933
 20
2.827462244513656
 30
0.0
 11
30.74199999996925
 21
4.267462244513574
 31
0.0
  0
LINE
  5
B39C
330
B37A
100
AcDbEntity
  8
0
  6
CONTINUOUS
100
AcDbLine
 10
27.18115696452709
 20
0.0330999999912356
 30
0.0
 11
28.55073879889363
 21
1.402681834357775
 31
0.0
  0
LINE
  5
B39D
330
B37A
100
AcDbEntity
  8
0
  6
CONTINUOUS
100
AcDbLine
 10
29.28241816560272
 20
2.134361201066866
 30
0.0
 11
30.74199999996924
 21
3.593943035433383
 31
0.0
  0
LINE
  5
B39E
330
B37A
100
AcDbEntity
  8
0
  6
CONTINUOUS
100
AcDbLine
 10
27.85467617360728
 20
0.0330999999912356
 30
0.0
 11
30.74199999996924
 21
2.920423826353195
 31
0.0
  0
LINE
  5
B39F
330
B37A
100
AcDbEntity
  8
0
  6
CONTINUOUS
100
AcDbLine
 10
28.53897559587887
 20
0.0438802131826428
 30
0.0
 11
30.73121978677781
 21
2.236124404081585
 31
0.0
  0
LINE
  5
B3A0
330
B37A
100
AcDbEntity
  8
0
  6
CONTINUOUS
100
AcDbLine
 10
29.45140055588722
 20
0.2827859641107988
 30
0.0
 11
30.49231403584965
 21
1.323699444073236
 31
0.0
  0
LINE
  5
B3A1
330
B37A
100
AcDbEntity
  8
0
  6
CONTINUOUS
100
AcDbLine
 10
19.59027867740337
 20
-0.0000967065718083
 30
0.0
 11
19.55485265190471
 21
0.035329318926844
 31
0.0
  0
LINE
  5
B3A2
330
B37A
100
AcDbEntity
  8
0
  6
CONTINUOUS
100
AcDbLine
 10
20.26375463176586
 20
-0.0000534518541091
 30
0.0
 11
19.76305575737534
 21
0.5006454225364014
 31
0.0
  0
LINE
  5
B3A3
330
B37A
100
AcDbEntity
  8
0
  6
CONTINUOUS
100
AcDbLine
 10
20.93723058612834
 20
-0.0000101971364099
 30
0.0
 11
19.97125886284597
 21
0.965961526145958
 31
0.0
  0
LINE
  5
B3A4
330
B37A
100
AcDbEntity
  8
0
  6
CONTINUOUS
100
AcDbLine
 10
21.25514828313686
 20
0.355591314935257
 30
0.0
 11
20.1794619683166
 21
1.431277629755512
 31
0.0
  0
LINE
  5
B3A5
330
B37A
100
AcDbEntity
  8
0
  6
CONTINUOUS
100
AcDbLine
 10
21.46338838394921
 20
0.8208704232030986
 30
0.0
 11
20.38766507378723
 21
1.896593733365069
 31
0.0
  0
LINE
  5
B3A6
330
B37A
100
AcDbEntity
  8
0
  6
CONTINUOUS
100
AcDbLine
 10
21.67162848476155
 20
1.28614953147094
 30
0.0
 11
20.59586817925786
 21
2.361909836974626
 31
0.0
  0
LINE
  5
B3A7
330
B37A
100
AcDbEntity
  8
0
  6
CONTINUOUS
100
AcDbLine
 10
21.8798685855739
 20
1.751428639738782
 30
0.0
 11
20.80407128472849
 21
2.827225940584183
 31
0.0
  0
LINE
  5
B3A8
330
B37A
100
AcDbEntity
  8
0
  6
CONTINUOUS
100
AcDbLine
 10
22.08810868638624
 20
2.216707748006623
 30
0.0
 11
21.01227439019912
 21
3.292542044193739
 31
0.0
  0
LINE
  5
B3A9
330
B37A
100
AcDbEntity
  8
0
  6
CONTINUOUS
100
AcDbLine
 10
22.60993564347543
 20
2.36839999999762
 30
0.0
 11
21.22047749566975
 21
3.757858147803296
 31
0.0
  0
LINE
  5
B3AA
330
B37A
100
AcDbEntity
  8
0
  6
CONTINUOUS
100
AcDbLine
 10
23.28345485255561
 20
2.36839999999762
 30
0.0
 11
21.42868060114038
 21
4.223174251412853
 31
0.0
  0
LINE
  5
B3AB
330
B37A
100
AcDbEntity
  8
0
  6
CONTINUOUS
100
AcDbLine
 10
26.29227406164219
 20
0.0330999999912356
 30
0.0
 11
25.80009199592872
 21
0.5252820657046957
 31
0.0
  0
LINE
  5
B3AC
330
B37A
100
AcDbEntity
  8
0
  6
CONTINUOUS
100
AcDbLine
 10
23.9569740616358
 20
2.36839999999762
 30
0.0
 11
21.63688370661101
 21
4.688490355022409
 31
0.0
  0
LINE
  5
B3AD
330
B37A
100
AcDbEntity
  8
0
  6
CONTINUOUS
100
AcDbLine
 10
26.96579327072237
 20
0.0330999999912356
 30
0.0
 11
25.2554132311971
 21
1.743480039516508
 31
0.0
  0
LINE
  5
B3AE
330
B37A
100
AcDbEntity
  8
0
  6
CONTINUOUS
100
AcDbLine
 10
24.63049327071599
 20
2.36839999999762
 30
0.0
 11
23.32789327071731
 21
3.670999999996297
 31
0.0
  0
LINE
  5
B3AF
330
B37A
100
AcDbEntity
  8
0
  6
CONTINUOUS
100
AcDbLine
 10
22.92098674744635
 20
4.077906523267254
 30
0.0
 11
21.84508681208164
 21
5.153806458631966
 31
0.0
  0
LINE
  5
B3B0
330
B37A
100
AcDbEntity
  8
0
  6
CONTINUOUS
100
AcDbLine
 10
27.63931247980256
 20
0.0330999999912356
 30
0.0
 11
24.0014124797975
 21
3.670999999996297
 31
0.0
  0
LINE
  5
B3B1
330
B37A
100
AcDbEntity
  8
0
  6
CONTINUOUS
100
AcDbLine
 10
23.129125600968
 20
4.5432868788258
 30
0.0
 11
22.05328991755227
 21
5.619122562241522
 31
0.0
  0
LINE
  5
B3B2
330
B37A
100
AcDbEntity
  8
0
  6
CONTINUOUS
100
AcDbLine
 10
28.31283168888275
 20
0.0330999999912356
 30
0.0
 11
24.16488385994816
 21
4.181047828925828
 31
0.0
  0
LINE
  5
B3B3
330
B37A
100
AcDbEntity
  8
0
  6
CONTINUOUS
100
AcDbLine
 10
23.33726445448964
 20
5.008667234384345
 30
0.0
 11
22.2614930230229
 21
6.084438665851079
 31
0.0
  0
LINE
  5
B3B4
330
B37A
100
AcDbEntity
  8
0
  6
CONTINUOUS
100
AcDbLine
 10
28.92085740005492
 20
0.0985934978992438
 30
0.0
 11
27.63635089796295
 21
1.383099999991217
 31
0.0
  0
LINE
  5
B3B5
330
B37A
100
AcDbEntity
  8
0
  6
CONTINUOUS
100
AcDbLine
 10
26.43704649509776
 20
2.582404402856405
 30
0.0
 11
23.61992702019732
 21
5.399523877756844
 31
0.0
  0
LINE
  5
B3B6
330
B37A
100
AcDbEntity
  8
0
  6
CONTINUOUS
100
AcDbLine
 10
23.54540330801128
 20
5.47404758994289
 30
0.0
 11
22.46969612849353
 21
6.549754769460635
 31
0.0
  0
LINE
  5
B3B7
330
B37A
100
AcDbEntity
  8
0
  6
CONTINUOUS
100
AcDbLine
 10
29.42225615078443
 20
0.2707139562499279
 30
0.0
 11
28.30987010704312
 21
1.383099999991234
 31
0.0
  0
LINE
  5
B3B8
330
B37A
100
AcDbEntity
  8
0
  6
CONTINUOUS
100
AcDbLine
 10
25.89179548232307
 20
3.801174624711282
 30
0.0
 11
22.67789923396416
 21
7.015070873070191
 31
0.0
  0
LINE
  5
B3B9
330
B37A
100
AcDbEntity
  8
0
  6
CONTINUOUS
100
AcDbLine
 10
29.83624534690007
 20
0.5302439692144705
 30
0.0
 11
28.85811781497101
 21
1.508371501143527
 31
0.0
  0
LINE
  5
B3BA
330
B37A
100
AcDbEntity
  8
0
  6
CONTINUOUS
100
AcDbLine
 10
25.34654446954838
 20
5.01994484656616
 30
0.0
 11
22.88610233943479
 21
7.480386976679748
 31
0.0
  0
LINE
  5
B3BB
330
B37A
100
AcDbEntity
  8
0
  6
CONTINUOUS
100
AcDbLine
 10
30.17865975401872
 20
0.8613487711760022
 30
0.0
 11
29.18888744090175
 21
1.851121084292977
 31
0.0
  0
LINE
  5
B3BC
330
B37A
100
AcDbEntity
  8
0
  6
CONTINUOUS
100
AcDbLine
 10
24.80129345677369
 20
6.238715068421037
 30
0.0
 11
23.09430544490542
 21
7.945703080289305
 31
0.0
  0
LINE
  5
B3BD
330
B37A
100
AcDbEntity
  8
0
  6
CONTINUOUS
100
AcDbLine
 10
30.45496647202376
 20
1.258561262251155
 30
0.0
 11
29.30199999996933
 21
2.411527734305588
 31
0.0
  0
LINE
  5
B3BE
330
B37A
100
AcDbEntity
  8
0
  6
CONTINUOUS
100
AcDbLine
 10
24.256042443999
 20
7.457485290275915
 30
0.0
 11
23.30250855037605
 21
8.411019183898862
 31
0.0
  0
LINE
  5
B3BF
330
B37A
100
AcDbEntity
  8
0
  6
CONTINUOUS
100
AcDbLine
 10
30.64868582078271
 20
1.738361122572387
 30
0.0
 11
29.30199999996933
 21
3.085046943385775
 31
0.0
  0
LINE
  5
B3C0
330
B37A
100
AcDbEntity
  8
0
  6
CONTINUOUS
100
AcDbLine
 10
23.71079143122431
 20
8.676255512130794
 30
0.0
 11
23.51071165584668
 21
8.876335287508416
 31
0.0
  0
LINE
  5
B3C1
330
B37A
100
AcDbEntity
  8
0
  6
CONTINUOUS
100
AcDbLine
 10
30.73802122914428
 20
2.322544923291007
 30
0.0
 11
29.30199999996933
 21
3.758566152465961
 31
0.0
  0
LINE
  5
B3C2
330
B37A
100
AcDbEntity
  8
0
  6
CONTINUOUS
100
AcDbLine
 10
30.74199999996924
 20
2.992085361546236
 30
0.0
 11
29.30199999996933
 21
4.432085361546148
 31
0.0
  0
LINE
  5
B3C3
330
B37A
100
AcDbEntity
  8
0
  6
CONTINUOUS
100
AcDbLine
 10
30.74199999996924
 20
3.665604570626419
 30
0.0
 11
29.30199999996933
 21
5.105604570626333
 31
0.0
  0
LINE
  5
B3C4
330
B37A
100
AcDbEntity
  8
0
  6
CONTINUOUS
100
AcDbLine
 10
30.74199999996925
 20
4.339123779706602
 30
0.0
 11
29.30199999996933
 21
5.77912377970652
 31
0.0
  0
LINE
  5
B3C5
330
B37A
100
AcDbEntity
  8
0
  6
CONTINUOUS
100
AcDbLine
 10
30.74199999996925
 20
5.012642988786785
 30
0.0
 11
29.30199999996933
 21
6.452642988786707
 31
0.0
  0
LINE
  5
B3C6
330
B37A
100
AcDbEntity
  8
0
  6
CONTINUOUS
100
AcDbLine
 10
30.74199999996925
 20
5.68616219786697
 30
0.0
 11
29.30199999996933
 21
7.126162197866894
 31
0.0
  0
LINE
  5
B3C7
330
B37A
100
AcDbEntity
  8
0
  6
CONTINUOUS
100
AcDbLine
 10
30.74199999996925
 20
6.359681406947153
 30
0.0
 11
29.30199999996933
 21
7.799681406947081
 31
0.0
  0
LINE
  5
B3C8
330
B37A
100
AcDbEntity
  8
0
  6
CONTINUOUS
100
AcDbLine
 10
30.74199999996926
 20
7.033200616027337
 30
0.0
 11
29.30199999996933
 21
8.473200616027269
 31
0.0
  0
LINE
  5
B3C9
330
B37A
100
AcDbEntity
  8
0
  6
CONTINUOUS
100
AcDbLine
 10
30.74199999996926
 20
7.706719825107518
 30
0.0
 11
29.68561982508552
 21
8.763099999991255
 31
0.0
  0
LINE
  5
B3CA
330
B37A
100
AcDbEntity
  8
0
  6
CONTINUOUS
100
AcDbLine
 10
30.74199999996926
 20
8.380239034187703
 30
0.0
 11
30.35913903416571
 21
8.763099999991255
 31
0.0
  0
ENDBLK
  5
B46D
330
B37A
100
AcDbEntity
  8
0
100
AcDbBlockEnd
  0
BLOCK
  5
B46E
330
B3CB
100
AcDbEntity
  8
0
100
AcDbBlockBegin
  2
*X26
 70
     1
 10
0.0
 20
0.0
 30
0.0
  3
*X26
  1

  0
LINE
  5
B3CC
330
B3CB
100
AcDbEntity
  8
0
  6
CONTINUOUS
100
AcDbLine
 10
31.64199999996833
 20
8.535058289913598
 30
0.0
 11
31.87004171004599
 21
8.763099999991255
 31
0.0
  0
LINE
  5
B3CD
330
B3CB
100
AcDbEntity
  8
0
  6
CONTINUOUS
100
AcDbLine
 10
31.64199999996833
 20
7.861539080833412
 30
0.0
 11
32.54356091912618
 21
8.763099999991255
 31
0.0
  0
LINE
  5
B3CE
330
B3CB
100
AcDbEntity
  8
0
  6
CONTINUOUS
100
AcDbLine
 10
31.64199999996833
 20
7.188019871753226
 30
0.0
 11
33.08199999996839
 21
8.628019871753281
 31
0.0
  0
LINE
  5
B3CF
330
B3CB
100
AcDbEntity
  8
0
  6
CONTINUOUS
100
AcDbLine
 10
31.64199999996833
 20
6.51450066267304
 30
0.0
 11
33.08199999996839
 21
7.954500662673095
 31
0.0
  0
LINE
  5
B3D0
330
B3CB
100
AcDbEntity
  8
0
  6
CONTINUOUS
100
AcDbLine
 10
31.64199999996833
 20
5.840981453592853
 30
0.0
 11
33.08199999996839
 21
7.280981453592908
 31
0.0
  0
LINE
  5
B3D1
330
B3CB
100
AcDbEntity
  8
0
  6
CONTINUOUS
100
AcDbLine
 10
31.64199999996833
 20
5.167462244512667
 30
0.0
 11
33.08199999996839
 21
6.607462244512721
 31
0.0
  0
LINE
  5
B3D2
330
B3CB
100
AcDbEntity
  8
0
  6
CONTINUOUS
100
AcDbLine
 10
31.64199999996833
 20
4.493943035432481
 30
0.0
 11
33.08199999996839
 21
5.933943035432535
 31
0.0
  0
LINE
  5
B3D3
330
B3CB
100
AcDbEntity
  8
0
  6
CONTINUOUS
100
AcDbLine
 10
31.64199999996833
 20
3.820423826352293
 30
0.0
 11
33.08199999996839
 21
5.260423826352348
 31
0.0
  0
LINE
  5
B3D4
330
B3CB
100
AcDbEntity
  8
0
  6
CONTINUOUS
100
AcDbLine
 10
31.64199999996833
 20
3.146904617272106
 30
0.0
 11
33.08199999996839
 21
4.586904617272161
 31
0.0
  0
LINE
  5
B3D5
330
B3CB
100
AcDbEntity
  8
0
  6
CONTINUOUS
100
AcDbLine
 10
36.23199999996837
 20
8.410423826352325
 30
0.0
 11
36.5846761736073
 21
8.763099999991255
 31
0.0
  0
LINE
  5
B3D6
330
B3CB
100
AcDbEntity
  8
0
  6
CONTINUOUS
100
AcDbLine
 10
36.23199999996837
 20
7.73690461727214
 30
0.0
 11
37.25819538268748
 21
8.763099999991255
 31
0.0
  0
LINE
  5
B3D7
330
B3CB
100
AcDbEntity
  8
0
  6
CONTINUOUS
100
AcDbLine
 10
31.64257403601376
 20
2.473959444237348
 30
0.0
 11
33.08199999996839
 21
3.913385408191974
 31
0.0
  0
LINE
  5
B3D8
330
B3CB
100
AcDbEntity
  8
0
  6
CONTINUOUS
100
AcDbLine
 10
36.23199999996837
 20
7.063385408191953
 30
0.0
 11
37.67199999996831
 21
8.503385408191894
 31
0.0
  0
LINE
  5
B3D9
330
B3CB
100
AcDbEntity
  8
0
  6
CONTINUOUS
100
AcDbLine
 10
31.72013636841932
 20
1.87800256756272
 30
0.0
 11
33.08199999996839
 21
3.239866199111788
 31
0.0
  0
LINE
  5
B3DA
330
B3CB
100
AcDbEntity
  8
0
  6
CONTINUOUS
100
AcDbLine
 10
36.23199999996837
 20
6.389866199111767
 30
0.0
 11
37.67199999996831
 21
7.829866199111708
 31
0.0
  0
LINE
  5
B3DB
330
B3CB
100
AcDbEntity
  8
0
  6
CONTINUOUS
100
AcDbLine
 10
31.89042734314753
 20
1.374774333210744
 30
0.0
 11
33.08199999996839
 21
2.566346990031601
 31
0.0
  0
LINE
  5
B3DC
330
B3CB
100
AcDbEntity
  8
0
  6
CONTINUOUS
100
AcDbLine
 10
36.23199999996837
 20
5.71634699003158
 30
0.0
 11
37.67199999996831
 21
7.156346990031521
 31
0.0
  0
LINE
  5
B3DD
330
B3CB
100
AcDbEntity
  8
0
  6
CONTINUOUS
100
AcDbLine
 10
32.14210568064475
 20
0.952933461627778
 30
0.0
 11
33.18745552475986
 21
1.998283305742888
 31
0.0
  0
LINE
  5
B3DE
330
B3CB
100
AcDbEntity
  8
0
  6
CONTINUOUS
100
AcDbLine
 10
36.23199999996837
 20
5.042827780951393
 30
0.0
 11
37.67199999996831
 21
6.482827780951334
 31
0.0
  0
LINE
  5
B3DF
330
B3CB
100
AcDbEntity
  8
0
  6
CONTINUOUS
100
AcDbLine
 10
32.45820639400955
 20
0.5955149659123915
 30
0.0
 11
33.47242681921943
 21
1.60973539112227
 31
0.0
  0
LINE
  5
B3E0
330
B3CB
100
AcDbEntity
  8
0
  6
CONTINUOUS
100
AcDbLine
 10
36.23199999996837
 20
4.369308571871207
 30
0.0
 11
37.67199999996831
 21
5.809308571871147
 31
0.0
  0
LINE
  5
B3E1
330
B3CB
100
AcDbEntity
  8
0
  6
CONTINUOUS
100
AcDbLine
 10
32.83432456621412
 20
0.2981139290367771
 30
0.0
 11
33.89722476612215
 21
1.361014128944803
 31
0.0
  0
LINE
  5
B3E2
330
B3CB
100
AcDbEntity
  8
0
  6
CONTINUOUS
100
AcDbLine
 10
36.23199999996837
 20
3.69578936279102
 30
0.0
 11
37.67199999996831
 21
5.135789362790962
 31
0.0
  0
LINE
  5
B3E3
330
B3CB
100
AcDbEntity
  8
0
  6
CONTINUOUS
100
AcDbLine
 10
33.2711633111245
 20
0.0614334648669672
 30
0.0
 11
34.43247338014423
 21
1.222743533886696
 31
0.0
  0
LINE
  5
B3E4
330
B3CB
100
AcDbEntity
  8
0
  6
CONTINUOUS
100
AcDbLine
 10
36.23199999996837
 20
3.022270153710834
 30
0.0
 11
37.67199999996831
 21
4.462270153710775
 31
0.0
  0
LINE
  5
B3E5
330
B3CB
100
AcDbEntity
  8
0
  6
CONTINUOUS
100
AcDbLine
 10
33.76515245874577
 20
-0.1180965965919523
 30
0.0
 11
35.1587445516215
 21
1.27549549628378
 31
0.0
  0
LINE
  5
B3E6
330
B3CB
100
AcDbEntity
  8
0
  6
CONTINUOUS
100
AcDbLine
 10
36.21639478609585
 20
2.333145730758136
 30
0.0
 11
37.67199999996831
 21
3.788750944630588
 31
0.0
  0
LINE
  5
B3E7
330
B3CB
100
AcDbEntity
  8
0
  6
CONTINUOUS
100
AcDbLine
 10
34.34060583368432
 20
-0.2161624307335863
 30
0.0
 11
37.67199999996831
 21
3.115231735550401
 31
0.0
  0
LINE
  5
B3E8
330
B3CB
100
AcDbEntity
  8
0
  6
CONTINUOUS
100
AcDbLine
 10
35.01698193613905
 20
-0.2133055373590427
 30
0.0
 11
37.66876712070525
 21
2.438479647207154
 31
0.0
  0
LINE
  5
B3E9
330
B3CB
100
AcDbEntity
  8
0
  6
CONTINUOUS
100
AcDbLine
 10
35.90743367693304
 20
0.0036269943547609
 30
0.0
 11
37.51723902192366
 21
1.613432339345381
 31
0.0
  0
LINE
  5
B3EA
330
B3CB
100
AcDbEntity
  8
0
  6
CONTINUOUS
100
AcDbLine
 10
32.55309425579761
 20
0.5074718966376706
 30
0.0
 11
32.27784730925847
 21
0.7827188431768102
 31
0.0
  0
LINE
  5
B3EB
330
B3CB
100
AcDbEntity
  8
0
  6
CONTINUOUS
100
AcDbLine
 10
33.87496468909684
 20
-0.1408793275813673
 30
0.0
 11
31.67993083278052
 21
2.054154528734943
 31
0.0
  0
LINE
  5
B3EC
330
B3CB
100
AcDbEntity
  8
0
  6
CONTINUOUS
100
AcDbLine
 10
34.64362813207632
 20
-0.2360235614806649
 30
0.0
 11
31.64199999996833
 21
2.765604570627322
 31
0.0
  0
LINE
  5
B3ED
330
B3CB
100
AcDbEntity
  8
0
  6
CONTINUOUS
100
AcDbLine
 10
35.25801106796118
 20
-0.1768872882853429
 30
0.0
 11
31.64199999996833
 21
3.439123779707508
 31
0.0
  0
LINE
  5
B3EE
330
B3CB
100
AcDbEntity
  8
0
  6
CONTINUOUS
100
AcDbLine
 10
35.79065650332146
 20
-0.0360135145654361
 30
0.0
 11
34.54143210838231
 21
1.213210880373721
 31
0.0
  0
LINE
  5
B3EF
330
B3CB
100
AcDbEntity
  8
0
  6
CONTINUOUS
100
AcDbLine
 10
33.08199999996839
 20
2.67264298878764
 30
0.0
 11
31.64199999996833
 21
4.112642988787695
 31
0.0
  0
LINE
  5
B3F0
330
B3CB
100
AcDbEntity
  8
0
  6
CONTINUOUS
100
AcDbLine
 10
36.25975597779143
 20
0.1684062200447833
 30
0.0
 11
35.15395110240023
 21
1.274211095435983
 31
0.0
  0
LINE
  5
B3F1
330
B3CB
100
AcDbEntity
  8
0
  6
CONTINUOUS
100
AcDbLine
 10
33.08199999996839
 20
3.346162197867826
 30
0.0
 11
31.64199999996833
 21
4.786162197867881
 31
0.0
  0
LINE
  5
B3F2
330
B3CB
100
AcDbEntity
  8
0
  6
CONTINUOUS
100
AcDbLine
 10
36.67226329638774
 20
0.4294181105286579
 30
0.0
 11
35.63766478748767
 21
1.464016619428737
 31
0.0
  0
LINE
  5
B3F3
330
B3CB
100
AcDbEntity
  8
0
  6
CONTINUOUS
100
AcDbLine
 10
33.08199999996839
 20
4.019681406948012
 30
0.0
 11
31.64199999996833
 21
5.459681406948068
 31
0.0
  0
LINE
  5
B3F4
330
B3CB
100
AcDbEntity
  8
0
  6
CONTINUOUS
100
AcDbLine
 10
37.01677749710036
 20
0.7584231188962329
 30
0.0
 11
35.99563422741351
 21
1.779566388583076
 31
0.0
  0
LINE
  5
B3F5
330
B3CB
100
AcDbEntity
  8
0
  6
CONTINUOUS
100
AcDbLine
 10
33.08199999996839
 20
4.693200616028199
 30
0.0
 11
31.64199999996833
 21
6.133200616028255
 31
0.0
  0
LINE
  5
B3F6
330
B3CB
100
AcDbEntity
  8
0
  6
CONTINUOUS
100
AcDbLine
 10
37.29859977568887
 20
1.1501200493879
 30
0.0
 11
36.20680593341555
 21
2.241913891661226
 31
0.0
  0
LINE
  5
B3F7
330
B3CB
100
AcDbEntity
  8
0
  6
CONTINUOUS
100
AcDbLine
 10
33.08199999996839
 20
5.366719825108386
 30
0.0
 11
31.64199999996833
 21
6.80671982510844
 31
0.0
  0
LINE
  5
B3F8
330
B3CB
100
AcDbEntity
  8
0
  6
CONTINUOUS
100
AcDbLine
 10
37.5148623517228
 20
1.607376682434161
 30
0.0
 11
36.23199999996837
 21
2.890239034188594
 31
0.0
  0
LINE
  5
B3F9
330
B3CB
100
AcDbEntity
  8
0
  6
CONTINUOUS
100
AcDbLine
 10
33.08199999996839
 20
6.040239034188573
 30
0.0
 11
31.64199999996833
 21
7.480239034188627
 31
0.0
  0
LINE
  5
B3FA
330
B3CB
100
AcDbEntity
  8
0
  6
CONTINUOUS
100
AcDbLine
 10
37.64705163358367
 20
2.148706609653477
 30
0.0
 11
36.23199999996837
 21
3.56375824326878
 31
0.0
  0
LINE
  5
B3FB
330
B3CB
100
AcDbEntity
  8
0
  6
CONTINUOUS
100
AcDbLine
 10
33.08199999996839
 20
6.713758243268758
 30
0.0
 11
31.64199999996833
 21
8.153758243268815
 31
0.0
  0
LINE
  5
B3FC
330
B3CB
100
AcDbEntity
  8
0
  6
CONTINUOUS
100
AcDbLine
 10
37.67199999996831
 20
2.797277452349026
 30
0.0
 11
36.23199999996837
 21
4.237277452348967
 31
0.0
  0
LINE
  5
B3FD
330
B3CB
100
AcDbEntity
  8
0
  6
CONTINUOUS
100
AcDbLine
 10
37.67199999996831
 20
3.470796661429213
 30
0.0
 11
36.23199999996837
 21
4.910796661429154
 31
0.0
  0
LINE
  5
B3FE
330
B3CB
100
AcDbEntity
  8
0
  6
CONTINUOUS
100
AcDbLine
 10
37.67199999996831
 20
4.144315870509399
 30
0.0
 11
36.23199999996837
 21
5.58431587050934
 31
0.0
  0
LINE
  5
B3FF
330
B3CB
100
AcDbEntity
  8
0
  6
CONTINUOUS
100
AcDbLine
 10
33.08199999996839
 20
7.387277452348945
 30
0.0
 11
31.70617745232608
 21
8.763099999991255
 31
0.0
  0
LINE
  5
B400
330
B3CB
100
AcDbEntity
  8
0
  6
CONTINUOUS
100
AcDbLine
 10
33.08199999996839
 20
8.060796661429132
 30
0.0
 11
32.37969666140626
 21
8.763099999991255
 31
0.0
  0
LINE
  5
B401
330
B3CB
100
AcDbEntity
  8
0
  6
CONTINUOUS
100
AcDbLine
 10
33.08199999996839
 20
8.734315870509318
 30
0.0
 11
33.05321587048645
 21
8.763099999991255
 31
0.0
  0
LINE
  5
B402
330
B3CB
100
AcDbEntity
  8
0
  6
CONTINUOUS
100
AcDbLine
 10
37.67199999996831
 20
4.817835079589585
 30
0.0
 11
36.23199999996837
 21
6.257835079589526
 31
0.0
  0
LINE
  5
B403
330
B3CB
100
AcDbEntity
  8
0
  6
CONTINUOUS
100
AcDbLine
 10
37.67199999996831
 20
5.491354288669771
 30
0.0
 11
36.23199999996837
 21
6.931354288669713
 31
0.0
  0
LINE
  5
B404
330
B3CB
100
AcDbEntity
  8
0
  6
CONTINUOUS
100
AcDbLine
 10
37.67199999996831
 20
6.164873497749958
 30
0.0
 11
36.23199999996837
 21
7.6048734977499
 31
0.0
  0
LINE
  5
B405
330
B3CB
100
AcDbEntity
  8
0
  6
CONTINUOUS
100
AcDbLine
 10
37.67199999996831
 20
6.838392706830144
 30
0.0
 11
36.23199999996837
 21
8.278392706830086
 31
0.0
  0
LINE
  5
B406
330
B3CB
100
AcDbEntity
  8
0
  6
CONTINUOUS
100
AcDbLine
 10
37.67199999996831
 20
7.511911915910332
 30
0.0
 11
36.42081191588738
 21
8.763099999991255
 31
0.0
  0
LINE
  5
B407
330
B3CB
100
AcDbEntity
  8
0
  6
CONTINUOUS
100
AcDbLine
 10
37.67199999996831
 20
8.185431124990519
 30
0.0
 11
37.09433112496757
 21
8.763099999991255
 31
0.0
  0
ENDBLK
  5
B46F
330
B3CB
100
AcDbEntity
  8
0
100
AcDbBlockEnd
  0
BLOCK
  5
B470
330
B408
100
AcDbEntity
  8
0
100
AcDbBlockBegin
  2
*X27
 70
     1
 10
0.0
 20
0.0
 30
0.0
  3
*X27
  1

  0
LINE
  5
B409
330
B408
100
AcDbEntity
  8
0
  6
CONTINUOUS
100
AcDbLine
 10
38.60499999996136
 20
8.762866199104765
 30
0.0
 11
38.71672554182345
 21
8.874591740966855
 31
0.0
  0
LINE
  5
B40A
330
B408
100
AcDbEntity
  8
0
  6
CONTINUOUS
100
AcDbLine
 10
38.60499999996136
 20
8.089346990024577
 30
0.0
 11
39.03418785440363
 21
8.518534844466847
 31
0.0
  0
LINE
  5
B40B
330
B408
100
AcDbEntity
  8
0
  6
CONTINUOUS
100
AcDbLine
 10
38.60499999996136
 20
7.41582778094439
 30
0.0
 11
39.35165016698382
 21
8.16247794796684
 31
0.0
  0
LINE
  5
B40C
330
B408
100
AcDbEntity
  8
0
  6
CONTINUOUS
100
AcDbLine
 10
38.60499999996136
 20
6.742308571864204
 30
0.0
 11
39.66911247956399
 21
7.806421051466834
 31
0.0
  0
LINE
  5
B40D
330
B408
100
AcDbEntity
  8
0
  6
CONTINUOUS
100
AcDbLine
 10
38.60499999996136
 20
6.068789362784018
 30
0.0
 11
39.98657479214418
 21
7.450364154966827
 31
0.0
  0
LINE
  5
B40E
330
B408
100
AcDbEntity
  8
0
  6
CONTINUOUS
100
AcDbLine
 10
38.60499999996136
 20
5.395270153703832
 30
0.0
 11
40.30403710472435
 21
7.09430725846682
 31
0.0
  0
LINE
  5
B40F
330
B408
100
AcDbEntity
  8
0
  6
CONTINUOUS
100
AcDbLine
 10
38.60499999996136
 20
4.721750944623645
 30
0.0
 11
40.62149941730453
 21
6.738250361966813
 31
0.0
  0
LINE
  5
B410
330
B408
100
AcDbEntity
  8
0
  6
CONTINUOUS
100
AcDbLine
 10
38.60499999996136
 20
4.048231735543458
 30
0.0
 11
40.93896172988471
 21
6.382193465466806
 31
0.0
  0
LINE
  5
B411
330
B408
100
AcDbEntity
  8
0
  6
CONTINUOUS
100
AcDbLine
 10
38.60499999996136
 20
3.374712526463272
 30
0.0
 11
40.02599999995994
 21
4.795712526461843
 31
0.0
  0
LINE
  5
B412
330
B408
100
AcDbEntity
  8
0
  6
CONTINUOUS
100
AcDbLine
 10
38.60499999996136
 20
2.701193317383085
 30
0.0
 11
40.02599999995994
 21
4.122193317381657
 31
0.0
  0
LINE
  5
B413
330
B408
100
AcDbEntity
  8
0
  6
CONTINUOUS
100
AcDbLine
 10
40.28339754687704
 20
5.053110073378947
 30
0.0
 11
41.25642404246489
 21
6.026136568966799
 31
0.0
  0
LINE
  5
B414
330
B408
100
AcDbEntity
  8
0
  6
CONTINUOUS
100
AcDbLine
 10
40.60085985945722
 20
4.697053176878939
 30
0.0
 11
41.57388635504507
 21
5.670079672466793
 31
0.0
  0
LINE
  5
B415
330
B408
100
AcDbEntity
  8
0
  6
CONTINUOUS
100
AcDbLine
 10
43.57899999995641
 20
8.348712526458318
 30
0.0
 11
43.99338747348935
 21
8.763099999991255
 31
0.0
  0
LINE
  5
B416
330
B408
100
AcDbEntity
  8
0
  6
CONTINUOUS
100
AcDbLine
 10
43.57899999995641
 20
7.675193317378131
 30
0.0
 11
44.66690668256953
 21
8.763099999991255
 31
0.0
  0
LINE
  5
B417
330
B408
100
AcDbEntity
  8
0
  6
CONTINUOUS
100
AcDbLine
 10
38.60499999996136
 20
2.027674108302898
 30
0.0
 11
40.02599999995994
 21
3.44867410830147
 31
0.0
  0
LINE
  5
B418
330
B408
100
AcDbEntity
  8
0
  6
CONTINUOUS
100
AcDbLine
 10
38.60499999996136
 20
1.354154899222712
 30
0.0
 11
40.02599999995994
 21
2.775154899221284
 31
0.0
  0
LINE
  5
B419
330
B408
100
AcDbEntity
  8
0
  6
CONTINUOUS
100
AcDbLine
 10
38.60499999996136
 20
0.6806356901425255
 30
0.0
 11
40.02599999995994
 21
2.101635690141098
 31
0.0
  0
LINE
  5
B41A
330
B408
100
AcDbEntity
  8
0
  6
CONTINUOUS
100
AcDbLine
 10
38.60499999996136
 20
0.0071164810623383
 30
0.0
 11
40.02599999995994
 21
1.428116481060911
 31
0.0
  0
LINE
  5
B41B
330
B408
100
AcDbEntity
  8
0
  6
CONTINUOUS
100
AcDbLine
 10
40.9183221720374
 20
4.340996280378933
 30
0.0
 11
41.89134866762525
 21
5.314022775966786
 31
0.0
  0
LINE
  5
B41C
330
B408
100
AcDbEntity
  8
0
  6
CONTINUOUS
100
AcDbLine
 10
41.23578448461758
 20
3.984939383878926
 30
0.0
 11
42.20881098020543
 21
4.957965879466778
 31
0.0
  0
LINE
  5
B41D
330
B408
100
AcDbEntity
  8
0
  6
CONTINUOUS
100
AcDbLine
 10
41.55324679719776
 20
3.628882487378919
 30
0.0
 11
42.52627329278561
 21
4.601908982966772
 31
0.0
  0
LINE
  5
B41E
330
B408
100
AcDbEntity
  8
0
  6
CONTINUOUS
100
AcDbLine
 10
41.87070910977793
 20
3.272825590878912
 30
0.0
 11
42.84373560536579
 21
4.245852086466765
 31
0.0
  0
LINE
  5
B41F
330
B408
100
AcDbEntity
  8
0
  6
CONTINUOUS
100
AcDbLine
 10
43.57899999995641
 20
7.001674108297943
 30
0.0
 11
44.99999999995498
 21
8.422674108296516
 31
0.0
  0
LINE
  5
B420
330
B408
100
AcDbEntity
  8
0
  6
CONTINUOUS
100
AcDbLine
 10
43.57899999995641
 20
6.328154899217758
 30
0.0
 11
44.99999999995498
 21
7.749154899216329
 31
0.0
  0
LINE
  5
B421
330
B408
100
AcDbEntity
  8
0
  6
CONTINUOUS
100
AcDbLine
 10
43.57899999995641
 20
5.654635690137571
 30
0.0
 11
44.99999999995498
 21
7.075635690136142
 31
0.0
  0
LINE
  5
B422
330
B408
100
AcDbEntity
  8
0
  6
CONTINUOUS
100
AcDbLine
 10
43.57899999995641
 20
4.981116481057384
 30
0.0
 11
44.99999999995498
 21
6.402116481055955
 31
0.0
  0
LINE
  5
B423
330
B408
100
AcDbEntity
  8
0
  6
CONTINUOUS
100
AcDbLine
 10
39.27140272797921
 20
-0.0000000000000009
 30
0.0
 11
40.02599999995994
 21
0.7545972719807246
 31
0.0
  0
LINE
  5
B424
330
B408
100
AcDbEntity
  8
0
  6
CONTINUOUS
100
AcDbLine
 10
39.9449219370594
 20
-0.0000000000000009
 30
0.0
 11
40.02599999995994
 21
0.0810780629005379
 31
0.0
  0
LINE
  5
B425
330
B408
100
AcDbEntity
  8
0
  6
CONTINUOUS
100
AcDbLine
 10
42.18817142235812
 20
2.916768694378905
 30
0.0
 11
43.16119791794597
 21
3.889795189966758
 31
0.0
  0
LINE
  5
B426
330
B408
100
AcDbEntity
  8
0
  6
CONTINUOUS
100
AcDbLine
 10
42.50563373493829
 20
2.560711797878898
 30
0.0
 11
43.47866023052615
 21
3.533738293466751
 31
0.0
  0
LINE
  5
B427
330
B408
100
AcDbEntity
  8
0
  6
CONTINUOUS
100
AcDbLine
 10
43.57899999995641
 20
4.307597271977198
 30
0.0
 11
44.99999999995498
 21
5.728597271975769
 31
0.0
  0
LINE
  5
B428
330
B408
100
AcDbEntity
  8
0
  6
CONTINUOUS
100
AcDbLine
 10
43.57899999995641
 20
3.634078062897011
 30
0.0
 11
44.99999999995498
 21
5.055078062895582
 31
0.0
  0
LINE
  5
B429
330
B408
100
AcDbEntity
  8
0
  6
CONTINUOUS
100
AcDbLine
 10
42.82309604751848
 20
2.204654901378891
 30
0.0
 11
44.99999999995498
 21
4.381558853815395
 31
0.0
  0
LINE
  5
B42A
330
B408
100
AcDbEntity
  8
0
  6
CONTINUOUS
100
AcDbLine
 10
43.14055836009865
 20
1.848598004878885
 30
0.0
 11
44.99999999995498
 21
3.70803964473521
 31
0.0
  0
LINE
  5
B42B
330
B408
100
AcDbEntity
  8
0
  6
CONTINUOUS
100
AcDbLine
 10
43.45802067267883
 20
1.492541108378878
 30
0.0
 11
44.99999999995498
 21
3.034520435655023
 31
0.0
  0
LINE
  5
B42C
330
B408
100
AcDbEntity
  8
0
  6
CONTINUOUS
100
AcDbLine
 10
43.77548298525902
 20
1.136484211878871
 30
0.0
 11
44.99999999995498
 21
2.361001226574837
 31
0.0
  0
LINE
  5
B42D
330
B408
100
AcDbEntity
  8
0
  6
CONTINUOUS
100
AcDbLine
 10
44.09294529783919
 20
0.7804273153788639
 30
0.0
 11
44.99999999995498
 21
1.687482017494649
 31
0.0
  0
LINE
  5
B42E
330
B408
100
AcDbEntity
  8
0
  6
CONTINUOUS
100
AcDbLine
 10
44.41040761041938
 20
0.4243704188788566
 30
0.0
 11
44.99999999995498
 21
1.013962808414463
 31
0.0
  0
LINE
  5
B42F
330
B408
100
AcDbEntity
  8
0
  6
CONTINUOUS
100
AcDbLine
 10
44.72786992299955
 20
0.0683135223788494
 30
0.0
 11
44.99999999995498
 21
0.340443599334276
 31
0.0
  0
LINE
  5
B430
330
B408
100
AcDbEntity
  8
0
  6
CONTINUOUS
100
AcDbLine
 10
39.12223903415696
 20
-0.0000000000000009
 30
0.0
 11
38.60499999996136
 21
0.5172390341955961
 31
0.0
  0
LINE
  5
B431
330
B408
100
AcDbEntity
  8
0
  6
CONTINUOUS
100
AcDbLine
 10
39.79575824323715
 20
-0.0000000000000009
 30
0.0
 11
38.60499999996136
 21
1.190758243275783
 31
0.0
  0
LINE
  5
B432
330
B408
100
AcDbEntity
  8
0
  6
CONTINUOUS
100
AcDbLine
 10
40.02599999995994
 20
0.443277452357397
 30
0.0
 11
38.60499999996136
 21
1.864277452355969
 31
0.0
  0
LINE
  5
B433
330
B408
100
AcDbEntity
  8
0
  6
CONTINUOUS
100
AcDbLine
 10
40.02599999995994
 20
1.116796661437583
 30
0.0
 11
38.60499999996136
 21
2.537796661436155
 31
0.0
  0
LINE
  5
B434
330
B408
100
AcDbEntity
  8
0
  6
CONTINUOUS
100
AcDbLine
 10
40.02599999995994
 20
1.79031587051777
 30
0.0
 11
38.60499999996136
 21
3.211315870516341
 31
0.0
  0
LINE
  5
B435
330
B408
100
AcDbEntity
  8
0
  6
CONTINUOUS
100
AcDbLine
 10
40.02599999995994
 20
2.463835079597956
 30
0.0
 11
38.60499999996136
 21
3.884835079596527
 31
0.0
  0
LINE
  5
B436
330
B408
100
AcDbEntity
  8
0
  6
CONTINUOUS
100
AcDbLine
 10
40.02599999995994
 20
3.137354288678143
 30
0.0
 11
38.60499999996136
 21
4.558354288676714
 31
0.0
  0
LINE
  5
B437
330
B408
100
AcDbEntity
  8
0
  6
CONTINUOUS
100
AcDbLine
 10
40.02599999995994
 20
3.810873497758329
 30
0.0
 11
38.60499999996136
 21
5.2318734977569
 31
0.0
  0
LINE
  5
B438
330
B408
100
AcDbEntity
  8
0
  6
CONTINUOUS
100
AcDbLine
 10
40.02599999995994
 20
4.484392706838515
 30
0.0
 11
38.60499999996136
 21
5.905392706837086
 31
0.0
  0
LINE
  5
B439
330
B408
100
AcDbEntity
  8
0
  6
CONTINUOUS
100
AcDbLine
 10
44.99999999995498
 20
0.183911915923658
 30
0.0
 11
41.53858364506288
 21
3.64532827081576
 31
0.0
  0
LINE
  5
B43A
330
B408
100
AcDbEntity
  8
0
  6
CONTINUOUS
100
AcDbLine
 10
40.02599999995994
 20
5.157911915918703
 30
0.0
 11
38.60499999996136
 21
6.578911915917274
 31
0.0
  0
LINE
  5
B43B
330
B408
100
AcDbEntity
  8
0
  6
CONTINUOUS
100
AcDbLine
 10
44.99999999995498
 20
0.8574311250038447
 30
0.0
 11
38.60499999996136
 21
7.25243112499746
 31
0.0
  0
LINE
  5
B43C
330
B408
100
AcDbEntity
  8
0
  6
CONTINUOUS
100
AcDbLine
 10
44.99999999995498
 20
1.530950334084031
 30
0.0
 11
38.60499999996136
 21
7.925950334077647
 31
0.0
  0
LINE
  5
B43D
330
B408
100
AcDbEntity
  8
0
  6
CONTINUOUS
100
AcDbLine
 10
44.99999999995498
 20
2.204469543164218
 30
0.0
 11
43.57899999995641
 21
3.625469543162789
 31
0.0
  0
LINE
  5
B43E
330
B408
100
AcDbEntity
  8
0
  6
CONTINUOUS
100
AcDbLine
 10
41.89876730984767
 20
5.305702233271528
 30
0.0
 11
38.60499999996136
 21
8.599469543157834
 31
0.0
  0
LINE
  5
B43F
330
B408
100
AcDbEntity
  8
0
  6
CONTINUOUS
100
AcDbLine
 10
44.99999999995498
 20
2.877988752244405
 30
0.0
 11
43.57899999995641
 21
4.298988752242975
 31
0.0
  0
LINE
  5
B440
330
B408
100
AcDbEntity
  8
0
  6
CONTINUOUS
100
AcDbLine
 10
44.99999999995498
 20
3.551507961324591
 30
0.0
 11
43.57899999995641
 21
4.972507961323163
 31
0.0
  0
LINE
  5
B441
330
B408
100
AcDbEntity
  8
0
  6
CONTINUOUS
100
AcDbLine
 10
44.99999999995498
 20
4.225027170404777
 30
0.0
 11
43.57899999995641
 21
5.646027170403348
 31
0.0
  0
LINE
  5
B442
330
B408
100
AcDbEntity
  8
0
  6
CONTINUOUS
100
AcDbLine
 10
44.99999999995498
 20
4.898546379484964
 30
0.0
 11
43.57899999995641
 21
6.319546379483535
 31
0.0
  0
LINE
  5
B443
330
B408
100
AcDbEntity
  8
0
  6
CONTINUOUS
100
AcDbLine
 10
44.99999999995498
 20
5.572065588565151
 30
0.0
 11
43.57899999995641
 21
6.993065588563722
 31
0.0
  0
LINE
  5
B444
330
B408
100
AcDbEntity
  8
0
  6
CONTINUOUS
100
AcDbLine
 10
44.99999999995498
 20
6.245584797645336
 30
0.0
 11
43.57899999995641
 21
7.666584797643908
 31
0.0
  0
LINE
  5
B445
330
B408
100
AcDbEntity
  8
0
  6
CONTINUOUS
100
AcDbLine
 10
44.99999999995498
 20
6.919104006725522
 30
0.0
 11
43.57899999995641
 21
8.340104006724093
 31
0.0
  0
LINE
  5
B446
330
B408
100
AcDbEntity
  8
0
  6
CONTINUOUS
100
AcDbLine
 10
44.99999999995498
 20
7.592623215805709
 30
0.0
 11
43.82952321576943
 21
8.763099999991255
 31
0.0
  0
LINE
  5
B447
330
B408
100
AcDbEntity
  8
0
  6
CONTINUOUS
100
AcDbLine
 10
44.99999999995498
 20
8.266142424885896
 30
0.0
 11
44.50304242484962
 21
8.763099999991255
 31
0.0
  0
ENDBLK
  5
B471
330
B408
100
AcDbEntity
  8
0
100
AcDbBlockEnd
  0
BLOCK
  5
B472
330
B448
100
AcDbEntity
  8
0
100
AcDbBlockBegin
  2
*X28
 70
     1
 10
0.0
 20
0.0
 30
0.0
  3
*X28
  1

  0
LINE
  5
B449
330
B448
100
AcDbEntity
  8
0
  6
CONTINUOUS
100
AcDbLine
 10
0.0
 20
8.548461116714023
 30
0.0
 11
0.2146388832772324
 21
8.763099999991255
 31
0.0
  0
LINE
  5
B44A
330
B448
100
AcDbEntity
  8
0
  6
CONTINUOUS
100
AcDbLine
 10
-0.0000000000000002
 20
7.874941907633837
 30
0.0
 11
0.8881580923574184
 21
8.763099999991255
 31
0.0
  0
LINE
  5
B44B
330
B448
100
AcDbEntity
  8
0
  6
CONTINUOUS
100
AcDbLine
 10
0.0
 20
7.20142269855365
 30
0.0
 11
1.420999999998572
 21
8.622422698552223
 31
0.0
  0
LINE
  5
B44C
330
B448
100
AcDbEntity
  8
0
  6
CONTINUOUS
100
AcDbLine
 10
-0.0000000000000001
 20
6.527903489473465
 30
0.0
 11
1.420999999998571
 21
7.948903489472036
 31
0.0
  0
LINE
  5
B44D
330
B448
100
AcDbEntity
  8
0
  6
CONTINUOUS
100
AcDbLine
 10
-0.0000000000000002
 20
5.854384280393278
 30
0.0
 11
1.420999999998571
 21
7.275384280391849
 31
0.0
  0
LINE
  5
B44E
330
B448
100
AcDbEntity
  8
0
  6
CONTINUOUS
100
AcDbLine
 10
-0.0000000000000002
 20
5.180865071313091
 30
0.0
 11
1.420999999998571
 21
6.601865071311663
 31
0.0
  0
LINE
  5
B44F
330
B448
100
AcDbEntity
  8
0
  6
CONTINUOUS
100
AcDbLine
 10
0.0
 20
4.507345862232905
 30
0.0
 11
1.420999999998571
 21
5.928345862231477
 31
0.0
  0
LINE
  5
B450
330
B448
100
AcDbEntity
  8
0
  6
CONTINUOUS
100
AcDbLine
 10
-0.0000000000000003
 20
3.833826653152718
 30
0.0
 11
1.420999999998571
 21
5.25482665315129
 31
0.0
  0
LINE
  5
B451
330
B448
100
AcDbEntity
  8
0
  6
CONTINUOUS
100
AcDbLine
 10
-0.0000000000000002
 20
3.160307444072532
 30
0.0
 11
1.420999999998571
 21
4.581307444071103
 31
0.0
  0
LINE
  5
B452
330
B448
100
AcDbEntity
  8
0
  6
CONTINUOUS
100
AcDbLine
 10
-0.0000000000000001
 20
2.486788234992345
 30
0.0
 11
1.420999999998571
 21
3.907788234990917
 31
0.0
  0
LINE
  5
B453
330
B448
100
AcDbEntity
  8
0
  6
CONTINUOUS
100
AcDbLine
 10
-0.0000000000000006
 20
1.813269025912159
 30
0.0
 11
1.420999999998571
 21
3.234269025910731
 31
0.0
  0
LINE
  5
B454
330
B448
100
AcDbEntity
  8
0
  6
CONTINUOUS
100
AcDbLine
 10
0.0
 20
1.139749816831973
 30
0.0
 11
1.420999999998571
 21
2.560749816830544
 31
0.0
  0
LINE
  5
B455
330
B448
100
AcDbEntity
  8
0
  6
CONTINUOUS
100
AcDbLine
 10
0.0000000000000002
 20
0.466230607751787
 30
0.0
 11
1.420999999998571
 21
1.887230607750358
 31
0.0
  0
LINE
  5
B456
330
B448
100
AcDbEntity
  8
0
  6
CONTINUOUS
100
AcDbLine
 10
0.2072886013284003
 20
-0.0000000000000009
 30
0.0
 11
1.420999999998571
 21
1.213711398670171
 31
0.0
  0
LINE
  5
B457
330
B448
100
AcDbEntity
  8
0
  6
CONTINUOUS
100
AcDbLine
 10
0.8808078104085864
 20
-0.0000000000000009
 30
0.0
 11
1.420999999998571
 21
0.5401921895899839
 31
0.0
  0
LINE
  5
B458
330
B448
100
AcDbEntity
  8
0
  6
CONTINUOUS
100
AcDbLine
 10
0.0581249075061505
 20
-0.0000000000000009
 30
0.0
 11
-0.0000000000000002
 21
0.0581249075061496
 31
0.0
  0
LINE
  5
B459
330
B448
100
AcDbEntity
  8
0
  6
CONTINUOUS
100
AcDbLine
 10
0.7316441165863372
 20
-0.0000000000000009
 30
0.0
 11
-0.0000000000000002
 21
0.7316441165863363
 31
0.0
  0
LINE
  5
B45A
330
B448
100
AcDbEntity
  8
0
  6
CONTINUOUS
100
AcDbLine
 10
1.405163325666523
 20
-0.0000000000000009
 30
0.0
 11
-0.0000000000000002
 21
1.405163325666523
 31
0.0
  0
LINE
  5
B45B
330
B448
100
AcDbEntity
  8
0
  6
CONTINUOUS
100
AcDbLine
 10
1.420999999998572
 20
0.6576825347481381
 30
0.0
 11
-0.0000000000000001
 21
2.07868253474671
 31
0.0
  0
LINE
  5
B45C
330
B448
100
AcDbEntity
  8
0
  6
CONTINUOUS
100
AcDbLine
 10
1.420999999998571
 20
1.331201743828324
 30
0.0
 11
-0.0000000000000001
 21
2.752201743826896
 31
0.0
  0
LINE
  5
B45D
330
B448
100
AcDbEntity
  8
0
  6
CONTINUOUS
100
AcDbLine
 10
1.420999999998571
 20
2.004720952908511
 30
0.0
 11
-0.0000000000000002
 21
3.425720952907082
 31
0.0
  0
LINE
  5
B45E
330
B448
100
AcDbEntity
  8
0
  6
CONTINUOUS
100
AcDbLine
 10
1.420999999998571
 20
2.678240161988697
 30
0.0
 11
-0.0000000000000001
 21
4.099240161987269
 31
0.0
  0
LINE
  5
B45F
330
B448
100
AcDbEntity
  8
0
  6
CONTINUOUS
100
AcDbLine
 10
1.420999999998572
 20
3.351759371068884
 30
0.0
 11
0.0
 21
4.772759371067455
 31
0.0
  0
LINE
  5
B460
330
B448
100
AcDbEntity
  8
0
  6
CONTINUOUS
100
AcDbLine
 10
1.420999999998571
 20
4.02527858014907
 30
0.0
 11
-0.0000000000000003
 21
5.446278580147642
 31
0.0
  0
LINE
  5
B461
330
B448
100
AcDbEntity
  8
0
  6
CONTINUOUS
100
AcDbLine
 10
1.420999999998571
 20
4.698797789229257
 30
0.0
 11
0.0
 21
6.119797789227828
 31
0.0
  0
LINE
  5
B462
330
B448
100
AcDbEntity
  8
0
  6
CONTINUOUS
100
AcDbLine
 10
1.420999999998571
 20
5.372316998309444
 30
0.0
 11
-0.0000000000000001
 21
6.793316998308015
 31
0.0
  0
LINE
  5
B463
330
B448
100
AcDbEntity
  8
0
  6
CONTINUOUS
100
AcDbLine
 10
1.420999999998572
 20
6.045836207389629
 30
0.0
 11
-0.0000000000000004
 21
7.466836207388202
 31
0.0
  0
LINE
  5
B464
330
B448
100
AcDbEntity
  8
0
  6
CONTINUOUS
100
AcDbLine
 10
1.420999999998571
 20
6.719355416469816
 30
0.0
 11
0.0
 21
8.140355416468388
 31
0.0
  0
LINE
  5
B465
330
B448
100
AcDbEntity
  8
0
  6
CONTINUOUS
100
AcDbLine
 10
1.420999999998571
 20
7.392874625550003
 30
0.0
 11
0.0507746255573185
 21
8.763099999991255
 31
0.0
  0
LINE
  5
B466
330
B448
100
AcDbEntity
  8
0
  6
CONTINUOUS
100
AcDbLine
 10
1.420999999998571
 20
8.06639383463019
 30
0.0
 11
0.7242938346375052
 21
8.763099999991255
 31
0.0
  0
LINE
  5
B467
330
B448
100
AcDbEntity
  8
0
  6
CONTINUOUS
100
AcDbLine
 10
1.420999999998571
 20
8.739913043710375
 30
0.0
 11
1.397813043717691
 21
8.763099999991255
 31
0.0
  0
ENDBLK
  5
B473
330
B448
100
AcDbEntity
  8
0
100
AcDbBlockEnd
  0
ENDSEC
  0
SECTION
  2
ENTITIES
  0
LINE
  5
AFDB
330
18
100
AcDbEntity
  8
01
100
AcDbLine
 10
5468.92611477635
 20
845.0680484006512
 30
0.0
 11
5491.55440015878
 21
845.0680484006512
 31
0.0
  0
LINE
  5
AFDC
330
18
100
AcDbEntity
  8
01
100
AcDbLine
 10
5471.05440015878
 20
965.0680484006512
 30
0.0
 11
5471.05440015878
 21
775.0680484006512
 31
0.0
  0
LINE
  5
AFDD
330
18
100
AcDbEntity
  8
1CENTER
100
AcDbLine
 10
5485.55440015878
 20
830.0680484006512
 30
0.0
 11
5485.55440015878
 21
838.0680484006512
 31
0.0
  0
LINE
  5
AFDE
330
18
100
AcDbEntity
  8
01
100
AcDbLine
 10
5591.05440015878
 20
845.0680484006512
 30
0.0
 11
5651.05440015878
 21
845.0680484006512
 31
0.0
  0
LINE
  5
AFDF
330
18
100
AcDbEntity
  8
01
100
AcDbLine
 10
5621.05440015878
 20
875.0680484006512
 30
0.0
 11
5621.05440015878
 21
815.0680484006512
 31
0.0
  0
LINE
  5
AFE0
330
18
100
AcDbEntity
  8
01
100
AcDbLine
 10
5596.05440015878
 20
958.5680484006512
 30
0.0
 11
5596.05440015878
 21
781.5680484006512
 31
0.0
  0
ARC
  5
AFE1
330
18
100
AcDbEntity
  8
01
100
AcDbCircle
 10
5596.55440015878
 20
781.5680484006512
 30
0.0
 40
0.5
100
AcDbArc
 50
180.0
 51
270.0
  0
LINE
  5
AFE2
330
18
100
AcDbEntity
  8
01
100
AcDbLine
 10
5646.05440015878
 20
958.5680484006512
 30
0.0
 11
5646.05440015878
 21
862.1449399380595
 31
0.0
  0
LINE
  5
AFE3
330
18
100
AcDbEntity
  8
01
100
AcDbLine
 10
5646.05440015878
 20
845.1975323205777
 30
0.0
 11
5646.05440015878
 21
781.5680484006512
 31
0.0
  0
ARC
  5
AFE4
330
18
100
AcDbEntity
  8
01
100
AcDbCircle
 10
5645.55440015878
 20
958.5680484006512
 30
0.0
 40
0.5
100
AcDbArc
 50
0.0
 51
90.0
  0
LINE
  5
AFE5
330
18
100
AcDbEntity
  8
01
100
AcDbLine
 10
5645.55440015878
 20
781.0680484006512
 30
0.0
 11
5596.55440015878
 21
781.0680484006512
 31
0.0
  0
ARC
  5
AFE6
330
18
100
AcDbEntity
  8
01
100
AcDbCircle
 10
5645.55440015878
 20
781.5680484006512
 30
0.0
 40
0.5
100
AcDbArc
 50
270.0
 51
0.0
  0
LINE
  5
AFE7
330
18
100
AcDbEntity
  8
01
100
AcDbLine
 10
5596.55440015878
 20
959.0680484006512
 30
0.0
 11
5645.55440015878
 21
959.0680484006512
 31
0.0
  0
ARC
  5
AFE8
330
18
100
AcDbEntity
  8
01
100
AcDbCircle
 10
5596.55440015878
 20
958.5680484006512
 30
0.0
 40
0.5
100
AcDbArc
 50
90.0
 51
180.0
  0
LINE
  5
AFE9
330
18
100
AcDbEntity
  8
01
100
AcDbLine
 10
5479.55440015878
 20
958.5680484006512
 30
0.0
 11
5479.55440015878
 21
781.5680484006512
 31
0.0
  0
ARC
  5
AFEA
330
18
100
AcDbEntity
  8
01
100
AcDbCircle
 10
5479.05440015878
 20
781.5680484006512
 30
0.0
 40
0.5
100
AcDbArc
 50
270.0
 51
0.0
  0
LINE
  5
AFEB
330
18
100
AcDbEntity
  8
01
100
AcDbLine
 10
5471.05440015878
 20
959.0680484006512
 30
0.0
 11
5471.05440015878
 21
781.0680484006512
 31
0.0
  0
LINE
  5
AFEC
330
18
100
AcDbEntity
  8
01
100
AcDbLine
 10
5479.05440015878
 20
959.0680484006512
 30
0.0
 11
5471.05440015878
 21
959.0680484006512
 31
0.0
  0
ARC
  5
AFED
330
18
100
AcDbEntity
  8
01
100
AcDbCircle
 10
5479.05440015878
 20
958.5680484006512
 30
0.0
 40
0.5
100
AcDbArc
 50
0.0
 51
90.0
  0
LINE
  5
AFEE
330
18
100
AcDbEntity
  8
01
100
AcDbLine
 10
5479.05440015878
 20
781.0680484006512
 30
0.0
 11
5471.05440015878
 21
781.0680484006512
 31
0.0
  0
LINE
  5
AFF1
330
18
100
AcDbEntity
  8
01
100
AcDbLine
 10
5570.05528434084
 20
1080.094758750108
 30
0.0
 11
5723.809664495873
 21
1080.094758750108
 31
0.0
  0
LINE
  5
AFF2
330
18
100
AcDbEntity
  8
01
100
AcDbLine
 10
5596.05440015878
 20
1080.094758750107
 30
0.0
 11
5646.05440015878
 21
1080.09475875011
 31
0.0
  0
LINE
  5
AFF3
330
18
100
AcDbEntity
  8
01
100
AcDbLine
 10
5596.554400158777
 20
1071.594758750107
 30
0.0
 11
5645.55440015878
 21
1071.594758750111
 31
0.0
  0
LINE
  5
AFF4
330
18
100
AcDbEntity
  8
01
100
AcDbLine
 10
5646.05440015878
 20
1080.09475875011
 30
0.0
 11
5646.05440015878
 21
1072.094758750111
 31
0.0
  0
ARC
  5
AFF5
330
18
100
AcDbEntity
  8
01
100
AcDbCircle
 10
5645.55440015878
 20
1072.094758750111
 30
0.0
 40
0.5
100
AcDbArc
 50
270.0
 51
0.0
  0
LINE
  5
AFF6
330
18
100
AcDbEntity
  8
01
100
AcDbLine
 10
5596.05440015878
 20
1080.094758750107
 30
0.0
 11
5596.054400158777
 21
1072.094758750108
 31
0.0
  0
ARC
  5
AFF7
330
18
100
AcDbEntity
  8
01
100
AcDbCircle
 10
5596.554400158777
 20
1072.094758750107
 30
0.0
 40
0.5
100
AcDbArc
 50
180.0
 51
270.0
  0
LINE
  5
AFF8
330
18
100
AcDbEntity
  8
01
100
AcDbLine
 10
5621.05440015878
 20
1058.594758750109
 30
0.0
 11
5621.05440015878
 21
1085.160589670257
 31
0.0
  0
TEXT
  5
AFF9
330
18
100
AcDbEntity
  8
1TEXT
100
AcDbText
 10
5471.05440015878
 20
1005.068048400651
 30
0.0
 40
20.0
  1
N3K
 41
1.0171875
100
AcDbText
  0
LINE
  5
AFFA
330
18
100
AcDbEntity
  8
1CENTER
100
AcDbLine
 10
5485.55440015878
 20
830.0680484006512
 30
0.0
 11
5485.55440015878
 21
838.0680484006512
 31
0.0
  0
LINE
  5
AFFB
330
18
100
AcDbEntity
  8
01
100
AcDbLine
 10
5522.409953099008
 20
838.8396516327093
 30
0.0
 11
5523.900769160397
 21
839.2922458175399
 31
0.0
  0
LINE
  5
AFFC
330
18
100
AcDbEntity
  8
01
100
AcDbLine
 10
5524.007417133738
 20
839.323383207684
 30
0.0
 11
5523.900675628161
 21
839.2925348281788
 31
0.0
  0
LINE
  5
AFFD
330
18
100
AcDbEntity
  8
01
100
AcDbLine
 10
5526.280039498795
 20
864.4735041698659
 30
0.0
 11
5526.744245810052
 21
864.284005226636
 31
0.0
  0
LINE
  5
AFFE
330
18
100
AcDbEntity
  8
01
100
AcDbLine
 10
5527.09700637427
 20
864.1009871860624
 30
0.0
 11
5526.744269983872
 21
864.2840632225489
 31
0.0
  0
LINE
  5
AFFF
330
18
100
AcDbEntity
  8
01
100
AcDbLine
 10
5503.824756042133
 20
860.849067102462
 30
0.0
 11
5503.759591913984
 21
861.913415689924
 31
0.0
  0
LINE
  5
B000
330
18
100
AcDbEntity
  8
01
100
AcDbLine
 10
5503.759689837299
 20
861.9134175226195
 30
0.0
 11
5503.758093806238
 21
862.1107628294526
 31
0.0
  0
ARC
  5
B001
330
18
100
AcDbEntity
  8
01
100
AcDbCircle
 10
5517.483862286083
 20
861.6618758768218
 30
0.0
 40
13.73310489725905
100
AcDbArc
 50
157.1258773756004
 51
178.1268751981759
  0
LINE
  5
B002
330
18
100
AcDbEntity
  8
01
100
AcDbLine
 10
5504.83071497988
 20
867.0000390618097
 30
0.0
 11
5504.838662384984
 21
867.0226637216092
 31
0.0
  0
ARC
  5
B003
330
18
100
AcDbEntity
  8
01
100
AcDbCircle
 10
5506.710306428944
 20
866.2813156616112
 30
0.0
 40
2.013120881191917
100
AcDbArc
 50
114.9915855680003
 51
158.3922441622113
  0
LINE
  5
B004
330
18
100
AcDbEntity
  8
01
100
AcDbLine
 10
5526.508396971747
 20
864.3770530490501
 30
0.0
 11
5526.744571377716
 21
864.2838755865987
 31
0.0
  0
LINE
  5
B005
330
18
100
AcDbEntity
  8
01
100
AcDbLine
 10
5526.744538980056
 20
864.2837885563854
 30
0.0
 11
5526.885488838592
 21
864.2196881103264
 31
0.0
  0
ARC
  5
B006
330
18
100
AcDbEntity
  8
01
100
AcDbCircle
 10
5507.107102346821
 20
865.4119713420591
 30
0.0
 40
2.968711956950105
100
AcDbArc
 50
85.45139364002976
 51
114.8526989204676
  0
LINE
  5
B009
330
18
100
AcDbEntity
  8
01
100
AcDbLine
 10
5480.054384783962
 20
857.9729066874984
 30
0.0
 11
5486.770807329516
 21
858.4913693728436
 31
0.0
  0
ARC
  5
B00B
330
18
100
AcDbEntity
  8
01
100
AcDbCircle
 10
5525.510258152268
 20
841.7874794609434
 30
0.0
 40
1.62637527812117
100
AcDbArc
 50
339.7697270489376
 51
359.3529176670819
  0
LINE
  5
B00D
330
18
100
AcDbEntity
  8
01
100
AcDbLine
 10
5524.12783742166
 20
839.3621510509083
 30
0.0
 11
5524.007417133738
 21
839.323383207684
 31
0.0
  0
LINE
  5
B00E
330
18
100
AcDbEntity
  8
01
100
AcDbLine
 10
5480.054384783962
 20
857.9729066874984
 30
0.0
 11
5480.054414638866
 21
832.914184911474
 31
0.0
  0
SPLINE
  5
B00F
330
18
100
AcDbEntity
  8
1DIM
100
AcDbSpline
210
0.0
220
0.0
230
1.0
 70
     8
 71
     3
 72
    13
 73
     9
 74
     0
 42
0.0000000001
 43
0.0000000001
 40
1.022758186394553
 40
1.022758186394553
 40
1.022758186394553
 40
1.022758186394553
 40
19.16974290966603
 40
34.5622501936958
 40
43.47004669500184
 40
45.95104555884003
 40
47.65769294553009
 40
48.22628856925304
 40
48.22628856925304
 40
48.22628856925304
 40
48.22628856925304
 10
5480.054400636669
 20
844.666931960724
 30
0.0
 10
5486.092021313931
 20
844.9144625936951
 30
0.0
 10
5497.252826531563
 20
845.366488841757
 30
0.0
 10
5511.465376623062
 20
845.6990582115682
 30
0.0
 10
5520.282707467159
 20
844.9380461330416
 30
0.0
 10
5524.710460824832
 20
844.4115161661753
 30
0.0
 10
5525.997700439189
 20
843.2960414449399
 30
0.0
 10
5526.297029897625
 20
842.5999439907946
 30
0.0
 10
5526.357745608835
 20
842.4198822239177
 30
0.0
  0
SPLINE
  5
B010
330
18
100
AcDbEntity
  8
1DIM
100
AcDbSpline
210
0.0
220
0.0
230
1.0
 70
     8
 71
     3
 72
    14
 73
    10
 74
     0
 42
0.0000000001
 43
0.0000000001
 40
0.6445100819610194
 40
0.6445100819610194
 40
0.6445100819610194
 40
0.6445100819610194
 40
1.267223270871801
 40
2.256791850010462
 40
3.759440384403517
 40
5.218307461689858
 40
5.837098605474792
 40
6.969259685357242
 40
7.912188272057365
 40
7.912188272057365
 40
7.912188272057365
 40
7.912188272057365
 10
5505.737377522881
 20
868.0440698959533
 30
0.0
 10
5505.872788992907
 20
867.8857182063816
 30
0.0
 10
5506.188159173249
 20
867.4551246608403
 30
0.0
 10
5506.450990443956
 20
866.4205986999327
 30
0.0
 10
5506.514903763898
 20
865.1155813262635
 30
0.0
 10
5506.575225458268
 20
863.9050738463575
 30
0.0
 10
5506.399786201699
 20
862.8676375608516
 30
0.0
 10
5506.315022731769
 20
861.868443418944
 30
0.0
 10
5505.652420407296
 20
861.5477125653733
 30
0.0
 10
5505.351331406941
 20
861.4019712534005
 30
0.0
  0
SPLINE
  5
B011
330
18
100
AcDbEntity
  8
1DIM
100
AcDbSpline
210
0.0
220
0.0
230
1.0
 70
     8
 71
     3
 72
    14
 73
    10
 74
     0
 42
0.0000000001
 43
0.0000000001
 40
0.80083972585277
 40
0.80083972585277
 40
0.80083972585277
 40
0.80083972585277
 40
5.770968380825738
 40
14.42739980947128
 40
21.64280824055746
 40
31.86708497496882
 40
40.85546687830048
 40
46.13141246715511
 40
46.65179340511682
 40
46.65179340511682
 40
46.65179340511682
 40
46.65179340511682
 10
5480.054409731449
 20
837.0332259741945
 30
0.0
 10
5481.710997791124
 20
837.023408069696
 30
0.0
 10
5486.252867757094
 20
836.9871994445307
 30
0.0
 10
5493.20020068231
 20
836.6510582998585
 30
0.0
 10
5501.890407273469
 20
837.1994282285455
 30
0.0
 10
5510.661568911035
 20
838.0524357975528
 30
0.0
 10
5518.737738773672
 20
839.1915057420597
 30
0.0
 10
5523.591488648946
 20
840.1661356235222
 30
0.0
 10
5525.420221747261
 20
840.7829265500172
 30
0.0
 10
5525.583908643262
 20
840.8398591716041
 30
0.0
  0
ARC
  5
B012
330
18
100
AcDbEntity
  8
1DIM
100
AcDbCircle
 10
5525.173270414947
 20
842.0204845336025
 30
0.0
 40
1.25
100
AcDbArc
 50
289.1783988344069
 51
18.63378728586646
  0
ARC
  5
B016
330
18
100
AcDbEntity
  8
01
100
AcDbCircle
 10
5620.258934341588
 20
861.6142824094663
 30
0.0
 40
28.68412319827765
100
AcDbArc
 50
260.2477433191623
 51
274.6345995745736
  0
ARC
  5
B017
330
18
100
AcDbEntity
  8
01
100
AcDbCircle
 10
5623.067280024228
 20
902.4097485494667
 30
0.0
 40
69.35680360758283
100
AcDbArc
 50
252.4607836664957
 51
259.0152014586286
  0
ARC
  5
B018
330
18
100
AcDbEntity
  8
01
100
AcDbCircle
 10
5603.758108817714
 20
841.1181605435077
 30
0.0
 40
5.095968972172928
100
AcDbArc
 50
220.9612426595335
 51
251.7947580361596
  0
ARC
  5
B019
330
18
100
AcDbEntity
  8
01
100
AcDbCircle
 10
5617.70244901867
 20
852.8626878410591
 30
0.0
 40
23.32677656708962
100
AcDbArc
 50
203.0736833524101
 51
220.2924664164737
  0
ARC
  5
B01A
330
18
100
AcDbEntity
  8
01
100
AcDbCircle
 10
5598.0761920855
 20
844.5364833298577
 30
0.0
 40
2.007676678485943
100
AcDbArc
 50
136.5368186018318
 51
203.9782411566984
  0
ARC
  5
B01B
330
18
100
AcDbEntity
  8
01
100
AcDbCircle
 10
5728.166903812449
 20
325.857082808227
 30
0.0
 40
542.5407924919214
100
AcDbArc
 50
88.82352768684768
 51
98.1813542404197
  0
LINE
  5
B01D
330
18
100
AcDbEntity
  8
01
100
AcDbLine
 10
5739.409246382525
 20
856.8081262861847
 30
0.0
 11
5739.865348810221
 21
856.8257655242714
 31
0.0
  0
ARC
  5
B01E
330
18
100
AcDbEntity
  8
01
100
AcDbCircle
 10
5739.865030210996
 20
858.825102350474
 30
0.0
 40
1.999386624620067
100
AcDbArc
 50
270.009130631491
 51
338.706605869135
  0
LINE
  5
B01F
330
18
100
AcDbEntity
  8
01
100
AcDbLine
 10
5739.460151889225
 20
856.8085618780319
 30
0.0
 11
5739.405379113328
 21
856.8078580525821
 31
0.0
  0
ARC
  5
B020
330
18
100
AcDbEntity
  8
01
100
AcDbCircle
 10
5739.264873199862
 20
866.2853290633411
 30
0.0
 40
2.005706264543189
100
AcDbArc
 50
34.93398599847686
 51
88.98201921458994
  0
LINE
  5
B021
330
18
100
AcDbEntity
  8
01
100
AcDbLine
 10
5741.177181505131
 20
866.9646354481752
 30
0.0
 11
5740.91324774127
 21
867.4279465962923
 31
0.0
  0
ARC
  5
B022
330
18
100
AcDbEntity
  8
01
100
AcDbCircle
 10
5726.823036314318
 20
860.8147066194638
 30
0.0
 40
15.61611268119628
100
AcDbArc
 50
5.076284338201434
 51
23.19387460776276
  0
ARC
  5
B024
330
18
100
AcDbEntity
  8
01
100
AcDbCircle
 10
5680.016817985455
 20
760.7780983933658
 30
0.0
 40
90.9949814507619
100
AcDbArc
 50
106.7601531759938
 51
118.7555945302967
  0
ARC
  5
B025
330
18
100
AcDbEntity
  8
01
100
AcDbCircle
 10
5733.777475312514
 20
861.4631341287077
 30
0.0
 40
8.631696689375087
100
AcDbArc
 50
337.4097466241387
 51
4.873569415500325
  0
ARC
  5
B028
330
18
100
AcDbEntity
  8
01
100
AcDbCircle
 10
5621.511946753237
 20
843.2618988398599
 30
0.0
 40
10.29433590197223
100
AcDbArc
 50
276.0287229605097
 51
302.8329050161983
  0
SPLINE
  5
B029
330
18
100
AcDbEntity
  8
01
100
AcDbSpline
210
0.0
220
0.0
230
1.0
 70
  1064
 71
     3
 72
     9
 73
     5
 74
     3
 42
0.000000001
 43
0.0000000001
 44
0.0000000001
 40
0.0
 40
0.0
 40
0.0
 40
0.0
 40
1.75007567459819
 40
5.644072680202683
 40
5.644072680202683
 40
5.644072680202683
 40
5.644072680202683
 10
5609.851441820032
 20
834.3237160081203
 30
0.0
 10
5610.412670426776
 20
834.1615428195905
 30
0.0
 10
5612.222657899115
 20
833.6385270002588
 30
0.0
 10
5614.102929260132
 20
833.4646350541375
 30
0.0
 10
5615.400178864164
 20
833.344662340131
 30
0.0
 11
5609.851441820032
 21
834.3237160081203
 31
0.0
 11
5611.541885112087
 21
833.8707630931635
 31
0.0
 11
5615.400178864164
 21
833.344662340131
 31
0.0
  0
LINE
  5
B02B
330
18
100
AcDbEntity
  8
01
100
AcDbLine
 10
5741.746910049522
 20
858.1473691023612
 30
0.0
 11
5741.727924913132
 21
858.0990374749545
 31
0.0
  0
LINE
  5
B030
330
18
100
AcDbEntity
  8
01
100
AcDbLine
 10
5602.106185907143
 20
1024.011118747499
 30
0.0
 11
5601.931277523412
 21
1024.03335872657
 31
0.0
  0
LINE
  5
B031
330
18
100
AcDbEntity
  8
01
100
AcDbLine
 10
5601.931276728188
 20
1024.03335876098
 30
0.0
 11
5601.588603236656
 21
1024.105638682472
 31
0.0
  0
ARC
  5
B032
330
18
100
AcDbEntity
  8
01
100
AcDbCircle
 10
5744.179172883405
 20
1086.863130707438
 30
0.0
 40
113.4322481768704
100
AcDbArc
 50
187.9906417210494
 51
192.2612991851834
  0
LINE
  5
B033
330
18
100
AcDbEntity
  8
01
100
AcDbLine
 10
5652.558959920058
 20
1047.172311960421
 30
0.0
 11
5652.51413373234
 21
1047.174440711263
 31
0.0
  0
ARC
  5
B035
330
18
100
AcDbEntity
  8
01
100
AcDbCircle
 10
5657.090776673147
 20
1067.976818141949
 30
0.0
 40
24.31910284272136
100
AcDbArc
 50
192.3543436600827
 51
199.1038842581953
  0
LINE
  5
B037
330
18
100
AcDbEntity
  8
01
100
AcDbLine
 10
5741.424583149434
 20
1025.931478771538
 30
0.0
 11
5741.271361285466
 21
1024.86135617296
 31
0.0
  0
ARC
  5
B038
330
18
100
AcDbEntity
  8
01
100
AcDbCircle
 10
5739.202657961143
 20
1024.958009251535
 30
0.0
 40
2.041054676902837
100
AcDbArc
 50
271.1147284380016
 51
343.8228212619962
  0
LINE
  5
B039
330
18
100
AcDbEntity
  8
01
100
AcDbLine
 10
5740.332820148495
 20
1047.391234331665
 30
0.0
 11
5740.307343993478
 21
1047.391067510729
 31
0.0
  0
ARC
  5
B03A
330
18
100
AcDbEntity
  8
01
100
AcDbCircle
 10
5653.604144956387
 20
1068.641841589338
 30
0.0
 40
21.49467829427076
100
AcDbArc
 50
230.8449279796868
 51
267.1531714434232
  0
ARC
  5
B03B
330
18
100
AcDbEntity
  8
01
100
AcDbCircle
 10
5651.635380819256
 20
1066.706016046224
 30
0.0
 40
18.75278399381474
100
AcDbArc
 50
200.3614785397549
 51
231.7282490525324
  0
LINE
  5
B03C
330
18
100
AcDbEntity
  8
01
100
AcDbLine
 10
5740.332139755246
 20
1047.391234389047
 30
0.0
 11
5740.610871389817
 21
1047.373459379334
 31
0.0
  0
ARC
  5
B03D
330
18
100
AcDbEntity
  8
01
100
AcDbCircle
 10
5610.052388840189
 20
1042.189727938499
 30
0.0
 40
132.3743905913842
100
AcDbArc
 50
352.9451135056436
 51
1.388016331899413
  0
LINE
  5
B03E
330
18
100
AcDbEntity
  8
01
100
AcDbLine
 10
5741.239244173905
 20
1024.721623626152
 30
0.0
 11
5741.27134870693
 21
1024.86138290384
 31
0.0
  0
LINE
  5
B03F
330
18
100
AcDbEntity
  8
01
100
AcDbLine
 10
5596.068776054362
 20
1071.094755650265
 30
0.0
 11
5631.848262558124
 21
1071.09476008925
 31
0.0
  0
ARC
  5
B040
330
18
100
AcDbEntity
  8
01
100
AcDbCircle
 10
5740.463660525409
 20
1045.453953543011
 30
0.0
 40
1.925142512718844
100
AcDbArc
 50
358.282204517194
 51
85.61445308468177
  0
SPLINE
  5
B041
330
18
100
AcDbEntity
  8
1DIM
100
AcDbSpline
210
0.0
220
0.0
230
1.0
 70
     8
 71
     3
 72
    11
 73
     7
 74
     0
 42
0.0000000001
 43
0.0000000001
 40
1.192076879049868
 40
1.192076879049868
 40
1.192076879049868
 40
1.192076879049868
 40
9.984188269419404
 40
23.49881130272928
 40
36.11964824379923
 40
43.44514625863291
 40
43.44514625863291
 40
43.44514625863291
 40
43.44514625863291
 10
5626.35751201006
 20
1071.094759408056
 30
0.0
 10
5626.861310502243
 20
1068.2000290741
 30
0.0
 10
5628.258444634137
 20
1060.885920123861
 30
0.0
 10
5634.403193044669
 20
1050.438410576717
 30
0.0
 10
5644.828779970341
 20
1044.722683221233
 30
0.0
 10
5651.522409949863
 20
1044.710625161163
 30
0.0
 10
5653.98071485828
 20
1044.706196713767
 30
0.0
  0
LINE
  5
B042
330
18
100
AcDbEntity
  8
1DIM
100
AcDbLine
 10
5653.98071485828
 20
1044.706196713767
 30
0.0
 11
5738.750709794793
 21
1045.102404313789
 31
0.0
  0
SPLINE
  5
B043
330
18
100
AcDbEntity
  8
1DIM
100
AcDbSpline
210
0.0
220
0.0
230
1.0
 70
     8
 71
     3
 72
     9
 73
     5
 74
     0
 42
0.0000000001
 43
0.0000000001
 40
0.0
 40
0.0
 40
0.0
 40
0.0
 40
1.780128230459749
 40
3.667012630284078
 40
3.667012630284078
 40
3.667012630284078
 40
3.667012630284078
 10
5738.750709794793
 20
1045.102404313789
 30
0.0
 10
5739.368025266675
 20
1045.171751829094
 30
0.0
 10
5740.639677271023
 20
1045.314605703413
 30
0.0
 10
5741.403943741212
 20
1046.312506878679
 30
0.0
 10
5741.77498623212
 20
1046.863421025857
 30
0.0
  0
LINE
  5
B044
330
18
100
AcDbEntity
  8
01
100
AcDbLine
 10
5741.162896533921
 20
1024.389353879712
 30
0.0
 11
5741.239244173905
 21
1024.721623626152
 31
0.0
  0
SPLINE
  5
B045
330
18
100
AcDbEntity
  8
01
100
AcDbSpline
210
0.0
220
0.0
230
1.0
 70
  1064
 71
     3
 72
     9
 73
     5
 74
     3
 42
0.000000001
 43
0.0000000001
 44
0.0000000001
 40
0.0
 40
0.0
 40
0.0
 40
0.0
 40
60.2545384027926
 40
137.1439649883166
 40
137.1439649883166
 40
137.1439649883166
 40
137.1439649883166
 10
5739.24237048648
 20
1022.91731719537
 30
0.0
 10
5719.157077887256
 20
1022.854551334602
 30
0.0
 10
5673.441406702551
 20
1022.711691406706
 30
0.0
 10
5627.732674288132
 20
1023.544312038563
 30
0.0
 10
5602.106185907143
 20
1024.011118747499
 30
0.0
 11
5739.24237048648
 21
1022.91731719537
 31
0.0
 11
5678.987832083687
 21
1022.91731719537
 31
0.0
 11
5602.106185907143
 21
1024.011118747499
 31
0.0
  0
SPLINE
  5
B046
330
18
100
AcDbEntity
  8
01
100
AcDbSpline
210
0.0
220
0.0
230
1.0
 70
  1064
 71
     3
 72
    11
 73
     7
 74
     5
 42
0.000000001
 43
0.0000000001
 44
0.0000000001
 40
0.0
 40
0.0
 40
0.0
 40
0.0
 40
18.8935431057545
 40
31.49312642884141
 40
40.92847968629182
 40
44.04403917286501
 40
44.04403917286501
 40
44.04403917286501
 40
44.04403917286501
 10
5596.068776054362
 20
1071.094755650265
 30
0.0
 10
5596.362373405241
 20
1064.802618450826
 30
0.0
 10
5596.851762739927
 20
1054.314428320454
 30
0.0
 10
5597.821690877632
 20
1040.712690402247
 30
0.0
 10
5598.589860339793
 20
1032.347663190678
 30
0.0
 10
5599.423534103268
 20
1028.246598573565
 30
0.0
 10
5599.630480024691
 20
1027.228576136991
 30
0.0
 11
5596.068776054362
 21
1071.094755650265
 31
0.0
 11
5597.042043181551
 21
1052.226297255681
 31
0.0
 11
5597.945990122313
 21
1039.659182238952
 31
0.0
 11
5599.03739172295
 21
1030.287163585588
 31
0.0
 11
5599.630480024691
 21
1027.228576136991
 31
0.0
  0
LINE
  5
B175
330
18
100
AcDbEntity
  8
01
100
AcDbLine
 10
5505.351260101286
 20
861.4021162038257
 30
0.0
 11
5505.351297219901
 21
861.4020491124425
 31
0.0
  0
LINE
  5
B176
330
18
100
AcDbEntity
  8
01
100
AcDbLine
 10
5505.351297219901
 20
861.4020491124425
 30
0.0
 11
5505.35132576656
 21
861.4019840990472
 31
0.0
  0
LINE
  5
B177
330
18
100
AcDbEntity
  8
01
100
AcDbLine
 10
5505.35132576656
 20
861.4019840990472
 30
0.0
 11
5505.351336903608
 21
861.4019523528736
 31
0.0
  0
LINE
  5
B178
330
18
100
AcDbEntity
  8
01
100
AcDbLine
 10
5505.351336903608
 20
861.4019523528736
 30
0.0
 11
5505.35134599151
 21
861.4019211037325
 31
0.0
  0
LINE
  5
B179
330
18
100
AcDbEntity
  8
01
100
AcDbLine
 10
5505.35134599151
 20
861.4019211037325
 30
0.0
 11
5505.351353061547
 21
861.4018903441342
 31
0.0
  0
LINE
  5
B17A
330
18
100
AcDbEntity
  8
01
100
AcDbLine
 10
5505.351353061547
 20
861.4018903441342
 30
0.0
 11
5505.351358144999
 21
861.4018600665918
 31
0.0
  0
LINE
  5
B17B
330
18
100
AcDbEntity
  8
01
100
AcDbLine
 10
5505.351358144999
 20
861.4018600665918
 30
0.0
 11
5505.351361273148
 21
861.4018302636155
 31
0.0
  0
LINE
  5
B17C
330
18
100
AcDbEntity
  8
01
100
AcDbLine
 10
5505.351361273148
 20
861.4018302636155
 30
0.0
 11
5505.351362477273
 21
861.4018009277179
 31
0.0
  0
LINE
  5
B17D
330
18
100
AcDbEntity
  8
01
100
AcDbLine
 10
5505.351362477273
 20
861.4018009277179
 30
0.0
 11
5505.351361788657
 21
861.4017720514107
 31
0.0
  0
LINE
  5
B17E
330
18
100
AcDbEntity
  8
01
100
AcDbLine
 10
5505.351361788657
 20
861.4017720514107
 30
0.0
 11
5505.351359238579
 21
861.4017436272052
 31
0.0
  0
LINE
  5
B17F
330
18
100
AcDbEntity
  8
01
100
AcDbLine
 10
5505.351359238579
 20
861.4017436272052
 30
0.0
 11
5505.35135485832
 21
861.401715647613
 31
0.0
  0
LINE
  5
B180
330
18
100
AcDbEntity
  8
01
100
AcDbLine
 10
5505.35135485832
 20
861.401715647613
 30
0.0
 11
5505.351348679163
 21
861.4016881051457
 31
0.0
  0
LINE
  5
B181
330
18
100
AcDbEntity
  8
01
100
AcDbLine
 10
5505.351348679163
 20
861.4016881051457
 30
0.0
 11
5505.351340732388
 21
861.4016609923151
 31
0.0
  0
LINE
  5
B182
330
18
100
AcDbEntity
  8
01
100
AcDbLine
 10
5505.351340732388
 20
861.4016609923151
 30
0.0
 11
5505.351331049274
 21
861.4016343016333
 31
0.0
  0
LINE
  5
B183
330
18
100
AcDbEntity
  8
01
100
AcDbLine
 10
5505.351331049274
 20
861.4016343016333
 30
0.0
 11
5505.351319661104
 21
861.4016080256115
 31
0.0
  0
LINE
  5
B184
330
18
100
AcDbEntity
  8
01
100
AcDbLine
 10
5505.351319661104
 20
861.4016080256115
 30
0.0
 11
5505.351306599159
 21
861.4015821567609
 31
0.0
  0
LINE
  5
B185
330
18
100
AcDbEntity
  8
01
100
AcDbLine
 10
5505.351306599159
 20
861.4015821567609
 30
0.0
 11
5505.351275579063
 21
861.4015316106224
 31
0.0
  0
LINE
  5
B186
330
18
100
AcDbEntity
  8
01
100
AcDbLine
 10
5505.351275579063
 20
861.4015316106224
 30
0.0
 11
5505.351238239236
 21
861.4014826033099
 31
0.0
  0
LINE
  5
B187
330
18
100
AcDbEntity
  8
01
100
AcDbLine
 10
5505.351238239236
 20
861.4014826033099
 30
0.0
 11
5505.351194829922
 21
861.4014350749176
 31
0.0
  0
LINE
  5
B188
330
18
100
AcDbEntity
  8
01
100
AcDbLine
 10
5505.351194829922
 20
861.4014350749176
 30
0.0
 11
5505.351145601371
 21
861.4013889655384
 31
0.0
  0
LINE
  5
B189
330
18
100
AcDbEntity
  8
01
100
AcDbLine
 10
5505.351145601371
 20
861.4013889655384
 30
0.0
 11
5505.351090803828
 21
861.4013442152659
 31
0.0
  0
LINE
  5
B18A
330
18
100
AcDbEntity
  8
01
100
AcDbLine
 10
5505.351090803828
 20
861.4013442152659
 30
0.0
 11
5505.350965502757
 21
861.401258552412
 31
0.0
  0
LINE
  5
B18B
330
18
100
AcDbEntity
  8
01
100
AcDbLine
 10
5505.350965502757
 20
861.401258552412
 30
0.0
 11
5505.350820928685
 21
861.4011776071029
 31
0.0
  0
LINE
  5
B18C
330
18
100
AcDbEntity
  8
01
100
AcDbLine
 10
5505.350820928685
 20
861.4011776071029
 30
0.0
 11
5505.350481969444
 21
861.4010279521003
 31
0.0
  0
LINE
  5
B18D
330
18
100
AcDbEntity
  8
01
100
AcDbLine
 10
5505.350481969444
 20
861.4010279521003
 30
0.0
 11
5505.34853116114
 21
861.4004614999471
 31
0.0
  0
LINE
  5
B18E
330
18
100
AcDbEntity
  8
01
100
AcDbLine
 10
5505.34853116114
 20
861.4004614999471
 30
0.0
 11
5505.347297385062
 21
861.4000833385708
 31
0.0
  0
LINE
  5
B18F
330
18
100
AcDbEntity
  8
01
100
AcDbLine
 10
5505.347297385062
 20
861.4000833385708
 30
0.0
 11
5505.3462091972
 21
861.3996736820945
 31
0.0
  0
LINE
  5
B190
330
18
100
AcDbEntity
  8
01
100
AcDbLine
 10
5505.3462091972
 20
861.3996736820945
 30
0.0
 11
5505.345246544633
 21
861.3992370701726
 31
0.0
  0
LINE
  5
B191
330
18
100
AcDbEntity
  8
01
100
AcDbLine
 10
5505.345246544633
 20
861.3992370701726
 30
0.0
 11
5505.34438937445
 21
861.3987780424582
 31
0.0
  0
LINE
  5
B192
330
18
100
AcDbEntity
  8
01
100
AcDbLine
 10
5505.34438937445
 20
861.3987780424582
 30
0.0
 11
5505.342911269569
 21
861.3978108982669
 31
0.0
  0
LINE
  5
B193
330
18
100
AcDbEntity
  8
01
100
AcDbLine
 10
5505.342911269569
 20
861.3978108982669
 30
0.0
 11
5505.340338520109
 21
861.3958073651356
 31
0.0
  0
LINE
  5
B194
330
18
100
AcDbEntity
  8
01
100
AcDbLine
 10
5505.340338520109
 20
861.3958073651356
 30
0.0
 11
5505.338005963029
 21
861.3942347983098
 31
0.0
  0
LINE
  5
B195
330
18
100
AcDbEntity
  8
01
100
AcDbLine
 10
5505.338005963029
 20
861.3942347983098
 30
0.0
 11
5505.32673828217
 21
861.3885122425572
 31
0.0
  0
LINE
  5
B196
330
18
100
AcDbEntity
  8
01
100
AcDbLine
 10
5505.32673828217
 20
861.3885122425572
 30
0.0
 11
5505.307800438266
 21
861.3788838581986
 31
0.0
  0
LINE
  5
B197
330
18
100
AcDbEntity
  8
01
100
AcDbLine
 10
5505.307800438266
 20
861.3788838581986
 30
0.0
 11
5505.283636256478
 21
861.3670791880463
 31
0.0
  0
LINE
  5
B198
330
18
100
AcDbEntity
  8
01
100
AcDbLine
 10
5505.283636256478
 20
861.3670791880463
 30
0.0
 11
5505.254364639073
 21
861.3532273269357
 31
0.0
  0
LINE
  5
B199
330
18
100
AcDbEntity
  8
01
100
AcDbLine
 10
5505.254364639073
 20
861.3532273269357
 30
0.0
 11
5505.180974706491
 21
861.3198984111796
 31
0.0
  0
LINE
  5
B19A
330
18
100
AcDbEntity
  8
01
100
AcDbLine
 10
5505.180974706491
 20
861.3198984111796
 30
0.0
 11
5505.088581858674
 21
861.2799298696114
 31
0.0
  0
LINE
  5
B19B
330
18
100
AcDbEntity
  8
01
100
AcDbLine
 10
5505.088581858674
 20
861.2799298696114
 30
0.0
 11
5504.978137313772
 21
861.2343544609121
 31
0.0
  0
LINE
  5
B19C
330
18
100
AcDbEntity
  8
01
100
AcDbLine
 10
5504.978137313772
 20
861.2343544609121
 30
0.0
 11
5504.85059228994
 21
861.1842049437628
 31
0.0
  0
LINE
  5
B19D
330
18
100
AcDbEntity
  8
01
100
AcDbLine
 10
5504.85059228994
 20
861.1842049437628
 30
0.0
 11
5504.706898005328
 21
861.1305140768441
 31
0.0
  0
LINE
  5
B19E
330
18
100
AcDbEntity
  8
01
100
AcDbLine
 10
5504.706898005328
 20
861.1305140768441
 30
0.0
 11
5504.374732185017
 21
861.0163959004904
 31
0.0
  0
LINE
  5
B19F
330
18
100
AcDbEntity
  8
01
100
AcDbLine
 10
5504.374732185017
 20
861.0163959004904
 30
0.0
 11
5503.987073436527
 21
860.896318774096
 31
0.0
  0
LINE
  5
B1A0
330
18
100
AcDbEntity
  8
01
100
AcDbLine
 10
5503.987073436527
 20
860.896318774096
 30
0.0
 11
5503.547767186859
 21
860.7717237835536
 31
0.0
  0
LINE
  5
B1A1
330
18
100
AcDbEntity
  8
01
100
AcDbLine
 10
5503.547767186859
 20
860.7717237835536
 30
0.0
 11
5503.060617053872
 21
860.6439762561613
 31
0.0
  0
LINE
  5
B1A2
330
18
100
AcDbEntity
  8
01
100
AcDbLine
 10
5503.060617053872
 20
860.6439762561613
 30
0.0
 11
5502.529426655427
 21
860.5144415192171
 31
0.0
  0
LINE
  5
B1A3
330
18
100
AcDbEntity
  8
01
100
AcDbLine
 10
5502.529426655427
 20
860.5144415192171
 30
0.0
 11
5501.95776969056
 21
860.384427562803
 31
0.0
  0
LINE
  5
B1A4
330
18
100
AcDbEntity
  8
01
100
AcDbLine
 10
5501.95776969056
 20
860.384427562803
 30
0.0
 11
5500.70318770801
 21
860.1270855623679
 31
0.0
  0
LINE
  5
B1A5
330
18
100
AcDbEntity
  8
01
100
AcDbLine
 10
5500.70318770801
 20
860.1270855623679
 30
0.0
 11
5499.311995790182
 21
859.8775108392642
 31
0.0
  0
LINE
  5
B1A6
330
18
100
AcDbEntity
  8
01
100
AcDbLine
 10
5499.311995790182
 20
859.8775108392642
 30
0.0
 11
5497.795194224625
 21
859.6387662302054
 31
0.0
  0
LINE
  5
B1A7
330
18
100
AcDbEntity
  8
01
100
AcDbLine
 10
5497.795194224625
 20
859.6387662302054
 30
0.0
 11
5496.164984993336
 21
859.4126468151935
 31
0.0
  0
LINE
  5
B1A8
330
18
100
AcDbEntity
  8
01
100
AcDbLine
 10
5496.164984993336
 20
859.4126468151935
 30
0.0
 11
5494.434911346902
 21
859.1997889105423
 31
0.0
  0
LINE
  5
B1A9
330
18
100
AcDbEntity
  8
01
100
AcDbLine
 10
5494.434911346902
 20
859.1997889105423
 30
0.0
 11
5492.618534404966
 21
859.0007810149268
 31
0.0
  0
LINE
  5
B1AA
330
18
100
AcDbEntity
  8
01
100
AcDbLine
 10
5492.618534404966
 20
859.0007810149268
 30
0.0
 11
5490.72797333495
 21
858.8162648009334
 31
0.0
  0
LINE
  5
B1AB
330
18
100
AcDbEntity
  8
01
100
AcDbLine
 10
5490.72797333495
 20
858.8162648009334
 30
0.0
 11
5488.774425461448
 21
858.6465784127636
 31
0.0
  0
LINE
  5
B1AC
330
18
100
AcDbEntity
  8
01
100
AcDbLine
 10
5488.774425461448
 20
858.6465784127636
 30
0.0
 11
5486.770798739333
 21
858.4913512183412
 31
0.0
  0
LINE
  5
B1AD
330
18
100
AcDbEntity
  8
01
100
AcDbLine
 10
5526.882517847576
 20
864.2212842379877
 30
0.0
 11
5526.996504717785
 21
864.1663202340501
 31
0.0
  0
LINE
  5
B1AE
330
18
100
AcDbEntity
  8
01
100
AcDbLine
 10
5526.996504717785
 20
864.1663202340501
 30
0.0
 11
5527.158174492759
 21
864.0826602375264
 31
0.0
  0
LINE
  5
B1AF
330
18
100
AcDbEntity
  8
01
100
AcDbLine
 10
5527.158174492759
 20
864.0826602375264
 30
0.0
 11
5527.314553762842
 21
863.9894793789231
 31
0.0
  0
LINE
  5
B1B0
330
18
100
AcDbEntity
  8
01
100
AcDbLine
 10
5527.314553762842
 20
863.9894793789231
 30
0.0
 11
5527.42215909824
 21
863.9159358630304
 31
0.0
  0
LINE
  5
B1B1
330
18
100
AcDbEntity
  8
01
100
AcDbLine
 10
5527.42215909824
 20
863.9159358630304
 30
0.0
 11
5527.52574493483
 21
863.8366456568547
 31
0.0
  0
LINE
  5
B1B2
330
18
100
AcDbEntity
  8
01
100
AcDbLine
 10
5527.52574493483
 20
863.8366456568547
 30
0.0
 11
5527.625016439668
 21
863.7518469611846
 31
0.0
  0
LINE
  5
B1B3
330
18
100
AcDbEntity
  8
01
100
AcDbLine
 10
5527.625016439668
 20
863.7518469611846
 30
0.0
 11
5527.719678779811
 21
863.6617779768098
 31
0.0
  0
LINE
  5
B1B4
330
18
100
AcDbEntity
  8
01
100
AcDbLine
 10
5527.719678779811
 20
863.6617779768098
 30
0.0
 11
5527.809437122318
 21
863.5666769045192
 31
0.0
  0
LINE
  5
B1B5
330
18
100
AcDbEntity
  8
01
100
AcDbLine
 10
5527.809437122318
 20
863.5666769045192
 30
0.0
 11
5527.920209834436
 21
863.433490145102
 31
0.0
  0
LINE
  5
B1B6
330
18
100
AcDbEntity
  8
01
100
AcDbLine
 10
5527.920209834436
 20
863.433490145102
 30
0.0
 11
5528.021211643276
 21
863.2926486972506
 31
0.0
  0
LINE
  5
B1B7
330
18
100
AcDbEntity
  8
01
100
AcDbLine
 10
5528.021211643276
 20
863.2926486972506
 30
0.0
 11
5528.111780993104
 21
863.1448976815341
 31
0.0
  0
LINE
  5
B1B8
330
18
100
AcDbEntity
  8
01
100
AcDbLine
 10
5528.111780993104
 20
863.1448976815341
 30
0.0
 11
5528.191256328182
 21
862.9909822185223
 31
0.0
  0
LINE
  5
B1B9
330
18
100
AcDbEntity
  8
01
100
AcDbLine
 10
5528.191256328182
 20
862.9909822185223
 30
0.0
 11
5528.258976092775
 21
862.8316474287844
 31
0.0
  0
LINE
  5
B1BA
330
18
100
AcDbEntity
  8
01
100
AcDbLine
 10
5528.258976092775
 20
862.8316474287844
 30
0.0
 11
5528.304988839815
 21
862.6986134612316
 31
0.0
  0
LINE
  5
B1BB
330
18
100
AcDbEntity
  8
01
100
AcDbLine
 10
5528.304988839815
 20
862.6986134612316
 30
0.0
 11
5528.342817435709
 21
862.5630528983543
 31
0.0
  0
LINE
  5
B1BC
330
18
100
AcDbEntity
  8
01
100
AcDbLine
 10
5528.342817435709
 20
862.5630528983543
 30
0.0
 11
5528.372490326767
 21
862.4255306309633
 31
0.0
  0
LINE
  5
B1BD
330
18
100
AcDbEntity
  8
01
100
AcDbLine
 10
5528.372490326767
 20
862.4255306309633
 30
0.0
 11
5528.394035959289
 21
862.28661154987
 31
0.0
  0
LINE
  5
B1BE
330
18
100
AcDbEntity
  8
01
100
AcDbLine
 10
5528.394035959289
 20
862.28661154987
 30
0.0
 11
5528.407482779587
 21
862.1468605458845
 31
0.0
  0
LINE
  5
B1BF
330
18
100
AcDbEntity
  8
01
100
AcDbLine
 10
5528.407482779587
 20
862.1468605458845
 30
0.0
 11
5528.412170818941
 21
861.8335709432831
 31
0.0
  0
LINE
  5
B1C0
330
18
100
AcDbEntity
  8
01
100
AcDbLine
 10
5528.412170818941
 20
861.8335709432831
 30
0.0
 11
5528.40084532334
 21
861.5708180355396
 31
0.0
  0
LINE
  5
B1C1
330
18
100
AcDbEntity
  8
01
100
AcDbLine
 10
5528.40084532334
 20
861.5708180355396
 30
0.0
 11
5528.380904005176
 21
861.2606164868394
 31
0.0
  0
LINE
  5
B1C2
330
18
100
AcDbEntity
  8
01
100
AcDbLine
 10
5528.380904005176
 20
861.2606164868394
 30
0.0
 11
5528.317476267202
 21
860.5013432229716
 31
0.0
  0
LINE
  5
B1C3
330
18
100
AcDbEntity
  8
01
100
AcDbLine
 10
5528.317476267202
 20
860.5013432229716
 30
0.0
 11
5528.230429967745
 21
859.558335427269
 31
0.0
  0
LINE
  5
B1C4
330
18
100
AcDbEntity
  8
01
100
AcDbLine
 10
5528.230429967745
 20
859.558335427269
 30
0.0
 11
5528.126280330789
 21
858.3211260853404
 31
0.0
  0
LINE
  5
B1C5
330
18
100
AcDbEntity
  8
01
100
AcDbLine
 10
5528.126280330789
 20
858.3211260853404
 30
0.0
 11
5528.009755077344
 21
856.7174734254108
 31
0.0
  0
LINE
  5
B1C6
330
18
100
AcDbEntity
  8
01
100
AcDbLine
 10
5528.009755077344
 20
856.7174734254108
 30
0.0
 11
5527.885141231482
 21
854.8131230887102
 31
0.0
  0
LINE
  5
B1C7
330
18
100
AcDbEntity
  8
01
100
AcDbLine
 10
5527.885141231482
 20
854.8131230887102
 30
0.0
 11
5527.752683480281
 21
852.6685876672518
 31
0.0
  0
LINE
  5
B1C8
330
18
100
AcDbEntity
  8
01
100
AcDbLine
 10
5527.752683480281
 20
852.6685876672518
 30
0.0
 11
5527.61273334249
 21
850.2449672246016
 31
0.0
  0
LINE
  5
B1C9
330
18
100
AcDbEntity
  8
01
100
AcDbLine
 10
5527.61273334249
 20
850.2449672246016
 30
0.0
 11
5527.461542049665
 21
847.5564012452764
 31
0.0
  0
LINE
  5
B1CA
330
18
100
AcDbEntity
  8
01
100
AcDbLine
 10
5527.461542049665
 20
847.5564012452764
 30
0.0
 11
5527.299269521884
 21
844.8674316700872
 31
0.0
  0
LINE
  5
B1CB
330
18
100
AcDbEntity
  8
01
100
AcDbLine
 10
5527.299269521884
 20
844.8674316700872
 30
0.0
 11
5527.216196111674
 21
843.527111348033
 31
0.0
  0
LINE
  5
B1CC
330
18
100
AcDbEntity
  8
01
100
AcDbLine
 10
5527.216196111674
 20
843.527111348033
 30
0.0
 11
5527.136517534183
 21
841.7701237171527
 31
0.0
  0
LINE
  5
B1CD
330
18
100
AcDbEntity
  8
01
100
AcDbLine
 10
5507.342680844878
 20
868.3713206839284
 30
0.0
 11
5510.657364327544
 21
868.0413366116709
 31
0.0
  0
LINE
  5
B1CE
330
18
100
AcDbEntity
  8
01
100
AcDbLine
 10
5510.657364327544
 20
868.0413366116709
 30
0.0
 11
5514.113619444772
 21
867.5792453210688
 31
0.0
  0
LINE
  5
B1CF
330
18
100
AcDbEntity
  8
01
100
AcDbLine
 10
5514.113619444772
 20
867.5792453210688
 30
0.0
 11
5515.927794960942
 21
867.277024577711
 31
0.0
  0
LINE
  5
B1D0
330
18
100
AcDbEntity
  8
01
100
AcDbLine
 10
5515.927794960942
 20
867.277024577711
 30
0.0
 11
5517.272918983517
 21
867.0241060277785
 31
0.0
  0
LINE
  5
B1D1
330
18
100
AcDbEntity
  8
01
100
AcDbLine
 10
5517.272918983517
 20
867.0241060277785
 30
0.0
 11
5518.404575650775
 21
866.794474213013
 31
0.0
  0
LINE
  5
B1D2
330
18
100
AcDbEntity
  8
01
100
AcDbLine
 10
5518.404575650775
 20
866.794474213013
 30
0.0
 11
5519.609195481849
 21
866.5326487279417
 31
0.0
  0
LINE
  5
B1D3
330
18
100
AcDbEntity
  8
01
100
AcDbLine
 10
5519.609195481849
 20
866.5326487279417
 30
0.0
 11
5521.24057350385
 21
866.1384983657972
 31
0.0
  0
LINE
  5
B1D4
330
18
100
AcDbEntity
  8
01
100
AcDbLine
 10
5521.24057350385
 20
866.1384983657972
 30
0.0
 11
5522.175442294134
 21
865.8864695872257
 31
0.0
  0
LINE
  5
B1D5
330
18
100
AcDbEntity
  8
01
100
AcDbLine
 10
5522.175442294134
 20
865.8864695872257
 30
0.0
 11
5523.06637933405
 21
865.6255606608179
 31
0.0
  0
LINE
  5
B1D6
330
18
100
AcDbEntity
  8
01
100
AcDbLine
 10
5523.06637933405
 20
865.6255606608179
 30
0.0
 11
5523.9275110751
 21
865.3510585499325
 31
0.0
  0
LINE
  5
B1D7
330
18
100
AcDbEntity
  8
01
100
AcDbLine
 10
5523.9275110751
 20
865.3510585499325
 30
0.0
 11
5524.824454692196
 21
865.0398354386343
 31
0.0
  0
LINE
  5
B1D8
330
18
100
AcDbEntity
  8
01
100
AcDbLine
 10
5524.824454692196
 20
865.0398354386343
 30
0.0
 11
5525.580512793806
 21
864.7555969165096
 31
0.0
  0
LINE
  5
B1D9
330
18
100
AcDbEntity
  8
01
100
AcDbLine
 10
5525.580512793806
 20
864.7555969165096
 30
0.0
 11
5525.828991229568
 21
864.657571394137
 31
0.0
  0
LINE
  5
B1DA
330
18
100
AcDbEntity
  8
01
100
AcDbLine
 10
5525.828991229568
 20
864.657571394137
 30
0.0
 11
5526.023845744781
 21
864.578972903163
 31
0.0
  0
LINE
  5
B1DB
330
18
100
AcDbEntity
  8
01
100
AcDbLine
 10
5526.023845744781
 20
864.578972903163
 30
0.0
 11
5526.177776052054
 21
864.5159149826936
 31
0.0
  0
LINE
  5
B1DC
330
18
100
AcDbEntity
  8
01
100
AcDbLine
 10
5526.177776052054
 20
864.5159149826936
 30
0.0
 11
5526.297508714943
 21
864.4662223743398
 31
0.0
  0
LINE
  5
B1DD
330
18
100
AcDbEntity
  8
01
100
AcDbLine
 10
5526.297508714943
 20
864.4662223743398
 30
0.0
 11
5526.394530822485
 21
864.425596726704
 31
0.0
  0
LINE
  5
B1DE
330
18
100
AcDbEntity
  8
01
100
AcDbLine
 10
5526.394530822485
 20
864.425596726704
 30
0.0
 11
5526.471550759718
 21
864.3931100826253
 31
0.0
  0
LINE
  5
B1DF
330
18
100
AcDbEntity
  8
01
100
AcDbLine
 10
5526.471550759718
 20
864.3931100826253
 30
0.0
 11
5526.529818941954
 21
864.3683959533805
 31
0.0
  0
LINE
  5
B1E0
330
18
100
AcDbEntity
  8
01
100
AcDbLine
 10
5526.529818941954
 20
864.3683959533805
 30
0.0
 11
5526.570534459561
 21
864.3510956047062
 31
0.0
  0
LINE
  5
B1E1
330
18
100
AcDbEntity
  8
01
100
AcDbLine
 10
5526.570534459561
 20
864.3510956047062
 30
0.0
 11
5526.584573205115
 21
864.3451303366096
 31
0.0
  0
LINE
  5
B1E2
330
18
100
AcDbEntity
  8
01
100
AcDbLine
 10
5526.584573205115
 20
864.3451303366096
 30
0.0
 11
5526.589842754945
 21
864.3431420126417
 31
0.0
  0
LINE
  5
B1E3
330
18
100
AcDbEntity
  8
01
100
AcDbLine
 10
5526.589842754945
 20
864.3431420126417
 30
0.0
 11
5526.592308249368
 21
864.3420799668561
 31
0.0
  0
LINE
  5
B1E4
330
18
100
AcDbEntity
  8
01
100
AcDbLine
 10
5526.592308249368
 20
864.3420799668561
 30
0.0
 11
5526.593447053407
 21
864.3415112977332
 31
0.0
  0
LINE
  5
B1E5
330
18
100
AcDbEntity
  8
01
100
AcDbLine
 10
5526.593447053407
 20
864.3415112977332
 30
0.0
 11
5526.594503562743
 21
864.3409096548253
 31
0.0
  0
LINE
  5
B1E6
330
18
100
AcDbEntity
  8
01
100
AcDbLine
 10
5526.594503562743
 20
864.3409096548253
 30
0.0
 11
5526.596389840999
 21
864.3397163743875
 31
0.0
  0
LINE
  5
B1E7
330
18
100
AcDbEntity
  8
01
100
AcDbLine
 10
5526.596389840999
 20
864.3397163743875
 30
0.0
 11
5526.596905271672
 21
864.3394355554706
 31
0.0
  0
LINE
  5
B1E8
330
18
100
AcDbEntity
  8
01
100
AcDbLine
 10
5526.596905271672
 20
864.3394355554706
 30
0.0
 11
5526.597464563252
 21
864.339172261627
 31
0.0
  0
LINE
  5
B1E9
330
18
100
AcDbEntity
  8
01
100
AcDbLine
 10
5526.597464563252
 20
864.339172261627
 30
0.0
 11
5526.598080873975
 21
864.338931755155
 31
0.0
  0
LINE
  5
B1EA
330
18
100
AcDbEntity
  8
01
100
AcDbLine
 10
5526.598080873975
 20
864.338931755155
 30
0.0
 11
5526.598767362071
 21
864.3387192983537
 31
0.0
  0
LINE
  5
B1EB
330
18
100
AcDbEntity
  8
01
100
AcDbLine
 10
5526.598767362071
 20
864.3387192983537
 30
0.0
 11
5526.599537185775
 21
864.3385401535202
 31
0.0
  0
LINE
  5
B1EC
330
18
100
AcDbEntity
  8
01
100
AcDbLine
 10
5526.599537185775
 20
864.3385401535202
 30
0.0
 11
5526.600403503318
 21
864.3383995829536
 31
0.0
  0
LINE
  5
B1ED
330
18
100
AcDbEntity
  8
01
100
AcDbLine
 10
5526.600403503318
 20
864.3383995829536
 30
0.0
 11
5526.601605721427
 21
864.3382365214229
 31
0.0
  0
LINE
  5
B1EE
330
18
100
AcDbEntity
  8
01
100
AcDbLine
 10
5526.601605721427
 20
864.3382365214229
 30
0.0
 11
5526.601860281373
 21
864.3381772184757
 31
0.0
  0
LINE
  5
B1EF
330
18
100
AcDbEntity
  8
01
100
AcDbLine
 10
5526.601860281373
 20
864.3381772184757
 30
0.0
 11
5526.601973703064
 21
864.3381419905281
 31
0.0
  0
LINE
  5
B1F0
330
18
100
AcDbEntity
  8
01
100
AcDbLine
 10
5526.601973703064
 20
864.3381419905281
 30
0.0
 11
5526.602076198849
 21
864.3381023671523
 31
0.0
  0
LINE
  5
B1F1
330
18
100
AcDbEntity
  8
01
100
AcDbLine
 10
5526.602076198849
 20
864.3381023671523
 30
0.0
 11
5526.602166503439
 21
864.3380578400138
 31
0.0
  0
LINE
  5
B1F2
330
18
100
AcDbEntity
  8
01
100
AcDbLine
 10
5526.602166503439
 20
864.3380578400138
 30
0.0
 11
5526.602206688631
 21
864.3380335786787
 31
0.0
  0
LINE
  5
B1F3
330
18
100
AcDbEntity
  8
01
100
AcDbLine
 10
5526.602206688631
 20
864.3380335786787
 30
0.0
 11
5526.602243351541
 21
864.3380079007779
 31
0.0
  0
LINE
  5
B1F4
330
18
100
AcDbEntity
  8
01
100
AcDbLine
 10
5526.602243351541
 20
864.3380079007779
 30
0.0
 11
5526.602276334006
 21
864.3379807427691
 31
0.0
  0
LINE
  5
B1F5
330
18
100
AcDbEntity
  8
01
100
AcDbLine
 10
5526.602276334006
 20
864.3379807427691
 30
0.0
 11
5526.602305477867
 21
864.3379520411104
 31
0.0
  0
LINE
  5
B1F6
330
18
100
AcDbEntity
  8
01
100
AcDbLine
 10
5526.602305477867
 20
864.3379520411104
 30
0.0
 11
5526.602330624961
 21
864.3379217322599
 31
0.0
  0
LINE
  5
B1F7
330
18
100
AcDbEntity
  8
01
100
AcDbLine
 10
5526.602330624961
 20
864.3379217322599
 30
0.0
 11
5526.602341650296
 21
864.3379059552817
 31
0.0
  0
LINE
  5
B1F8
330
18
100
AcDbEntity
  8
01
100
AcDbLine
 10
5526.602341650296
 20
864.3379059552817
 30
0.0
 11
5526.602351617128
 21
864.3378897526768
 31
0.0
  0
LINE
  5
B1F9
330
18
100
AcDbEntity
  8
01
100
AcDbLine
 10
5526.602351617128
 20
864.3378897526768
 30
0.0
 11
5526.602360505687
 21
864.337873116503
 31
0.0
  0
LINE
  5
B1FA
330
18
100
AcDbEntity
  8
01
100
AcDbLine
 10
5526.602360505687
 20
864.337873116503
 30
0.0
 11
5526.602368296206
 21
864.3378560388182
 31
0.0
  0
LINE
  5
B1FB
330
18
100
AcDbEntity
  8
01
100
AcDbLine
 10
5526.602368296206
 20
864.3378560388182
 30
0.0
 11
5526.60237496891
 21
864.3378385116789
 31
0.0
  0
LINE
  5
B1FC
330
18
100
AcDbEntity
  8
01
100
AcDbLine
 10
5526.60237496891
 20
864.3378385116789
 30
0.0
 11
5526.602380504033
 21
864.3378205271429
 31
0.0
  0
LINE
  5
B1FD
330
18
100
AcDbEntity
  8
01
100
AcDbLine
 10
5526.602380504033
 20
864.3378205271429
 30
0.0
 11
5526.602384881802
 21
864.337802077267
 31
0.0
  0
LINE
  5
B1FE
330
18
100
AcDbEntity
  8
01
100
AcDbLine
 10
5526.602384881802
 20
864.337802077267
 30
0.0
 11
5526.60238808245
 21
864.3377831541088
 31
0.0
  0
LINE
  5
B1FF
330
18
100
AcDbEntity
  8
01
100
AcDbLine
 10
5526.60238808245
 20
864.3377831541088
 30
0.0
 11
5526.602390086204
 21
864.3377637497256
 31
0.0
  0
LINE
  5
B200
330
18
100
AcDbEntity
  8
01
100
AcDbLine
 10
5526.602390086204
 20
864.3377637497256
 30
0.0
 11
5526.602390873293
 21
864.3377438561743
 31
0.0
  0
LINE
  5
B201
330
18
100
AcDbEntity
  8
01
100
AcDbLine
 10
5526.602390873293
 20
864.3377438561743
 30
0.0
 11
5526.60239042395
 21
864.3377234655122
 31
0.0
  0
LINE
  5
B202
330
18
100
AcDbEntity
  8
01
100
AcDbLine
 10
5526.60239042395
 20
864.3377234655122
 30
0.0
 11
5526.602388718404
 21
864.3377025697973
 31
0.0
  0
LINE
  5
B203
330
18
100
AcDbEntity
  8
01
100
AcDbLine
 10
5526.602388718404
 20
864.3377025697973
 30
0.0
 11
5526.602385736884
 21
864.337681161086
 31
0.0
  0
LINE
  5
B204
330
18
100
AcDbEntity
  8
01
100
AcDbLine
 10
5526.602385736884
 20
864.337681161086
 30
0.0
 11
5526.602375866842
 21
864.3376367729052
 31
0.0
  0
LINE
  5
B205
330
18
100
AcDbEntity
  8
01
100
AcDbLine
 10
5526.602375866842
 20
864.3376367729052
 30
0.0
 11
5526.602364967837
 21
864.3376020760807
 31
0.0
  0
LINE
  5
B206
330
18
100
AcDbEntity
  8
01
100
AcDbLine
 10
5526.602364967837
 20
864.3376020760807
 30
0.0
 11
5526.60235099772
 21
864.3375661445948
 31
0.0
  0
LINE
  5
B207
330
18
100
AcDbEntity
  8
01
100
AcDbLine
 10
5527.036298400892
 20
841.2250632985142
 30
0.0
 11
5526.994977355826
 21
841.1322214542433
 31
0.0
  0
LINE
  5
B208
330
18
100
AcDbEntity
  8
01
100
AcDbLine
 10
5526.994977355826
 20
841.1322214542433
 30
0.0
 11
5526.94708672856
 21
841.0423321628668
 31
0.0
  0
LINE
  5
B209
330
18
100
AcDbEntity
  8
01
100
AcDbLine
 10
5526.94708672856
 20
841.0423321628668
 30
0.0
 11
5526.89329853139
 21
840.955584248949
 31
0.0
  0
LINE
  5
B20A
330
18
100
AcDbEntity
  8
01
100
AcDbLine
 10
5526.89329853139
 20
840.955584248949
 30
0.0
 11
5526.834284776607
 21
840.8721665370558
 31
0.0
  0
LINE
  5
B20B
330
18
100
AcDbEntity
  8
01
100
AcDbLine
 10
5526.834284776607
 20
840.8721665370558
 30
0.0
 11
5526.770717476511
 21
840.7922678517516
 31
0.0
  0
LINE
  5
B20C
330
18
100
AcDbEntity
  8
01
100
AcDbLine
 10
5526.770717476511
 20
840.7922678517516
 30
0.0
 11
5526.652209373784
 21
840.6629435518407
 31
0.0
  0
LINE
  5
B20D
330
18
100
AcDbEntity
  8
01
100
AcDbLine
 10
5526.652209373784
 20
840.6629435518407
 30
0.0
 11
5526.457718146285
 21
840.4863722634982
 31
0.0
  0
LINE
  5
B20E
330
18
100
AcDbEntity
  8
01
100
AcDbLine
 10
5526.457718146285
 20
840.4863722634982
 30
0.0
 11
5526.282640898977
 21
840.3507964738246
 31
0.0
  0
LINE
  5
B20F
330
18
100
AcDbEntity
  8
01
100
AcDbLine
 10
5526.282640898977
 20
840.3507964738246
 30
0.0
 11
5526.099937880253
 21
840.2256274811907
 31
0.0
  0
LINE
  5
B210
330
18
100
AcDbEntity
  8
01
100
AcDbLine
 10
5526.099937880253
 20
840.2256274811907
 30
0.0
 11
5525.689018760213
 21
839.9865895716812
 31
0.0
  0
LINE
  5
B211
330
18
100
AcDbEntity
  8
01
100
AcDbLine
 10
5525.689018760213
 20
839.9865895716812
 30
0.0
 11
5525.223255672527
 21
839.7646589014039
 31
0.0
  0
LINE
  5
B212
330
18
100
AcDbEntity
  8
01
100
AcDbLine
 10
5525.223255672527
 20
839.7646589014039
 30
0.0
 11
5524.706961001597
 21
839.559420876848
 31
0.0
  0
LINE
  5
B213
330
18
100
AcDbEntity
  8
01
100
AcDbLine
 10
5524.706961001597
 20
839.559420876848
 30
0.0
 11
5524.127953811856
 21
839.3621886237665
 31
0.0
  0
LINE
  5
B214
330
18
100
AcDbEntity
  8
01
100
AcDbLine
 10
5488.768113979686
 20
833.0593284203851
 30
0.0
 11
5488.435731777538
 21
833.0554259850824
 31
0.0
  0
LINE
  5
B215
330
18
100
AcDbEntity
  8
01
100
AcDbLine
 10
5488.435731777538
 20
833.0554259850824
 30
0.0
 11
5487.980745205272
 21
833.060575826391
 31
0.0
  0
LINE
  5
B216
330
18
100
AcDbEntity
  8
01
100
AcDbLine
 10
5487.980745205272
 20
833.060575826391
 30
0.0
 11
5487.416307339061
 21
833.0700839593255
 31
0.0
  0
LINE
  5
B217
330
18
100
AcDbEntity
  8
01
100
AcDbLine
 10
5487.416307339061
 20
833.0700839593255
 30
0.0
 11
5486.765367397655
 21
833.0790561272943
 31
0.0
  0
LINE
  5
B218
330
18
100
AcDbEntity
  8
01
100
AcDbLine
 10
5486.765367397655
 20
833.0790561272943
 30
0.0
 11
5486.05792416035
 21
833.0823539330804
 31
0.0
  0
LINE
  5
B219
330
18
100
AcDbEntity
  8
01
100
AcDbLine
 10
5486.05792416035
 20
833.0823539330804
 30
0.0
 11
5485.326829799998
 21
833.0762427880609
 31
0.0
  0
LINE
  5
B21A
330
18
100
AcDbEntity
  8
01
100
AcDbLine
 10
5485.326829799998
 20
833.0762427880609
 30
0.0
 11
5484.607042202342
 21
833.0589297845208
 31
0.0
  0
LINE
  5
B21B
330
18
100
AcDbEntity
  8
01
100
AcDbLine
 10
5484.607042202342
 20
833.0589297845208
 30
0.0
 11
5483.932512173045
 21
833.0315822198236
 31
0.0
  0
LINE
  5
B21C
330
18
100
AcDbEntity
  8
01
100
AcDbLine
 10
5483.932512173045
 20
833.0315822198236
 30
0.0
 11
5483.33526791035
 21
832.9976256921136
 31
0.0
  0
LINE
  5
B21D
330
18
100
AcDbEntity
  8
01
100
AcDbLine
 10
5483.33526791035
 20
832.9976256921136
 30
0.0
 11
5482.842027553905
 21
832.9631560876214
 31
0.0
  0
LINE
  5
B21E
330
18
100
AcDbEntity
  8
01
100
AcDbLine
 10
5482.842027553905
 20
832.9631560876214
 30
0.0
 11
5482.472398647655
 21
832.935425145849
 31
0.0
  0
LINE
  5
B21F
330
18
100
AcDbEntity
  8
01
100
AcDbLine
 10
5482.472398647655
 20
832.935425145849
 30
0.0
 11
5482.216676601756
 21
832.9218276574456
 31
0.0
  0
LINE
  5
B220
330
18
100
AcDbEntity
  8
01
100
AcDbLine
 10
5480.054414638866
 20
832.914184911474
 30
0.0
 11
5480.863939174998
 21
832.9152511193597
 31
0.0
  0
LINE
  5
B221
330
18
100
AcDbEntity
  8
01
100
AcDbLine
 10
5480.863939174998
 20
832.9152511193597
 30
0.0
 11
5482.216676601756
 21
832.9218276574456
 31
0.0
  0
LINE
  5
B222
330
18
100
AcDbEntity
  8
01
100
AcDbLine
 10
5488.768113979686
 20
833.0593284203851
 30
0.0
 11
5492.301881679881
 21
833.2321113183343
 31
0.0
  0
LINE
  5
B223
330
18
100
AcDbEntity
  8
01
100
AcDbLine
 10
5492.301881679881
 20
833.2321113183343
 30
0.0
 11
5495.790376552928
 21
833.4952415063226
 31
0.0
  0
LINE
  5
B224
330
18
100
AcDbEntity
  8
01
100
AcDbLine
 10
5495.790376552928
 20
833.4952415063226
 30
0.0
 11
5499.235963711131
 21
833.8596690728509
 31
0.0
  0
LINE
  5
B225
330
18
100
AcDbEntity
  8
01
100
AcDbLine
 10
5499.235963711131
 20
833.8596690728509
 30
0.0
 11
5502.657075771678
 21
834.3355601861322
 31
0.0
  0
LINE
  5
B226
330
18
100
AcDbEntity
  8
01
100
AcDbLine
 10
5502.657075771678
 20
834.3355601861322
 30
0.0
 11
5506.071489223827
 21
834.926615102514
 31
0.0
  0
LINE
  5
B227
330
18
100
AcDbEntity
  8
01
100
AcDbLine
 10
5506.071489223827
 20
834.926615102514
 30
0.0
 11
5509.470598110545
 21
835.6025603844964
 31
0.0
  0
LINE
  5
B228
330
18
100
AcDbEntity
  8
01
100
AcDbLine
 10
5509.470598110545
 20
835.6025603844964
 30
0.0
 11
5512.808763393748
 21
836.3212131097162
 31
0.0
  0
LINE
  5
B229
330
18
100
AcDbEntity
  8
01
100
AcDbLine
 10
5512.808763393748
 20
836.3212131097162
 30
0.0
 11
5516.045930752147
 21
837.1046775414788
 31
0.0
  0
LINE
  5
B22A
330
18
100
AcDbEntity
  8
01
100
AcDbLine
 10
5516.045930752147
 20
837.1046775414788
 30
0.0
 11
5519.241502651561
 21
837.9457648827874
 31
0.0
  0
LINE
  5
B22B
330
18
100
AcDbEntity
  8
01
100
AcDbLine
 10
5519.241502651561
 20
837.9457648827874
 30
0.0
 11
5522.409953099008
 21
838.8396516327093
 31
0.0
  0
LINE
  5
B22C
330
18
100
AcDbEntity
  8
01
100
AcDbLine
 10
5653.771717428695
 20
847.9125128838746
 30
0.0
 11
5658.514532692818
 21
849.3059757792826
 31
0.0
  0
LINE
  5
B22D
330
18
100
AcDbEntity
  8
01
100
AcDbLine
 10
5658.514532692818
 20
849.3059757792826
 30
0.0
 11
5662.097833419775
 21
850.259836650443
 31
0.0
  0
LINE
  5
B22E
330
18
100
AcDbEntity
  8
01
100
AcDbLine
 10
5662.097833419775
 20
850.259836650443
 30
0.0
 11
5665.700556327081
 21
851.1375579536575
 31
0.0
  0
LINE
  5
B22F
330
18
100
AcDbEntity
  8
01
100
AcDbLine
 10
5665.700556327081
 20
851.1375579536575
 30
0.0
 11
5670.530511031313
 21
852.1933280213989
 31
0.0
  0
LINE
  5
B230
330
18
100
AcDbEntity
  8
01
100
AcDbLine
 10
5670.530511031313
 20
852.1933280213989
 30
0.0
 11
5677.821690022471
 21
853.5469756682551
 31
0.0
  0
LINE
  5
B231
330
18
100
AcDbEntity
  8
01
100
AcDbLine
 10
5677.821690022471
 20
853.5469756682551
 30
0.0
 11
5682.708243527
 21
854.3052262340284
 31
0.0
  0
LINE
  5
B232
330
18
100
AcDbEntity
  8
01
100
AcDbLine
 10
5682.708243527
 20
854.3052262340284
 30
0.0
 11
5690.069100688388
 21
855.2145091333527
 31
0.0
  0
LINE
  5
B233
330
18
100
AcDbEntity
  8
01
100
AcDbLine
 10
5690.069100688388
 20
855.2145091333527
 30
0.0
 11
5694.993506694258
 21
855.6597555817307
 31
0.0
  0
LINE
  5
B234
330
18
100
AcDbEntity
  8
01
100
AcDbLine
 10
5694.993506694258
 20
855.6597555817307
 30
0.0
 11
5702.397018424474
 21
856.1033403368529
 31
0.0
  0
LINE
  5
B235
330
18
100
AcDbEntity
  8
01
100
AcDbLine
 10
5702.397018424474
 20
856.1033403368529
 30
0.0
 11
5708.574199098808
 21
856.2974090165226
 31
0.0
  0
LINE
  5
B236
330
18
100
AcDbEntity
  8
01
100
AcDbLine
 10
5708.574199098808
 20
856.2974090165226
 30
0.0
 11
5714.753932956681
 21
856.3851635681249
 31
0.0
  0
LINE
  5
B237
330
18
100
AcDbEntity
  8
01
100
AcDbLine
 10
5714.753932956681
 20
856.3851635681249
 30
0.0
 11
5720.934176897248
 21
856.4292733455932
 31
0.0
  0
LINE
  5
B238
330
18
100
AcDbEntity
  8
01
100
AcDbLine
 10
5720.934176897248
 20
856.4292733455932
 30
0.0
 11
5727.10662422235
 21
856.5160926540448
 31
0.0
  0
LINE
  5
B239
330
18
100
AcDbEntity
  8
01
100
AcDbLine
 10
5727.10662422235
 20
856.5160926540448
 30
0.0
 11
5739.409246382525
 21
856.8081262861847
 31
0.0
  0
LINE
  5
B23A
330
18
100
AcDbEntity
  8
01
100
AcDbLine
 10
5626.170977497648
 20
858.8355524251378
 30
0.0
 11
5628.459584429147
 21
859.2852670253951
 31
0.0
  0
LINE
  5
B23B
330
18
100
AcDbEntity
  8
01
100
AcDbLine
 10
5628.459584429147
 20
859.2852670253951
 30
0.0
 11
5631.254723625318
 21
859.7896743153542
 31
0.0
  0
LINE
  5
B23C
330
18
100
AcDbEntity
  8
01
100
AcDbLine
 10
5631.254723625318
 20
859.7896743153542
 30
0.0
 11
5634.532567285616
 21
860.3509407305519
 31
0.0
  0
LINE
  5
B23D
330
18
100
AcDbEntity
  8
01
100
AcDbLine
 10
5634.532567285616
 20
860.3509407305519
 30
0.0
 11
5638.235724650705
 21
860.9514202263294
 31
0.0
  0
LINE
  5
B23E
330
18
100
AcDbEntity
  8
01
100
AcDbLine
 10
5638.235724650705
 20
860.9514202263294
 30
0.0
 11
5642.280921372187
 21
861.5759801926965
 31
0.0
  0
LINE
  5
B23F
330
18
100
AcDbEntity
  8
01
100
AcDbLine
 10
5642.280921372187
 20
861.5759801926965
 30
0.0
 11
5646.559509364752
 21
862.2210995831674
 31
0.0
  0
LINE
  5
B240
330
18
100
AcDbEntity
  8
01
100
AcDbLine
 10
5646.559509364752
 20
862.2210995831674
 30
0.0
 11
5650.956827386695
 21
862.8876463671245
 31
0.0
  0
LINE
  5
B241
330
18
100
AcDbEntity
  8
01
100
AcDbLine
 10
5636.254273105955
 20
840.5582323676413
 30
0.0
 11
5634.291047300776
 21
839.4860528933114
 31
0.0
  0
LINE
  5
B242
330
18
100
AcDbEntity
  8
01
100
AcDbLine
 10
5634.291047300776
 20
839.4860528933114
 30
0.0
 11
5632.829788594223
 21
838.6020834143314
 31
0.0
  0
LINE
  5
B243
330
18
100
AcDbEntity
  8
01
100
AcDbLine
 10
5632.829788594223
 20
838.6020834143314
 30
0.0
 11
5631.645281480802
 21
837.8233822693032
 31
0.0
  0
LINE
  5
B244
330
18
100
AcDbEntity
  8
01
100
AcDbLine
 10
5631.645281480802
 20
837.8233822693032
 30
0.0
 11
5630.595319562628
 21
837.0901465492448
 31
0.0
  0
LINE
  5
B245
330
18
100
AcDbEntity
  8
01
100
AcDbLine
 10
5630.595319562628
 20
837.0901465492448
 30
0.0
 11
5630.087748158136
 21
836.7250204509755
 31
0.0
  0
LINE
  5
B246
330
18
100
AcDbEntity
  8
01
100
AcDbLine
 10
5630.087748158136
 20
836.7250204509755
 30
0.0
 11
5629.573931400077
 21
836.3510788869858
 31
0.0
  0
LINE
  5
B247
330
18
100
AcDbEntity
  8
01
100
AcDbLine
 10
5629.573931400077
 20
836.3510788869858
 30
0.0
 11
5629.306290551796
 21
836.1570293446348
 31
0.0
  0
LINE
  5
B248
330
18
100
AcDbEntity
  8
01
100
AcDbLine
 10
5629.306290551796
 20
836.1570293446348
 30
0.0
 11
5629.028233670544
 21
835.9560534337334
 31
0.0
  0
LINE
  5
B249
330
18
100
AcDbEntity
  8
01
100
AcDbLine
 10
5629.028233670544
 20
835.9560534337334
 30
0.0
 11
5628.741032167594
 21
835.7467476395582
 31
0.0
  0
LINE
  5
B24A
330
18
100
AcDbEntity
  8
01
100
AcDbLine
 10
5628.741032167594
 20
835.7467476395582
 30
0.0
 11
5628.444099754046
 21
835.5291299128348
 31
0.0
  0
LINE
  5
B24B
330
18
100
AcDbEntity
  8
01
100
AcDbLine
 10
5628.444099754046
 20
835.5291299128348
 30
0.0
 11
5628.129772183342
 21
835.3080221780465
 31
0.0
  0
LINE
  5
B24C
330
18
100
AcDbEntity
  8
01
100
AcDbLine
 10
5628.129772183342
 20
835.3080221780465
 30
0.0
 11
5627.96323855039
 21
835.197972911646
 31
0.0
  0
LINE
  5
B24D
330
18
100
AcDbEntity
  8
01
100
AcDbLine
 10
5627.96323855039
 20
835.197972911646
 30
0.0
 11
5627.792061098509
 21
835.0871089456446
 31
0.0
  0
LINE
  5
B24E
330
18
100
AcDbEntity
  8
01
100
AcDbLine
 10
5627.792061098509
 20
835.0871089456446
 30
0.0
 11
5627.624646814071
 21
834.9696769196389
 31
0.0
  0
LINE
  5
B24F
330
18
100
AcDbEntity
  8
01
100
AcDbLine
 10
5627.624646814071
 20
834.9696769196389
 30
0.0
 11
5627.468022636516
 21
834.8408816636206
 31
0.0
  0
LINE
  5
B250
330
18
100
AcDbEntity
  8
01
100
AcDbLine
 10
5627.468022636516
 20
834.8408816636206
 30
0.0
 11
5627.387584272996
 21
834.7747758270175
 31
0.0
  0
LINE
  5
B251
330
18
100
AcDbEntity
  8
01
100
AcDbLine
 10
5627.387584272996
 20
834.7747758270175
 30
0.0
 11
5627.303347319841
 21
834.7137408501012
 31
0.0
  0
LINE
  5
B252
330
18
100
AcDbEntity
  8
01
100
AcDbLine
 10
5627.303347319841
 20
834.7137408501012
 30
0.0
 11
5627.22312634935
 21
834.6668922851854
 31
0.0
  0
LINE
  5
B253
330
18
100
AcDbEntity
  8
01
100
AcDbLine
 10
5627.22312634935
 20
834.6668922851854
 30
0.0
 11
5627.159993932675
 21
834.6373061201889
 31
0.0
  0
LINE
  5
B254
330
18
100
AcDbEntity
  8
01
100
AcDbLine
 10
5627.159993932675
 20
834.6373061201889
 30
0.0
 11
5627.094823294974
 21
834.612948282228
 31
0.0
  0
LINE
  5
B255
330
18
100
AcDbEntity
  8
01
100
AcDbLine
 10
5626.170187425671
 20
858.8353863738139
 30
0.0
 11
5623.488428101708
 21
858.2371230289168
 31
0.0
  0
LINE
  5
B256
330
18
100
AcDbEntity
  8
01
100
AcDbLine
 10
5623.488428101708
 20
858.2371230289168
 30
0.0
 11
5620.82672112914
 21
857.5557254862147
 31
0.0
  0
LINE
  5
B257
330
18
100
AcDbEntity
  8
01
100
AcDbLine
 10
5620.82672112914
 20
857.5557254862147
 30
0.0
 11
5618.171578256899
 21
856.7683065024371
 31
0.0
  0
LINE
  5
B258
330
18
100
AcDbEntity
  8
01
100
AcDbLine
 10
5618.171578256899
 20
856.7683065024371
 30
0.0
 11
5615.753046331842
 21
855.9625675106236
 31
0.0
  0
LINE
  5
B259
330
18
100
AcDbEntity
  8
01
100
AcDbLine
 10
5615.753046331842
 20
855.9625675106236
 30
0.0
 11
5611.043416068178
 21
854.2104043942986
 31
0.0
  0
LINE
  5
B25A
330
18
100
AcDbEntity
  8
01
100
AcDbLine
 10
5611.043416068178
 20
854.2104043942986
 30
0.0
 11
5609.357568568272
 21
853.5361434204829
 31
0.0
  0
LINE
  5
B25B
330
18
100
AcDbEntity
  8
01
100
AcDbLine
 10
5609.357568568272
 20
853.5361434204829
 30
0.0
 11
5608.443693298823
 21
853.1684910190743
 31
0.0
  0
LINE
  5
B25C
330
18
100
AcDbEntity
  8
01
100
AcDbLine
 10
5608.443693298823
 20
853.1684910190743
 30
0.0
 11
5606.777184511551
 21
852.4917304779892
 31
0.0
  0
LINE
  5
B25D
330
18
100
AcDbEntity
  8
01
100
AcDbLine
 10
5606.777184511551
 20
852.4917304779892
 30
0.0
 11
5604.539263501574
 21
851.5154104881963
 31
0.0
  0
LINE
  5
B25E
330
18
100
AcDbEntity
  8
01
100
AcDbLine
 10
5604.539263501574
 20
851.5154104881963
 30
0.0
 11
5603.320034849065
 21
850.9238945323018
 31
0.0
  0
LINE
  5
B25F
330
18
100
AcDbEntity
  8
01
100
AcDbLine
 10
5603.320034849065
 20
850.9238945323018
 30
0.0
 11
5602.124603224016
 21
850.2855942268452
 31
0.0
  0
LINE
  5
B260
330
18
100
AcDbEntity
  8
01
100
AcDbLine
 10
5602.124603224016
 20
850.2855942268452
 30
0.0
 11
5601.178057140212
 21
849.7284530030488
 31
0.0
  0
LINE
  5
B261
330
18
100
AcDbEntity
  8
01
100
AcDbLine
 10
5601.178057140212
 20
849.7284530030488
 30
0.0
 11
5599.806644714474
 21
848.8157501638198
 31
0.0
  0
LINE
  5
B262
330
18
100
AcDbEntity
  8
01
100
AcDbLine
 10
5599.806644714474
 20
848.8157501638198
 30
0.0
 11
5599.013796730385
 21
848.2154593945565
 31
0.0
  0
LINE
  5
B263
330
18
100
AcDbEntity
  8
01
100
AcDbLine
 10
5599.013796730385
 20
848.2154593945565
 30
0.0
 11
5597.885269606577
 21
847.2411541957658
 31
0.0
  0
LINE
  5
B264
330
18
100
AcDbEntity
  8
01
100
AcDbLine
 10
5597.885269606577
 20
847.2411541957658
 30
0.0
 11
5597.193826943992
 21
846.5593554660422
 31
0.0
  0
LINE
  5
B265
330
18
100
AcDbEntity
  8
01
100
AcDbLine
 10
5597.193826943992
 20
846.5593554660422
 30
0.0
 11
5596.671213762089
 21
845.9977754188862
 31
0.0
  0
LINE
  5
B266
330
18
100
AcDbEntity
  8
01
100
AcDbLine
 10
5652.51413373234
 20
1047.174440711263
 30
0.0
 11
5664.833679436324
 21
1046.751721409396
 31
0.0
  0
LINE
  5
B267
330
18
100
AcDbEntity
  8
01
100
AcDbLine
 10
5664.833679436324
 20
1046.751721409396
 30
0.0
 11
5677.277969004057
 21
1046.599522936526
 31
0.0
  0
LINE
  5
B268
330
18
100
AcDbEntity
  8
01
100
AcDbLine
 10
5677.277969004057
 20
1046.599522936526
 30
0.0
 11
5689.805679529343
 21
1046.642521793707
 31
0.0
  0
LINE
  5
B269
330
18
100
AcDbEntity
  8
01
100
AcDbLine
 10
5689.805679529343
 20
1046.642521793707
 30
0.0
 11
5702.394574770249
 21
1046.803490369122
 31
0.0
  0
LINE
  5
B26A
330
18
100
AcDbEntity
  8
01
100
AcDbLine
 10
5702.394574770249
 20
1046.803490369122
 30
0.0
 11
5715.025937848361
 21
1047.008012086903
 31
0.0
  0
LINE
  5
B26B
330
18
100
AcDbEntity
  8
01
100
AcDbLine
 10
5715.025937848361
 20
1047.008012086903
 30
0.0
 11
5727.6659528291
 21
1047.212089898577
 31
0.0
  0
LINE
  5
B26C
330
18
100
AcDbEntity
  8
01
100
AcDbLine
 10
5727.6659528291
 20
1047.212089898577
 30
0.0
 11
5740.308649598683
 21
1047.391072938877
 31
0.0
  0
LINE
  5
B26D
330
18
100
AcDbEntity
  8
01
100
AcDbLine
 10
5601.591059659637
 20
1024.104690451918
 30
0.0
 11
5601.498102221289
 21
1024.143855855831
 31
0.0
  0
LINE
  5
B26E
330
18
100
AcDbEntity
  8
01
100
AcDbLine
 10
5601.498102221289
 20
1024.143855855831
 30
0.0
 11
5601.40752490163
 21
1024.188648118624
 31
0.0
  0
LINE
  5
B26F
330
18
100
AcDbEntity
  8
01
100
AcDbLine
 10
5601.40752490163
 20
1024.188648118624
 30
0.0
 11
5601.319524923347
 21
1024.238620072195
 31
0.0
  0
LINE
  5
B270
330
18
100
AcDbEntity
  8
01
100
AcDbLine
 10
5601.319524923347
 20
1024.238620072195
 30
0.0
 11
5601.152045881687
 21
1024.352314379264
 31
0.0
  0
LINE
  5
B271
330
18
100
AcDbEntity
  8
01
100
AcDbLine
 10
5601.152045881687
 20
1024.352314379264
 30
0.0
 11
5600.995838391125
 21
1024.482351581016
 31
0.0
  0
LINE
  5
B272
330
18
100
AcDbEntity
  8
01
100
AcDbLine
 10
5600.995838391125
 20
1024.482351581016
 30
0.0
 11
5600.886392237033
 21
1024.58835892439
 31
0.0
  0
LINE
  5
B273
330
18
100
AcDbEntity
  8
01
100
AcDbLine
 10
5600.886392237033
 20
1024.58835892439
 30
0.0
 11
5600.782996987686
 21
1024.700290941249
 31
0.0
  0
LINE
  5
B274
330
18
100
AcDbEntity
  8
01
100
AcDbLine
 10
5600.782996987686
 20
1024.700290941249
 30
0.0
 11
5600.651146924271
 21
1024.860349031576
 31
0.0
  0
LINE
  5
B275
330
18
100
AcDbEntity
  8
01
100
AcDbLine
 10
5600.651146924271
 20
1024.860349031576
 30
0.0
 11
5600.47136681345
 21
1025.114071269814
 31
0.0
  0
LINE
  5
B276
330
18
100
AcDbEntity
  8
01
100
AcDbLine
 10
5600.47136681345
 20
1025.114071269814
 30
0.0
 11
5600.331887783168
 21
1025.343912380643
 31
0.0
  0
LINE
  5
B277
330
18
100
AcDbEntity
  8
01
100
AcDbLine
 10
5600.331887783168
 20
1025.343912380643
 30
0.0
 11
5600.205537392389
 21
1025.581259705831
 31
0.0
  0
LINE
  5
B278
330
18
100
AcDbEntity
  8
01
100
AcDbLine
 10
5600.205537392389
 20
1025.581259705831
 30
0.0
 11
5599.977958980575
 21
1026.094723630643
 31
0.0
  0
LINE
  5
B279
330
18
100
AcDbEntity
  8
01
100
AcDbLine
 10
5599.977958980575
 20
1026.094723630643
 30
0.0
 11
5599.786734898451
 21
1026.647088686758
 31
0.0
  0
LINE
  5
B27A
330
18
100
AcDbEntity
  8
01
100
AcDbLine
 10
5599.786734898451
 20
1026.647088686758
 30
0.0
 11
5599.630480024691
 21
1027.228576136991
 31
0.0
  0
LINE
  5
B27B
330
18
100
AcDbEntity
  8
1DIM
100
AcDbLine
 10
5645.55440015878
 20
781.0680484006512
 30
0.0
 11
5787.354400158781
 21
781.0680484006512
 31
0.0
1001
ACAD
1000
DSTYLE
1002
{
1070
    40
1040
1.3
1070
    45
1040
0.5
1070
   341
1005
0
1002
}
  0
LINE
  5
B27C
330
18
100
AcDbEntity
  8
1DIM
100
AcDbLine
 10
5645.55440015878
 20
959.0680484006512
 30
0.0
 11
5787.354400158781
 21
959.0680484006512
 31
0.0
1001
ACAD
1000
DSTYLE
1002
{
1070
    40
1040
1.3
1070
    45
1040
0.5
1070
   341
1005
0
1002
}
  0
LINE
  5
B27D
330
18
100
AcDbEntity
  8
1DIM
100
AcDbLine
 10
5786.05440015878
 20
783.6680484006512
 30
0.0
 11
5786.05440015878
 21
956.4680484006511
 31
0.0
1001
ACAD
1000
DSTYLE
1002
{
1070
    40
1040
1.3
1070
    45
1040
0.5
1070
   341
1005
0
1002
}
  0
LINE
  5
B281
330
18
100
AcDbEntity
  8
1DIM
100
AcDbLine
 10
5596.05440015878
 20
958.5680484006512
 30
0.0
 11
5596.05440015878
 21
965.7680484006507
 31
0.0
1001
ACAD
1000
DSTYLE
1002
{
1070
    40
1040
1.3
1070
    45
1040
0.5
1070
   341
1005
0
1002
}
  0
LINE
  5
B282
330
18
100
AcDbEntity
  8
1DIM
100
AcDbLine
 10
5646.05440015878
 20
958.5680484006512
 30
0.0
 11
5646.05440015878
 21
965.7680484006507
 31
0.0
1001
ACAD
1000
DSTYLE
1002
{
1070
    40
1040
1.3
1070
    45
1040
0.5
1070
   341
1005
0
1002
}
  0
LINE
  5
B283
330
18
100
AcDbEntity
  8
1DIM
100
AcDbLine
 10
5598.654400158781
 20
964.4680484006508
 30
0.0
 11
5643.45440015878
 21
964.4680484006508
 31
0.0
1001
ACAD
1000
DSTYLE
1002
{
1070
    40
1040
1.3
1070
    45
1040
0.5
1070
   341
1005
0
1002
}
  0
LINE
  5
B287
330
18
100
AcDbEntity
  8
1DIM
100
AcDbLine
 10
5622.576635619511
 20
833.0239486506543
 30
0.0
 11
5777.354400158781
 21
833.0239486506543
 31
0.0
1001
ACAD
1000
DSTYLE
1002
{
1070
    40
1040
1.3
1070
   271
1070
     1
1002
}
  0
LINE
  5
B288
330
18
100
AcDbEntity
  8
1DIM
100
AcDbLine
 10
5739.300506941761
 20
868.2907187651363
 30
0.0
 11
5777.354400158781
 21
868.2907187651363
 31
0.0
1001
ACAD
1000
DSTYLE
1002
{
1070
    40
1040
1.3
1070
   271
1070
     1
1002
}
  0
LINE
  5
B289
330
18
100
AcDbEntity
  8
1DIM
100
AcDbLine
 10
5776.05440015878
 20
835.6239486506544
 30
0.0
 11
5776.05440015878
 21
865.6907187651362
 31
0.0
1001
ACAD
1000
DSTYLE
1002
{
1070
    40
1040
1.3
1070
   271
1070
     1
1002
}
  0
LINE
  5
B28D
330
18
100
AcDbEntity
  8
1DIM
100
AcDbLine
 10
5621.05440015878
 20
1058.594758750109
 30
0.0
 11
5621.05440015878
 21
993.7947587501092
 31
0.0
1001
ACAD
1000
DSTYLE
1002
{
1070
    40
1040
1.3
1070
    45
1040
121.0
1002
}
  0
LINE
  5
B28E
330
18
100
AcDbEntity
  8
1DIM
100
AcDbLine
 10
5742.387937874993
 20
1045.396244131672
 30
0.0
 11
5742.387937874993
 21
993.7947587501092
 31
0.0
1001
ACAD
1000
DSTYLE
1002
{
1070
    40
1040
1.3
1070
    45
1040
121.0
1002
}
  0
LINE
  5
B28F
330
18
100
AcDbEntity
  8
1DIM
100
AcDbLine
 10
5623.654400158781
 20
995.0947587501091
 30
0.0
 11
5739.787937874993
 21
995.0947587501091
 31
0.0
1001
ACAD
1000
DSTYLE
1002
{
1070
    40
1040
1.3
1070
    45
1040
121.0
1002
}
  0
LINE
  5
B293
330
18
100
AcDbEntity
  8
1DIM
100
AcDbLine
 10
5596.068776054362
 20
1071.094755650265
 30
0.0
 11
5596.068776054362
 21
983.7947587501092
 31
0.0
1001
ACAD
1000
DSTYLE
1002
{
1070
    40
1040
1.3
1070
    45
1040
0.5
1002
}
  0
LINE
  5
B294
330
18
100
AcDbEntity
  8
1DIM
100
AcDbLine
 10
5742.387937874993
 20
1045.396244131672
 30
0.0
 11
5742.387937874993
 21
983.7947587501092
 31
0.0
1001
ACAD
1000
DSTYLE
1002
{
1070
    40
1040
1.3
1070
    45
1040
0.5
1002
}
  0
LINE
  5
B295
330
18
100
AcDbEntity
  8
1DIM
100
AcDbLine
 10
5598.668776054363
 20
985.0947587501091
 30
0.0
 11
5739.787937874993
 21
985.0947587501091
 31
0.0
1001
ACAD
1000
DSTYLE
1002
{
1070
    40
1040
1.3
1070
    45
1040
0.5
1002
}
  0
LINE
  5
B299
330
18
100
AcDbEntity
  8
1DIM
100
AcDbLine
 10
5740.610871389817
 20
1047.373459379334
 30
0.0
 11
5777.354400158781
 21
1047.373459379334
 31
0.0
1001
ACAD
1000
DSTYLE
1002
{
1070
    40
1040
1.3
1070
    45
1040
0.5
1002
}
  0
LINE
  5
B29A
330
18
100
AcDbEntity
  8
1DIM
100
AcDbLine
 10
5723.809548156129
 20
1080.094758750109
 30
0.0
 11
5777.354400158781
 21
1080.094758750109
 31
0.0
1001
ACAD
1000
DSTYLE
1002
{
1070
    40
1040
1.3
1070
    45
1040
0.5
1002
}
  0
LINE
  5
B29B
330
18
100
AcDbEntity
  8
1DIM
100
AcDbLine
 10
5776.05440015878
 20
1049.973459379334
 30
0.0
 11
5776.05440015878
 21
1077.494758750109
 31
0.0
1001
ACAD
1000
DSTYLE
1002
{
1070
    40
1040
1.3
1070
    45
1040
0.5
1002
}
  0
LINE
  5
B29F
330
18
100
AcDbEntity
  8
1DIM
100
AcDbLine
 10
5739.24237048648
 20
1022.91731719537
 30
0.0
 11
5787.354400158781
 21
1022.91731719537
 31
0.0
1001
ACAD
1000
DSTYLE
1002
{
1070
    40
1040
1.3
1070
    45
1040
0.5
1002
}
  0
LINE
  5
B2A0
330
18
100
AcDbEntity
  8
1DIM
100
AcDbLine
 10
5723.809548156129
 20
1080.094758750109
 30
0.0
 11
5787.354400158781
 21
1080.094758750109
 31
0.0
1001
ACAD
1000
DSTYLE
1002
{
1070
    40
1040
1.3
1070
    45
1040
0.5
1002
}
  0
LINE
  5
B2A1
330
18
100
AcDbEntity
  8
1DIM
100
AcDbLine
 10
5786.05440015878
 20
1025.51731719537
 30
0.0
 11
5786.05440015878
 21
1077.494758750109
 31
0.0
1001
ACAD
1000
DSTYLE
1002
{
1070
    40
1040
1.3
1070
    45
1040
0.5
1002
}
  0
LINE
  5
B2A5
330
18
100
AcDbEntity
  8
0
  6
BYBLOCK
100
AcDbLine
 10
5786.75106805278
 20
783.6680484006512
 30
0.0
 11
5786.05440015878
 21
781.0680484006512
 31
0.0
  0
LINE
  5
B2A6
330
18
100
AcDbEntity
  8
0
  6
BYBLOCK
100
AcDbLine
 10
5786.05440015878
 20
781.0680484006512
 30
0.0
 11
5785.357732264781
 21
783.6680484006512
 31
0.0
  0
LINE
  5
B2A7
330
18
100
AcDbEntity
  8
0
  6
BYBLOCK
100
AcDbLine
 10
5786.05440015878
 20
781.0680484006512
 30
0.0
 11
5786.05440015878
 21
783.6680484006512
 31
0.0
  0
LINE
  5
B2A8
330
18
100
AcDbEntity
  8
0
  6
BYBLOCK
100
AcDbLine
 10
5785.357732264781
 20
956.4680484006511
 30
0.0
 11
5786.05440015878
 21
959.0680484006512
 31
0.0
  0
LINE
  5
B2A9
330
18
100
AcDbEntity
  8
0
  6
BYBLOCK
100
AcDbLine
 10
5786.05440015878
 20
959.0680484006512
 30
0.0
 11
5786.75106805278
 21
956.4680484006511
 31
0.0
  0
LINE
  5
B2AA
330
18
100
AcDbEntity
  8
0
  6
BYBLOCK
100
AcDbLine
 10
5786.05440015878
 20
959.0680484006512
 30
0.0
 11
5786.05440015878
 21
956.4680484006511
 31
0.0
  0
TEXT
  5
B2AB
330
18
100
AcDbEntity
  8
1DIM
  6
CONTINUOUS
100
AcDbText
 10
5785.14440015878
 20
864.7597150673191
 30
0.0
 40
4.55
  1
178
 50
90.0
100
AcDbText
1001
ACAD
1000
DSTYLE
1002
{
1070
    40
1040
1.3
1070
    45
1040
0.5
1070
   341
1005
0
1002
}
  0
LINE
  5
B2AC
330
18
100
AcDbEntity
  8
0
  6
BYBLOCK
100
AcDbLine
 10
5598.654400158781
 20
963.7713805066508
 30
0.0
 11
5596.05440015878
 21
964.4680484006508
 31
0.0
  0
LINE
  5
B2AD
330
18
100
AcDbEntity
  8
0
  6
BYBLOCK
100
AcDbLine
 10
5596.05440015878
 20
964.4680484006508
 30
0.0
 11
5598.654400158781
 21
965.1647162946508
 31
0.0
  0
LINE
  5
B2AE
330
18
100
AcDbEntity
  8
0
  6
BYBLOCK
100
AcDbLine
 10
5596.05440015878
 20
964.4680484006508
 30
0.0
 11
5598.654400158781
 21
964.4680484006508
 31
0.0
  0
LINE
  5
B2AF
330
18
100
AcDbEntity
  8
0
  6
BYBLOCK
100
AcDbLine
 10
5643.45440015878
 20
965.1647162946508
 30
0.0
 11
5646.05440015878
 21
964.4680484006508
 31
0.0
  0
LINE
  5
B2B0
330
18
100
AcDbEntity
  8
0
  6
BYBLOCK
100
AcDbLine
 10
5646.05440015878
 20
964.4680484006508
 30
0.0
 11
5643.45440015878
 21
963.7713805066508
 31
0.0
  0
LINE
  5
B2B1
330
18
100
AcDbEntity
  8
0
  6
BYBLOCK
100
AcDbLine
 10
5646.05440015878
 20
964.4680484006508
 30
0.0
 11
5643.45440015878
 21
964.4680484006508
 31
0.0
  0
TEXT
  5
B2B2
330
18
100
AcDbEntity
  8
1DIM
  6
CONTINUOUS
100
AcDbText
 10
5617.531309881003
 20
965.3780484006508
 30
0.0
 40
4.55
  1
50
100
AcDbText
1001
ACAD
1000
DSTYLE
1002
{
1070
    40
1040
1.3
1070
    45
1040
0.5
1070
   341
1005
0
1002
}
  0
LINE
  5
B2B3
330
18
100
AcDbEntity
  8
0
  6
BYBLOCK
100
AcDbLine
 10
5776.75106805278
 20
835.6239486506544
 30
0.0
 11
5776.05440015878
 21
833.0239486506543
 31
0.0
  0
LINE
  5
B2B4
330
18
100
AcDbEntity
  8
0
  6
BYBLOCK
100
AcDbLine
 10
5776.05440015878
 20
833.0239486506543
 30
0.0
 11
5775.357732264781
 21
835.6239486506544
 31
0.0
  0
LINE
  5
B2B5
330
18
100
AcDbEntity
  8
0
  6
BYBLOCK
100
AcDbLine
 10
5776.05440015878
 20
833.0239486506543
 30
0.0
 11
5776.05440015878
 21
835.6239486506544
 31
0.0
  0
LINE
  5
B2B6
330
18
100
AcDbEntity
  8
0
  6
BYBLOCK
100
AcDbLine
 10
5775.357732264781
 20
865.6907187651362
 30
0.0
 11
5776.05440015878
 21
868.2907187651363
 31
0.0
  0
LINE
  5
B2B7
330
18
100
AcDbEntity
  8
0
  6
BYBLOCK
100
AcDbLine
 10
5776.05440015878
 20
868.2907187651363
 30
0.0
 11
5776.75106805278
 21
865.6907187651362
 31
0.0
  0
LINE
  5
B2B8
330
18
100
AcDbEntity
  8
0
  6
BYBLOCK
100
AcDbLine
 10
5776.05440015878
 20
868.2907187651363
 30
0.0
 11
5776.05440015878
 21
865.6907187651362
 31
0.0
  0
TEXT
  5
B2B9
330
18
100
AcDbEntity
  8
1DIM
  6
CONTINUOUS
100
AcDbText
 10
5775.144400158781
 20
846.8656670412283
 30
0.0
 40
4.55
  1
35
 50
90.0
100
AcDbText
1001
ACAD
1000
DSTYLE
1002
{
1070
    40
1040
1.3
1070
   271
1070
     1
1002
}
  0
LINE
  5
B2BA
330
18
100
AcDbEntity
  8
0
  6
BYBLOCK
100
AcDbLine
 10
5623.654400158781
 20
994.3980908561091
 30
0.0
 11
5621.05440015878
 21
995.0947587501091
 31
0.0
  0
LINE
  5
B2BB
330
18
100
AcDbEntity
  8
0
  6
BYBLOCK
100
AcDbLine
 10
5621.05440015878
 20
995.0947587501091
 30
0.0
 11
5623.654400158781
 21
995.7914266441092
 31
0.0
  0
LINE
  5
B2BC
330
18
100
AcDbEntity
  8
0
  6
BYBLOCK
100
AcDbLine
 10
5621.05440015878
 20
995.0947587501091
 30
0.0
 11
5623.654400158781
 21
995.0947587501091
 31
0.0
  0
LINE
  5
B2BD
330
18
100
AcDbEntity
  8
0
  6
BYBLOCK
100
AcDbLine
 10
5739.787937874993
 20
995.7914266441092
 30
0.0
 11
5742.387937874993
 21
995.0947587501091
 31
0.0
  0
LINE
  5
B2BE
330
18
100
AcDbEntity
  8
0
  6
BYBLOCK
100
AcDbLine
 10
5742.387937874993
 20
995.0947587501091
 30
0.0
 11
5739.787937874993
 21
994.3980908561091
 31
0.0
  0
LINE
  5
B2BF
330
18
100
AcDbEntity
  8
0
  6
BYBLOCK
100
AcDbLine
 10
5742.387937874993
 20
995.0947587501091
 30
0.0
 11
5739.787937874993
 21
995.0947587501091
 31
0.0
  0
TEXT
  5
B2C0
330
18
100
AcDbEntity
  8
1DIM
  6
CONTINUOUS
100
AcDbText
 10
5677.171169016887
 20
996.0047587501091
 30
0.0
 40
4.55
  1
121
100
AcDbText
1001
ACAD
1000
DSTYLE
1002
{
1070
    40
1040
1.3
1070
    45
1040
121.0
1002
}
  0
LINE
  5
B2C1
330
18
100
AcDbEntity
  8
0
  6
BYBLOCK
100
AcDbLine
 10
5598.668776054363
 20
984.3980908561091
 30
0.0
 11
5596.068776054362
 21
985.0947587501091
 31
0.0
  0
LINE
  5
B2C2
330
18
100
AcDbEntity
  8
0
  6
BYBLOCK
100
AcDbLine
 10
5596.068776054362
 20
985.0947587501091
 30
0.0
 11
5598.668776054363
 21
985.7914266441092
 31
0.0
  0
LINE
  5
B2C3
330
18
100
AcDbEntity
  8
0
  6
BYBLOCK
100
AcDbLine
 10
5596.068776054362
 20
985.0947587501091
 30
0.0
 11
5598.668776054363
 21
985.0947587501091
 31
0.0
  0
LINE
  5
B2C4
330
18
100
AcDbEntity
  8
0
  6
BYBLOCK
100
AcDbLine
 10
5739.787937874993
 20
985.7914266441092
 30
0.0
 11
5742.387937874993
 21
985.0947587501091
 31
0.0
  0
LINE
  5
B2C5
330
18
100
AcDbEntity
  8
0
  6
BYBLOCK
100
AcDbLine
 10
5742.387937874993
 20
985.0947587501091
 30
0.0
 11
5739.787937874993
 21
984.3980908561091
 31
0.0
  0
LINE
  5
B2C6
330
18
100
AcDbEntity
  8
0
  6
BYBLOCK
100
AcDbLine
 10
5742.387937874993
 20
985.0947587501091
 30
0.0
 11
5739.787937874993
 21
985.0947587501091
 31
0.0
  0
TEXT
  5
B2C7
330
18
100
AcDbEntity
  8
1DIM
  6
CONTINUOUS
100
AcDbText
 10
5660.8708916869
 20
986.0047587501091
 30
0.0
 40
4.55
  1
146.5
100
AcDbText
1001
ACAD
1000
DSTYLE
1002
{
1070
    40
1040
1.3
1070
    45
1040
0.5
1002
}
  0
LINE
  5
B2C8
330
18
100
AcDbEntity
  8
0
  6
BYBLOCK
100
AcDbLine
 10
5776.75106805278
 20
1049.973459379334
 30
0.0
 11
5776.05440015878
 21
1047.373459379334
 31
0.0
  0
LINE
  5
B2C9
330
18
100
AcDbEntity
  8
0
  6
BYBLOCK
100
AcDbLine
 10
5776.05440015878
 20
1047.373459379334
 30
0.0
 11
5775.357732264781
 21
1049.973459379334
 31
0.0
  0
LINE
  5
B2CA
330
18
100
AcDbEntity
  8
0
  6
BYBLOCK
100
AcDbLine
 10
5776.05440015878
 20
1047.373459379334
 30
0.0
 11
5776.05440015878
 21
1049.973459379334
 31
0.0
  0
LINE
  5
B2CB
330
18
100
AcDbEntity
  8
0
  6
BYBLOCK
100
AcDbLine
 10
5775.357732264781
 20
1077.494758750109
 30
0.0
 11
5776.05440015878
 21
1080.094758750109
 31
0.0
  0
LINE
  5
B2CC
330
18
100
AcDbEntity
  8
0
  6
BYBLOCK
100
AcDbLine
 10
5776.05440015878
 20
1080.094758750109
 30
0.0
 11
5776.75106805278
 21
1077.494758750109
 31
0.0
  0
LINE
  5
B2CD
330
18
100
AcDbEntity
  8
0
  6
BYBLOCK
100
AcDbLine
 10
5776.05440015878
 20
1080.094758750109
 30
0.0
 11
5776.05440015878
 21
1077.494758750109
 31
0.0
  0
TEXT
  5
B2CE
330
18
100
AcDbEntity
  8
1DIM
  6
CONTINUOUS
100
AcDbText
 10
5775.14440015878
 20
1056.909109064723
 30
0.0
 40
4.55
  1
32.5
 50
90.0
100
AcDbText
1001
ACAD
1000
DSTYLE
1002
{
1070
    40
1040
1.3
1070
    45
1040
0.5
1002
}
  0
LINE
  5
B2CF
330
18
100
AcDbEntity
  8
0
  6
BYBLOCK
100
AcDbLine
 10
5786.75106805278
 20
1025.51731719537
 30
0.0
 11
5786.05440015878
 21
1022.91731719537
 31
0.0
  0
LINE
  5
B2D0
330
18
100
AcDbEntity
  8
0
  6
BYBLOCK
100
AcDbLine
 10
5786.05440015878
 20
1022.91731719537
 30
0.0
 11
5785.357732264781
 21
1025.51731719537
 31
0.0
  0
LINE
  5
B2D1
330
18
100
AcDbEntity
  8
0
  6
BYBLOCK
100
AcDbLine
 10
5786.05440015878
 20
1022.91731719537
 30
0.0
 11
5786.05440015878
 21
1025.51731719537
 31
0.0
  0
LINE
  5
B2D2
330
18
100
AcDbEntity
  8
0
  6
BYBLOCK
100
AcDbLine
 10
5785.357732264781
 20
1077.494758750109
 30
0.0
 11
5786.05440015878
 21
1080.094758750109
 31
0.0
  0
LINE
  5
B2D3
330
18
100
AcDbEntity
  8
0
  6
BYBLOCK
100
AcDbLine
 10
5786.05440015878
 20
1080.094758750109
 30
0.0
 11
5786.75106805278
 21
1077.494758750109
 31
0.0
  0
LINE
  5
B2D4
330
18
100
AcDbEntity
  8
0
  6
BYBLOCK
100
AcDbLine
 10
5786.05440015878
 20
1080.094758750109
 30
0.0
 11
5786.05440015878
 21
1077.494758750109
 31
0.0
  0
TEXT
  5
B2D5
330
18
100
AcDbEntity
  8
1DIM
  6
CONTINUOUS
100
AcDbText
 10
5785.14440015878
 20
1047.698572694963
 30
0.0
 40
4.55
  1
57
 50
90.0
100
AcDbText
1001
ACAD
1000
DSTYLE
1002
{
1070
    40
1040
1.3
1070
    45
1040
0.5
1002
}
  0
VIEWPORT
  5
57
330
15
100
AcDbEntity
 67
     1
  8
0
100
AcDbViewport
 68
     1
 10
0.0
 20
0.0
 30
0.0
 40
663.4332925336597
 41
297.0
 68
     1
 69
     1
1001
ACAD
1000
MVIEW
1002
{
1070
    16
1010
0.0
1020
0.0
1030
0.0
1010
0.0
1020
0.0
1030
1.0
1040
0.0
1040
297.0
1040
5.728000000000009
1040
25.339
1040
50.0
1040
0.0
1040
0.0
1070
    16
1070
  1000
1070
     0
1070
     1
1070
     0
1070
     0
1070
     0
1070
     0
1040
0.0
1040
0.0
1040
0.0
1040
10.0
1040
10.0
1040
10.0
1040
10.0
1070
     0
1002
{
1002
}
1002
}
  0
ENDSEC
  0
SECTION
  2
OBJECTS
  0
DICTIONARY
  5
C
330
0
100
AcDbDictionary
  3
ACAD_COLOR
350
18D
  3
ACAD_GROUP
350
D
  3
ACAD_LAYOUT
350
18E
  3
ACAD_MATERIAL
350
18C
  3
ACAD_MLEADERSTYLE
350
9583
  3
ACAD_MLINESTYLE
350
1B
  3
ACAD_PLOTSETTINGS
350
18F
  3
ACAD_SCALELIST
350
9561
  3
ACAD_VISUALSTYLE
350
9550
  3
ACDBHEADERROUNDTRIPXREC
350
B2D6
  3
ACDBVARIABLEDICTIONARY
350
37
  3
AEC_PROPERTY_SET_DEFS
350
AFD7
  3
CONTENTDICTIONARY
350
D8
  3
DRAWINGVARIABLESDICT
350
20
  3
DWGPROPS
350
B2D9
1001
ACAD
1000
TREAT_AS_HARD
1070
     0
  0
DICTIONARY
  5
96D9
330
2
100
AcDbDictionary
  3
ACAD_LAYERSTATES
360
96DA
1001
ACAD
1000
TREAT_AS_HARD
1070
     1
  0
DICTIONARY
  5
9593
330
E
100
AcDbDictionary
  3
ADSK_XREC_LAYER_RECONCILED
360
9594
1001
ACAD
1000
TREAT_AS_HARD
1070
     1
  0
DICTIONARY
  5
9595
330
29
100
AcDbDictionary
  3
ADSK_XREC_LAYER_RECONCILED
360
9596
1001
ACAD
1000
TREAT_AS_HARD
1070
     1
  0
DICTIONARY
  5
9597
330
31
100
AcDbDictionary
  3
ADSK_XREC_LAYER_RECONCILED
360
9598
1001
ACAD
1000
TREAT_AS_HARD
1070
     1
  0
DICTIONARY
  5
959D
330
243
100
AcDbDictionary
  3
ADSK_XREC_LAYER_RECONCILED
360
959E
1001
ACAD
1000
TREAT_AS_HARD
1070
     1
  0
DICTIONARY
  5
95A3
330
24E
100
AcDbDictionary
  3
ADSK_XREC_LAYER_RECONCILED
360
95A4
1001
ACAD
1000
TREAT_AS_HARD
1070
     1
  0
DICTIONARY
  5
88F
330
18
100
AcDbDictionary
  3
ACAD_SORTENTS
360
890
1001
ACAD
1000
TREAT_AS_HARD
1070
     1
  0
DICTIONARY
  5
18D
102
{ACAD_REACTORS
330
C
102
}
330
C
100
AcDbDictionary
1001
ACAD
1000
TREAT_AS_HARD
1070
     0
  0
DICTIONARY
  5
D
102
{ACAD_REACTORS
330
C
102
}
330
C
100
AcDbDictionary
1001
ACAD
1000
TREAT_AS_HARD
1070
     0
  0
DICTIONARY
  5
18E
102
{ACAD_REACTORS
330
C
102
}
330
C
100
AcDbDictionary
1001
ACAD
1000
TREAT_AS_HARD
1070
     0
  0
DICTIONARY
  5
18C
102
{ACAD_REACTORS
330
C
102
}
330
C
100
AcDbDictionary
  3
BYBLOCK
350
9540
  3
BYLAYER
350
9538
  3
GLOBAL
350
9548
1001
ACAD
1000
TREAT_AS_HARD
1070
     0
  0
DICTIONARY
  5
9583
102
{ACAD_REACTORS
330
C
102
}
330
C
100
AcDbDictionary
  3
STANDARD
350
9584
1001
ACAD
1000
TREAT_AS_HARD
1070
     0
  0
DICTIONARY
  5
1B
102
{ACAD_REACTORS
330
C
102
}
330
C
100
AcDbDictionary
  3
STANDARD
350
1C
1001
ACAD
1000
TREAT_AS_HARD
1070
     0
  0
DICTIONARY
  5
18F
102
{ACAD_REACTORS
330
C
102
}
330
C
100
AcDbDictionary
1001
ACAD
1000
TREAT_AS_HARD
1070
     0
  0
DICTIONARY
  5
9561
102
{ACAD_REACTORS
330
C
102
}
330
C
100
AcDbDictionary
  3
A0
350
9562
  3
A1
350
9563
  3
A2
350
9564
  3
A3
350
9565
  3
A4
350
9566
  3
A5
350
9567
  3
A6
350
9568
  3
A7
350
9569
  3
A8
350
956A
  3
A9
350
956B
  3
B0
350
956C
  3
B1
350
956D
  3
B2
350
956E
  3
B3
350
956F
  3
B4
350
9570
  3
B5
350
9571
  3
B6
350
9572
  3
B7
350
9573
  3
B8
350
9574
  3
B9
350
9575
  3
C0
350
9576
  3
C1
350
9577
  3
C2
350
9578
  3
C3
350
9579
  3
C4
350
957A
  3
C5
350
957B
  3
C6
350
957C
  3
C7
350
957D
  3
C8
350
957E
  3
C9
350
957F
  3
D0
350
9580
  3
D1
350
9581
  3
D2
350
9582
1001
ACAD
1000
TREAT_AS_HARD
1070
     0
  0
DICTIONARY
  5
9550
102
{ACAD_REACTORS
330
C
102
}
330
C
100
AcDbDictionary
  3
2DWIREFRAME
350
9556
  3
3D_HIDDEN
350
9558
  3
3DWIREFRAME
350
9557
  3
BASIC
350
9555
  3
BRIGHTEN
350
955C
  3
COLORCHANGE
350
9560
  3
CONCEPTUAL
350
9559
  3
DIM
350
955B
  3
EDGECOLOROFF
350
A211
  3
FACEPATTERN
350
955F
  3
FLAT
350
9551
  3
FLATWITHEDGES
350
9552
  3
GOURAUD
350
9553
  3
GOURAUDWITHEDGES
350
9554
  3
HIDDEN
350
A260
  3
JITTEROFF
350
A20F
  3
LINEPATTERN
350
955E
  3
MODELING
350
A266
  3
OVERHANGOFF
350
A210
  3
REALISTIC
350
955A
  3
SHADED
350
A265
  3
SHADED_WITH_EDGES
350
A264
  3
SHADES_OF_GRAY
350
A261
  3
SKETCHY
350
A262
  3
THICKEN
350
955D
  3
WIREFRAME
350
A25F
  3
X-RAY
350
A263
1001
ACAD
1000
TREAT_AS_HARD
1070
     0
  0
DICTIONARY
  5
B2D6
102
{ACAD_REACTORS
330
C
102
}
330
C
100
AcDbDictionary
  3
COLORDICT
350
B2D7
  3
MATERIALDICT
350
B2D8
1001
ACAD
1000
TREAT_AS_HARD
1070
     0
  0
DICTIONARY
  5
37
102
{ACAD_REACTORS
330
C
102
}
330
C
100
AcDbDictionary
  3
CANNOSCALE
350
B113
  3
CMLEADERSTYLE
350
9627
  3
CTABLESTYLE
350
29E
  3
DIMADEC
350
38
  3
DIMASSOC
350
1CE
  3
HIDETEXT
350
704E
  3
INDEXCTL
350
962A
  3
INTERSECTIONCOLOR
350
7052
  3
INTERSECTIONDISPLAY
350
7051
  3
LAYEREVAL
350
AEF1
  3
LAYERNOTIFY
350
AEF2
  3
MSLTSCALE
350
AB30
  3
OBSCOLOR
350
704F
  3
OBSLTYPE
350
7050
  3
PROJECTNAME
350
1CF
  3
SORTENTS
350
9629
  3
XCLIPFRAME
350
B0F5
1001
ACAD
1000
TREAT_AS_HARD
1070
     0
  0
DICTIONARY
  5
AFD7
102
{ACAD_REACTORS
330
C
102
}
330
C
100
AcDbDictionary
1001
ACAD
1000
TREAT_AS_HARD
1070
     0
  0
DICTIONARY
  5
D8
102
{ACAD_REACTORS
330
C
102
}
330
C
100
AcDbDictionary
1001
ACAD
1000
TREAT_AS_HARD
1070
     0
  0
DICTIONARY
  5
20
102
{ACAD_REACTORS
330
C
102
}
330
C
100
AcDbDictionary
1001
DRAWINGVARIABLESXDATA
1000
POLARANG
1000
0.261799387799149410000000
1000
POLARMODE
1000
1
1000
POLARSTYLE
1000
1
1001
ACAD
1000
TREAT_AS_HARD
1070
     0
  0
XRECORD
  5
B2D9
102
{ACAD_REACTORS
330
C
102
}
330
C
100
AcDbXrecord
  1
DWGPROPS COOKIE
  2

  3

  4

  6

  7

  8
3684
  9

300
=
301
=
302
=
303
=
304
=
305
=
306
=
307
=
308
=
309
=
 40
0.0
 41
2451318.246352917
 42
2458152.257000382
  1

 90
        0
  0
DICTIONARY
  5
96DA
102
{ACAD_REACTORS
330
96D9
102
}
330
96D9
100
AcDbDictionary
1001
ACAD
1000
TREAT_AS_HARD
1070
     0
  0
ACAD_PROXY_OBJECT
  5
9594
102
{ACAD_REACTORS
330
9593
102
}
330
9593
100
AcDbZombieObject
 90
      499
 91
      516
 93
       34
310
40C8804040
  0
ACAD_PROXY_OBJECT
  5
9596
102
{ACAD_REACTORS
330
9595
102
}
330
9595
100
AcDbZombieObject
 90
      499
 91
      516
 93
       34
310
40C8804040
  0
ACAD_PROXY_OBJECT
  5
9598
102
{ACAD_REACTORS
330
9597
102
}
330
9597
100
AcDbZombieObject
 90
      499
 91
      516
 93
       34
310
40C8804040
  0
ACAD_PROXY_OBJECT
  5
959E
102
{ACAD_REACTORS
330
959D
102
}
330
959D
100
AcDbZombieObject
 90
      499
 91
      516
 93
       34
310
40C8804040
  0
ACAD_PROXY_OBJECT
  5
95A4
102
{ACAD_REACTORS
330
95A3
102
}
330
95A3
100
AcDbZombieObject
 90
      499
 91
      516
 93
       34
310
40C8804040
  0
SORTENTSTABLE
  5
890
102
{ACAD_REACTORS
330
88F
102
}
330
88F
100
AcDbSortentsTable
330
18
331
AFF1
  5
B00F
331
AFF2
  5
B010
331
AFF3
  5
B011
331
AFF4
  5
B012
331
AFF5
  5
B016
331
AFF6
  5
B017
331
AFF7
  5
B018
331
AFF8
  5
B019
331
AFF9
  5
B01A
331
AFFA
  5
B01B
331
AFFB
  5
B01D
331
AFFC
  5
B01E
331
AFFD
  5
B01F
331
AFFE
  5
B020
331
AFFF
  5
B021
331
B000
  5
B022
331
B001
  5
B024
331
B002
  5
B025
331
B003
  5
B028
331
B004
  5
B029
331
B005
  5
B02A
331
B006
  5
B02B
331
B009
  5
B1B4
331
B00B
  5
B1EF
331
B00D
  5
B1FD
331
B00E
  5
B1FE
331
B00F
  5
B1FF
331
B010
  5
B200
331
B011
  5
B201
331
B012
  5
B202
331
B016
  5
B21B
331
B017
  5
B21C
331
B018
  5
B21D
331
B019
  5
B21E
331
B01A
  5
B21F
331
B01B
  5
B220
331
B01D
  5
B22F
331
B01E
  5
B230
331
B01F
  5
B231
331
B020
  5
B232
331
B021
  5
B233
331
B022
  5
B234
331
B024
  5
B23C
331
B025
  5
B23D
331
B028
  5
B271
331
B029
  5
B275
331
0
  5
B24B
331
B02B
  5
B283
331
0
  5
B24D
331
0
  5
B24E
331
0
  5
B24F
331
0
  5
B250
331
B030
  5
B2AC
331
B031
  5
B2AD
331
B032
  5
B2AE
331
B033
  5
B2AF
331
B035
  5
B2B7
331
B037
  5
B2C6
331
B038
  5
B2C7
331
B039
  5
B2C8
331
B03A
  5
B2C9
331
B03B
  5
B2CA
331
B03C
  5
B2CB
331
B03D
  5
B2CC
331
B03E
  5
B2CD
331
B03F
  5
B2CE
331
B040
  5
B2CF
331
B041
  5
B2D0
331
B042
  5
B2D1
331
B043
  5
B2D2
331
B044
  5
B2D3
331
B045
  5
B2D4
331
B046
  5
B2D5
331
B175
  5
B02C
331
B176
  5
B02D
331
B177
  5
B02E
331
B178
  5
B02F
331
B179
  5
B030
331
B17A
  5
B031
331
B17B
  5
B032
331
B17C
  5
B033
331
B17D
  5
B035
331
B17E
  5
B037
331
B17F
  5
B038
331
B180
  5
B039
331
B181
  5
B03A
331
B182
  5
B03B
331
B183
  5
B03C
331
B184
  5
B03D
331
B185
  5
B03E
331
B186
  5
B03F
331
B187
  5
B040
331
B188
  5
B041
331
B189
  5
B042
331
B18A
  5
B043
331
B18B
  5
B044
331
B18C
  5
B045
331
B18D
  5
B046
331
B18E
  5
B175
331
B18F
  5
B176
331
B190
  5
B177
331
B191
  5
B178
331
B192
  5
B179
331
B193
  5
B17A
331
B194
  5
B17B
331
B195
  5
B17C
331
B196
  5
B17D
331
B197
  5
B17E
331
B198
  5
B17F
331
B199
  5
B180
331
B19A
  5
B181
331
B19B
  5
B182
331
B19C
  5
B183
331
B19D
  5
B184
331
B19E
  5
B185
331
B19F
  5
B186
331
B1A0
  5
B187
331
B1A1
  5
B188
331
B1A2
  5
B189
331
B1A3
  5
B18A
331
B1A4
  5
B18B
331
B1A5
  5
B18C
331
B1A6
  5
B18D
331
B1A7
  5
B18E
331
B1A8
  5
B18F
331
B1A9
  5
B190
331
B1AA
  5
B191
331
B1AB
  5
B192
331
B1AC
  5
B193
331
B1AD
  5
B194
331
B1AE
  5
B195
331
B1AF
  5
B196
331
B1B0
  5
B197
331
B1B1
  5
B198
331
B1B2
  5
B199
331
B1B3
  5
B19A
331
B1B4
  5
B19B
331
B1B5
  5
B19C
331
B1B6
  5
B19D
331
B1B7
  5
B19E
331
B1B8
  5
B19F
331
B1B9
  5
B1A0
331
B1BA
  5
B1A1
331
B1BB
  5
B1A2
331
B1BC
  5
B1A3
331
B1BD
  5
B1A4
331
B1BE
  5
B1A5
331
B1BF
  5
B1A6
331
B1C0
  5
B1A7
331
B1C1
  5
B1A8
331
B1C2
  5
B1A9
331
B1C3
  5
B1AA
331
B1C4
  5
B1AB
331
B1C5
  5
B1AC
331
B1C6
  5
B1AD
331
B1C7
  5
B1AE
331
B1C8
  5
B1AF
331
B1C9
  5
B1B0
331
B1CA
  5
B1B1
331
B1CB
  5
B1B2
331
B1CC
  5
B1B3
331
B1CD
  5
B1B5
331
B1CE
  5
B1B6
331
B1CF
  5
B1B7
331
B1D0
  5
B1B8
331
B1D1
  5
B1B9
331
B1D2
  5
B1BA
331
B1D3
  5
B1BB
331
B1D4
  5
B1BC
331
B1D5
  5
B1BD
331
B1D6
  5
B1BE
331
B1D7
  5
B1BF
331
B1D8
  5
B1C0
331
B1D9
  5
B1C1
331
B1DA
  5
B1C2
331
B1DB
  5
B1C3
331
B1DC
  5
B1C4
331
B1DD
  5
B1C5
331
B1DE
  5
B1C6
331
B1DF
  5
B1C7
331
B1E0
  5
B1C8
331
B1E1
  5
B1C9
331
B1E2
  5
B1CA
331
B1E3
  5
B1CB
331
B1E4
  5
B1CC
331
B1E5
  5
B1CD
331
B1E6
  5
B1CE
331
B1E7
  5
B1CF
331
B1E8
  5
B1D0
331
B1E9
  5
B1D1
331
B1EA
  5
B1D2
331
B1EB
  5
B1D3
331
B1EC
  5
B1D4
331
B1ED
  5
B1D5
331
B1EE
  5
B1D6
331
B1EF
  5
B1D7
331
B1F0
  5
B1D8
331
B1F1
  5
B1D9
331
B1F2
  5
B1DA
331
B1F3
  5
B1DB
331
B1F4
  5
B1DC
331
B1F5
  5
B1DD
331
B1F6
  5
B1DE
331
B1F7
  5
B1DF
331
B1F8
  5
B1E0
331
B1F9
  5
B1E1
331
B1FA
  5
B1E2
331
B1FB
  5
B1E3
331
B1FC
  5
B1E4
331
B1FD
  5
B1E5
331
B1FE
  5
B1E6
331
B1FF
  5
B1E7
331
B200
  5
B1E8
331
B201
  5
B1E9
331
B202
  5
B1EA
331
B203
  5
B1EB
331
B204
  5
B1EC
331
B205
  5
B1ED
331
B206
  5
B1EE
331
B207
  5
B1F0
331
B208
  5
B1F1
331
B209
  5
B1F2
331
B20A
  5
B1F3
331
B20B
  5
B1F4
331
B20C
  5
B1F5
331
B20D
  5
B1F6
331
B20E
  5
B1F7
331
B20F
  5
B1F8
331
B210
  5
B1F9
331
B211
  5
B1FA
331
B212
  5
B1FB
331
B213
  5
B1FC
331
B214
  5
B203
331
B215
  5
B204
331
B216
  5
B205
331
B217
  5
B206
331
B218
  5
B207
331
B219
  5
B208
331
B21A
  5
B209
331
B21B
  5
B20A
331
B21C
  5
B20B
331
B21D
  5
B20C
331
B21E
  5
B20D
331
B21F
  5
B20E
331
B220
  5
B20F
331
B221
  5
B210
331
B222
  5
B211
331
B223
  5
B212
331
B224
  5
B213
331
B225
  5
B214
331
B226
  5
B215
331
B227
  5
B216
331
B228
  5
B217
331
B229
  5
B218
331
B22A
  5
B219
331
B22B
  5
B21A
331
B22C
  5
B221
331
B22D
  5
B222
331
B22E
  5
B223
331
B22F
  5
B224
331
B230
  5
B225
331
B231
  5
B226
331
B232
  5
B227
331
B233
  5
B228
331
B234
  5
B229
331
B235
  5
B22A
331
B236
  5
B22B
331
B237
  5
B22C
331
B238
  5
B22D
331
B239
  5
B22E
331
B23A
  5
B235
331
B23B
  5
B236
331
B23C
  5
B237
331
B23D
  5
B238
331
B23E
  5
B239
331
B23F
  5
B23A
331
B240
  5
B23B
331
B241
  5
B23E
331
B242
  5
B23F
331
B243
  5
B240
331
B244
  5
B241
331
B245
  5
B242
331
B246
  5
B243
331
B247
  5
B244
331
B248
  5
B245
331
B249
  5
B246
331
B24A
  5
B247
331
B24B
  5
B248
331
B24C
  5
B249
331
B24D
  5
B24A
331
B24E
  5
B24C
331
B24F
  5
B251
331
B250
  5
B252
331
B251
  5
B253
331
B252
  5
B254
331
B253
  5
B255
331
B254
  5
B256
331
B255
  5
B257
331
B256
  5
B258
331
B257
  5
B259
331
B258
  5
B25A
331
B259
  5
B25B
331
B25A
  5
B25C
331
B25B
  5
B25D
331
B25C
  5
B25E
331
B25D
  5
B262
331
B25E
  5
B263
331
B25F
  5
B264
331
B260
  5
B265
331
B261
  5
B269
331
B262
  5
B26A
331
B263
  5
B26B
331
B264
  5
B26F
331
B265
  5
B270
331
B266
  5
B2B0
331
B267
  5
B2B1
331
B268
  5
B2B2
331
B269
  5
B2B3
331
B26A
  5
B2B4
331
B26B
  5
B2B5
331
B26C
  5
B2B6
331
B26D
  5
B2B8
331
B26E
  5
B2B9
331
B26F
  5
B2BA
331
B270
  5
B2BB
331
B271
  5
B2BC
331
B272
  5
B2BD
331
B273
  5
B2BE
331
B274
  5
B2BF
331
B275
  5
B2C0
331
B276
  5
B2C1
331
B277
  5
B2C2
331
B278
  5
B2C3
331
B279
  5
B2C4
331
B27A
  5
B2C5
331
B27B
  5
AFF1
331
B27C
  5
AFF2
331
B27D
  5
AFF3
331
0
  5
AFF4
331
0
  5
AFF5
331
0
  5
AFF6
331
B281
  5
B001
331
B282
  5
B002
331
B283
  5
B003
331
0
  5
AFFA
331
0
  5
AFFB
331
0
  5
AFFC
331
B287
  5
B276
331
B288
  5
B277
331
B289
  5
B27B
331
0
  5
B25F
331
0
  5
B260
331
0
  5
B261
331
B28D
  5
B284
331
B28E
  5
B285
331
B28F
  5
B286
331
0
  5
B266
331
0
  5
B267
331
0
  5
B268
331
B293
  5
B28E
331
B294
  5
B28F
331
B295
  5
B290
331
0
  5
B26C
331
0
  5
B26D
331
0
  5
B26E
331
B299
  5
B298
331
B29A
  5
B299
331
B29B
  5
B29A
331
0
  5
B272
331
0
  5
B273
331
0
  5
B274
331
B29F
  5
B2A2
331
B2A0
  5
B2A3
331
B2A1
  5
B2A4
331
0
  5
B278
331
0
  5
B279
331
0
  5
B27A
331
B2A5
  5
AFF7
331
B2A6
  5
AFF8
331
B2A7
  5
AFF9
331
B2A8
  5
AFFD
331
B2A9
  5
AFFE
331
B2AA
  5
AFFF
331
B2AB
  5
B000
331
B2AC
  5
B004
331
B2AD
  5
B005
331
B2AE
  5
B006
331
B2AF
  5
B009
331
B2B0
  5
B00B
331
B2B1
  5
B00D
331
B2B2
  5
B00E
331
B2B3
  5
B27C
331
B2B4
  5
B27D
331
B2B5
  5
B27E
331
B2B6
  5
B27F
331
B2B7
  5
B280
331
B2B8
  5
B281
331
B2B9
  5
B282
331
B2BA
  5
B287
331
B2BB
  5
B288
331
B2BC
  5
B289
331
B2BD
  5
B28A
331
B2BE
  5
B28B
331
B2BF
  5
B28C
331
B2C0
  5
B28D
331
B2C1
  5
B291
331
B2C2
  5
B292
331
B2C3
  5
B293
331
B2C4
  5
B294
331
B2C5
  5
B295
331
B2C6
  5
B296
331
B2C7
  5
B297
331
B2C8
  5
B29B
331
B2C9
  5
B29C
331
B2CA
  5
B29D
331
B2CB
  5
B29E
331
B2CC
  5
B29F
331
B2CD
  5
B2A0
331
B2CE
  5
B2A1
331
B2CF
  5
B2A5
331
B2D0
  5
B2A6
331
B2D1
  5
B2A7
331
B2D2
  5
B2A8
331
B2D3
  5
B2A9
331
B2D4
  5
B2AA
331
B2D5
  5
B2AB
  0
MATERIAL
  5
9540
102
{ACAD_REACTORS
330
18C
102
}
102
{ACAD_XDICTIONARY
360
B474
102
}
330
18C
100
AcDbMaterial
  1
BYBLOCK
 72
     0
 73
     2
 43
0.0208333333333333
 43
0.0
 43
0.0
 43
0.0
 43
0.0
 43
0.0208333333333333
 43
0.0
 43
0.0
 43
0.0
 43
0.0
 43
1.0
 43
0.0
 43
0.0
 43
0.0
 43
0.0
 43
1.0
 77
     0
 78
     2
 47
0.0208333333333333
 47
0.0
 47
0.0
 47
0.0
 47
0.0
 47
0.0208333333333333
 47
0.0
 47
0.0
 47
0.0
 47
0.0
 47
1.0
 47
0.0
 47
0.0
 47
0.0
 47
0.0
 47
1.0
171
     0
172
     2
 49
0.0208333333333333
 49
0.0
 49
0.0
 49
0.0
 49
0.0
 49
0.0208333333333333
 49
0.0
 49
0.0
 49
0.0
 49
0.0
 49
1.0
 49
0.0
 49
0.0
 49
0.0
 49
0.0
 49
1.0
175
     0
176
     2
142
0.0208333333333333
142
0.0
142
0.0
142
0.0
142
0.0
142
0.0208333333333333
142
0.0
142
0.0
142
0.0
142
0.0
142
1.0
142
0.0
142
0.0
142
0.0
142
0.0
142
1.0
179
     0
270
     2
144
0.0208333333333333
144
0.0
144
0.0
144
0.0
144
0.0
144
0.0208333333333333
144
0.0
144
0.0
144
0.0
144
0.0
144
1.0
144
0.0
144
0.0
144
0.0
144
0.0
144
1.0
274
     2
147
0.0208333333333333
147
0.0
147
0.0
147
0.0
147
0.0
147
0.0208333333333333
147
0.0
147
0.0
147
0.0
147
0.0
147
1.0
147
0.0
147
0.0
147
0.0
147
0.0
147
1.0
  0
MATERIAL
  5
9538
102
{ACAD_REACTORS
330
18C
102
}
102
{ACAD_XDICTIONARY
360
B476
102
}
330
18C
100
AcDbMaterial
  1
BYLAYER
 72
     0
 73
     2
 43
0.0208333333333333
 43
0.0
 43
0.0
 43
0.0
 43
0.0
 43
0.0208333333333333
 43
0.0
 43
0.0
 43
0.0
 43
0.0
 43
1.0
 43
0.0
 43
0.0
 43
0.0
 43
0.0
 43
1.0
 77
     0
 78
     2
 47
0.0208333333333333
 47
0.0
 47
0.0
 47
0.0
 47
0.0
 47
0.0208333333333333
 47
0.0
 47
0.0
 47
0.0
 47
0.0
 47
1.0
 47
0.0
 47
0.0
 47
0.0
 47
0.0
 47
1.0
171
     0
172
     2
 49
0.0208333333333333
 49
0.0
 49
0.0
 49
0.0
 49
0.0
 49
0.0208333333333333
 49
0.0
 49
0.0
 49
0.0
 49
0.0
 49
1.0
 49
0.0
 49
0.0
 49
0.0
 49
0.0
 49
1.0
175
     0
176
     2
142
0.0208333333333333
142
0.0
142
0.0
142
0.0
142
0.0
142
0.0208333333333333
142
0.0
142
0.0
142
0.0
142
0.0
142
1.0
142
0.0
142
0.0
142
0.0
142
0.0
142
1.0
179
     0
270
     2
144
0.0208333333333333
144
0.0
144
0.0
144
0.0
144
0.0
144
0.0208333333333333
144
0.0
144
0.0
144
0.0
144
0.0
144
1.0
144
0.0
144
0.0
144
0.0
144
0.0
144
1.0
274
     2
147
0.0208333333333333
147
0.0
147
0.0
147
0.0
147
0.0
147
0.0208333333333333
147
0.0
147
0.0
147
0.0
147
0.0
147
1.0
147
0.0
147
0.0
147
0.0
147
0.0
147
1.0
  0
MATERIAL
  5
9548
102
{ACAD_REACTORS
330
18C
102
}
102
{ACAD_XDICTIONARY
360
B478
102
}
330
18C
100
AcDbMaterial
  1
GLOBAL
 72
     0
 73
     2
 43
0.0208333333333333
 43
0.0
 43
0.0
 43
0.0
 43
0.0
 43
0.0208333333333333
 43
0.0
 43
0.0
 43
0.0
 43
0.0
 43
1.0
 43
0.0
 43
0.0
 43
0.0
 43
0.0
 43
1.0
 77
     0
 78
     2
 47
0.0208333333333333
 47
0.0
 47
0.0
 47
0.0
 47
0.0
 47
0.0208333333333333
 47
0.0
 47
0.0
 47
0.0
 47
0.0
 47
1.0
 47
0.0
 47
0.0
 47
0.0
 47
0.0
 47
1.0
171
     0
172
     2
 49
0.0208333333333333
 49
0.0
 49
0.0
 49
0.0
 49
0.0
 49
0.0208333333333333
 49
0.0
 49
0.0
 49
0.0
 49
0.0
 49
1.0
 49
0.0
 49
0.0
 49
0.0
 49
0.0
 49
1.0
175
     0
176
     2
142
0.0208333333333333
142
0.0
142
0.0
142
0.0
142
0.0
142
0.0208333333333333
142
0.0
142
0.0
142
0.0
142
0.0
142
1.0
142
0.0
142
0.0
142
0.0
142
0.0
142
1.0
179
     0
270
     2
144
0.0208333333333333
144
0.0
144
0.0
144
0.0
144
0.0
144
0.0208333333333333
144
0.0
144
0.0
144
0.0
144
0.0
144
1.0
144
0.0
144
0.0
144
0.0
144
0.0
144
1.0
274
     2
147
0.0208333333333333
147
0.0
147
0.0
147
0.0
147
0.0
147
0.0208333333333333
147
0.0
147
0.0
147
0.0
147
0.0
147
1.0
147
0.0
147
0.0
147
0.0
147
0.0
147
1.0
  0
ACAD_PROXY_OBJECT
  5
9584
102
{ACAD_REACTORS
330
9583
102
}
330
9583
100
AcDbZombieObject
 90
      499
 91
      511
 93
      610
310
40901902A4063FBFFFFFE000000000000002040AD7A3703D0AD73F4214DD185B99185C990000000000000104090141901A00000000000004100000000000000041025764000000000000300FC0
340
12
340
0
340
F
340
0
 94
        0
1001
ACAD_MLEADERVER
1070
     2
  0
MLINESTYLE
  5
1C
102
{ACAD_REACTORS
330
1B
102
}
330
1B
100
AcDbMlineStyle
  2
STANDARD
 70
     0
  3

 62
   256
 51
90.0
 52
90.0
 71
     2
 49
0.5
 62
   256
  6
BYLAYER
 49
-0.5
 62
   256
  6
BYLAYER
  0
ACAD_PROXY_OBJECT
  5
9562
102
{ACAD_REACTORS
330
9561
102
}
330
9561
100
AcDbZombieObject
 90
      499
 91
      510
 93
       41
310
903313A31580
  0
ACAD_PROXY_OBJECT
  5
9563
102
{ACAD_REACTORS
330
9561
102
}
330
9561
100
AcDbZombieObject
 90
      499
 91
      510
 93
      105
310
903313A324000000000000004000
  0
ACAD_PROXY_OBJECT
  5
9564
102
{ACAD_REACTORS
330
9561
102
}
330
9561
100
AcDbZombieObject
 90
      499
 91
      510
 93
      105
310
903313A344000000000000104000
  0
ACAD_PROXY_OBJECT
  5
9565
102
{ACAD_REACTORS
330
9561
102
}
330
9561
100
AcDbZombieObject
 90
      499
 91
      510
 93
      105
310
903313A354000000000000144000
  0
ACAD_PROXY_OBJECT
  5
9566
102
{ACAD_REACTORS
330
9561
102
}
330
9561
100
AcDbZombieObject
 90
      499
 91
      510
 93
      105
310
903313A384000000000000204000
  0
ACAD_PROXY_OBJECT
  5
9567
102
{ACAD_REACTORS
330
9561
102
}
330
9561
100
AcDbZombieObject
 90
      499
 91
      510
 93
      113
310
904313A31304000000000000244000
  0
ACAD_PROXY_OBJECT
  5
9568
102
{ACAD_REACTORS
330
9561
102
}
330
9561
100
AcDbZombieObject
 90
      499
 91
      510
 93
      113
310
904313A31364000000000000304000
  0
ACAD_PROXY_OBJECT
  5
9569
102
{ACAD_REACTORS
330
9561
102
}
330
9561
100
AcDbZombieObject
 90
      499
 91
      510
 93
      113
310
904313A32304000000000000344000
  0
ACAD_PROXY_OBJECT
  5
956A
102
{ACAD_REACTORS
330
9561
102
}
330
9561
100
AcDbZombieObject
 90
      499
 91
      510
 93
      113
310
904313A333040000000000003E4000
  0
ACAD_PROXY_OBJECT
  5
956B
102
{ACAD_REACTORS
330
9561
102
}
330
9561
100
AcDbZombieObject
 90
      499
 91
      510
 93
      113
310
904313A34304000000000000444000
  0
ACAD_PROXY_OBJECT
  5
956C
102
{ACAD_REACTORS
330
9561
102
}
330
9561
100
AcDbZombieObject
 90
      499
 91
      510
 93
      113
310
904313A35304000000000000494000
  0
ACAD_PROXY_OBJECT
  5
956D
102
{ACAD_REACTORS
330
9561
102
}
330
9561
100
AcDbZombieObject
 90
      499
 91
      510
 93
      121
310
905313A3130304000000000000594000
  0
ACAD_PROXY_OBJECT
  5
956E
102
{ACAD_REACTORS
330
9561
102
}
330
9561
100
AcDbZombieObject
 90
      499
 91
      510
 93
      105
310
903323A310000000000000010100
  0
ACAD_PROXY_OBJECT
  5
956F
102
{ACAD_REACTORS
330
9561
102
}
330
9561
100
AcDbZombieObject
 90
      499
 91
      510
 93
      105
310
903343A310000000000000410100
  0
ACAD_PROXY_OBJECT
  5
9570
102
{ACAD_REACTORS
330
9561
102
}
330
9561
100
AcDbZombieObject
 90
      499
 91
      510
 93
      105
310
903383A310000000000000810100
  0
ACAD_PROXY_OBJECT
  5
9571
102
{ACAD_REACTORS
330
9561
102
}
330
9561
100
AcDbZombieObject
 90
      499
 91
      510
 93
      113
310
90431303A310000000000000910100
  0
ACAD_PROXY_OBJECT
  5
9572
102
{ACAD_REACTORS
330
9561
102
}
330
9561
100
AcDbZombieObject
 90
      499
 91
      510
 93
      121
310
9053130303A310000000000001650100
  0
ACAD_PROXY_OBJECT
  5
9573
102
{ACAD_REACTORS
330
9561
102
}
330
9561
100
AcDbZombieObject
 90
      499
 91
      510
 93
      257
310
90E312F31323822203D2031272D3022000000000000200FC000000000000284000
  0
ACAD_PROXY_OBJECT
  5
9574
102
{ACAD_REACTORS
330
9561
102
}
330
9561
100
AcDbZombieObject
 90
      499
 91
      510
 93
      249
310
90D312F363422203D2031272D3022000000000000240FC000000000000284000
  0
ACAD_PROXY_OBJECT
  5
9575
102
{ACAD_REACTORS
330
9561
102
}
330
9561
100
AcDbZombieObject
 90
      499
 91
      510
 93
      249
310
90D312F333222203D2031272D3022000000000000280FC000000000000284000
  0
ACAD_PROXY_OBJECT
  5
9576
102
{ACAD_REACTORS
330
9561
102
}
330
9561
100
AcDbZombieObject
 90
      499
 91
      510
 93
      249
310
90D312F313622203D2031272D30220000000000002C0FC000000000000284000
  0
ACAD_PROXY_OBJECT
  5
9577
102
{ACAD_REACTORS
330
9561
102
}
330
9561
100
AcDbZombieObject
 90
      499
 91
      510
 93
      249
310
90D332F333222203D2031272D30220000000000002E0FC000000000000284000
  0
ACAD_PROXY_OBJECT
  5
9578
102
{ACAD_REACTORS
330
9561
102
}
330
9561
100
AcDbZombieObject
 90
      499
 91
      510
 93
      241
310
90C312F3822203D2031272D3022000000000000300FC000000000000284000
  0
ACAD_PROXY_OBJECT
  5
9579
102
{ACAD_REACTORS
330
9561
102
}
330
9561
100
AcDbZombieObject
 90
      499
 91
      510
 93
      249
310
90D332F313622203D2031272D3022000000000000320FC000000000000284000
  0
ACAD_PROXY_OBJECT
  5
957A
102
{ACAD_REACTORS
330
9561
102
}
330
9561
100
AcDbZombieObject
 90
      499
 91
      510
 93
      241
310
90C312F3422203D2031272D3022000000000000340FC000000000000284000
  0
ACAD_PROXY_OBJECT
  5
957B
102
{ACAD_REACTORS
330
9561
102
}
330
9561
100
AcDbZombieObject
 90
      499
 91
      510
 93
      241
310
90C332F3822203D2031272D3022000000000000360FC000000000000284000
  0
ACAD_PROXY_OBJECT
  5
957C
102
{ACAD_REACTORS
330
9561
102
}
330
9561
100
AcDbZombieObject
 90
      499
 91
      510
 93
      241
310
90C312F3222203D2031272D3022000000000000380FC000000000000284000
  0
ACAD_PROXY_OBJECT
  5
957D
102
{ACAD_REACTORS
330
9561
102
}
330
9561
100
AcDbZombieObject
 90
      499
 91
      510
 93
      241
310
90C332F3422203D2031272D30220000000000003A0FC000000000000284000
  0
ACAD_PROXY_OBJECT
  5
957E
102
{ACAD_REACTORS
330
9561
102
}
330
9561
100
AcDbZombieObject
 90
      499
 91
      510
 93
      161
310
90A3122203D2031272D30224000000000000284000
  0
ACAD_PROXY_OBJECT
  5
957F
102
{ACAD_REACTORS
330
9561
102
}
330
9561
100
AcDbZombieObject
 90
      499
 91
      510
 93
      257
310
90E312D312F3222203D2031272D30220000000000003E0FC000000000000284000
  0
ACAD_PROXY_OBJECT
  5
9580
102
{ACAD_REACTORS
330
9561
102
}
330
9561
100
AcDbZombieObject
 90
      499
 91
      510
 93
      225
310
90A3322203D2031272D302200000000000002100000000000000284000
  0
ACAD_PROXY_OBJECT
  5
9581
102
{ACAD_REACTORS
330
9561
102
}
330
9561
100
AcDbZombieObject
 90
      499
 91
      510
 93
      225
310
90A3622203D2031272D302200000000000006100000000000000284000
  0
ACAD_PROXY_OBJECT
  5
9582
102
{ACAD_REACTORS
330
9561
102
}
330
9561
100
AcDbZombieObject
 90
      499
 91
      510
 93
      249
310
90D31272D3022203D2031272D30220000000000000A100000000000000284000
  0
ACAD_PROXY_OBJECT
  5
9556
102
{ACAD_REACTORS
330
9550
102
}
330
9550
100
AcDbZombieObject
 90
      499
 91
      509
 93
      436
310
42CC9915DA5C99599C985B595049028333333333333E3BF0000000000000FB0107901411070040501600405405064090741402480A0340
1001
ACAD
1000
AcDbSavedByObjectVersion
1070
     0
  0
ACAD_PROXY_OBJECT
  5
9558
102
{ACAD_REACTORS
330
9550
102
}
330
9550
100
AcDbZombieObject
 90
      499
 91
      509
 93
      500
310
424CD108121A5919195B90640502408333333333333E3BF0000000000000FB01079024090700405020000000000001110200405405064090740C02480A0340
1001
ACAD
1000
AcDbSavedByObjectVersion
1070
     0
  0
ACAD_PROXY_OBJECT
  5
9557
102
{ACAD_REACTORS
330
9550
102
}
330
9550
100
AcDbZombieObject
 90
      499
 91
      509
 93
      436
310
42CCD915DA5C99599C985B595059028333333333333E3BF0000000000000FB0107901411070040501600405405064090741402480A0340
1001
ACAD
1000
AcDbSavedByObjectVersion
1070
     0
  0
ACAD_PROXY_OBJECT
  5
9555
102
{ACAD_REACTORS
330
9550
102
}
330
9550
100
AcDbZombieObject
 90
      499
 91
      509
 93
      388
310
4150985CDA58D07406404333333333333E3BF0000000000000FB0107A41107004050150841D405064090741402480A0350
1001
ACAD
1000
AcDbSavedByObjectVersion
1070
     0
  0
ACAD_PROXY_OBJECT
  5
955C
102
{ACAD_REACTORS
330
9550
102
}
330
9550
100
AcDbZombieObject
 90
      499
 91
      509
 93
      428
310
42109C9A59DA1D195B90C409028333333333333E3BF0000000000000FB010790141107004050150841D405064090741402480A029950
1001
ACAD
1000
AcDbSavedByObjectVersion
1070
     0
  0
ACAD_PROXY_OBJECT
  5
9560
102
{ACAD_REACTORS
330
9550
102
}
330
9550
100
AcDbZombieObject
 90
      499
 91
      509
 93
      452
310
42D0DBDB1BDC90DA185B99D95104090240C333333333333E3BF0000000000000FB0108901411070040501508421405064090741402480A0350
1001
ACAD
1000
AcDbSavedByObjectVersion
1070
     0
  0
ACAD_PROXY_OBJECT
  5
9559
102
{ACAD_REACTORS
330
9550
102
}
330
9550
100
AcDbZombieObject
 90
      499
 91
      509
 93
      500
310
4290DBDB98D95C1D1D585B10940D028333333333333E3BF0000000000000FB0107902409070040501000000000000111010841D405064090740C02480A0340
1001
ACAD
1000
AcDbSavedByObjectVersion
1070
     0
  0
ACAD_PROXY_OBJECT
  5
955B
102
{ACAD_REACTORS
330
9550
102
}
330
9550
100
AcDbZombieObject
 90
      499
 91
      509
 93
      412
310
40D11A5B50B409028333333333333E3BF0000000000000FB010790141107004050150841D405064090741402480A02677FFFFFD0
1001
ACAD
1000
AcDbSavedByObjectVersion
1070
     0
  0
ACAD_PROXY_OBJECT
  5
A211
102
{ACAD_REACTORS
330
9550
102
}
330
9550
100
AcDbZombieObject
 90
      499
 91
      509
 93
      452
310
43115919D950DBDB1BDC93D999916409028333333333333E3BF0000000000000FB010790141107004050150841D405064090741402480A0350
1001
ACAD
1000
AcDbSavedByObjectVersion
1070
     0
  0
ACAD_PROXY_OBJECT
  5
955F
102
{ACAD_REACTORS
330
9550
102
}
330
9550
100
AcDbZombieObject
 90
      499
 91
      509
 93
      444
310
42D19858D95C185D1D195C9B90F409028333333333333E3BF0000000000000FB010790141107004050150841D405064090741402480A0350
1001
ACAD
1000
AcDbSavedByObjectVersion
1070
     0
  0
ACAD_PROXY_OBJECT
  5
9551
102
{ACAD_REACTORS
330
9550
102
}
330
9550
100
AcDbZombieObject
 90
      499
 91
      509
 93
      388
310
41119B185D240901404333333333333E3BF0000000000000F9010740A41107004050150841D405064090741402480A1B50
1001
ACAD
1000
AcDbSavedByObjectVersion
1070
     0
  0
ACAD_PROXY_OBJECT
  5
9552
102
{ACAD_REACTORS
330
9550
102
}
330
9550
100
AcDbZombieObject
 90
      499
 91
      509
 93
      476
310
43519B185D15DA5D1A115919D95CD0140901404333333333333E3BF0000000000000F9010740901411070040501600405405064090741402480A1B50
1001
ACAD
1000
AcDbSavedByObjectVersion
1070
     0
  0
ACAD_PROXY_OBJECT
  5
9553
102
{ACAD_REACTORS
330
9550
102
}
330
9550
100
AcDbZombieObject
 90
      499
 91
      509
 93
      412
310
41D1DBDD5C985D5910240902404333333333333E3BF0000000000000F9010740A411070040501641D405064090741402480A1B50
1001
ACAD
1000
AcDbSavedByObjectVersion
1070
     0
  0
ACAD_PROXY_OBJECT
  5
9554
102
{ACAD_REACTORS
330
9550
102
}
330
9550
100
AcDbZombieObject
 90
      499
 91
      509
 93
      500
310
4411DBDD5C985D5915DA5D1A115919D95CD0340902404333333333333E3BF0000000000000F9010740901411070040501600405405064090741402480A1B50
1001
ACAD
1000
AcDbSavedByObjectVersion
1070
     0
  0
ACAD_PROXY_OBJECT
  5
A260
102
{ACAD_REACTORS
330
9550
102
}
330
9550
100
AcDbZombieObject
 90
      499
 91
      509
 93
      476
310
41921A5919195B90640502408333333333333E3BF0000000000000FB01079024090700405020000000000001110200405405064090740C02480A0340
1001
ACAD
1000
AcDbSavedByObjectVersion
1070
     0
  0
ACAD_PROXY_OBJECT
  5
A20F
102
{ACAD_REACTORS
330
9550
102
}
330
9550
100
AcDbZombieObject
 90
      499
 91
      509
 93
      428
310
42529A5D1D195C93D999914409028333333333333E3BF0000000000000FB010790141107004050150A41D405064090741402480A0350
1001
ACAD
1000
AcDbSavedByObjectVersion
1070
     0
  0
ACAD_PROXY_OBJECT
  5
955E
102
{ACAD_REACTORS
330
9550
102
}
330
9550
100
AcDbZombieObject
 90
      499
 91
      509
 93
      444
310
42D31A5B995C185D1D195C9B90E409028333333333333E3BF0000000000000FB010790141107004050750841D405064090741402483A0350
1001
ACAD
1000
AcDbSavedByObjectVersion
1070
     0
  0
ACAD_PROXY_OBJECT
  5
A266
102
{ACAD_REACTORS
330
9550
102
}
330
9550
100
AcDbZombieObject
 90
      499
 91
      509
 93
      484
310
42135BD9195B1A5B99D0A409028333333333333E3BF0000000000000F901074090290700405010000000000201990108421405064090741402480A1B40
1001
ACAD
1000
AcDbSavedByObjectVersion
1070
     0
  0
ACAD_PROXY_OBJECT
  5
A210
102
{ACAD_REACTORS
330
9550
102
}
330
9550
100
AcDbZombieObject
 90
      499
 91
      509
 93
      444
310
42D3DD995C9A185B99D3D999915409028333333333333E3BF0000000000000FB010790141107004050150941D405064090741402480A0350
1001
ACAD
1000
AcDbSavedByObjectVersion
1070
     0
  0
ACAD_PROXY_OBJECT
  5
955A
102
{ACAD_REACTORS
330
9550
102
}
330
9550
100
AcDbZombieObject
 90
      499
 91
      509
 93
      420
310
425499585B1A5CDD1A58D08409028333333333333E3BF0000000000000FB01079019070040501508421405064090741402480A1B40
1001
ACAD
1000
AcDbSavedByObjectVersion
1070
     0
  0
ACAD_PROXY_OBJECT
  5
A265
102
{ACAD_REACTORS
330
9550
102
}
330
9550
100
AcDbZombieObject
 90
      499
 91
      509
 93
      420
310
4194DA1859195911B40902404333333333333E3BF0000000000000F9010740A41107004050150800405405064090840C02480A0B40
1001
ACAD
1000
AcDbSavedByObjectVersion
1070
     0
  0
ACAD_PROXY_OBJECT
  5
A264
102
{ACAD_REACTORS
330
9550
102
}
330
9550
100
AcDbZombieObject
 90
      499
 91
      509
 93
      516
310
4454DA18591959081DDA5D1A08195919D95CD1A40902404333333333333E3BF0000000000000F901074090142907004050250800405405064090740C02480A0B40
1001
ACAD
1000
AcDbSavedByObjectVersion
1070
     0
  0
ACAD_PROXY_OBJECT
  5
A261
102
{ACAD_REACTORS
330
9550
102
}
330
9550
100
AcDbZombieObject
 90
      499
 91
      509
 93
      532
310
4394DA1859195CC81BD98811DC985E5174090240C333333333333E3BF0000000000000FB01079024090741D01000000000000111010841D405064090740C02480A0340
1001
ACAD
1000
AcDbSavedByObjectVersion
1070
     0
  0
ACAD_PROXY_OBJECT
  5
A262
102
{ACAD_REACTORS
330
9550
102
}
330
9550
100
AcDbZombieObject
 90
      499
 91
      509
 93
      476
310
41D4DAD95D18DA1E51840502408333333333333E3BF0000000000000FB01079024090741D01000000000000111010B41D405064090741802480A0340
1001
ACAD
1000
AcDbSavedByObjectVersion
1070
     0
  0
ACAD_PROXY_OBJECT
  5
955D
102
{ACAD_REACTORS
330
9550
102
}
330
9550
100
AcDbZombieObject
 90
      499
 91
      509
 93
      412
310
41D51A1A58DAD95B90D409028333333333333E3BF0000000000000FB010790141107004050150C41D405064090741402480A0350
1001
ACAD
1000
AcDbSavedByObjectVersion
1070
     0
  0
ACAD_PROXY_OBJECT
  5
A25F
102
{ACAD_REACTORS
330
9550
102
}
330
9550
100
AcDbZombieObject
 90
      499
 91
      509
 93
      420
310
4255DA5C99599C985B595059028333333333333E3BF0000000000000FB0107901411070040501600405405064090740C02480A0340
1001
ACAD
1000
AcDbSavedByObjectVersion
1070
     0
  0
ACAD_PROXY_OBJECT
  5
A263
102
{ACAD_REACTORS
330
9550
102
}
330
9550
100
AcDbZombieObject
 90
      499
 91
      509
 93
      404
310
41560B54985E51940902404000000000000E03F0000000000000FB010740501907004050150841D405064090740C02480A1B40
1001
ACAD
1000
AcDbSavedByObjectVersion
1070
     0
  0
XRECORD
  5
B2D7
102
{ACAD_REACTORS
330
B2D6
102
}
330
B2D6
100
AcDbXrecord
340
18D
  0
XRECORD
  5
B2D8
102
{ACAD_REACTORS
330
B2D6
102
}
330
B2D6
100
AcDbXrecord
340
18C
  0
DICTIONARYVAR
  5
B113
102
{ACAD_REACTORS
330
37
102
}
330
37
100
DictionaryVariables
280
     0
  1
1:1
  0
DICTIONARYVAR
  5
9627
102
{ACAD_REACTORS
330
37
102
}
330
37
100
DictionaryVariables
280
     0
  1
Standard
  0
DICTIONARYVAR
  5
29E
102
{ACAD_REACTORS
330
37
102
}
330
37
100
DictionaryVariables
280
     0
  1
Standard
  0
DICTIONARYVAR
  5
38
102
{ACAD_REACTORS
330
37
102
}
330
37
100
DictionaryVariables
280
     0
  1
-1
  0
DICTIONARYVAR
  5
1CE
102
{ACAD_REACTORS
330
37
102
}
330
37
100
DictionaryVariables
280
     0
  1
2
  0
DICTIONARYVAR
  5
704E
102
{ACAD_REACTORS
330
37
102
}
330
37
100
DictionaryVariables
280
     0
  1
1
  0
DICTIONARYVAR
  5
962A
102
{ACAD_REACTORS
330
37
102
}
330
37
100
DictionaryVariables
280
     0
  1
0
  0
DICTIONARYVAR
  5
7052
102
{ACAD_REACTORS
330
37
102
}
330
37
100
DictionaryVariables
280
     0
  1
8
  0
DICTIONARYVAR
  5
7051
102
{ACAD_REACTORS
330
37
102
}
330
37
100
DictionaryVariables
280
     0
  1
1
  0
DICTIONARYVAR
  5
AEF1
102
{ACAD_REACTORS
330
37
102
}
330
37
100
DictionaryVariables
280
     0
  1
0
  0
DICTIONARYVAR
  5
AEF2
102
{ACAD_REACTORS
330
37
102
}
330
37
100
DictionaryVariables
280
     0
  1
0
  0
DICTIONARYVAR
  5
AB30
102
{ACAD_REACTORS
330
37
102
}
330
37
100
DictionaryVariables
280
     0
  1
0
  0
DICTIONARYVAR
  5
704F
102
{ACAD_REACTORS
330
37
102
}
330
37
100
DictionaryVariables
280
     0
  1
120
  0
DICTIONARYVAR
  5
7050
102
{ACAD_REACTORS
330
37
102
}
330
37
100
DictionaryVariables
280
     0
  1
0
  0
DICTIONARYVAR
  5
1CF
102
{ACAD_REACTORS
330
37
102
}
330
37
100
DictionaryVariables
280
     0
  1

  0
DICTIONARYVAR
  5
9629
102
{ACAD_REACTORS
330
37
102
}
330
37
100
DictionaryVariables
280
     0
  1
127
  0
DICTIONARYVAR
  5
B0F5
102
{ACAD_REACTORS
330
37
102
}
330
37
100
DictionaryVariables
280
     0
  1
2
  0
DICTIONARY
  5
B474
330
9540
100
AcDbDictionary
  3
ACAD_XREC_ROUNDTRIP
360
B475
1001
ACAD
1000
TREAT_AS_HARD
1070
     1
  0
DICTIONARY
  5
B476
330
9538
100
AcDbDictionary
  3
ACAD_XREC_ROUNDTRIP
360
B477
1001
ACAD
1000
TREAT_AS_HARD
1070
     1
  0
DICTIONARY
  5
B478
330
9548
100
AcDbDictionary
  3
ACAD_XREC_ROUNDTRIP
360
B479
1001
ACAD
1000
TREAT_AS_HARD
1070
     1
  0
XRECORD
  5
B475
102
{ACAD_REACTORS
330
B474
102
}
330
B474
100
AcDbXrecord
102
MATERIAL
148
0.0
149
0.0
149
0.0
 93
        0
 94
      127
282
     0
 72
     0
 77
     0
171
     0
175
     0
179
     0
273
     0
  0
XRECORD
  5
B477
102
{ACAD_REACTORS
330
B476
102
}
330
B476
100
AcDbXrecord
102
MATERIAL
148
0.0
149
0.0
149
0.0
 93
        0
 94
      127
282
     0
 72
     0
 77
     0
171
     0
175
     0
179
     0
273
     0
  0
XRECORD
  5
B479
102
{ACAD_REACTORS
330
B478
102
}
330
B478
100
AcDbXrecord
102
MATERIAL
148
0.0
149
0.0
149
0.0
 93
        0
 94
      127
282
     0
 72
     0
 77
     0
171
     0
175
     0
179
     0
273
     0
  0
ENDSEC
  0
EOF
