  0
SECTION
  2
HEADER
  9
$ACADVER
  1
AC1009
  9
$INSBASE
 10
0.0
 20
0.0
 30
0.0
  9
$EXTMIN
 10
5495.7713999999987
 20
96.012
 30
0.0
  9
$EXTMAX
 10
5772.6997000000001
 20
296.18830000000008
 30
0.0
  9
$LIMMIN
 10
0.0
 20
0.0
  9
$LIMMAX
 10
420.0
 20
297.0
  9
$ORTHOMODE
 70
     0
  9
$REGENMODE
 70
     1
  9
$FILLMODE
 70
     1
  9
$QTEXTMODE
 70
     0
  9
$MIRRTEXT
 70
     0
  9
$DRAGMODE
 70
     2
  9
$LTSCALE
 40
0.5
  9
$OSMODE
 70
  2173
  9
$ATTMODE
 70
     1
  9
$TEXTSIZE
 40
4.0
  9
$TRACEWID
 40
1.0
  9
$TEXTSTYLE
  7
STANDARD
  9
$CLAYER
  8
1TEXT
  9
$CELTYPE
  6
BYLAYER
  9
$CECOLOR
 62
   256
  9
$DIMSCALE
 40
1.0
  9
$DIMASZ
 40
2.0
  9
$DIMEXO
 40
0.0
  9
$DIMDLI
 40
7.0
  9
$DIMRND
 40
0.0
  9
$DIMDLE
 40
0.0
  9
$DIMEXE
 40
1.0
  9
$DIMTP
 40
0.0
  9
$DIMTM
 40
0.0
  9
$DIMTXT
 40
3.5
  9
$DIMCEN
 40
0.0
  9
$DIMTSZ
 40
0.0
  9
$DIMTOL
 70
     0
  9
$DIMLIM
 70
     0
  9
$DIMTIH
 70
     0
  9
$DIMTOH
 70
     0
  9
$DIMSE1
 70
     0
  9
$DIMSE2
 70
     0
  9
$DIMTAD
 70
     1
  9
$DIMZIN
 70
     8
  9
$DIMBLK
  1

  9
$DIMASO
 70
     1
  9
$DIMSHO
 70
     1
  9
$DIMPOST
  1
 
  9
$DIMAPOST
  1

  9
$DIMALT
 70
     0
  9
$DIMALTD
 70
     2
  9
$DIMALTF
 40
25.399999999999999
  9
$DIMLFAC
 40
1.0
  9
$DIMTOFL
 70
     1
  9
$DIMTVP
 40
0.0
  9
$DIMTIX
 70
     0
  9
$DIMSOXD
 70
     0
  9
$DIMSAH
 70
     1
  9
$DIMBLK1
  1
OPEN30
  9
$DIMBLK2
  1
OPEN30
  9
$DIMSTYLE
  2
NEWX10
  9
$DIMCLRD
 70
   256
  9
$DIMCLRE
 70
   256
  9
$DIMCLRT
 70
   201
  9
$DIMTFAC
 40
0.7
  9
$DIMGAP
 40
0.7
  9
$LUNITS
 70
     2
  9
$LUPREC
 70
     4
  9
$SKETCHINC
 40
1.0
  9
$FILLETRAD
 40
1.0
  9
$AUNITS
 70
     0
  9
$AUPREC
 70
     2
  9
$MENU
  1
acad
  9
$ELEVATION
 40
0.0
  9
$PELEVATION
 40
0.0
  9
$THICKNESS
 40
0.0
  9
$LIMCHECK
 70
     0
  9
$BLIPMODE
 70
     0
  9
$CHAMFERA
 40
10.0
  9
$CHAMFERB
 40
10.0
  9
$SKPOLY
 70
     0
  9
$TDCREATE
 40
2451318.6214000001
  9
$TDUPDATE
 40
2453410.4733130792
  9
$TDINDWG
 40
0.5399182639
  9
$TDUSRTIMER
 40
0.5399182639
  9
$USRTIMER
 70
     1
  9
$ANGBASE
 50
0.0
  9
$ANGDIR
 70
     0
  9
$PDMODE
 70
     0
  9
$PDSIZE
 40
0.0
  9
$PLINEWID
 40
0.0
  9
$COORDS
 70
     2
  9
$SPLFRAME
 70
     0
  9
$SPLINETYPE
 70
     6
  9
$SPLINESEGS
 70
     8
  9
$ATTDIA
 70
     0
  9
$ATTREQ
 70
     1
  9
$HANDLING
 70
     1
  9
$HANDSEED
  5
BC25
  9
$SURFTAB1
 70
     6
  9
$SURFTAB2
 70
     6
  9
$SURFTYPE
 70
     6
  9
$SURFU
 70
     6
  9
$SURFV
 70
     6
  9
$UCSNAME
  2

  9
$UCSORG
 10
0.0
 20
0.0
 30
0.0
  9
$UCSXDIR
 10
1.0
 20
0.0
 30
0.0
  9
$UCSYDIR
 10
0.0
 20
1.0
 30
0.0
  9
$PUCSNAME
  2

  9
$PUCSORG
 10
0.0
 20
0.0
 30
0.0
  9
$PUCSXDIR
 10
1.0
 20
0.0
 30
0.0
  9
$PUCSYDIR
 10
0.0
 20
1.0
 30
0.0
  9
$USERI1
 70
     0
  9
$USERI2
 70
     0
  9
$USERI3
 70
     0
  9
$USERI4
 70
     0
  9
$USERI5
 70
     0
  9
$USERR1
 40
0.0
  9
$USERR2
 40
0.0
  9
$USERR3
 40
0.0
  9
$USERR4
 40
0.0
  9
$USERR5
 40
0.0
  9
$WORLDVIEW
 70
     1
  9
$SHADEDGE
 70
     3
  9
$SHADEDIF
 70
    70
  9
$TILEMODE
 70
     1
  9
$MAXACTVP
 70
    48
  9
$PLIMCHECK
 70
     0
  9
$PEXTMIN
 10
1.0000000000000000E+020
 20
1.0000000000000000E+020
 30
1.0000000000000000E+020
  9
$PEXTMAX
 10
-1.0000000000000000E+020
 20
-1.0000000000000000E+020
 30
-1.0000000000000000E+020
  9
$PLIMMIN
 10
0.0
 20
0.0
  9
$PLIMMAX
 10
420.0
 20
297.0
  9
$UNITMODE
 70
     0
  9
$VISRETAIN
 70
     1
  9
$PLINEGEN
 70
     0
  9
$PSLTSCALE
 70
     1
  0
ENDSEC
  0
SECTION
  2
TABLES
  0
TABLE
  2
VPORT
 70
     4
  0
VPORT
  2
*ACTIVE
 70
     0
 10
0.0
 20
0.0
 11
1.0
 21
1.0
 12
5634.3149151949656
 22
196.09586408920109
 13
0.0
 23
0.0
 14
10.0
 24
10.0
 15
10.0
 25
10.0
 16
0.0
 26
0.0
 36
1.0
 17
0.0
 27
0.0
 37
0.0
 40
212.37144012964399
 41
1.453246753246753
 42
50.0
 43
0.0
 44
0.0
 50
0.0
 51
0.0
 71
     0
 72
   100
 73
     1
 74
     1
 75
     0
 76
     0
 77
     0
 78
     0
  0
ENDTAB
  0
TABLE
  2
LTYPE
 70
     6
  0
LTYPE
  2
CONTINUOUS
 70
     0
  3
Solid line
 72
    65
 73
     0
 40
0.0
  0
LTYPE
  2
HIDDEN
 70
     0
  3
Hidden __ __ __ __ __ __ __ __ __ __ __ __ __ _
 72
    65
 73
     2
 40
9.5250000000000004
 49
6.3499999999999988
 49
-3.1749999999999989
  0
LTYPE
  2
PHANTOM2
 70
     0
  3
Phantom (.5x) ___ _ _ ___ _ _ ___ _ _ ___ _ _
 72
    65
 73
     6
 40
31.75
 49
15.875
 49
-3.1749999999999989
 49
3.1749999999999989
 49
-3.1749999999999989
 49
3.1749999999999989
 49
-3.1749999999999989
  0
LTYPE
  2
CENTER2
 70
     0
  3
Center (.5x) ___ _ ___ _ ___ _ ___ _ ___ _ ___
 72
    65
 73
     4
 40
28.574999999999999
 49
19.050000000000001
 49
-3.1749999999999989
 49
3.1749999999999989
 49
-3.1749999999999989
  0
ENDTAB
  0
TABLE
  2
LAYER
 70
    13
  0
LAYER
  2
0
 70
     0
 62
     7
  6
CONTINUOUS
  0
LAYER
  2
1TEXT
 70
     0
 62
     7
  6
CONTINUOUS
  0
LAYER
  2
1CENTER
 70
     0
 62
     7
  6
CENTER2
  0
LAYER
  2
01
 70
     0
 62
     1
  6
CONTINUOUS
  0
LAYER
  2
1DIM
 70
     0
 62
     7
  6
CONTINUOUS
  0
LAYER
  2
1HIDDEN
 70
     0
 62
     7
  6
HIDDEN
  0
LAYER
  2
1PHANTOM
 70
     0
 62
     7
  6
PHANTOM2
  0
ENDTAB
  0
TABLE
  2
STYLE
 70
     1
  0
STYLE
  2
STANDARD
 70
     0
 40
0.0
 41
1.0
 50
0.0
 71
     0
 42
4.0
  3
txt.shx
  4
extfont.shx
  0
ENDTAB
  0
TABLE
  2
VIEW
 70
     0
  0
ENDTAB
  0
TABLE
  2
UCS
 70
     0
  0
ENDTAB
  0
TABLE
  2
APPID
 70
     8
  0
APPID
  2
ACAD
 70
     0
  0
APPID
  2
DRAWINGVARIABLESXDATA
 70
     0
  0
APPID
  2
CONTENTTABDATA
 70
     0
  0
APPID
  2
CONTENTCURRENTTAB
 70
     0
  0
APPID
  2
CONTENTBLOCKDESCRIPTION
 70
     0
  0
APPID
  2
CONTENTBLOCKICON
 70
     0
  0
APPID
  2
CONTENTLONGBLOCKNAME
 70
     0
  0
APPID
  2
ACAD_PSEXT
 70
     0
  0
ENDTAB
  0
TABLE
  2
DIMSTYLE
 70
     1
  0
DIMSTYLE
  2
NEWX10
 70
     0
  3
 
  4

  5

  6

  7

 40
1.0
 41
2.0
 42
0.0
 43
7.0
 44
1.0
 45
0.0
 46
0.0
 47
0.0
 48
0.0
140
3.5
141
0.0
142
0.0
143
25.399999999999999
144
1.0
145
0.0
146
0.7
147
0.7
 71
     0
 72
     0
 73
     0
 74
     0
 75
     0
 76
     0
 77
     1
 78
     8
170
     0
171
     2
172
     1
173
     1
174
     0
175
     0
176
   256
177
   256
178
   201
  0
ENDTAB
  0
ENDSEC
  0
SECTION
  2
BLOCKS
  0
BLOCK
  8
0
  2
$MODEL_SPACE
 70
     0
 10
0.0
 20
0.0
 30
0.0
  3
$MODEL_SPACE
  1

  0
ENDBLK
  5
BBDB
  8
0
  0
BLOCK
 67
     1
  8
0
  2
$PAPER_SPACE
 70
     0
 10
0.0
 20
0.0
 30
0.0
  3
$PAPER_SPACE
  1

  0
ENDBLK
  5
BBD7
 67
     1
  8
0
  0
BLOCK
  8
0
  2
_OPEN30
 70
     0
 10
0.0
 20
0.0
 30
0.0
  3
_OPEN30
  1

  0
LINE
  5
44
  8
0
  6
BYBLOCK
 62
     0
 10
-1.0
 20
0.2679
 30
0.0
 11
0.0
 21
0.0
 31
0.0
  0
LINE
  5
45
  8
0
  6
BYBLOCK
 62
     0
 10
0.0
 20
0.0
 30
0.0
 11
-1.0
 21
-0.2679
 31
0.0
  0
LINE
  5
46
  8
0
  6
BYBLOCK
 62
     0
 10
0.0
 20
0.0
 30
0.0
 11
-1.0
 21
0.0
 31
0.0
  0
ENDBLK
  5
47
  8
0
  0
ENDSEC
  0
SECTION
  2
ENTITIES
  0
LINE
  5
A4A6
  8
1CENTER
 10
5647.899699999999
 20
130.1883
 30
0.0
 11
5647.899699999999
 21
142.1883
 31
0.0
  0
LINE
  5
A4A7
  8
1CENTER
 10
5641.899699999999
 20
136.1883
 30
0.0
 11
5653.8996999999999
 21
136.1883
 31
0.0
  0
LINE
  5
A4AA
  8
01
 10
5607.8996999999999
 20
286.18830000000003
 30
0.0
 11
5702.8996999999999
 21
286.18830000000003
 31
0.0
  0
LINE
  5
A4AB
  8
01
 10
5497.8996999999999
 20
176.3646
 30
0.0
 11
5497.8996999999999
 21
96.012
 31
0.0
  0
LINE
  5
A4B7
  8
1CENTER
 10
5631.8996999999999
 20
268.18830000000003
 30
0.0
 11
5639.8996999999999
 21
268.18830000000003
 31
0.0
  0
ARC
  5
A4C5
  8
01
 10
5502.8996999999999
 20
157.6883
 30
0.0
 40
5.0
 50
0.0
 51
90.0
  0
LINE
  5
A4C6
  8
01
 10
5497.8996999999999
 20
162.6883
 30
0.0
 11
5497.8996999999999
 21
109.6883
 31
0.0
  0
LINE
  5
A4C7
  8
01
 10
5507.8996999999999
 20
114.6883
 30
0.0
 11
5507.8996999999999
 21
157.6883
 31
0.0
  0
LINE
  5
A4C8
  8
01
 10
5497.8996999999999
 20
162.6883
 30
0.0
 11
5502.8996999999999
 21
162.6883
 31
0.0
  0
ARC
  5
A4C9
  8
01
 10
5502.8996999999999
 20
114.6883
 30
0.0
 40
5.0
 50
270.0
 51
0.0
  0
LINE
  5
A4CA
  8
01
 10
5497.8996999999999
 20
109.6883
 30
0.0
 11
5502.8996999999999
 21
109.6883
 31
0.0
  0
LINE
  5
A4CB
  8
1CENTER
 10
5647.899699999999
 20
288.31659999999999
 30
0.0
 11
5647.899699999999
 21
265.68830000000003
 31
0.0
  0
ARC
  5
A4CC
  8
01
 10
5626.3996999999999
 20
281.18830000000003
 30
0.0
 40
5.0
 50
180.0
 51
270.0
  0
LINE
  5
A4CD
  8
01
 10
5621.3996999999999
 20
286.18830000000003
 30
0.0
 11
5674.3996999999999
 21
286.18830000000003
 31
0.0
  0
LINE
  5
A4CE
  8
01
 10
5669.3996999999999
 20
276.18830000000003
 30
0.0
 11
5626.3996999999999
 21
276.18830000000003
 31
0.0
  0
LINE
  5
A4CF
  8
01
 10
5621.3996999999999
 20
286.18830000000003
 30
0.0
 11
5621.3996999999999
 21
281.18830000000003
 31
0.0
  0
ARC
  5
A4D0
  8
01
 10
5669.3996999999999
 20
281.18830000000003
 30
0.0
 40
5.0
 50
270.0
 51
0.0
  0
LINE
  5
A4D1
  8
01
 10
5674.3996999999999
 20
286.18830000000003
 30
0.0
 11
5674.3996999999999
 21
281.18830000000003
 31
0.0
  0
POINT
  5
A4F2
  8
01
 10
5515.8996999999999
 20
136.1883
 30
0.0
  0
LINE
  5
A4F3
  8
01
 10
5515.4997000000003
 20
134.4383
 30
0.0
 11
5515.4997000000003
 21
135.28829999999999
 31
0.0
  0
LINE
  5
A4F4
  8
01
 10
5516.2996999999996
 20
134.4383
 30
0.0
 11
5516.2996999999996
 21
135.28829999999999
 31
0.0
  0
LINE
  5
A4F5
  8
01
 10
5514.9997000000003
 20
135.78829999999999
 30
0.0
 11
5514.1496999999999
 21
135.78829999999999
 31
0.0
  0
LINE
  5
A4F6
  8
01
 10
5514.9997000000003
 20
136.5883
 30
0.0
 11
5514.1496999999999
 21
136.5883
 31
0.0
  0
LINE
  5
A4F7
  8
01
 10
5514.1496999999999
 20
135.78829999999999
 30
0.0
 11
5514.1496999999999
 21
136.5883
 31
0.0
  0
LINE
  5
A4F8
  8
01
 10
5516.2996999999996
 20
134.4383
 30
0.0
 11
5515.4997000000003
 21
134.4383
 31
0.0
  0
LINE
  5
A4F9
  8
01
 10
5516.2996999999996
 20
137.9383
 30
0.0
 11
5516.2996999999996
 21
137.0883
 31
0.0
  0
LINE
  5
A4FA
  8
01
 10
5515.4997000000003
 20
137.9383
 30
0.0
 11
5515.4997000000003
 21
137.0883
 31
0.0
  0
LINE
  5
A4FB
  8
01
 10
5516.7996999999987
 20
136.5883
 30
0.0
 11
5517.649699999999
 21
136.5883
 31
0.0
  0
LINE
  5
A4FC
  8
01
 10
5516.7996999999987
 20
135.78829999999999
 30
0.0
 11
5517.649699999999
 21
135.78829999999999
 31
0.0
  0
LINE
  5
A4FD
  8
01
 10
5517.649699999999
 20
136.5883
 30
0.0
 11
5517.649699999999
 21
135.78829999999999
 31
0.0
  0
LINE
  5
A4FE
  8
01
 10
5515.4997000000003
 20
137.9383
 30
0.0
 11
5516.2996999999996
 21
137.9383
 31
0.0
  0
CIRCLE
  5
A4FF
  8
01
 10
5515.8996999999999
 20
136.1883
 30
0.0
 40
2.5
  0
ARC
  5
A500
  8
01
 10
5516.7996999999987
 20
137.0883
 30
0.0
 40
0.5
 50
180.0
 51
270.0
  0
ARC
  5
A501
  8
01
 10
5516.7996999999987
 20
135.28829999999999
 30
0.0
 40
0.5
 50
90.0
 51
180.0
  0
ARC
  5
A502
  8
01
 10
5514.9997000000003
 20
135.28829999999999
 30
0.0
 40
0.5
 50
0.0
 51
90.0
  0
ARC
  5
A503
  8
01
 10
5514.9997000000003
 20
137.0883
 30
0.0
 40
0.5
 50
270.0
 51
0.0
  0
TEXT
  5
A548
  8
1TEXT
 10
5497.8996999999999
 20
286.18830000000003
 30
0.0
 40
10.0
  1
P8C
 41
1.0172000000000001
  0
ARC
  5
A655
  8
01
 10
5647.899699999999
 20
136.1883
 30
0.0
 40
26.5
 50
139.00059999999999
 51
220.99940000000001
  0
ARC
  5
B793
  8
01
 10
5731.6496999999999
 20
226.97829999999999
 30
0.0
 40
1.5
 50
270.0
 51
0.0
  0
LINE
  5
B794
  8
01
 10
5629.3996999999999
 20
242.07830000000001
 30
0.0
 11
5734.899699999999
 21
242.07830000000001
 31
0.0
  0
LINE
  5
B795
  8
01
 10
5644.6496999999999
 20
225.47829999999999
 30
0.0
 11
5731.6496999999999
 21
225.47829999999999
 31
0.0
  0
ARC
  5
B796
  8
01
 10
5632.8996999999999
 20
245.07830000000001
 30
0.0
 40
3.0
 50
270.0
 51
0.0
  0
LINE
  5
B797
  8
01
 10
5627.8996999999999
 20
240.57830000000001
 30
0.0
 11
5627.8996999999999
 21
230.57830000000001
 31
0.0
  0
ARC
  5
B798
  8
01
 10
5629.3996999999999
 20
230.57830000000001
 30
0.0
 40
1.5
 50
180.0
 51
270.0
  0
ARC
  5
B799
  8
01
 10
5629.3996999999999
 20
240.57830000000001
 30
0.0
 40
1.5
 50
90.0
 51
180.0
  0
LINE
  5
B79A
  8
01
 10
5635.8996999999999
 20
245.07830000000001
 30
0.0
 11
5635.8996999999999
 21
274.67829999999998
 31
0.0
  0
LINE
  5
B79B
  8
01
 10
5659.8996999999999
 20
245.07830000000001
 30
0.0
 11
5659.8996999999999
 21
274.67829999999998
 31
0.0
  0
LINE
  5
B79C
  8
01
 10
5643.1496999999999
 20
226.97829999999999
 30
0.0
 11
5643.1496999999999
 21
229.07830000000001
 31
0.0
  0
ARC
  5
B79D
  8
01
 10
5644.6496999999999
 20
226.97829999999999
 30
0.0
 40
1.5
 50
180.0
 51
270.0
  0
ARC
  5
B79E
  8
01
 10
5662.8996999999999
 20
245.07830000000001
 30
0.0
 40
3.0
 50
180.0
 51
270.0
  0
ARC
  5
B79F
  8
01
 10
5647.899699999999
 20
283.67829999999998
 30
0.0
 40
15.0
 50
323.13010000000003
 51
330.0
  0
LINE
  5
B7A0
  8
01
 10
5736.399699999999
 20
240.57830000000001
 30
0.0
 11
5736.399699999999
 21
230.57830000000001
 31
0.0
  0
ARC
  5
B7A1
  8
01
 10
5734.899699999999
 20
230.57830000000001
 30
0.0
 40
1.5
 50
270.0
 51
0.0
  0
LINE
  5
B7A2
  8
01
 10
5629.3996999999999
 20
229.07830000000001
 30
0.0
 11
5734.899699999999
 21
229.07830000000001
 31
0.0
  0
ARC
  5
B7A3
  8
01
 10
5734.899699999999
 20
240.57830000000001
 30
0.0
 40
1.5
 50
0.0
 51
90.0
  0
LINE
  5
B7A4
  8
01
 10
5733.1496999999999
 20
226.97829999999999
 30
0.0
 11
5733.1496999999999
 21
229.07830000000001
 31
0.0
  0
LINE
  5
B7BC
  8
01
 10
5644.3997000000008
 20
161.1883
 30
0.0
 11
5731.8996999999999
 21
161.1883
 31
0.0
  0
LINE
  5
B7BD
  8
01
 10
5629.3996999999999
 20
164.1883
 30
0.0
 11
5734.899699999999
 21
164.1883
 31
0.0
  0
ARC
  5
B7BE
  8
01
 10
5734.899699999999
 20
162.6883
 30
0.0
 40
1.5
 50
0.0
 51
90.0
  0
LINE
  5
B7BF
  8
01
 10
5733.3996999999999
 20
159.6883
 30
0.0
 11
5733.3996999999999
 21
112.6883
 31
0.0
  0
LINE
  5
B7C0
  8
01
 10
5736.399699999999
 20
162.6883
 30
0.0
 11
5736.399699999999
 21
109.6883
 31
0.0
  0
ARC
  5
B7C1
  8
01
 10
5731.8996999999999
 20
159.6883
 30
0.0
 40
1.5
 50
0.0
 51
90.0
  0
LINE
  5
B7C2
  8
01
 10
5644.3997000000008
 20
111.1883
 30
0.0
 11
5731.8996999999999
 21
111.1883
 31
0.0
  0
LINE
  5
B7C3
  8
01
 10
5629.3996999999999
 20
108.1883
 30
0.0
 11
5734.899699999999
 21
108.1883
 31
0.0
  0
ARC
  5
B7C4
  8
01
 10
5734.899699999999
 20
109.6883
 30
0.0
 40
1.5
 50
270.0
 51
0.0
  0
ARC
  5
B7C5
  8
01
 10
5731.8996999999999
 20
112.6883
 30
0.0
 40
1.5
 50
270.0
 51
0.0
  0
LINE
  5
B7C6
  8
01
 10
5627.8996999999999
 20
162.6883
 30
0.0
 11
5627.8996999999999
 21
109.6883
 31
0.0
  0
ARC
  5
B7C7
  8
01
 10
5629.3996999999999
 20
109.6883
 30
0.0
 40
1.5
 50
180.0
 51
270.0
  0
ARC
  5
B7C8
  8
01
 10
5644.3997000000008
 20
112.6883
 30
0.0
 40
1.5
 50
180.0
 51
270.0
  0
LINE
  5
B7C9
  8
01
 10
5642.8996999999999
 20
159.6883
 30
0.0
 11
5642.8996999999999
 21
112.6883
 31
0.0
  0
ARC
  5
B7CA
  8
01
 10
5629.3996999999999
 20
162.6883
 30
0.0
 40
1.5
 50
90.0
 51
180.0
  0
ARC
  5
B7CB
  8
01
 10
5644.3997000000008
 20
159.6883
 30
0.0
 40
1.5
 50
90.0
 51
180.0
  0
ARC
  5
B7CC
  8
01
 10
5538.9997000000003
 20
151.1883
 30
0.0
 40
3.0
 50
270.0
 51
0.0
  0
LINE
  5
B7CD
  8
01
 10
5538.9997000000003
 20
148.1883
 30
0.0
 11
5509.3996999999999
 21
148.1883
 31
0.0
  0
ARC
  5
B7CE
  8
01
 10
5557.0996999999998
 20
159.6883
 30
0.0
 40
1.5
 50
0.0
 51
90.0
  0
ARC
  5
B7CF
  8
01
 10
5553.4997000000003
 20
162.6883
 30
0.0
 40
1.5
 50
0.0
 51
90.0
  0
LINE
  5
B7D0
  8
01
 10
5554.9997000000003
 20
161.1883
 30
0.0
 11
5557.0996999999998
 21
161.1883
 31
0.0
  0
LINE
  5
B7D1
  8
01
 10
5554.9997000000003
 20
162.6883
 30
0.0
 11
5554.9997000000003
 21
109.6883
 31
0.0
  0
ARC
  5
B7D2
  8
01
 10
5543.4997000000003
 20
162.6883
 30
0.0
 40
1.5
 50
90.0
 51
180.0
  0
LINE
  5
B7D3
  8
01
 10
5541.9997000000003
 20
162.6883
 30
0.0
 11
5541.9997000000003
 21
109.6883
 31
0.0
  0
LINE
  5
B7D4
  8
01
 10
5543.4997000000003
 20
164.1883
 30
0.0
 11
5553.4997000000003
 21
164.1883
 31
0.0
  0
LINE
  5
B7D5
  8
01
 10
5558.5996999999998
 20
159.6883
 30
0.0
 11
5558.5996999999998
 21
112.6883
 31
0.0
  0
ARC
  5
B7D6
  8
01
 10
5538.9997000000003
 20
121.1883
 30
0.0
 40
3.0
 50
0.0
 51
90.0
  0
LINE
  5
B7D7
  8
01
 10
5538.9997000000003
 20
124.1883
 30
0.0
 11
5509.3996999999999
 21
124.1883
 31
0.0
  0
ARC
  5
B7D8
  8
01
 10
5557.0996999999998
 20
112.6883
 30
0.0
 40
1.5
 50
270.0
 51
0.0
  0
LINE
  5
B7D9
  8
01
 10
5554.9997000000003
 20
111.1883
 30
0.0
 11
5557.0996999999998
 21
111.1883
 31
0.0
  0
ARC
  5
B7DA
  8
01
 10
5553.4997000000003
 20
109.6883
 30
0.0
 40
1.5
 50
270.0
 51
0.0
  0
ARC
  5
B7DB
  8
01
 10
5543.4997000000003
 20
109.6883
 30
0.0
 40
1.5
 50
180.0
 51
270.0
  0
LINE
  5
B7DC
  8
01
 10
5543.4997000000003
 20
108.1883
 30
0.0
 11
5553.4997000000003
 21
108.1883
 31
0.0
  0
ARC
  5
B7DD
  8
01
 10
5500.3996999999999
 20
136.1883
 30
0.0
 40
15.0
 50
53.130099999999992
 51
60.0
  0
ARC
  5
B7DE
  8
01
 10
5500.3996999999999
 20
136.1883
 30
0.0
 40
15.0
 50
300.0
 51
306.86989999999997
  0
LINE
  5
B7E0
  8
1PHANTOM
 10
5658.8261000000002
 20
226.42089999999999
 30
0.0
 11
5743.2417999999989
 21
247.46809999999999
 31
0.0
  0
LINE
  5
B7E1
  8
1PHANTOM
 10
5643.1581999999999
 20
226.22460000000001
 30
0.0
 11
5745.5244000000002
 21
251.7474
 31
0.0
  0
LINE
  5
B7E2
  8
1PHANTOM
 10
5672.5181000000011
 20
246.94290000000001
 30
0.0
 11
5742.3793999999998
 21
264.3612
 31
0.0
  0
LINE
  5
B7E3
  8
1PHANTOM
 10
5657.0078000000003
 20
227.51339999999999
 30
0.0
 11
5656.4997000000012
 21
229.55109999999999
 31
0.0
  0
ARC
  5
B7E4
  8
1PHANTOM
 10
5642.6833999999999
 20
242.59610000000001
 30
0.0
 40
3.0
 50
284.0
 51
14.0
  0
ARC
  5
B7E5
  8
1PHANTOM
 10
5658.4631999999992
 20
227.87629999999999
 30
0.0
 40
1.5
 50
194.0
 51
284.0
  0
LINE
  5
B7E6
  8
1PHANTOM
 10
5638.9206000000004
 20
237.02019999999999
 30
0.0
 11
5641.3397999999997
 21
227.31720000000001
 31
0.0
  0
ARC
  5
B7E7
  8
1PHANTOM
 10
5642.7952999999998
 20
227.68010000000001
 30
0.0
 40
1.5
 50
194.0
 51
284.0
  0
ARC
  5
B7E8
  8
1PHANTOM
 10
5640.3761000000013
 20
237.38300000000001
 30
0.0
 40
1.5
 50
104.0
 51
194.0
  0
LINE
  5
B7E9
  8
1PHANTOM
 10
5640.0132000000012
 20
238.83850000000001
 30
0.0
 11
5643.4092000000001
 21
239.68520000000001
 31
0.0
  0
LINE
  5
B7EA
  8
1PHANTOM
 10
5645.5942999999988
 20
243.3219
 30
0.0
 11
5638.4333999999999
 21
272.04259999999999
 31
0.0
  0
ARC
  5
B7EB
  8
1PHANTOM
 10
5647.899699999999
 20
283.67829999999998
 30
0.0
 40
15.0
 50
212.79689999999999
 51
230.8699
  0
ARC
  5
B7EC
  8
1PHANTOM
 10
5671.7922999999992
 20
249.8537
 30
0.0
 40
3.0
 50
194.0
 51
284.0
  0
LINE
  5
B7ED
  8
1PHANTOM
 10
5668.8814000000002
 20
249.12799999999999
 30
0.0
 11
5662.1369999999997
 21
276.17829999999998
 31
0.0
  0
ARC
  5
B7EE
  8
1PHANTOM
 10
5745.1615000000002
 20
253.2028
 30
0.0
 40
1.5
 50
284.0
 51
14.0
  0
ARC
  5
B7EF
  8
1PHANTOM
 10
5742.742299999999
 20
262.9058
 30
0.0
 40
1.5
 50
14.0
 51
104.0
  0
ARC
  5
B7F0
  8
1PHANTOM
 10
5742.8788999999997
 20
248.92349999999999
 30
0.0
 40
1.5
 50
284.0
 51
14.0
  0
LINE
  5
B7F1
  8
1PHANTOM
 10
5744.3343999999988
 20
249.28639999999999
 30
0.0
 11
5743.8263999999999
 21
251.32400000000001
 31
0.0
  0
LINE
  5
B7F2
  8
1PHANTOM
 10
5744.1976999999997
 20
263.26870000000002
 30
0.0
 11
5746.6169
 21
253.56569999999999
 31
0.0
  0
LINE
  5
B7F3
  8
1PHANTOM
 10
5630.6664000000001
 20
227.99340000000001
 30
0.0
 11
5715.0820999999996
 21
206.9462
 31
0.0
  0
LINE
  5
B7F4
  8
1PHANTOM
 10
5616.7403000000004
 20
235.17570000000001
 30
0.0
 11
5719.1064999999999
 21
209.65299999999999
 31
0.0
  0
LINE
  5
B7F5
  8
1PHANTOM
 10
5652.3901999999998
 20
239.68520000000001
 30
0.0
 11
5722.2515000000003
 21
222.26679999999999
 31
0.0
  0
LINE
  5
B7F6
  8
1PHANTOM
 10
5619.885299999999
 20
247.78960000000001
 30
0.0
 11
5623.2812999999996
 21
246.94290000000001
 31
0.0
  0
LINE
  5
B7F7
  8
1PHANTOM
 10
5618.0669999999991
 20
246.697
 30
0.0
 11
5615.6477000000004
 21
236.9941
 31
0.0
  0
ARC
  5
B7F8
  8
1PHANTOM
 10
5617.1031999999987
 20
236.63120000000001
 30
0.0
 40
1.5
 50
166.0
 51
256.0
  0
ARC
  5
B7F9
  8
1PHANTOM
 10
5619.5223999999998
 20
246.33410000000001
 30
0.0
 40
1.5
 50
76.0
 51
166.0
  0
LINE
  5
B7FA
  8
1PHANTOM
 10
5650.2051000000001
 20
243.3219
 30
0.0
 11
5657.3658999999998
 21
272.04259999999999
 31
0.0
  0
LINE
  5
B7FB
  8
1PHANTOM
 10
5626.9179999999997
 20
249.12799999999999
 30
0.0
 11
5633.6624000000002
 21
276.17829999999998
 31
0.0
  0
LINE
  5
B7FC
  8
1PHANTOM
 10
5629.5738000000001
 20
229.8117
 30
0.0
 11
5630.0819000000001
 21
231.8493
 31
0.0
  0
ARC
  5
B7FD
  8
1PHANTOM
 10
5624.0070999999998
 20
249.8537
 30
0.0
 40
3.0
 50
256.0
 51
346.0
  0
ARC
  5
B7FE
  8
1PHANTOM
 10
5631.0293000000001
 20
229.44880000000001
 30
0.0
 40
1.5
 50
166.0
 51
256.0
  0
ARC
  5
B7FF
  8
1PHANTOM
 10
5653.1158999999998
 20
242.59610000000001
 30
0.0
 40
3.0
 50
166.0
 51
256.0
  0
ARC
  5
B800
  8
1PHANTOM
 10
5647.899699999999
 20
283.67829999999998
 30
0.0
 40
15.0
 50
309.13010000000003
 51
327.20310000000001
  0
LINE
  5
B801
  8
1PHANTOM
 10
5723.3441000000012
 20
220.4485
 30
0.0
 11
5720.9247999999998
 21
210.74549999999999
 31
0.0
  0
ARC
  5
B802
  8
1PHANTOM
 10
5715.4449999999988
 20
208.4016
 30
0.0
 40
1.5
 50
256.0
 51
346.0
  0
LINE
  5
B803
  8
1PHANTOM
 10
5716.9004999999997
 20
208.03870000000001
 30
0.0
 11
5717.4084999999995
 21
210.0763
 31
0.0
  0
ARC
  5
B804
  8
1PHANTOM
 10
5719.4694
 20
211.10839999999999
 30
0.0
 40
1.5
 50
256.0
 51
346.0
  0
ARC
  5
B805
  8
1PHANTOM
 10
5721.8886000000002
 20
220.81139999999999
 30
0.0
 40
1.5
 50
346.0
 51
76.0
  0
ARC
  5
B806
  8
01
 10
5647.899699999999
 20
283.67829999999998
 30
0.0
 40
15.0
 50
210.0
 51
216.8699
  0
ARC
  5
B96E
  8
1HIDDEN
 10
5647.899699999999
 20
136.1883
 30
0.0
 40
26.5
 50
220.99940000000001
 51
139.00059999999999
  0
LINE
  5
B9F0
  8
01
 10
5635.8996999999999
 20
274.67829999999998
 30
0.0
 11
5659.8996999999999
 21
274.67829999999998
 31
0.0
  0
LINE
  5
B9F1
  8
01
 10
5509.3996999999999
 20
148.1883
 30
0.0
 11
5509.3996999999999
 21
124.1883
 31
0.0
  0
LINE
  5
BA59
  8
1CENTER
 10
5495.7713999999987
 20
136.1883
 30
0.0
 11
5520.7290999999996
 21
136.1883
 31
0.0
  0
LINE
  5
BA5A
  8
1CENTER
 10
5515.8996999999999
 20
140.6883
 30
0.0
 11
5515.8996999999999
 21
131.6883
 31
0.0
  0
CIRCLE
  5
BB32
  8
01
 10
5515.8996999999999
 20
136.1883
 30
0.0
 40
3.0
  0
LINE
  5
BB33
  8
1DIM
 10
5702.8996999999999
 20
286.18830000000003
 30
0.0
 11
5772.6997000000001
 21
286.18830000000003
 31
0.0
  0
LINE
  5
BB34
  8
1DIM
 10
5715.4449999999988
 20
206.9016
 30
0.0
 11
5772.6997000000001
 21
206.9016
 31
0.0
  0
LINE
  5
BB35
  8
1DIM
 10
5771.399699999999
 20
283.5883
 30
0.0
 11
5771.399699999999
 21
209.5016
 31
0.0
  0
LINE
  5
BB39
  8
1DIM
 10
5702.8996999999999
 20
286.18830000000003
 30
0.0
 11
5762.6997000000001
 21
286.18830000000003
 31
0.0
  0
LINE
  5
BB3A
  8
1DIM
 10
5731.6496999999999
 20
225.47829999999999
 30
0.0
 11
5762.6997000000001
 21
225.47829999999999
 31
0.0
  0
LINE
  5
BB3B
  8
1DIM
 10
5761.3996999999999
 20
283.5883
 30
0.0
 11
5761.3996999999999
 21
228.07830000000001
 31
0.0
  0
LINE
  5
BB3F
  8
1DIM
 10
5702.8996999999999
 20
286.18830000000003
 30
0.0
 11
5752.6997000000001
 21
286.18830000000003
 31
0.0
  0
LINE
  5
BB40
  8
1DIM
 10
5742.742299999999
 20
264.4058
 30
0.0
 11
5752.6997000000001
 21
264.4058
 31
0.0
  0
LINE
  5
BB41
  8
1DIM
 10
5751.3996999999999
 20
283.5883
 30
0.0
 11
5751.3996999999999
 21
267.00580000000002
 31
0.0
  0
LINE
  5
BB45
  8
1DIM
 10
5647.899699999999
 20
265.68830000000003
 30
0.0
 11
5647.899699999999
 21
194.17830000000001
 31
0.0
  0
LINE
  5
BB46
  8
1DIM
 10
5736.399699999999
 20
230.57830000000001
 30
0.0
 11
5736.399699999999
 21
194.17830000000001
 31
0.0
  0
LINE
  5
BB47
  8
1DIM
 10
5650.4997000000012
 20
195.47829999999999
 30
0.0
 11
5733.7996999999987
 21
195.47829999999999
 31
0.0
  0
LINE
  5
BB4B
  8
1DIM
 10
5627.8996999999999
 20
230.57830000000001
 30
0.0
 11
5627.8996999999999
 21
184.17830000000001
 31
0.0
  0
LINE
  5
BB4C
  8
1DIM
 10
5736.399699999999
 20
230.57830000000001
 30
0.0
 11
5736.399699999999
 21
184.17830000000001
 31
0.0
  0
LINE
  5
BB4D
  8
1DIM
 10
5630.4997000000012
 20
185.47829999999999
 30
0.0
 11
5733.7996999999987
 21
185.47829999999999
 31
0.0
  0
LINE
  5
BB51
  8
1DIM
 10
5734.899699999999
 20
164.1883
 30
0.0
 11
5752.6997000000001
 21
164.1883
 31
0.0
  0
LINE
  5
BB52
  8
1DIM
 10
5734.899699999999
 20
108.1883
 30
0.0
 11
5752.6997000000001
 21
108.1883
 31
0.0
  0
LINE
  5
BB53
  8
1DIM
 10
5751.3996999999999
 20
161.5883
 30
0.0
 11
5751.3996999999999
 21
110.78830000000001
 31
0.0
  0
LINE
  5
BB57
  8
1DIM
 10
5647.899699999999
 20
109.6883
 30
0.0
 11
5611.5996999999998
 21
109.6883
 31
0.0
  0
LINE
  5
BB58
  8
1DIM
 10
5647.899699999999
 20
162.6883
 30
0.0
 11
5611.5996999999998
 21
162.6883
 31
0.0
  0
LINE
  5
BB59
  8
1DIM
 10
5612.899699999999
 20
112.28830000000001
 30
0.0
 11
5612.899699999999
 21
160.0883
 31
0.0
  0
TEXT
  5
BB5D
  8
1DIM
 10
5611.9897000000001
 20
129.21170000000001
 30
0.0
 40
4.5499999999999989
  1
ƒÓ53
 50
90.0
  0
LINE
  5
BB5E
  8
0
  6
BYBLOCK
 10
5612.2030000000004
 20
160.0883
 30
0.0
 11
5612.899699999999
 21
162.6883
 31
0.0
  0
LINE
  5
BB5F
  8
0
  6
BYBLOCK
 10
5612.899699999999
 20
162.6883
 30
0.0
 11
5613.5964000000004
 21
160.0883
 31
0.0
  0
LINE
  5
BB60
  8
0
  6
BYBLOCK
 10
5612.899699999999
 20
162.6883
 30
0.0
 11
5612.899699999999
 21
160.0883
 31
0.0
  0
LINE
  5
BB61
  8
0
  6
BYBLOCK
 10
5613.5964000000004
 20
112.28830000000001
 30
0.0
 11
5612.899699999999
 21
109.6883
 31
0.0
  0
LINE
  5
BB62
  8
0
  6
BYBLOCK
 10
5612.899699999999
 20
109.6883
 30
0.0
 11
5612.2030000000004
 21
112.28830000000001
 31
0.0
  0
LINE
  5
BB63
  8
0
  6
BYBLOCK
 10
5612.899699999999
 20
109.6883
 30
0.0
 11
5612.899699999999
 21
112.28830000000001
 31
0.0
  0
TEXT
  5
BB64
  8
1DIM
 10
5750.4897000000001
 20
132.39670000000001
 30
0.0
 40
4.5499999999999989
  1
56 
 50
90.0
  0
LINE
  5
BB65
  8
0
  6
BYBLOCK
 10
5752.0964000000004
 20
110.78830000000001
 30
0.0
 11
5751.3996999999999
 21
108.1883
 31
0.0
  0
LINE
  5
BB66
  8
0
  6
BYBLOCK
 10
5751.3996999999999
 20
108.1883
 30
0.0
 11
5750.7030000000013
 21
110.78830000000001
 31
0.0
  0
LINE
  5
BB67
  8
0
  6
BYBLOCK
 10
5751.3996999999999
 20
108.1883
 30
0.0
 11
5751.3996999999999
 21
110.78830000000001
 31
0.0
  0
LINE
  5
BB68
  8
0
  6
BYBLOCK
 10
5750.7030000000013
 20
161.5883
 30
0.0
 11
5751.3996999999999
 21
164.1883
 31
0.0
  0
LINE
  5
BB69
  8
0
  6
BYBLOCK
 10
5751.3996999999999
 20
164.1883
 30
0.0
 11
5752.0964000000004
 21
161.5883
 31
0.0
  0
LINE
  5
BB6A
  8
0
  6
BYBLOCK
 10
5751.3996999999999
 20
164.1883
 30
0.0
 11
5751.3996999999999
 21
161.5883
 31
0.0
  0
TEXT
  5
BB6B
  8
1DIM
 10
5674.1872000000003
 20
186.38829999999999
 30
0.0
 40
4.5499999999999989
  1
108.5 
  0
LINE
  5
BB6C
  8
0
  6
BYBLOCK
 10
5733.7996999999987
 20
186.17500000000001
 30
0.0
 11
5736.399699999999
 21
185.47829999999999
 31
0.0
  0
LINE
  5
BB6D
  8
0
  6
BYBLOCK
 10
5736.399699999999
 20
185.47829999999999
 30
0.0
 11
5733.7996999999987
 21
184.7817
 31
0.0
  0
LINE
  5
BB6E
  8
0
  6
BYBLOCK
 10
5736.399699999999
 20
185.47829999999999
 30
0.0
 11
5733.7996999999987
 21
185.47829999999999
 31
0.0
  0
LINE
  5
BB6F
  8
0
  6
BYBLOCK
 10
5630.4997000000012
 20
184.7817
 30
0.0
 11
5627.8996999999999
 21
185.47829999999999
 31
0.0
  0
LINE
  5
BB70
  8
0
  6
BYBLOCK
 10
5627.8996999999999
 20
185.47829999999999
 30
0.0
 11
5630.4997000000012
 21
186.17500000000001
 31
0.0
  0
LINE
  5
BB71
  8
0
  6
BYBLOCK
 10
5627.8996999999999
 20
185.47829999999999
 30
0.0
 11
5630.4997000000012
 21
185.47829999999999
 31
0.0
  0
TEXT
  5
BB72
  8
1DIM
 10
5686.875
 20
196.38829999999999
 30
0.0
 40
4.5499999999999989
  1
88.5 
  0
LINE
  5
BB73
  8
0
  6
BYBLOCK
 10
5733.7996999999987
 20
196.17500000000001
 30
0.0
 11
5736.399699999999
 21
195.47829999999999
 31
0.0
  0
LINE
  5
BB74
  8
0
  6
BYBLOCK
 10
5736.399699999999
 20
195.47829999999999
 30
0.0
 11
5733.7996999999987
 21
194.7817
 31
0.0
  0
LINE
  5
BB75
  8
0
  6
BYBLOCK
 10
5736.399699999999
 20
195.47829999999999
 30
0.0
 11
5733.7996999999987
 21
195.47829999999999
 31
0.0
  0
LINE
  5
BB76
  8
0
  6
BYBLOCK
 10
5650.4997000000012
 20
194.7817
 30
0.0
 11
5647.899699999999
 21
195.47829999999999
 31
0.0
  0
LINE
  5
BB77
  8
0
  6
BYBLOCK
 10
5647.899699999999
 20
195.47829999999999
 30
0.0
 11
5650.4997000000012
 21
196.17500000000001
 31
0.0
  0
LINE
  5
BB78
  8
0
  6
BYBLOCK
 10
5647.899699999999
 20
195.47829999999999
 30
0.0
 11
5650.4997000000012
 21
195.47829999999999
 31
0.0
  0
TEXT
  5
BB79
  8
1DIM
 10
5750.4897000000001
 20
271.50540000000001
 30
0.0
 40
4.5499999999999989
  1
22 
 50
90.0
  0
LINE
  5
BB7A
  8
0
  6
BYBLOCK
 10
5752.0964000000004
 20
267.00580000000002
 30
0.0
 11
5751.3996999999999
 21
264.4058
 31
0.0
  0
LINE
  5
BB7B
  8
0
  6
BYBLOCK
 10
5751.3996999999999
 20
264.4058
 30
0.0
 11
5750.7030000000013
 21
267.00580000000002
 31
0.0
  0
LINE
  5
BB7C
  8
0
  6
BYBLOCK
 10
5751.3996999999999
 20
264.4058
 30
0.0
 11
5751.3996999999999
 21
267.00580000000002
 31
0.0
  0
LINE
  5
BB7D
  8
0
  6
BYBLOCK
 10
5750.7030000000013
 20
283.5883
 30
0.0
 11
5751.3996999999999
 21
286.18830000000003
 31
0.0
  0
LINE
  5
BB7E
  8
0
  6
BYBLOCK
 10
5751.3996999999999
 20
286.18830000000003
 30
0.0
 11
5752.0964000000004
 21
283.5883
 31
0.0
  0
LINE
  5
BB7F
  8
0
  6
BYBLOCK
 10
5751.3996999999999
 20
286.18830000000003
 30
0.0
 11
5751.3996999999999
 21
283.5883
 31
0.0
  0
TEXT
  5
BB80
  8
1DIM
 10
5760.4897000000001
 20
249.38249999999999
 30
0.0
 40
4.5499999999999989
  1
60.5 
 50
90.0
  0
LINE
  5
BB81
  8
0
  6
BYBLOCK
 10
5762.0964000000004
 20
228.07830000000001
 30
0.0
 11
5761.3996999999999
 21
225.47829999999999
 31
0.0
  0
LINE
  5
BB82
  8
0
  6
BYBLOCK
 10
5761.3996999999999
 20
225.47829999999999
 30
0.0
 11
5760.7030000000013
 21
228.07830000000001
 31
0.0
  0
LINE
  5
BB83
  8
0
  6
BYBLOCK
 10
5761.3996999999999
 20
225.47829999999999
 30
0.0
 11
5761.3996999999999
 21
228.07830000000001
 31
0.0
  0
LINE
  5
BB84
  8
0
  6
BYBLOCK
 10
5760.7030000000013
 20
283.5883
 30
0.0
 11
5761.3996999999999
 21
286.18830000000003
 31
0.0
  0
LINE
  5
BB85
  8
0
  6
BYBLOCK
 10
5761.3996999999999
 20
286.18830000000003
 30
0.0
 11
5762.0964000000004
 21
283.5883
 31
0.0
  0
LINE
  5
BB86
  8
0
  6
BYBLOCK
 10
5761.3996999999999
 20
286.18830000000003
 30
0.0
 11
5761.3996999999999
 21
283.5883
 31
0.0
  0
TEXT
  5
BB87
  8
1DIM
 10
5770.4897000000001
 20
239.715
 30
0.0
 40
4.5499999999999989
  1
79.5 
 50
90.0
  0
LINE
  5
BB88
  8
0
  6
BYBLOCK
 10
5772.0964000000004
 20
209.5016
 30
0.0
 11
5771.399699999999
 21
206.9016
 31
0.0
  0
LINE
  5
BB89
  8
0
  6
BYBLOCK
 10
5771.399699999999
 20
206.9016
 30
0.0
 11
5770.7030000000013
 21
209.5016
 31
0.0
  0
LINE
  5
BB8A
  8
0
  6
BYBLOCK
 10
5771.399699999999
 20
206.9016
 30
0.0
 11
5771.399699999999
 21
209.5016
 31
0.0
  0
LINE
  5
BB8B
  8
0
  6
BYBLOCK
 10
5770.7030000000013
 20
283.5883
 30
0.0
 11
5771.399699999999
 21
286.18830000000003
 31
0.0
  0
LINE
  5
BB8C
  8
0
  6
BYBLOCK
 10
5771.399699999999
 20
286.18830000000003
 30
0.0
 11
5772.0964000000004
 21
283.5883
 31
0.0
  0
LINE
  5
BB8D
  8
0
  6
BYBLOCK
 10
5771.399699999999
 20
286.18830000000003
 30
0.0
 11
5771.399699999999
 21
283.5883
 31
0.0
  0
VIEWPORT
  5
57
 67
     1
  8
0
 10
5.7225006584107403
 20
4.0066664707003623
 30
0.0
 40
12.70516414486376
 41
8.7426062480295741
 68
     1
 69
     1
1001
ACAD
1000
MVIEW
1002
{
1070
    16
1010
0.0
1020
0.0
1030
0.0
1010
0.0
1020
0.0
1030
1.0
1040
0.0
1040
8.7426062480295741
1040
5.7225006584107403
1040
4.0066664707003623
1040
50.0
1040
0.0
1040
0.0
1070
     0
1070
   100
1070
     1
1070
     1
1070
     0
1070
     0
1070
     0
1070
     0
1040
0.0
1040
0.0
1040
0.0
1040
10.0
1040
10.0
1040
10.0
1040
10.0
1070
     0
1002
{
1002
}
1002
}
  0
ENDSEC
  0
EOF
