  0
SECTION
  2
HEADER
  9
$ACADVER
  1
AC1009
  9
$INSBASE
 10
0.0
 20
0.0
 30
0.0
  9
$EXTMIN
 10
-1235.0504000000001
 20
-2475.2988
 30
0.0
  9
$EXTMAX
 10
-1023.7723
 20
-2263.2989999999991
 30
0.0
  9
$LIMMIN
 10
0.0
 20
0.0
  9
$LIMMAX
 10
420.0
 20
297.0
  9
$ORTHOMODE
 70
     0
  9
$REGENMODE
 70
     1
  9
$FILLMODE
 70
     1
  9
$QTEXTMODE
 70
     0
  9
$MIRRTEXT
 70
     1
  9
$DRAGMODE
 70
     2
  9
$LTSCALE
 40
0.5
  9
$OSMODE
 70
  2173
  9
$ATTMODE
 70
     1
  9
$TEXTSIZE
 40
4.0
  9
$TRACEWID
 40
1.0
  9
$TEXTSTYLE
  7
STANDARD
  9
$CLAYER
  8
1TEXT
  9
$CELTYPE
  6
BYLAYER
  9
$CECOLOR
 62
   256
  9
$DIMSCALE
 40
1.0
  9
$DIMASZ
 40
2.0
  9
$DIMEXO
 40
0.0
  9
$DIMDLI
 40
7.0
  9
$DIMRND
 40
0.0
  9
$DIMDLE
 40
0.0
  9
$DIMEXE
 40
1.0
  9
$DIMTP
 40
0.0
  9
$DIMTM
 40
0.0
  9
$DIMTXT
 40
3.5
  9
$DIMCEN
 40
0.0
  9
$DIMTSZ
 40
0.0
  9
$DIMTOL
 70
     0
  9
$DIMLIM
 70
     0
  9
$DIMTIH
 70
     0
  9
$DIMTOH
 70
     0
  9
$DIMSE1
 70
     0
  9
$DIMSE2
 70
     0
  9
$DIMTAD
 70
     1
  9
$DIMZIN
 70
     8
  9
$DIMBLK
  1

  9
$DIMASO
 70
     1
  9
$DIMSHO
 70
     1
  9
$DIMPOST
  1
 
  9
$DIMAPOST
  1

  9
$DIMALT
 70
     0
  9
$DIMALTD
 70
     2
  9
$DIMALTF
 40
25.399999999999999
  9
$DIMLFAC
 40
1.0
  9
$DIMTOFL
 70
     1
  9
$DIMTVP
 40
0.0
  9
$DIMTIX
 70
     0
  9
$DIMSOXD
 70
     0
  9
$DIMSAH
 70
     1
  9
$DIMBLK1
  1
OPEN30
  9
$DIMBLK2
  1
OPEN30
  9
$DIMSTYLE
  2
NEWX10
  9
$DIMCLRD
 70
   256
  9
$DIMCLRE
 70
   256
  9
$DIMCLRT
 70
   201
  9
$DIMTFAC
 40
0.7
  9
$DIMGAP
 40
0.7
  9
$LUNITS
 70
     2
  9
$LUPREC
 70
     4
  9
$SKETCHINC
 40
1.0
  9
$FILLETRAD
 40
0.0
  9
$AUNITS
 70
     0
  9
$AUPREC
 70
     2
  9
$MENU
  1
acad
  9
$ELEVATION
 40
0.0
  9
$PELEVATION
 40
0.0
  9
$THICKNESS
 40
0.0
  9
$LIMCHECK
 70
     0
  9
$BLIPMODE
 70
     0
  9
$CHAMFERA
 40
10.0
  9
$CHAMFERB
 40
10.0
  9
$SKPOLY
 70
     0
  9
$TDCREATE
 40
2453033.7327000001
  9
$TDUPDATE
 40
2453335.5005157641
  9
$TDINDWG
 40
0.330634537
  9
$TDUSRTIMER
 40
0.330634537
  9
$USRTIMER
 70
     1
  9
$ANGBASE
 50
0.0
  9
$ANGDIR
 70
     0
  9
$PDMODE
 70
     0
  9
$PDSIZE
 40
0.0
  9
$PLINEWID
 40
0.0
  9
$COORDS
 70
     2
  9
$SPLFRAME
 70
     0
  9
$SPLINETYPE
 70
     6
  9
$SPLINESEGS
 70
     8
  9
$ATTDIA
 70
     0
  9
$ATTREQ
 70
     1
  9
$HANDLING
 70
     1
  9
$HANDSEED
  5
9D7A
  9
$SURFTAB1
 70
     6
  9
$SURFTAB2
 70
     6
  9
$SURFTYPE
 70
     6
  9
$SURFU
 70
     6
  9
$SURFV
 70
     6
  9
$UCSNAME
  2

  9
$UCSORG
 10
0.0
 20
0.0
 30
0.0
  9
$UCSXDIR
 10
1.0
 20
0.0
 30
0.0
  9
$UCSYDIR
 10
0.0
 20
1.0
 30
0.0
  9
$PUCSNAME
  2

  9
$PUCSORG
 10
0.0
 20
0.0
 30
0.0
  9
$PUCSXDIR
 10
1.0
 20
0.0
 30
0.0
  9
$PUCSYDIR
 10
0.0
 20
1.0
 30
0.0
  9
$USERI1
 70
     0
  9
$USERI2
 70
     0
  9
$USERI3
 70
     0
  9
$USERI4
 70
     0
  9
$USERI5
 70
     0
  9
$USERR1
 40
0.0
  9
$USERR2
 40
0.0
  9
$USERR3
 40
0.0
  9
$USERR4
 40
0.0
  9
$USERR5
 40
0.0
  9
$WORLDVIEW
 70
     1
  9
$SHADEDGE
 70
     3
  9
$SHADEDIF
 70
    70
  9
$TILEMODE
 70
     1
  9
$MAXACTVP
 70
    48
  9
$PLIMCHECK
 70
     0
  9
$PEXTMIN
 10
1.0000000000000000E+020
 20
1.0000000000000000E+020
 30
1.0000000000000000E+020
  9
$PEXTMAX
 10
-1.0000000000000000E+020
 20
-1.0000000000000000E+020
 30
-1.0000000000000000E+020
  9
$PLIMMIN
 10
0.0
 20
0.0
  9
$PLIMMAX
 10
420.0
 20
297.0
  9
$UNITMODE
 70
     0
  9
$VISRETAIN
 70
     1
  9
$PLINEGEN
 70
     0
  9
$PSLTSCALE
 70
     1
  0
ENDSEC
  0
SECTION
  2
TABLES
  0
TABLE
  2
VPORT
 70
     4
  0
VPORT
  2
*ACTIVE
 70
     0
 10
0.0
 20
0.0
 11
1.0
 21
1.0
 12
-1129.4113500000001
 22
-2369.2988999999998
 13
0.0
 23
0.0
 14
10.0
 24
10.0
 15
10.0
 25
10.0
 16
0.0
 26
0.0
 36
1.0
 17
0.0
 27
0.0
 37
0.0
 40
224.89431988531669
 41
1.453246753246753
 42
50.0
 43
0.0
 44
0.0
 50
0.0
 51
0.0
 71
     0
 72
   100
 73
     1
 74
     1
 75
     0
 76
     0
 77
     0
 78
     0
  0
ENDTAB
  0
TABLE
  2
LTYPE
 70
     4
  0
LTYPE
  2
CONTINUOUS
 70
     0
  3
Solid line
 72
    65
 73
     0
 40
0.0
  0
LTYPE
  2
CENTER2
 70
     0
  3
Center (.5x) ___ _ ___ _ ___ _ ___ _ ___ _ ___
 72
    65
 73
     4
 40
28.574999999999999
 49
19.050000000000001
 49
-3.1749999999999989
 49
3.1749999999999989
 49
-3.1749999999999989
  0
ENDTAB
  0
TABLE
  2
LAYER
 70
    11
  0
LAYER
  2
0
 70
     0
 62
     7
  6
CONTINUOUS
  0
LAYER
  2
1TEXT
 70
     0
 62
     7
  6
CONTINUOUS
  0
LAYER
  2
1CENTER
 70
     0
 62
     7
  6
CENTER2
  0
LAYER
  2
1DIM
 70
     0
 62
     7
  6
CONTINUOUS
  0
LAYER
  2
01
 70
     0
 62
     1
  6
CONTINUOUS
  0
ENDTAB
  0
TABLE
  2
STYLE
 70
     1
  0
STYLE
  2
STANDARD
 70
     0
 40
0.0
 41
1.0
 50
0.0
 71
     0
 42
4.0
  3
txt.shx
  4
extfont.shx
  0
ENDTAB
  0
TABLE
  2
VIEW
 70
     0
  0
ENDTAB
  0
TABLE
  2
UCS
 70
     0
  0
ENDTAB
  0
TABLE
  2
APPID
 70
     9
  0
APPID
  2
ACAD
 70
     0
  0
APPID
  2
DRAWINGVARIABLESXDATA
 70
     0
  0
APPID
  2
CONTENTTABDATA
 70
     0
  0
APPID
  2
CONTENTCURRENTTAB
 70
     0
  0
APPID
  2
CONTENTBLOCKDESCRIPTION
 70
     0
  0
APPID
  2
CONTENTBLOCKICON
 70
     0
  0
APPID
  2
CONTENTLONGBLOCKNAME
 70
     0
  0
APPID
  2
ACAD_PSEXT
 70
     0
  0
APPID
  2
ACAD_DSTYLE_DIMTEXT_FILL
 70
     0
  0
ENDTAB
  0
TABLE
  2
DIMSTYLE
 70
     1
  0
DIMSTYLE
  2
NEWX10
 70
     0
  3
 
  4

  5

  6

  7

 40
1.0
 41
2.0
 42
0.0
 43
7.0
 44
1.0
 45
0.0
 46
0.0
 47
0.0
 48
0.0
140
3.5
141
0.0
142
0.0
143
25.399999999999999
144
1.0
145
0.0
146
0.7
147
0.7
 71
     0
 72
     0
 73
     0
 74
     0
 75
     0
 76
     0
 77
     1
 78
     8
170
     0
171
     2
172
     1
173
     1
174
     0
175
     0
176
   256
177
   256
178
   201
  0
ENDTAB
  0
ENDSEC
  0
SECTION
  2
BLOCKS
  0
BLOCK
  8
0
  2
$MODEL_SPACE
 70
     0
 10
0.0
 20
0.0
 30
0.0
  3
$MODEL_SPACE
  1

  0
ENDBLK
  5
9921
  8
0
  0
BLOCK
 67
     1
  8
0
  2
$PAPER_SPACE
 70
     0
 10
0.0
 20
0.0
 30
0.0
  3
$PAPER_SPACE
  1

  0
ENDBLK
  5
991D
 67
     1
  8
0
  0
BLOCK
  8
0
  2
_OPEN30
 70
     0
 10
0.0
 20
0.0
 30
0.0
  3
_OPEN30
  1

  0
LINE
  5
44
  8
0
  6
BYBLOCK
 62
     0
 10
-1.0
 20
0.2679
 30
0.0
 11
0.0
 21
0.0
 31
0.0
  0
LINE
  5
45
  8
0
  6
BYBLOCK
 62
     0
 10
0.0
 20
0.0
 30
0.0
 11
-1.0
 21
-0.2679
 31
0.0
  0
LINE
  5
46
  8
0
  6
BYBLOCK
 62
     0
 10
0.0
 20
0.0
 30
0.0
 11
-1.0
 21
0.0
 31
0.0
  0
ENDBLK
  5
47
  8
0
  0
ENDSEC
  0
SECTION
  2
ENTITIES
  0
LINE
  5
9B62
  8
01
 10
-1062.9091000000001
 20
-2370.6156000000001
 30
0.0
 11
-1062.9091000000001
 21
-2394.2988
 31
0.0
  0
LINE
  5
9B63
  8
01
 10
-1052.9091000000001
 20
-2370.6156000000001
 30
0.0
 11
-1052.9091000000001
 21
-2394.2988
 31
0.0
  0
POLYLINE
  5
9B64
  8
01
 66
     1
 10
0.0
 20
0.0
 30
0.0
 70
     8
  0
VERTEX
  5
9B65
  8
01
 10
-1051.9100000000001
 20
-2367.3000000000002
 30
0.0
 70
    32
  0
VERTEX
  5
9B66
  8
01
 10
-1051.9200000000001
 20
-2367.0030000000002
 30
0.0
 70
    32
  0
VERTEX
  5
9B67
  8
01
 10
-1051.9400000000001
 20
-2366.712
 30
0.0
 70
    32
  0
VERTEX
  5
9B68
  8
01
 10
-1051.97
 20
-2366.4180000000001
 30
0.0
 70
    32
  0
VERTEX
  5
9B69
  8
01
 10
-1052.02
 20
-2366.127
 30
0.0
 70
    32
  0
VERTEX
  5
9B6A
  8
01
 10
-1052.0899999999999
 20
-2365.8420000000001
 30
0.0
 70
    32
  0
VERTEX
  5
9B6B
  8
01
 10
-1052.1700000000001
 20
-2365.5569999999998
 30
0.0
 70
    32
  0
VERTEX
  5
9B6C
  8
01
 10
-1052.26
 20
-2365.2779999999998
 30
0.0
 70
    32
  0
VERTEX
  5
9B6D
  8
01
 10
-1052.3699999999999
 20
-2365.002
 30
0.0
 70
    32
  0
VERTEX
  5
9B6E
  8
01
 10
-1052.49
 20
-2364.7350000000001
 30
0.0
 70
    32
  0
VERTEX
  5
9B6F
  8
01
 10
-1052.6199999999999
 20
-2364.4709999999991
 30
0.0
 70
    32
  0
VERTEX
  5
9B70
  8
01
 10
-1052.76
 20
-2364.2130000000002
 30
0.0
 70
    32
  0
VERTEX
  5
9B71
  8
01
 10
-1052.9200000000001
 20
-2363.9670000000001
 30
0.0
 70
    32
  0
VERTEX
  5
9B72
  8
01
 10
-1053.0899999999999
 20
-2363.7240000000002
 30
0.0
 70
    32
  0
VERTEX
  5
9B73
  8
01
 10
-1053.27
 20
-2363.4929999999999
 30
0.0
 70
    32
  0
VERTEX
  5
9B74
  8
01
 10
-1053.46
 20
-2363.2710000000002
 30
0.0
 70
    32
  0
VERTEX
  5
9B75
  8
01
 10
-1053.6700000000001
 20
-2363.058
 30
0.0
 70
    32
  0
VERTEX
  5
9B76
  8
01
 10
-1053.8800000000001
 20
-2362.8539999999998
 30
0.0
 70
    32
  0
VERTEX
  5
9B77
  8
01
 10
-1054.0999999999999
 20
-2362.6619999999998
 30
0.0
 70
    32
  0
VERTEX
  5
9B78
  8
01
 10
-1054.3299999999999
 20
-2362.4789999999998
 30
0.0
 70
    32
  0
VERTEX
  5
9B79
  8
01
 10
-1054.5799999999999
 20
-2362.3110000000001
 30
0.0
 70
    32
  0
VERTEX
  5
9B7A
  8
01
 10
-1054.8199999999999
 20
-2362.152
 30
0.0
 70
    32
  0
VERTEX
  5
9B7B
  8
01
 10
-1055.0799999999999
 20
-2362.0079999999998
 30
0.0
 70
    32
  0
VERTEX
  5
9B7C
  8
01
 10
-1055.3399999999999
 20
-2361.8760000000002
 30
0.0
 70
    32
  0
VERTEX
  5
9B7D
  8
01
 10
-1055.6099999999999
 20
-2361.7559999999999
 30
0.0
 70
    32
  0
VERTEX
  5
9B7E
  8
01
 10
-1055.8900000000001
 20
-2361.6509999999998
 30
0.0
 70
    32
  0
VERTEX
  5
9B7F
  8
01
 10
-1056.1700000000001
 20
-2361.558
 30
0.0
 70
    32
  0
VERTEX
  5
9B80
  8
01
 10
-1056.45
 20
-2361.48
 30
0.0
 70
    32
  0
VERTEX
  5
9B81
  8
01
 10
-1056.74
 20
-2361.4140000000002
 30
0.0
 70
    32
  0
VERTEX
  5
9B82
  8
01
 10
-1057.03
 20
-2361.3629999999998
 30
0.0
 70
    32
  0
VERTEX
  5
9B83
  8
01
 10
-1057.3199999999999
 20
-2361.3270000000002
 30
0.0
 70
    32
  0
VERTEX
  5
9B84
  8
01
 10
-1057.6099999999999
 20
-2361.306
 30
0.0
 70
    32
  0
VERTEX
  5
9B85
  8
01
 10
-1057.9100000000001
 20
-2361.3000000000002
 30
0.0
 70
    32
  0
VERTEX
  5
9B86
  8
01
 10
-1058.2
 20
-2361.306
 30
0.0
 70
    32
  0
VERTEX
  5
9B87
  8
01
 10
-1058.5
 20
-2361.3270000000002
 30
0.0
 70
    32
  0
VERTEX
  5
9B88
  8
01
 10
-1058.79
 20
-2361.3629999999998
 30
0.0
 70
    32
  0
VERTEX
  5
9B89
  8
01
 10
-1059.0799999999999
 20
-2361.4140000000002
 30
0.0
 70
    32
  0
VERTEX
  5
9B8A
  8
01
 10
-1059.3699999999999
 20
-2361.48
 30
0.0
 70
    32
  0
VERTEX
  5
9B8B
  8
01
 10
-1059.6500000000001
 20
-2361.558
 30
0.0
 70
    32
  0
VERTEX
  5
9B8C
  8
01
 10
-1059.9300000000001
 20
-2361.6509999999998
 30
0.0
 70
    32
  0
VERTEX
  5
9B8D
  8
01
 10
-1060.21
 20
-2361.7559999999999
 30
0.0
 70
    32
  0
VERTEX
  5
9B8E
  8
01
 10
-1060.47
 20
-2361.8760000000002
 30
0.0
 70
    32
  0
VERTEX
  5
9B8F
  8
01
 10
-1060.74
 20
-2362.0079999999998
 30
0.0
 70
    32
  0
VERTEX
  5
9B90
  8
01
 10
-1060.99
 20
-2362.152
 30
0.0
 70
    32
  0
VERTEX
  5
9B91
  8
01
 10
-1061.24
 20
-2362.3110000000001
 30
0.0
 70
    32
  0
VERTEX
  5
9B92
  8
01
 10
-1061.48
 20
-2362.4789999999998
 30
0.0
 70
    32
  0
VERTEX
  5
9B93
  8
01
 10
-1061.72
 20
-2362.6619999999998
 30
0.0
 70
    32
  0
VERTEX
  5
9B94
  8
01
 10
-1061.9400000000001
 20
-2362.8539999999998
 30
0.0
 70
    32
  0
VERTEX
  5
9B95
  8
01
 10
-1062.1500000000001
 20
-2363.058
 30
0.0
 70
    32
  0
VERTEX
  5
9B96
  8
01
 10
-1062.3499999999999
 20
-2363.2710000000002
 30
0.0
 70
    32
  0
VERTEX
  5
9B97
  8
01
 10
-1062.55
 20
-2363.4929999999999
 30
0.0
 70
    32
  0
VERTEX
  5
9B98
  8
01
 10
-1062.73
 20
-2363.7240000000002
 30
0.0
 70
    32
  0
VERTEX
  5
9B99
  8
01
 10
-1062.9000000000001
 20
-2363.9670000000001
 30
0.0
 70
    32
  0
VERTEX
  5
9B9A
  8
01
 10
-1063.0599999999999
 20
-2364.2130000000002
 30
0.0
 70
    32
  0
VERTEX
  5
9B9B
  8
01
 10
-1063.2
 20
-2364.4709999999991
 30
0.0
 70
    32
  0
VERTEX
  5
9B9C
  8
01
 10
-1063.3299999999999
 20
-2364.7350000000001
 30
0.0
 70
    32
  0
VERTEX
  5
9B9D
  8
01
 10
-1063.45
 20
-2365.002
 30
0.0
 70
    32
  0
VERTEX
  5
9B9E
  8
01
 10
-1063.5599999999999
 20
-2365.2779999999998
 30
0.0
 70
    32
  0
VERTEX
  5
9B9F
  8
01
 10
-1063.6500000000001
 20
-2365.5569999999998
 30
0.0
 70
    32
  0
VERTEX
  5
9BA0
  8
01
 10
-1063.73
 20
-2365.8420000000001
 30
0.0
 70
    32
  0
VERTEX
  5
9BA1
  8
01
 10
-1063.79
 20
-2366.127
 30
0.0
 70
    32
  0
VERTEX
  5
9BA2
  8
01
 10
-1063.8399999999999
 20
-2366.4180000000001
 30
0.0
 70
    32
  0
VERTEX
  5
9BA3
  8
01
 10
-1063.8800000000001
 20
-2366.712
 30
0.0
 70
    32
  0
VERTEX
  5
9BA4
  8
01
 10
-1063.9000000000001
 20
-2367.0030000000002
 30
0.0
 70
    32
  0
VERTEX
  5
9BA5
  8
01
 10
-1063.9100000000001
 20
-2367.3000000000002
 30
0.0
 70
    32
  0
VERTEX
  5
9BA6
  8
01
 10
-1063.9000000000001
 20
-2367.5940000000001
 30
0.0
 70
    32
  0
VERTEX
  5
9BA7
  8
01
 10
-1063.8800000000001
 20
-2367.8879999999999
 30
0.0
 70
    32
  0
VERTEX
  5
9BA8
  8
01
 10
-1063.8399999999999
 20
-2368.1790000000001
 30
0.0
 70
    32
  0
VERTEX
  5
9BA9
  8
01
 10
-1063.79
 20
-2368.4699999999998
 30
0.0
 70
    32
  0
VERTEX
  5
9BAA
  8
01
 10
-1063.73
 20
-2368.7579999999998
 30
0.0
 70
    32
  0
VERTEX
  5
9BAB
  8
01
 10
-1063.6500000000001
 20
-2369.04
 30
0.0
 70
    32
  0
VERTEX
  5
9BAC
  8
01
 10
-1063.5599999999999
 20
-2369.319
 30
0.0
 70
    32
  0
VERTEX
  5
9BAD
  8
01
 10
-1063.45
 20
-2369.5949999999998
 30
0.0
 70
    32
  0
VERTEX
  5
9BAE
  8
01
 10
-1063.3299999999999
 20
-2369.8649999999998
 30
0.0
 70
    32
  0
VERTEX
  5
9BAF
  8
01
 10
-1063.2
 20
-2370.1260000000002
 30
0.0
 70
    32
  0
VERTEX
  5
9BB0
  8
01
 10
-1063.0599999999999
 20
-2370.384
 30
0.0
 70
    32
  0
VERTEX
  5
9BB1
  8
01
 10
-1062.9000000000001
 20
-2370.6329999999998
 30
0.0
 70
    32
  0
VERTEX
  5
9BB2
  8
01
 10
-1062.73
 20
-2370.873
 30
0.0
 70
    32
  0
VERTEX
  5
9BB3
  8
01
 10
-1062.55
 20
-2371.1039999999998
 30
0.0
 70
    32
  0
VERTEX
  5
9BB4
  8
01
 10
-1062.3499999999999
 20
-2371.3290000000002
 30
0.0
 70
    32
  0
VERTEX
  5
9BB5
  8
01
 10
-1062.1500000000001
 20
-2371.541999999999
 30
0.0
 70
    32
  0
VERTEX
  5
9BB6
  8
01
 10
-1061.9400000000001
 20
-2371.7429999999999
 30
0.0
 70
    32
  0
VERTEX
  5
9BB7
  8
01
 10
-1061.72
 20
-2371.9349999999999
 30
0.0
 70
    32
  0
VERTEX
  5
9BB8
  8
01
 10
-1061.48
 20
-2372.1179999999999
 30
0.0
 70
    32
  0
VERTEX
  5
9BB9
  8
01
 10
-1061.24
 20
-2372.2860000000001
 30
0.0
 70
    32
  0
VERTEX
  5
9BBA
  8
01
 10
-1060.99
 20
-2372.4450000000002
 30
0.0
 70
    32
  0
VERTEX
  5
9BBB
  8
01
 10
-1060.74
 20
-2372.5889999999999
 30
0.0
 70
    32
  0
VERTEX
  5
9BBC
  8
01
 10
-1060.47
 20
-2372.721
 30
0.0
 70
    32
  0
VERTEX
  5
9BBD
  8
01
 10
-1060.21
 20
-2372.8409999999999
 30
0.0
 70
    32
  0
VERTEX
  5
9BBE
  8
01
 10
-1059.9300000000001
 20
-2372.9459999999999
 30
0.0
 70
    32
  0
VERTEX
  5
9BBF
  8
01
 10
-1059.6500000000001
 20
-2373.0390000000002
 30
0.0
 70
    32
  0
VERTEX
  5
9BC0
  8
01
 10
-1059.3699999999999
 20
-2373.1170000000002
 30
0.0
 70
    32
  0
VERTEX
  5
9BC1
  8
01
 10
-1059.0799999999999
 20
-2373.183
 30
0.0
 70
    32
  0
VERTEX
  5
9BC2
  8
01
 10
-1058.79
 20
-2373.2339999999999
 30
0.0
 70
    32
  0
VERTEX
  5
9BC3
  8
01
 10
-1058.5
 20
-2373.27
 30
0.0
 70
    32
  0
VERTEX
  5
9BC4
  8
01
 10
-1058.2
 20
-2373.2910000000002
 30
0.0
 70
    32
  0
VERTEX
  5
9BC5
  8
01
 10
-1057.9100000000001
 20
-2373.2969999999991
 30
0.0
 70
    32
  0
VERTEX
  5
9BC6
  8
01
 10
-1057.6099999999999
 20
-2373.2910000000002
 30
0.0
 70
    32
  0
VERTEX
  5
9BC7
  8
01
 10
-1057.3199999999999
 20
-2373.27
 30
0.0
 70
    32
  0
VERTEX
  5
9BC8
  8
01
 10
-1057.03
 20
-2373.2339999999999
 30
0.0
 70
    32
  0
VERTEX
  5
9BC9
  8
01
 10
-1056.74
 20
-2373.183
 30
0.0
 70
    32
  0
VERTEX
  5
9BCA
  8
01
 10
-1056.45
 20
-2373.1170000000002
 30
0.0
 70
    32
  0
VERTEX
  5
9BCB
  8
01
 10
-1056.1700000000001
 20
-2373.0390000000002
 30
0.0
 70
    32
  0
VERTEX
  5
9BCC
  8
01
 10
-1055.8900000000001
 20
-2372.9459999999999
 30
0.0
 70
    32
  0
VERTEX
  5
9BCD
  8
01
 10
-1055.6099999999999
 20
-2372.8409999999999
 30
0.0
 70
    32
  0
VERTEX
  5
9BCE
  8
01
 10
-1055.3399999999999
 20
-2372.721
 30
0.0
 70
    32
  0
VERTEX
  5
9BCF
  8
01
 10
-1055.0799999999999
 20
-2372.5889999999999
 30
0.0
 70
    32
  0
VERTEX
  5
9BD0
  8
01
 10
-1054.8199999999999
 20
-2372.4450000000002
 30
0.0
 70
    32
  0
VERTEX
  5
9BD1
  8
01
 10
-1054.5799999999999
 20
-2372.2860000000001
 30
0.0
 70
    32
  0
VERTEX
  5
9BD2
  8
01
 10
-1054.3299999999999
 20
-2372.1179999999999
 30
0.0
 70
    32
  0
VERTEX
  5
9BD3
  8
01
 10
-1054.0999999999999
 20
-2371.9349999999999
 30
0.0
 70
    32
  0
VERTEX
  5
9BD4
  8
01
 10
-1053.8800000000001
 20
-2371.7429999999999
 30
0.0
 70
    32
  0
VERTEX
  5
9BD5
  8
01
 10
-1053.6700000000001
 20
-2371.541999999999
 30
0.0
 70
    32
  0
VERTEX
  5
9BD6
  8
01
 10
-1053.46
 20
-2371.3290000000002
 30
0.0
 70
    32
  0
VERTEX
  5
9BD7
  8
01
 10
-1053.27
 20
-2371.1039999999998
 30
0.0
 70
    32
  0
VERTEX
  5
9BD8
  8
01
 10
-1053.0899999999999
 20
-2370.873
 30
0.0
 70
    32
  0
VERTEX
  5
9BD9
  8
01
 10
-1052.9200000000001
 20
-2370.6329999999998
 30
0.0
 70
    32
  0
VERTEX
  5
9BDA
  8
01
 10
-1052.76
 20
-2370.384
 30
0.0
 70
    32
  0
VERTEX
  5
9BDB
  8
01
 10
-1052.6199999999999
 20
-2370.1260000000002
 30
0.0
 70
    32
  0
VERTEX
  5
9BDC
  8
01
 10
-1052.49
 20
-2369.8649999999998
 30
0.0
 70
    32
  0
VERTEX
  5
9BDD
  8
01
 10
-1052.3699999999999
 20
-2369.5949999999998
 30
0.0
 70
    32
  0
VERTEX
  5
9BDE
  8
01
 10
-1052.26
 20
-2369.319
 30
0.0
 70
    32
  0
VERTEX
  5
9BDF
  8
01
 10
-1052.1700000000001
 20
-2369.04
 30
0.0
 70
    32
  0
VERTEX
  5
9BE0
  8
01
 10
-1052.0899999999999
 20
-2368.7579999999998
 30
0.0
 70
    32
  0
VERTEX
  5
9BE1
  8
01
 10
-1052.02
 20
-2368.4699999999998
 30
0.0
 70
    32
  0
VERTEX
  5
9BE2
  8
01
 10
-1051.97
 20
-2368.1790000000001
 30
0.0
 70
    32
  0
VERTEX
  5
9BE3
  8
01
 10
-1051.9400000000001
 20
-2367.8879999999999
 30
0.0
 70
    32
  0
VERTEX
  5
9BE4
  8
01
 10
-1051.9200000000001
 20
-2367.5940000000001
 30
0.0
 70
    32
  0
VERTEX
  5
9BE5
  8
01
 10
-1051.9100000000001
 20
-2367.3000000000002
 30
0.0
 70
    32
  0
SEQEND
  5
9BE6
  8
01
  0
LINE
  5
9BE7
  8
01
 10
-1052.9091000000001
 20
-2394.2988
 30
0.0
 11
-1062.9091000000001
 21
-2394.2988
 31
0.0
  0
LINE
  5
9BE8
  8
01
 10
-1233.9091000000001
 20
-2289.7988999999998
 30
0.0
 11
-1233.4091000000001
 21
-2289.2991000000002
 31
0.0
  0
LINE
  5
9BE9
  8
01
 10
-1233.9091000000001
 20
-2300.799
 30
0.0
 11
-1233.4091000000001
 21
-2301.2991000000002
 31
0.0
  0
LINE
  5
9BEA
  8
01
 10
-1233.9091000000001
 20
-2300.799
 30
0.0
 11
-1233.9091000000001
 21
-2289.7988999999998
 31
0.0
  0
LINE
  5
9BEB
  8
01
 10
-1104.4091000000001
 20
-2301.2991000000002
 30
0.0
 11
-1233.4091000000001
 21
-2301.2991000000002
 31
0.0
  0
LINE
  5
9BEC
  8
01
 10
-1104.4091000000001
 20
-2289.2991000000002
 30
0.0
 11
-1233.4091000000001
 21
-2289.2991000000002
 31
0.0
  0
LINE
  5
9BED
  8
01
 10
-1103.9091000000001
 20
-2300.799
 30
0.0
 11
-1103.9091000000001
 21
-2289.7988999999998
 31
0.0
  0
LINE
  5
9BEE
  8
01
 10
-1104.4091000000001
 20
-2301.2991000000002
 30
0.0
 11
-1103.9091000000001
 21
-2300.799
 31
0.0
  0
LINE
  5
9BEF
  8
01
 10
-1103.9091000000001
 20
-2289.7988999999998
 30
0.0
 11
-1104.4091000000001
 21
-2289.2991000000002
 31
0.0
  0
LINE
  5
9BF0
  8
01
 10
-1233.9091000000001
 20
-2372.799
 30
0.0
 11
-1233.4091000000001
 21
-2373.2988
 31
0.0
  0
LINE
  5
9BF1
  8
01
 10
-1233.9091000000001
 20
-2361.7988999999998
 30
0.0
 11
-1233.4091000000001
 21
-2361.2988
 31
0.0
  0
LINE
  5
9BF2
  8
01
 10
-1233.9091000000001
 20
-2361.7988999999998
 30
0.0
 11
-1233.9091000000001
 21
-2372.799
 31
0.0
  0
LINE
  5
9BF3
  8
01
 10
-1104.4091000000001
 20
-2361.2988
 30
0.0
 11
-1233.4091000000001
 21
-2361.2988
 31
0.0
  0
LINE
  5
9BF4
  8
01
 10
-1128.9091000000001
 20
-2373.2988
 30
0.0
 11
-1208.9091000000001
 21
-2373.2988
 31
0.0
  0
LINE
  5
9BF5
  8
01
 10
-1208.9091000000001
 20
-2394.2988
 30
0.0
 11
-1218.9091000000001
 21
-2394.2988
 31
0.0
  0
POLYLINE
  5
9BF6
  8
01
 66
     1
 10
0.0
 20
0.0
 30
0.0
 70
     8
  0
VERTEX
  5
9BF7
  8
01
 10
-1208.9100000000001
 20
-2373.3000000000002
 30
0.0
 70
    32
  0
VERTEX
  5
9BF8
  8
01
 10
-1208.96
 20
-2373.2190000000001
 30
0.0
 70
    32
  0
VERTEX
  5
9BF9
  8
01
 10
-1209.01
 20
-2373.1379999999999
 30
0.0
 70
    32
  0
VERTEX
  5
9BFA
  8
01
 10
-1209.0599999999999
 20
-2373.0599999999999
 30
0.0
 70
    32
  0
VERTEX
  5
9BFB
  8
01
 10
-1209.1099999999999
 20
-2372.982
 30
0.0
 70
    32
  0
VERTEX
  5
9BFC
  8
01
 10
-1209.1700000000001
 20
-2372.9070000000002
 30
0.0
 70
    32
  0
VERTEX
  5
9BFD
  8
01
 10
-1209.22
 20
-2372.8290000000002
 30
0.0
 70
    32
  0
VERTEX
  5
9BFE
  8
01
 10
-1209.28
 20
-2372.7539999999999
 30
0.0
 70
    32
  0
VERTEX
  5
9BFF
  8
01
 10
-1209.3299999999999
 20
-2372.6790000000001
 30
0.0
 70
    32
  0
VERTEX
  5
9C00
  8
01
 10
-1209.3900000000001
 20
-2372.607
 30
0.0
 70
    32
  0
VERTEX
  5
9C01
  8
01
 10
-1209.45
 20
-2372.5349999999999
 30
0.0
 70
    32
  0
VERTEX
  5
9C02
  8
01
 10
-1209.51
 20
-2372.4630000000002
 30
0.0
 70
    32
  0
VERTEX
  5
9C03
  8
01
 10
-1209.5799999999999
 20
-2372.3939999999998
 30
0.0
 70
    32
  0
VERTEX
  5
9C04
  8
01
 10
-1209.6400000000001
 20
-2372.3220000000001
 30
0.0
 70
    32
  0
VERTEX
  5
9C05
  8
01
 10
-1209.7
 20
-2372.2559999999999
 30
0.0
 70
    32
  0
VERTEX
  5
9C06
  8
01
 10
-1209.77
 20
-2372.1869999999999
 30
0.0
 70
    32
  0
VERTEX
  5
9C07
  8
01
 10
-1209.8399999999999
 20
-2372.1210000000001
 30
0.0
 70
    32
  0
VERTEX
  5
9C08
  8
01
 10
-1209.9000000000001
 20
-2372.0549999999998
 30
0.0
 70
    32
  0
VERTEX
  5
9C09
  8
01
 10
-1209.97
 20
-2371.9920000000002
 30
0.0
 70
    32
  0
VERTEX
  5
9C0A
  8
01
 10
-1210.04
 20
-2371.9290000000001
 30
0.0
 70
    32
  0
VERTEX
  5
9C0B
  8
01
 10
-1210.1099999999999
 20
-2371.866
 30
0.0
 70
    32
  0
VERTEX
  5
9C0C
  8
01
 10
-1210.1900000000001
 20
-2371.806
 30
0.0
 70
    32
  0
VERTEX
  5
9C0D
  8
01
 10
-1210.26
 20
-2371.7460000000001
 30
0.0
 70
    32
  0
VERTEX
  5
9C0E
  8
01
 10
-1210.3299999999999
 20
-2371.6889999999999
 30
0.0
 70
    32
  0
VERTEX
  5
9C0F
  8
01
 10
-1210.4100000000001
 20
-2371.6320000000001
 30
0.0
 70
    32
  0
VERTEX
  5
9C10
  8
01
 10
-1210.48
 20
-2371.5749999999998
 30
0.0
 70
    32
  0
VERTEX
  5
9C11
  8
01
 10
-1210.5599999999999
 20
-2371.5210000000002
 30
0.0
 70
    32
  0
VERTEX
  5
9C12
  8
01
 10
-1210.6400000000001
 20
-2371.4670000000001
 30
0.0
 70
    32
  0
VERTEX
  5
9C13
  8
01
 10
-1210.71
 20
-2371.4160000000002
 30
0.0
 70
    32
  0
VERTEX
  5
9C14
  8
01
 10
-1210.79
 20
-2371.3649999999998
 30
0.0
 70
    32
  0
VERTEX
  5
9C15
  8
01
 10
-1210.8699999999999
 20
-2371.3139999999999
 30
0.0
 70
    32
  0
VERTEX
  5
9C16
  8
01
 10
-1210.95
 20
-2371.2660000000001
 30
0.0
 70
    32
  0
VERTEX
  5
9C17
  8
01
 10
-1211.03
 20
-2371.2179999999998
 30
0.0
 70
    32
  0
VERTEX
  5
9C18
  8
01
 10
-1211.1199999999999
 20
-2371.1729999999998
 30
0.0
 70
    32
  0
VERTEX
  5
9C19
  8
01
 10
-1211.2
 20
-2371.1280000000002
 30
0.0
 70
    32
  0
VERTEX
  5
9C1A
  8
01
 10
-1211.28
 20
-2371.0859999999998
 30
0.0
 70
    32
  0
VERTEX
  5
9C1B
  8
01
 10
-1211.3699999999999
 20
-2371.0439999999999
 30
0.0
 70
    32
  0
VERTEX
  5
9C1C
  8
01
 10
-1211.45
 20
-2371.0050000000001
 30
0.0
 70
    32
  0
VERTEX
  5
9C1D
  8
01
 10
-1211.54
 20
-2370.9659999999999
 30
0.0
 70
    32
  0
VERTEX
  5
9C1E
  8
01
 10
-1211.6199999999999
 20
-2370.9270000000001
 30
0.0
 70
    32
  0
VERTEX
  5
9C1F
  8
01
 10
-1211.71
 20
-2370.8910000000001
 30
0.0
 70
    32
  0
VERTEX
  5
9C20
  8
01
 10
-1211.8
 20
-2370.8580000000002
 30
0.0
 70
    32
  0
VERTEX
  5
9C21
  8
01
 10
-1211.8900000000001
 20
-2370.8220000000001
 30
0.0
 70
    32
  0
VERTEX
  5
9C22
  8
01
 10
-1211.97
 20
-2370.791999999999
 30
0.0
 70
    32
  0
VERTEX
  5
9C23
  8
01
 10
-1212.0599999999999
 20
-2370.7620000000002
 30
0.0
 70
    32
  0
VERTEX
  5
9C24
  8
01
 10
-1212.1500000000001
 20
-2370.732
 30
0.0
 70
    32
  0
VERTEX
  5
9C25
  8
01
 10
-1212.24
 20
-2370.7049999999999
 30
0.0
 70
    32
  0
VERTEX
  5
9C26
  8
01
 10
-1212.3299999999999
 20
-2370.6780000000008
 30
0.0
 70
    32
  0
VERTEX
  5
9C27
  8
01
 10
-1212.4200000000001
 20
-2370.654
 30
0.0
 70
    32
  0
VERTEX
  5
9C28
  8
01
 10
-1212.51
 20
-2370.6300000000001
 30
0.0
 70
    32
  0
VERTEX
  5
9C29
  8
01
 10
-1212.5999999999999
 20
-2370.6089999999999
 30
0.0
 70
    32
  0
VERTEX
  5
9C2A
  8
01
 10
-1212.7
 20
-2370.5880000000011
 30
0.0
 70
    32
  0
VERTEX
  5
9C2B
  8
01
 10
-1212.79
 20
-2370.5700000000002
 30
0.0
 70
    32
  0
VERTEX
  5
9C2C
  8
01
 10
-1212.8800000000001
 20
-2370.5519999999992
 30
0.0
 70
    32
  0
VERTEX
  5
9C2D
  8
01
 10
-1212.97
 20
-2370.5369999999998
 30
0.0
 70
    32
  0
VERTEX
  5
9C2E
  8
01
 10
-1213.0699999999999
 20
-2370.5219999999999
 30
0.0
 70
    32
  0
VERTEX
  5
9C2F
  8
01
 10
-1213.1600000000001
 20
-2370.5100000000002
 30
0.0
 70
    32
  0
VERTEX
  5
9C30
  8
01
 10
-1213.25
 20
-2370.498
 30
0.0
 70
    32
  0
VERTEX
  5
9C31
  8
01
 10
-1213.3499999999999
 20
-2370.4859999999999
 30
0.0
 70
    32
  0
VERTEX
  5
9C32
  8
01
 10
-1213.4400000000001
 20
-2370.48
 30
0.0
 70
    32
  0
VERTEX
  5
9C33
  8
01
 10
-1213.53
 20
-2370.471
 30
0.0
 70
    32
  0
VERTEX
  5
9C34
  8
01
 10
-1213.6300000000001
 20
-2370.4679999999998
 30
0.0
 70
    32
  0
VERTEX
  5
9C35
  8
01
 10
-1213.72
 20
-2370.462
 30
0.0
 70
    32
  0
VERTEX
  5
9C36
  8
01
 10
-1213.8199999999999
 20
-2370.462
 30
0.0
 70
    32
  0
VERTEX
  5
9C37
  8
01
 10
-1213.9100000000001
 20
-2370.4589999999998
 30
0.0
 70
    32
  0
VERTEX
  5
9C38
  8
01
 10
-1214.0
 20
-2370.462
 30
0.0
 70
    32
  0
VERTEX
  5
9C39
  8
01
 10
-1214.0999999999999
 20
-2370.462
 30
0.0
 70
    32
  0
VERTEX
  5
9C3A
  8
01
 10
-1214.1900000000001
 20
-2370.4679999999998
 30
0.0
 70
    32
  0
VERTEX
  5
9C3B
  8
01
 10
-1214.28
 20
-2370.471
 30
0.0
 70
    32
  0
VERTEX
  5
9C3C
  8
01
 10
-1214.3800000000001
 20
-2370.48
 30
0.0
 70
    32
  0
VERTEX
  5
9C3D
  8
01
 10
-1214.47
 20
-2370.4859999999999
 30
0.0
 70
    32
  0
VERTEX
  5
9C3E
  8
01
 10
-1214.5699999999999
 20
-2370.498
 30
0.0
 70
    32
  0
VERTEX
  5
9C3F
  8
01
 10
-1214.6600000000001
 20
-2370.5100000000002
 30
0.0
 70
    32
  0
VERTEX
  5
9C40
  8
01
 10
-1214.75
 20
-2370.5219999999999
 30
0.0
 70
    32
  0
VERTEX
  5
9C41
  8
01
 10
-1214.8399999999999
 20
-2370.5369999999998
 30
0.0
 70
    32
  0
VERTEX
  5
9C42
  8
01
 10
-1214.9400000000001
 20
-2370.5519999999992
 30
0.0
 70
    32
  0
VERTEX
  5
9C43
  8
01
 10
-1215.03
 20
-2370.5700000000002
 30
0.0
 70
    32
  0
VERTEX
  5
9C44
  8
01
 10
-1215.1199999999999
 20
-2370.5880000000011
 30
0.0
 70
    32
  0
VERTEX
  5
9C45
  8
01
 10
-1215.21
 20
-2370.6089999999999
 30
0.0
 70
    32
  0
VERTEX
  5
9C46
  8
01
 10
-1215.3
 20
-2370.6300000000001
 30
0.0
 70
    32
  0
VERTEX
  5
9C47
  8
01
 10
-1215.4000000000001
 20
-2370.654
 30
0.0
 70
    32
  0
VERTEX
  5
9C48
  8
01
 10
-1215.49
 20
-2370.6780000000008
 30
0.0
 70
    32
  0
VERTEX
  5
9C49
  8
01
 10
-1215.5799999999999
 20
-2370.7049999999999
 30
0.0
 70
    32
  0
VERTEX
  5
9C4A
  8
01
 10
-1215.6700000000001
 20
-2370.732
 30
0.0
 70
    32
  0
VERTEX
  5
9C4B
  8
01
 10
-1215.76
 20
-2370.7620000000002
 30
0.0
 70
    32
  0
VERTEX
  5
9C4C
  8
01
 10
-1215.8399999999999
 20
-2370.791999999999
 30
0.0
 70
    32
  0
VERTEX
  5
9C4D
  8
01
 10
-1215.9300000000001
 20
-2370.8220000000001
 30
0.0
 70
    32
  0
VERTEX
  5
9C4E
  8
01
 10
-1216.02
 20
-2370.8580000000002
 30
0.0
 70
    32
  0
VERTEX
  5
9C4F
  8
01
 10
-1216.1099999999999
 20
-2370.8910000000001
 30
0.0
 70
    32
  0
VERTEX
  5
9C50
  8
01
 10
-1216.1900000000001
 20
-2370.9270000000001
 30
0.0
 70
    32
  0
VERTEX
  5
9C51
  8
01
 10
-1216.28
 20
-2370.9659999999999
 30
0.0
 70
    32
  0
VERTEX
  5
9C52
  8
01
 10
-1216.3699999999999
 20
-2371.0050000000001
 30
0.0
 70
    32
  0
VERTEX
  5
9C53
  8
01
 10
-1216.45
 20
-2371.0439999999999
 30
0.0
 70
    32
  0
VERTEX
  5
9C54
  8
01
 10
-1216.54
 20
-2371.0859999999998
 30
0.0
 70
    32
  0
VERTEX
  5
9C55
  8
01
 10
-1216.6199999999999
 20
-2371.1280000000002
 30
0.0
 70
    32
  0
VERTEX
  5
9C56
  8
01
 10
-1216.7
 20
-2371.1729999999998
 30
0.0
 70
    32
  0
VERTEX
  5
9C57
  8
01
 10
-1216.78
 20
-2371.2179999999998
 30
0.0
 70
    32
  0
VERTEX
  5
9C58
  8
01
 10
-1216.8699999999999
 20
-2371.2660000000001
 30
0.0
 70
    32
  0
VERTEX
  5
9C59
  8
01
 10
-1216.95
 20
-2371.3139999999999
 30
0.0
 70
    32
  0
VERTEX
  5
9C5A
  8
01
 10
-1217.03
 20
-2371.3649999999998
 30
0.0
 70
    32
  0
VERTEX
  5
9C5B
  8
01
 10
-1217.0999999999999
 20
-2371.4160000000002
 30
0.0
 70
    32
  0
VERTEX
  5
9C5C
  8
01
 10
-1217.1800000000001
 20
-2371.4670000000001
 30
0.0
 70
    32
  0
VERTEX
  5
9C5D
  8
01
 10
-1217.26
 20
-2371.5210000000002
 30
0.0
 70
    32
  0
VERTEX
  5
9C5E
  8
01
 10
-1217.3399999999999
 20
-2371.5749999999998
 30
0.0
 70
    32
  0
VERTEX
  5
9C5F
  8
01
 10
-1217.4100000000001
 20
-2371.6320000000001
 30
0.0
 70
    32
  0
VERTEX
  5
9C60
  8
01
 10
-1217.49
 20
-2371.6889999999999
 30
0.0
 70
    32
  0
VERTEX
  5
9C61
  8
01
 10
-1217.5599999999999
 20
-2371.7460000000001
 30
0.0
 70
    32
  0
VERTEX
  5
9C62
  8
01
 10
-1217.6300000000001
 20
-2371.806
 30
0.0
 70
    32
  0
VERTEX
  5
9C63
  8
01
 10
-1217.7
 20
-2371.866
 30
0.0
 70
    32
  0
VERTEX
  5
9C64
  8
01
 10
-1217.78
 20
-2371.9290000000001
 30
0.0
 70
    32
  0
VERTEX
  5
9C65
  8
01
 10
-1217.8499999999999
 20
-2371.9920000000002
 30
0.0
 70
    32
  0
VERTEX
  5
9C66
  8
01
 10
-1217.9100000000001
 20
-2372.0549999999998
 30
0.0
 70
    32
  0
VERTEX
  5
9C67
  8
01
 10
-1217.98
 20
-2372.1210000000001
 30
0.0
 70
    32
  0
VERTEX
  5
9C68
  8
01
 10
-1218.05
 20
-2372.1869999999999
 30
0.0
 70
    32
  0
VERTEX
  5
9C69
  8
01
 10
-1218.1099999999999
 20
-2372.2559999999999
 30
0.0
 70
    32
  0
VERTEX
  5
9C6A
  8
01
 10
-1218.1800000000001
 20
-2372.3220000000001
 30
0.0
 70
    32
  0
VERTEX
  5
9C6B
  8
01
 10
-1218.24
 20
-2372.3939999999998
 30
0.0
 70
    32
  0
VERTEX
  5
9C6C
  8
01
 10
-1218.3
 20
-2372.4630000000002
 30
0.0
 70
    32
  0
VERTEX
  5
9C6D
  8
01
 10
-1218.3599999999999
 20
-2372.5349999999999
 30
0.0
 70
    32
  0
VERTEX
  5
9C6E
  8
01
 10
-1218.4200000000001
 20
-2372.607
 30
0.0
 70
    32
  0
VERTEX
  5
9C6F
  8
01
 10
-1218.48
 20
-2372.6790000000001
 30
0.0
 70
    32
  0
VERTEX
  5
9C70
  8
01
 10
-1218.54
 20
-2372.7539999999999
 30
0.0
 70
    32
  0
VERTEX
  5
9C71
  8
01
 10
-1218.5999999999999
 20
-2372.8290000000002
 30
0.0
 70
    32
  0
VERTEX
  5
9C72
  8
01
 10
-1218.6500000000001
 20
-2372.9070000000002
 30
0.0
 70
    32
  0
VERTEX
  5
9C73
  8
01
 10
-1218.71
 20
-2372.982
 30
0.0
 70
    32
  0
VERTEX
  5
9C74
  8
01
 10
-1218.76
 20
-2373.0599999999999
 30
0.0
 70
    32
  0
VERTEX
  5
9C75
  8
01
 10
-1218.8099999999999
 20
-2373.1379999999999
 30
0.0
 70
    32
  0
VERTEX
  5
9C76
  8
01
 10
-1218.8599999999999
 20
-2373.2190000000001
 30
0.0
 70
    32
  0
VERTEX
  5
9C77
  8
01
 10
-1218.9100000000001
 20
-2373.3000000000002
 30
0.0
 70
    32
  0
SEQEND
  5
9C78
  8
01
  0
LINE
  5
9C79
  8
01
 10
-1218.9091000000001
 20
-2394.2988
 30
0.0
 11
-1218.9091000000001
 21
-2373.2988
 31
0.0
  0
LINE
  5
9C7A
  8
01
 10
-1218.9091000000001
 20
-2373.2988
 30
0.0
 11
-1233.4091000000001
 21
-2373.2988
 31
0.0
  0
LINE
  5
9C7B
  8
01
 10
-1208.9091000000001
 20
-2394.2988
 30
0.0
 11
-1208.9091000000001
 21
-2373.2988
 31
0.0
  0
LINE
  5
9C7C
  8
01
 10
-1104.4091000000001
 20
-2373.2988
 30
0.0
 11
-1118.9091000000001
 21
-2373.2988
 31
0.0
  0
LINE
  5
9C7D
  8
01
 10
-1128.9091000000001
 20
-2394.2988
 30
0.0
 11
-1128.9091000000001
 21
-2373.2988
 31
0.0
  0
LINE
  5
9C7E
  8
01
 10
-1118.9091000000001
 20
-2394.2988
 30
0.0
 11
-1118.9091000000001
 21
-2373.2988
 31
0.0
  0
POLYLINE
  5
9C7F
  8
01
 66
     1
 10
0.0
 20
0.0
 30
0.0
 70
     8
  0
VERTEX
  5
9C80
  8
01
 10
-1118.9100000000001
 20
-2373.3000000000002
 30
0.0
 70
    32
  0
VERTEX
  5
9C81
  8
01
 10
-1118.96
 20
-2373.2190000000001
 30
0.0
 70
    32
  0
VERTEX
  5
9C82
  8
01
 10
-1119.01
 20
-2373.1379999999999
 30
0.0
 70
    32
  0
VERTEX
  5
9C83
  8
01
 10
-1119.0599999999999
 20
-2373.0599999999999
 30
0.0
 70
    32
  0
VERTEX
  5
9C84
  8
01
 10
-1119.1099999999999
 20
-2372.982
 30
0.0
 70
    32
  0
VERTEX
  5
9C85
  8
01
 10
-1119.1700000000001
 20
-2372.9070000000002
 30
0.0
 70
    32
  0
VERTEX
  5
9C86
  8
01
 10
-1119.22
 20
-2372.8290000000002
 30
0.0
 70
    32
  0
VERTEX
  5
9C87
  8
01
 10
-1119.28
 20
-2372.7539999999999
 30
0.0
 70
    32
  0
VERTEX
  5
9C88
  8
01
 10
-1119.3299999999999
 20
-2372.6790000000001
 30
0.0
 70
    32
  0
VERTEX
  5
9C89
  8
01
 10
-1119.3900000000001
 20
-2372.607
 30
0.0
 70
    32
  0
VERTEX
  5
9C8A
  8
01
 10
-1119.45
 20
-2372.5349999999999
 30
0.0
 70
    32
  0
VERTEX
  5
9C8B
  8
01
 10
-1119.51
 20
-2372.4630000000002
 30
0.0
 70
    32
  0
VERTEX
  5
9C8C
  8
01
 10
-1119.5799999999999
 20
-2372.3939999999998
 30
0.0
 70
    32
  0
VERTEX
  5
9C8D
  8
01
 10
-1119.6400000000001
 20
-2372.3220000000001
 30
0.0
 70
    32
  0
VERTEX
  5
9C8E
  8
01
 10
-1119.7
 20
-2372.2559999999999
 30
0.0
 70
    32
  0
VERTEX
  5
9C8F
  8
01
 10
-1119.77
 20
-2372.1869999999999
 30
0.0
 70
    32
  0
VERTEX
  5
9C90
  8
01
 10
-1119.8399999999999
 20
-2372.1210000000001
 30
0.0
 70
    32
  0
VERTEX
  5
9C91
  8
01
 10
-1119.9000000000001
 20
-2372.0549999999998
 30
0.0
 70
    32
  0
VERTEX
  5
9C92
  8
01
 10
-1119.97
 20
-2371.9920000000002
 30
0.0
 70
    32
  0
VERTEX
  5
9C93
  8
01
 10
-1120.04
 20
-2371.9290000000001
 30
0.0
 70
    32
  0
VERTEX
  5
9C94
  8
01
 10
-1120.1099999999999
 20
-2371.866
 30
0.0
 70
    32
  0
VERTEX
  5
9C95
  8
01
 10
-1120.1900000000001
 20
-2371.806
 30
0.0
 70
    32
  0
VERTEX
  5
9C96
  8
01
 10
-1120.26
 20
-2371.7460000000001
 30
0.0
 70
    32
  0
VERTEX
  5
9C97
  8
01
 10
-1120.3299999999999
 20
-2371.6889999999999
 30
0.0
 70
    32
  0
VERTEX
  5
9C98
  8
01
 10
-1120.4100000000001
 20
-2371.6320000000001
 30
0.0
 70
    32
  0
VERTEX
  5
9C99
  8
01
 10
-1120.48
 20
-2371.5749999999998
 30
0.0
 70
    32
  0
VERTEX
  5
9C9A
  8
01
 10
-1120.5599999999999
 20
-2371.5210000000002
 30
0.0
 70
    32
  0
VERTEX
  5
9C9B
  8
01
 10
-1120.6400000000001
 20
-2371.4670000000001
 30
0.0
 70
    32
  0
VERTEX
  5
9C9C
  8
01
 10
-1120.71
 20
-2371.4160000000002
 30
0.0
 70
    32
  0
VERTEX
  5
9C9D
  8
01
 10
-1120.79
 20
-2371.3649999999998
 30
0.0
 70
    32
  0
VERTEX
  5
9C9E
  8
01
 10
-1120.8699999999999
 20
-2371.3139999999999
 30
0.0
 70
    32
  0
VERTEX
  5
9C9F
  8
01
 10
-1120.95
 20
-2371.2660000000001
 30
0.0
 70
    32
  0
VERTEX
  5
9CA0
  8
01
 10
-1121.03
 20
-2371.2179999999998
 30
0.0
 70
    32
  0
VERTEX
  5
9CA1
  8
01
 10
-1121.1199999999999
 20
-2371.1729999999998
 30
0.0
 70
    32
  0
VERTEX
  5
9CA2
  8
01
 10
-1121.2
 20
-2371.1280000000002
 30
0.0
 70
    32
  0
VERTEX
  5
9CA3
  8
01
 10
-1121.28
 20
-2371.0859999999998
 30
0.0
 70
    32
  0
VERTEX
  5
9CA4
  8
01
 10
-1121.3699999999999
 20
-2371.0439999999999
 30
0.0
 70
    32
  0
VERTEX
  5
9CA5
  8
01
 10
-1121.45
 20
-2371.0050000000001
 30
0.0
 70
    32
  0
VERTEX
  5
9CA6
  8
01
 10
-1121.54
 20
-2370.9659999999999
 30
0.0
 70
    32
  0
VERTEX
  5
9CA7
  8
01
 10
-1121.6199999999999
 20
-2370.9270000000001
 30
0.0
 70
    32
  0
VERTEX
  5
9CA8
  8
01
 10
-1121.71
 20
-2370.8910000000001
 30
0.0
 70
    32
  0
VERTEX
  5
9CA9
  8
01
 10
-1121.8
 20
-2370.8580000000002
 30
0.0
 70
    32
  0
VERTEX
  5
9CAA
  8
01
 10
-1121.8900000000001
 20
-2370.8220000000001
 30
0.0
 70
    32
  0
VERTEX
  5
9CAB
  8
01
 10
-1121.97
 20
-2370.791999999999
 30
0.0
 70
    32
  0
VERTEX
  5
9CAC
  8
01
 10
-1122.0599999999999
 20
-2370.7620000000002
 30
0.0
 70
    32
  0
VERTEX
  5
9CAD
  8
01
 10
-1122.1500000000001
 20
-2370.732
 30
0.0
 70
    32
  0
VERTEX
  5
9CAE
  8
01
 10
-1122.24
 20
-2370.7049999999999
 30
0.0
 70
    32
  0
VERTEX
  5
9CAF
  8
01
 10
-1122.3299999999999
 20
-2370.6780000000008
 30
0.0
 70
    32
  0
VERTEX
  5
9CB0
  8
01
 10
-1122.4200000000001
 20
-2370.654
 30
0.0
 70
    32
  0
VERTEX
  5
9CB1
  8
01
 10
-1122.51
 20
-2370.6300000000001
 30
0.0
 70
    32
  0
VERTEX
  5
9CB2
  8
01
 10
-1122.5999999999999
 20
-2370.6089999999999
 30
0.0
 70
    32
  0
VERTEX
  5
9CB3
  8
01
 10
-1122.7
 20
-2370.5880000000011
 30
0.0
 70
    32
  0
VERTEX
  5
9CB4
  8
01
 10
-1122.79
 20
-2370.5700000000002
 30
0.0
 70
    32
  0
VERTEX
  5
9CB5
  8
01
 10
-1122.8800000000001
 20
-2370.5519999999992
 30
0.0
 70
    32
  0
VERTEX
  5
9CB6
  8
01
 10
-1122.97
 20
-2370.5369999999998
 30
0.0
 70
    32
  0
VERTEX
  5
9CB7
  8
01
 10
-1123.0699999999999
 20
-2370.5219999999999
 30
0.0
 70
    32
  0
VERTEX
  5
9CB8
  8
01
 10
-1123.1600000000001
 20
-2370.5100000000002
 30
0.0
 70
    32
  0
VERTEX
  5
9CB9
  8
01
 10
-1123.25
 20
-2370.498
 30
0.0
 70
    32
  0
VERTEX
  5
9CBA
  8
01
 10
-1123.3499999999999
 20
-2370.4859999999999
 30
0.0
 70
    32
  0
VERTEX
  5
9CBB
  8
01
 10
-1123.4400000000001
 20
-2370.48
 30
0.0
 70
    32
  0
VERTEX
  5
9CBC
  8
01
 10
-1123.53
 20
-2370.471
 30
0.0
 70
    32
  0
VERTEX
  5
9CBD
  8
01
 10
-1123.6300000000001
 20
-2370.4679999999998
 30
0.0
 70
    32
  0
VERTEX
  5
9CBE
  8
01
 10
-1123.72
 20
-2370.462
 30
0.0
 70
    32
  0
VERTEX
  5
9CBF
  8
01
 10
-1123.8199999999999
 20
-2370.462
 30
0.0
 70
    32
  0
VERTEX
  5
9CC0
  8
01
 10
-1123.9100000000001
 20
-2370.4589999999998
 30
0.0
 70
    32
  0
VERTEX
  5
9CC1
  8
01
 10
-1124.0
 20
-2370.462
 30
0.0
 70
    32
  0
VERTEX
  5
9CC2
  8
01
 10
-1124.0999999999999
 20
-2370.462
 30
0.0
 70
    32
  0
VERTEX
  5
9CC3
  8
01
 10
-1124.1900000000001
 20
-2370.4679999999998
 30
0.0
 70
    32
  0
VERTEX
  5
9CC4
  8
01
 10
-1124.28
 20
-2370.471
 30
0.0
 70
    32
  0
VERTEX
  5
9CC5
  8
01
 10
-1124.3800000000001
 20
-2370.48
 30
0.0
 70
    32
  0
VERTEX
  5
9CC6
  8
01
 10
-1124.47
 20
-2370.4859999999999
 30
0.0
 70
    32
  0
VERTEX
  5
9CC7
  8
01
 10
-1124.5699999999999
 20
-2370.498
 30
0.0
 70
    32
  0
VERTEX
  5
9CC8
  8
01
 10
-1124.6600000000001
 20
-2370.5100000000002
 30
0.0
 70
    32
  0
VERTEX
  5
9CC9
  8
01
 10
-1124.75
 20
-2370.5219999999999
 30
0.0
 70
    32
  0
VERTEX
  5
9CCA
  8
01
 10
-1124.8399999999999
 20
-2370.5369999999998
 30
0.0
 70
    32
  0
VERTEX
  5
9CCB
  8
01
 10
-1124.9400000000001
 20
-2370.5519999999992
 30
0.0
 70
    32
  0
VERTEX
  5
9CCC
  8
01
 10
-1125.03
 20
-2370.5700000000002
 30
0.0
 70
    32
  0
VERTEX
  5
9CCD
  8
01
 10
-1125.1199999999999
 20
-2370.5880000000011
 30
0.0
 70
    32
  0
VERTEX
  5
9CCE
  8
01
 10
-1125.21
 20
-2370.6089999999999
 30
0.0
 70
    32
  0
VERTEX
  5
9CCF
  8
01
 10
-1125.3
 20
-2370.6300000000001
 30
0.0
 70
    32
  0
VERTEX
  5
9CD0
  8
01
 10
-1125.4000000000001
 20
-2370.654
 30
0.0
 70
    32
  0
VERTEX
  5
9CD1
  8
01
 10
-1125.49
 20
-2370.6780000000008
 30
0.0
 70
    32
  0
VERTEX
  5
9CD2
  8
01
 10
-1125.5799999999999
 20
-2370.7049999999999
 30
0.0
 70
    32
  0
VERTEX
  5
9CD3
  8
01
 10
-1125.6700000000001
 20
-2370.732
 30
0.0
 70
    32
  0
VERTEX
  5
9CD4
  8
01
 10
-1125.76
 20
-2370.7620000000002
 30
0.0
 70
    32
  0
VERTEX
  5
9CD5
  8
01
 10
-1125.8399999999999
 20
-2370.791999999999
 30
0.0
 70
    32
  0
VERTEX
  5
9CD6
  8
01
 10
-1125.9300000000001
 20
-2370.8220000000001
 30
0.0
 70
    32
  0
VERTEX
  5
9CD7
  8
01
 10
-1126.02
 20
-2370.8580000000002
 30
0.0
 70
    32
  0
VERTEX
  5
9CD8
  8
01
 10
-1126.1099999999999
 20
-2370.8910000000001
 30
0.0
 70
    32
  0
VERTEX
  5
9CD9
  8
01
 10
-1126.1900000000001
 20
-2370.9270000000001
 30
0.0
 70
    32
  0
VERTEX
  5
9CDA
  8
01
 10
-1126.28
 20
-2370.9659999999999
 30
0.0
 70
    32
  0
VERTEX
  5
9CDB
  8
01
 10
-1126.3699999999999
 20
-2371.0050000000001
 30
0.0
 70
    32
  0
VERTEX
  5
9CDC
  8
01
 10
-1126.45
 20
-2371.0439999999999
 30
0.0
 70
    32
  0
VERTEX
  5
9CDD
  8
01
 10
-1126.54
 20
-2371.0859999999998
 30
0.0
 70
    32
  0
VERTEX
  5
9CDE
  8
01
 10
-1126.6199999999999
 20
-2371.1280000000002
 30
0.0
 70
    32
  0
VERTEX
  5
9CDF
  8
01
 10
-1126.7
 20
-2371.1729999999998
 30
0.0
 70
    32
  0
VERTEX
  5
9CE0
  8
01
 10
-1126.78
 20
-2371.2179999999998
 30
0.0
 70
    32
  0
VERTEX
  5
9CE1
  8
01
 10
-1126.8699999999999
 20
-2371.2660000000001
 30
0.0
 70
    32
  0
VERTEX
  5
9CE2
  8
01
 10
-1126.95
 20
-2371.3139999999999
 30
0.0
 70
    32
  0
VERTEX
  5
9CE3
  8
01
 10
-1127.03
 20
-2371.3649999999998
 30
0.0
 70
    32
  0
VERTEX
  5
9CE4
  8
01
 10
-1127.0999999999999
 20
-2371.4160000000002
 30
0.0
 70
    32
  0
VERTEX
  5
9CE5
  8
01
 10
-1127.1800000000001
 20
-2371.4670000000001
 30
0.0
 70
    32
  0
VERTEX
  5
9CE6
  8
01
 10
-1127.26
 20
-2371.5210000000002
 30
0.0
 70
    32
  0
VERTEX
  5
9CE7
  8
01
 10
-1127.3399999999999
 20
-2371.5749999999998
 30
0.0
 70
    32
  0
VERTEX
  5
9CE8
  8
01
 10
-1127.4100000000001
 20
-2371.6320000000001
 30
0.0
 70
    32
  0
VERTEX
  5
9CE9
  8
01
 10
-1127.49
 20
-2371.6889999999999
 30
0.0
 70
    32
  0
VERTEX
  5
9CEA
  8
01
 10
-1127.5599999999999
 20
-2371.7460000000001
 30
0.0
 70
    32
  0
VERTEX
  5
9CEB
  8
01
 10
-1127.6300000000001
 20
-2371.806
 30
0.0
 70
    32
  0
VERTEX
  5
9CEC
  8
01
 10
-1127.7
 20
-2371.866
 30
0.0
 70
    32
  0
VERTEX
  5
9CED
  8
01
 10
-1127.78
 20
-2371.9290000000001
 30
0.0
 70
    32
  0
VERTEX
  5
9CEE
  8
01
 10
-1127.8499999999999
 20
-2371.9920000000002
 30
0.0
 70
    32
  0
VERTEX
  5
9CEF
  8
01
 10
-1127.9100000000001
 20
-2372.0549999999998
 30
0.0
 70
    32
  0
VERTEX
  5
9CF0
  8
01
 10
-1127.98
 20
-2372.1210000000001
 30
0.0
 70
    32
  0
VERTEX
  5
9CF1
  8
01
 10
-1128.05
 20
-2372.1869999999999
 30
0.0
 70
    32
  0
VERTEX
  5
9CF2
  8
01
 10
-1128.1099999999999
 20
-2372.2559999999999
 30
0.0
 70
    32
  0
VERTEX
  5
9CF3
  8
01
 10
-1128.1800000000001
 20
-2372.3220000000001
 30
0.0
 70
    32
  0
VERTEX
  5
9CF4
  8
01
 10
-1128.24
 20
-2372.3939999999998
 30
0.0
 70
    32
  0
VERTEX
  5
9CF5
  8
01
 10
-1128.3
 20
-2372.4630000000002
 30
0.0
 70
    32
  0
VERTEX
  5
9CF6
  8
01
 10
-1128.3599999999999
 20
-2372.5349999999999
 30
0.0
 70
    32
  0
VERTEX
  5
9CF7
  8
01
 10
-1128.4200000000001
 20
-2372.607
 30
0.0
 70
    32
  0
VERTEX
  5
9CF8
  8
01
 10
-1128.48
 20
-2372.6790000000001
 30
0.0
 70
    32
  0
VERTEX
  5
9CF9
  8
01
 10
-1128.54
 20
-2372.7539999999999
 30
0.0
 70
    32
  0
VERTEX
  5
9CFA
  8
01
 10
-1128.5999999999999
 20
-2372.8290000000002
 30
0.0
 70
    32
  0
VERTEX
  5
9CFB
  8
01
 10
-1128.6500000000001
 20
-2372.9070000000002
 30
0.0
 70
    32
  0
VERTEX
  5
9CFC
  8
01
 10
-1128.71
 20
-2372.982
 30
0.0
 70
    32
  0
VERTEX
  5
9CFD
  8
01
 10
-1128.76
 20
-2373.0599999999999
 30
0.0
 70
    32
  0
VERTEX
  5
9CFE
  8
01
 10
-1128.8099999999999
 20
-2373.1379999999999
 30
0.0
 70
    32
  0
VERTEX
  5
9CFF
  8
01
 10
-1128.8599999999999
 20
-2373.2190000000001
 30
0.0
 70
    32
  0
VERTEX
  5
9D00
  8
01
 10
-1128.9100000000001
 20
-2373.3000000000002
 30
0.0
 70
    32
  0
SEQEND
  5
9D01
  8
01
  0
LINE
  5
9D02
  8
01
 10
-1118.9091000000001
 20
-2394.2988
 30
0.0
 11
-1128.9091000000001
 21
-2394.2988
 31
0.0
  0
LINE
  5
9D03
  8
01
 10
-1103.9091000000001
 20
-2361.7988999999998
 30
0.0
 11
-1103.9091000000001
 21
-2372.799
 31
0.0
  0
LINE
  5
9D04
  8
01
 10
-1104.4091000000001
 20
-2361.2988
 30
0.0
 11
-1103.9091000000001
 21
-2361.7988999999998
 31
0.0
  0
LINE
  5
9D05
  8
01
 10
-1103.9091000000001
 20
-2372.799
 30
0.0
 11
-1104.4091000000001
 21
-2373.2988
 31
0.0
  0
TEXT
  5
9D06
  8
1TEXT
 10
-1233.4272000000001
 20
-2271.2991000000002
 30
0.0
 40
8.0001000000002023
  1
PA01-090
  0
TEXT
  5
9D07
  8
1TEXT
 10
-1228.297752857143
 20
-2459.7986999999998
 30
0.0
 40
3.999900000000252
  1
表面処理：
 72
     1
 11
-1217.6504
 21
-2459.7986999999998
 31
0.0
  0
TEXT
  5
9D08
  8
1TEXT
 10
-1231.11673
 20
-2473.6341000000002
 30
0.0
 40
3.999900000000252
  1
黒アルマイト
 72
     1
 11
-1217.6504
 21
-2473.6341000000002
 31
0.0
  0
LINE
  5
9D09
  8
1DIM
 10
-1235.0504000000001
 20
-2454.2988
 30
0.0
 11
-1165.0504000000001
 21
-2454.2988
 31
0.0
  0
LINE
  5
9D0A
  8
1DIM
 10
-1235.0504000000001
 20
-2468.2988999999998
 30
0.0
 11
-1165.0504000000001
 21
-2468.2988999999998
 31
0.0
  0
LINE
  5
9D0B
  8
1DIM
 10
-1235.0504000000001
 20
-2461.2986999999998
 30
0.0
 11
-1165.0504000000001
 21
-2461.2986999999998
 31
0.0
  0
LINE
  5
9D0C
  8
1DIM
 10
-1235.0504000000001
 20
-2475.2988
 30
0.0
 11
-1165.0504000000001
 21
-2475.2988
 31
0.0
  0
LINE
  5
9D0D
  8
1DIM
 10
-1235.0504000000001
 20
-2475.2988
 30
0.0
 11
-1165.0504000000001
 21
-2475.2988
 31
0.0
  0
LINE
  5
9D0E
  8
1DIM
 10
-1200.0504000000001
 20
-2454.2988
 30
0.0
 11
-1200.0504000000001
 21
-2475.2988
 31
0.0
  0
TEXT
  5
9D0F
  8
1TEXT
 10
-1196.3167249999999
 20
-2474.0133000000001
 30
0.0
 40
3.999900000000252
  1
PA01K090
 72
     1
 11
-1182.6504
 21
-2474.0133000000001
 31
0.0
  0
TEXT
  5
9D10
  8
1TEXT
 10
-1196.3167249999999
 20
-2467.0131000000001
 30
0.0
 40
3.9998999999997968
  1
PA01S090
 72
     1
 11
-1182.6504
 21
-2467.0131000000001
 31
0.0
  0
TEXT
  5
9D11
  8
1TEXT
 10
-1189.4502299999999
 20
-2459.7986999999998
 30
0.0
 40
3.999900000000252
  1
コード
 72
     1
 11
-1182.6504
 21
-2459.7986999999998
 31
0.0
  0
LINE
  5
9D12
  8
1DIM
 10
-1235.0504000000001
 20
-2475.2988
 30
0.0
 11
-1235.0504000000001
 21
-2454.2988
 31
0.0
  0
LINE
  5
9D13
  8
1DIM
 10
-1165.0504000000001
 20
-2475.2988
 30
0.0
 11
-1165.0504000000001
 21
-2454.2988
 31
0.0
  0
LINE
  5
9D14
  8
1CENTER
 10
-1213.9091000000001
 20
-2384.2988999999998
 30
0.0
 11
-1213.9091000000001
 21
-2396.2988999999998
 31
0.0
  0
LINE
  5
9D15
  8
1CENTER
 10
-1123.9091000000001
 20
-2384.2988999999998
 30
0.0
 11
-1123.9091000000001
 21
-2396.2988999999998
 31
0.0
  0
SOLID
  5
9D16
  8
1DIM
 10
-1057.0483999999999
 20
-2396.1347999999998
 30
0.0
 11
-1057.9091000000001
 21
-2394.2988
 31
0.0
 12
-1056.4994999999999
 22
-2395.7562000000012
 32
0.0
 13
-1056.4994999999999
 23
-2395.7562000000012
 33
0.0
  0
LINE
  5
9D17
  8
1DIM
 10
-1056.7739999999999
 20
-2395.9454999999998
 30
0.0
 11
-1043.6389999999999
 21
-2414.9987999999998
 31
0.0
  0
LINE
  5
9D18
  8
1DIM
 10
-1043.6389999999999
 20
-2414.9987999999998
 30
0.0
 11
-1023.7723
 21
-2414.9987999999998
 31
0.0
  0
TEXT
  5
9D19
  8
1DIM
 10
-1040.9390000000001
 20
-2414.2988999999998
 30
0.0
 40
3.5000999999997471
  1
M4-10
  0
LINE
  5
9D1A
  8
1CENTER
 10
-1057.9091000000001
 20
-2384.2988999999998
 30
0.0
 11
-1057.9091000000001
 21
-2396.2988999999998
 31
0.0
  0
LINE
  5
9D1B
  8
1DIM
 10
-1213.9091000000001
 20
-2396.2988999999998
 30
0.0
 11
-1213.9091000000001
 21
-2425.299
 31
0.0
  0
LINE
  5
9D1C
  8
1DIM
 10
-1123.9091000000001
 20
-2396.2988999999998
 30
0.0
 11
-1123.9091000000001
 21
-2425.299
 31
0.0
  0
LINE
  5
9D1D
  8
1DIM
 10
-1211.9091000000001
 20
-2424.2988
 30
0.0
 11
-1125.9091000000001
 21
-2424.2988
 31
0.0
  0
LINE
  5
9D1E
  8
0
  6
BYBLOCK
 10
-1211.9091000000001
 20
-2424.8348999999998
 30
0.0
 11
-1213.9091000000001
 21
-2424.2988
 31
0.0
  0
LINE
  5
9D1F
  8
0
  6
BYBLOCK
 10
-1213.9091000000001
 20
-2424.2988
 30
0.0
 11
-1211.9091000000001
 21
-2423.7629999999999
 31
0.0
  0
LINE
  5
9D20
  8
0
  6
BYBLOCK
 10
-1213.9091000000001
 20
-2424.2988
 30
0.0
 11
-1211.9091000000001
 21
-2424.2988
 31
0.0
  0
LINE
  5
9D21
  8
0
  6
BYBLOCK
 10
-1125.9091000000001
 20
-2423.7629999999999
 30
0.0
 11
-1123.9091000000001
 21
-2424.2988
 31
0.0
  0
LINE
  5
9D22
  8
0
  6
BYBLOCK
 10
-1123.9091000000001
 20
-2424.2988
 30
0.0
 11
-1125.9091000000001
 21
-2424.8348999999998
 31
0.0
  0
LINE
  5
9D23
  8
0
  6
BYBLOCK
 10
-1123.9091000000001
 20
-2424.2988
 30
0.0
 11
-1125.9091000000001
 21
-2424.2988
 31
0.0
  0
TEXT
  5
9D24
  8
1DIM
 10
-1173.2841000000001
 20
-2423.5989
 30
0.0
 40
3.5000999999997471
  1
P90 
  0
LINE
  5
9D25
  8
1DIM
 10
-1208.9091000000001
 20
-2394.2988
 30
0.0
 11
-1208.9091000000001
 21
-2415.2988
 31
0.0
  0
LINE
  5
9D26
  8
1DIM
 10
-1128.9091000000001
 20
-2394.2988
 30
0.0
 11
-1128.9091000000001
 21
-2415.2988
 31
0.0
  0
LINE
  5
9D27
  8
1DIM
 10
-1206.9091000000001
 20
-2414.2988999999998
 30
0.0
 11
-1130.9091000000001
 21
-2414.2988999999998
 31
0.0
  0
LINE
  5
9D28
  8
0
  6
BYBLOCK
 10
-1206.9091000000001
 20
-2414.8346999999999
 30
0.0
 11
-1208.9091000000001
 21
-2414.2988999999998
 31
0.0
  0
LINE
  5
9D29
  8
0
  6
BYBLOCK
 10
-1208.9091000000001
 20
-2414.2988999999998
 30
0.0
 11
-1206.9091000000001
 21
-2413.763100000001
 31
0.0
  0
LINE
  5
9D2A
  8
0
  6
BYBLOCK
 10
-1208.9091000000001
 20
-2414.2988999999998
 30
0.0
 11
-1206.9091000000001
 21
-2414.2988999999998
 31
0.0
  0
LINE
  5
9D2B
  8
0
  6
BYBLOCK
 10
-1130.9091000000001
 20
-2413.763100000001
 30
0.0
 11
-1128.9091000000001
 21
-2414.2988999999998
 31
0.0
  0
LINE
  5
9D2C
  8
0
  6
BYBLOCK
 10
-1128.9091000000001
 20
-2414.2988999999998
 30
0.0
 11
-1130.9091000000001
 21
-2414.8346999999999
 31
0.0
  0
LINE
  5
9D2D
  8
0
  6
BYBLOCK
 10
-1128.9091000000001
 20
-2414.2988999999998
 30
0.0
 11
-1130.9091000000001
 21
-2414.2988999999998
 31
0.0
  0
TEXT
  5
9D2E
  8
1DIM
 10
-1171.5341000000001
 20
-2413.5990000000002
 30
0.0
 40
3.5001000000002018
  1
80 
  0
LINE
  5
9D2F
  8
1DIM
 10
-1118.9091000000001
 20
-2394.2988
 30
0.0
 11
-1082.9091000000001
 21
-2394.2988
 31
0.0
  0
LINE
  5
9D30
  8
1DIM
 10
-1104.4091000000001
 20
-2373.2988
 30
0.0
 11
-1082.9091000000001
 21
-2373.2988
 31
0.0
  0
LINE
  5
9D31
  8
1DIM
 10
-1083.9091000000001
 20
-2392.299
 30
0.0
 11
-1083.9091000000001
 21
-2375.2988999999998
 31
0.0
  0
LINE
  5
9D32
  8
0
  6
BYBLOCK
 10
-1083.3732
 20
-2392.299
 30
0.0
 11
-1083.9091000000001
 21
-2394.2988
 31
0.0
  0
LINE
  5
9D33
  8
0
  6
BYBLOCK
 10
-1083.9091000000001
 20
-2394.2988
 30
0.0
 11
-1084.4449999999999
 21
-2392.299
 31
0.0
  0
LINE
  5
9D34
  8
0
  6
BYBLOCK
 10
-1083.9091000000001
 20
-2394.2988
 30
0.0
 11
-1083.9091000000001
 21
-2392.299
 31
0.0
  0
LINE
  5
9D35
  8
0
  6
BYBLOCK
 10
-1084.4449999999999
 20
-2375.2988999999998
 30
0.0
 11
-1083.9091000000001
 21
-2373.2988
 31
0.0
  0
LINE
  5
9D36
  8
0
  6
BYBLOCK
 10
-1083.9091000000001
 20
-2373.2988
 30
0.0
 11
-1083.3732
 21
-2375.2988999999998
 31
0.0
  0
LINE
  5
9D37
  8
0
  6
BYBLOCK
 10
-1083.9091000000001
 20
-2373.2988
 30
0.0
 11
-1083.9091000000001
 21
-2375.2988999999998
 31
0.0
  0
TEXT
  5
9D38
  8
1DIM
 10
-1084.6090999999999
 20
-2386.1322
 30
0.0
 40
3.5
  1
21 
 50
90.0
 41
0.9999000000002524
  0
LINE
  5
9D39
  8
1DIM
 10
-1118.9091000000001
 20
-2394.2988
 30
0.0
 11
-1072.9091000000001
 21
-2394.2988
 31
0.0
  0
LINE
  5
9D3A
  8
1DIM
 10
-1104.4091000000001
 20
-2361.2988
 30
0.0
 11
-1072.9091000000001
 21
-2361.2988
 31
0.0
  0
LINE
  5
9D3B
  8
1DIM
 10
-1073.9091000000001
 20
-2392.299
 30
0.0
 11
-1073.9091000000001
 21
-2363.2988999999998
 31
0.0
  0
LINE
  5
9D3C
  8
0
  6
BYBLOCK
 10
-1073.3732
 20
-2392.299
 30
0.0
 11
-1073.9091000000001
 21
-2394.2988
 31
0.0
  0
LINE
  5
9D3D
  8
0
  6
BYBLOCK
 10
-1073.9091000000001
 20
-2394.2988
 30
0.0
 11
-1074.4449999999999
 21
-2392.299
 31
0.0
  0
LINE
  5
9D3E
  8
0
  6
BYBLOCK
 10
-1073.9091000000001
 20
-2394.2988
 30
0.0
 11
-1073.9091000000001
 21
-2392.299
 31
0.0
  0
LINE
  5
9D3F
  8
0
  6
BYBLOCK
 10
-1074.4449999999999
 20
-2363.2988999999998
 30
0.0
 11
-1073.9091000000001
 21
-2361.2988
 31
0.0
  0
LINE
  5
9D40
  8
0
  6
BYBLOCK
 10
-1073.9091000000001
 20
-2361.2988
 30
0.0
 11
-1073.3732
 21
-2363.2988999999998
 31
0.0
  0
LINE
  5
9D41
  8
0
  6
BYBLOCK
 10
-1073.9091000000001
 20
-2361.2988
 30
0.0
 11
-1073.9091000000001
 21
-2363.2988999999998
 31
0.0
  0
TEXT
  5
9D42
  8
1DIM
 10
-1074.6090999999999
 20
-2380.7157000000002
 30
0.0
 40
3.5
  1
33 
 50
90.0
 41
0.9999000000002524
  0
LINE
  5
9D43
  8
1CENTER
 10
-1213.9091000000001
 20
-2298.2991000000002
 30
0.0
 11
-1213.9091000000001
 21
-2292.2991000000011
 31
0.0
  0
LINE
  5
9D44
  8
1CENTER
 10
-1216.9091000000001
 20
-2295.2991000000002
 30
0.0
 11
-1210.9091000000001
 21
-2295.2991000000002
 31
0.0
  0
LINE
  5
9D45
  8
1CENTER
 10
-1123.9091000000001
 20
-2298.2991000000002
 30
0.0
 11
-1123.9091000000001
 21
-2292.2991000000011
 31
0.0
  0
LINE
  5
9D46
  8
1CENTER
 10
-1126.9091000000001
 20
-2295.2991000000002
 30
0.0
 11
-1120.9091000000001
 21
-2295.2991000000002
 31
0.0
  0
TEXT
  5
9D47
  8
1TEXT
 10
-1230.30521
 20
-2450.5329000000011
 30
0.0
 40
3.999900000000252
  1
材質：アルミニウム
 72
     1
 11
-1209.3724
 21
-2450.5329000000011
 31
0.0
  0
LINE
  5
9D48
  8
1DIM
 10
-1104.4091000000001
 20
-2289.2991000000002
 30
0.0
 11
-1082.9091000000001
 21
-2289.2991000000002
 31
0.0
  0
LINE
  5
9D49
  8
1DIM
 10
-1104.4091000000001
 20
-2301.2991000000002
 30
0.0
 11
-1082.9091000000001
 21
-2301.2991000000002
 31
0.0
  0
LINE
  5
9D4A
  8
1DIM
 10
-1083.9091000000001
 20
-2291.2988999999998
 30
0.0
 11
-1083.9091000000001
 21
-2299.299
 31
0.0
  0
LINE
  5
9D4B
  8
0
  6
BYBLOCK
 10
-1084.4449999999999
 20
-2291.2988999999998
 30
0.0
 11
-1083.9091000000001
 21
-2289.2991000000002
 31
0.0
  0
LINE
  5
9D4C
  8
0
  6
BYBLOCK
 10
-1083.9091000000001
 20
-2289.2991000000002
 30
0.0
 11
-1083.3732
 21
-2291.2988999999998
 31
0.0
  0
LINE
  5
9D4D
  8
0
  6
BYBLOCK
 10
-1083.9091000000001
 20
-2289.2991000000002
 30
0.0
 11
-1083.9091000000001
 21
-2291.2988999999998
 31
0.0
  0
LINE
  5
9D4E
  8
0
  6
BYBLOCK
 10
-1083.3732
 20
-2299.299
 30
0.0
 11
-1083.9091000000001
 21
-2301.2991000000002
 31
0.0
  0
LINE
  5
9D4F
  8
0
  6
BYBLOCK
 10
-1083.9091000000001
 20
-2301.2991000000002
 30
0.0
 11
-1084.4449999999999
 21
-2299.299
 31
0.0
  0
LINE
  5
9D50
  8
0
  6
BYBLOCK
 10
-1083.9091000000001
 20
-2301.2991000000002
 30
0.0
 11
-1083.9091000000001
 21
-2299.299
 31
0.0
  0
TEXT
  5
9D51
  8
1DIM
 10
-1084.6090999999999
 20
-2300.0823
 30
0.0
 40
3.5
  1
φ12
 50
90.0
 41
0.9998999999997977
  0
LINE
  5
9D52
  8
1DIM
 10
-1103.9091000000001
 20
-2300.799
 30
0.0
 11
-1103.9091000000001
 21
-2322.2991000000002
 31
0.0
  0
LINE
  5
9D53
  8
1DIM
 10
-1233.9091000000001
 20
-2300.799
 30
0.0
 11
-1233.9091000000001
 21
-2322.2991000000002
 31
0.0
  0
LINE
  5
9D54
  8
1DIM
 10
-1105.9091000000001
 20
-2321.2988999999998
 30
0.0
 11
-1231.9091000000001
 21
-2321.2988999999998
 31
0.0
  0
LINE
  5
9D55
  8
0
  6
BYBLOCK
 10
-1105.9091000000001
 20
-2320.7631000000001
 30
0.0
 11
-1103.9091000000001
 21
-2321.2988999999998
 31
0.0
  0
LINE
  5
9D56
  8
0
  6
BYBLOCK
 10
-1103.9091000000001
 20
-2321.2988999999998
 30
0.0
 11
-1105.9091000000001
 21
-2321.835
 31
0.0
  0
LINE
  5
9D57
  8
0
  6
BYBLOCK
 10
-1103.9091000000001
 20
-2321.2988999999998
 30
0.0
 11
-1105.9091000000001
 21
-2321.2988999999998
 31
0.0
  0
LINE
  5
9D58
  8
0
  6
BYBLOCK
 10
-1231.9091000000001
 20
-2321.835
 30
0.0
 11
-1233.9091000000001
 21
-2321.2988999999998
 31
0.0
  0
LINE
  5
9D59
  8
0
  6
BYBLOCK
 10
-1233.9091000000001
 20
-2321.2988999999998
 30
0.0
 11
-1231.9091000000001
 21
-2320.7631000000001
 31
0.0
  0
LINE
  5
9D5A
  8
0
  6
BYBLOCK
 10
-1233.9091000000001
 20
-2321.2988999999998
 30
0.0
 11
-1231.9091000000001
 21
-2321.2988999999998
 31
0.0
  0
TEXT
  5
9D5B
  8
1DIM
 10
-1172.7008000000001
 20
-2320.5990000000002
 30
0.0
 40
3.5001000000002018
  1
130 
  0
LINE
  5
9D5C
  8
1DIM
 10
-1208.9091000000001
 20
-2394.2988
 30
0.0
 11
-1208.9091000000001
 21
-2415.2988
 31
0.0
  0
LINE
  5
9D5D
  8
1DIM
 10
-1218.9091000000001
 20
-2394.2988
 30
0.0
 11
-1218.9091000000001
 21
-2415.2988
 31
0.0
  0
LINE
  5
9D5E
  8
1DIM
 10
-1210.9091000000001
 20
-2414.2988999999998
 30
0.0
 11
-1216.9091000000001
 21
-2414.2988999999998
 31
0.0
  0
LINE
  5
9D5F
  8
1DIM
 10
-1218.9091000000001
 20
-2414.2988999999998
 30
0.0
 11
-1231.9757999999999
 21
-2414.2988999999998
 31
0.0
  0
LINE
  5
9D60
  8
0
  6
BYBLOCK
 10
-1210.9091000000001
 20
-2413.763100000001
 30
0.0
 11
-1208.9091000000001
 21
-2414.2988999999998
 31
0.0
  0
LINE
  5
9D61
  8
0
  6
BYBLOCK
 10
-1208.9091000000001
 20
-2414.2988999999998
 30
0.0
 11
-1210.9091000000001
 21
-2414.8346999999999
 31
0.0
  0
LINE
  5
9D62
  8
0
  6
BYBLOCK
 10
-1208.9091000000001
 20
-2414.2988999999998
 30
0.0
 11
-1210.9091000000001
 21
-2414.2988999999998
 31
0.0
  0
LINE
  5
9D63
  8
0
  6
BYBLOCK
 10
-1216.9091000000001
 20
-2414.8346999999999
 30
0.0
 11
-1218.9091000000001
 21
-2414.2988999999998
 31
0.0
  0
LINE
  5
9D64
  8
0
  6
BYBLOCK
 10
-1218.9091000000001
 20
-2414.2988999999998
 30
0.0
 11
-1216.9091000000001
 21
-2413.763100000001
 31
0.0
  0
LINE
  5
9D65
  8
0
  6
BYBLOCK
 10
-1218.9091000000001
 20
-2414.2988999999998
 30
0.0
 11
-1216.9091000000001
 21
-2414.2988999999998
 31
0.0
  0
TEXT
  5
9D66
  8
1DIM
 10
-1230.9340999999999
 20
-2413.5990000000002
 30
0.0
 40
3.5001000000002018
  1
φ10
  0
TEXT
  5
9D67
  8
1TEXT
 10
-1231.1790000000001
 20
-2466.8847000000001
 30
0.0
 40
3.999900000000252
  1
ブラストアルマイト
 41
0.6999999999999255
  0
VIEWPORT
  5
57
 67
     1
  8
0
 10
5.6154163991372421
 20
3.9020832317081959
 30
0.0
 40
12.7102895252974
 41
8.7461330960491512
 68
     1
 69
     1
1001
ACAD
1000
MVIEW
1002
{
1070
    16
1010
0.0
1020
0.0
1030
0.0
1010
0.0
1020
0.0
1030
1.0
1040
0.0
1040
8.7461330960491512
1040
5.6154163991372421
1040
3.9020832317081959
1040
50.0
1040
0.0
1040
0.0
1070
     0
1070
   100
1070
     1
1070
     1
1070
     0
1070
     0
1070
     0
1070
     0
1040
0.0
1040
0.0
1040
0.0
1040
10.0
1040
10.0
1040
10.0
1040
10.0
1070
     0
1002
{
1002
}
1002
}
  0
ENDSEC
  0
EOF
