  0
SECTION
  2
HEADER
  9
$ACADVER
  1
AC1009
  9
$INSBASE
 10
0.0
 20
0.0
 30
0.0
  9
$EXTMIN
 10
-0.4190894748531711
 20
-239.46248115200041
 30
0.0
  9
$EXTMAX
 10
383.47633067278258
 20
156.01135286517791
 30
0.0
  9
$LIMMIN
 10
0.0
 20
0.0
  9
$LIMMAX
 10
420.0
 20
297.0
  9
$ORTHOMODE
 70
     0
  9
$REGENMODE
 70
     1
  9
$FILLMODE
 70
     1
  9
$QTEXTMODE
 70
     0
  9
$MIRRTEXT
 70
     1
  9
$DRAGMODE
 70
     2
  9
$LTSCALE
 40
0.5
  9
$OSMODE
 70
  2175
  9
$ATTMODE
 70
     1
  9
$TEXTSIZE
 40
4.0
  9
$TRACEWID
 40
1.0
  9
$TEXTSTYLE
  7
STANDARD
  9
$CLAYER
  8
1TEXT
  9
$CELTYPE
  6
BYLAYER
  9
$CECOLOR
 62
   256
  9
$DIMSCALE
 40
1.0
  9
$DIMASZ
 40
2.0
  9
$DIMEXO
 40
0.0
  9
$DIMDLI
 40
7.0
  9
$DIMRND
 40
0.0
  9
$DIMDLE
 40
0.0
  9
$DIMEXE
 40
1.0
  9
$DIMTP
 40
0.0
  9
$DIMTM
 40
0.0
  9
$DIMTXT
 40
3.5
  9
$DIMCEN
 40
0.0
  9
$DIMTSZ
 40
0.0
  9
$DIMTOL
 70
     0
  9
$DIMLIM
 70
     0
  9
$DIMTIH
 70
     0
  9
$DIMTOH
 70
     0
  9
$DIMSE1
 70
     0
  9
$DIMSE2
 70
     0
  9
$DIMTAD
 70
     1
  9
$DIMZIN
 70
     8
  9
$DIMBLK
  1

  9
$DIMASO
 70
     1
  9
$DIMSHO
 70
     1
  9
$DIMPOST
  1
 
  9
$DIMAPOST
  1

  9
$DIMALT
 70
     0
  9
$DIMALTD
 70
     2
  9
$DIMALTF
 40
25.399999999999999
  9
$DIMLFAC
 40
1.0
  9
$DIMTOFL
 70
     1
  9
$DIMTVP
 40
0.0
  9
$DIMTIX
 70
     0
  9
$DIMSOXD
 70
     0
  9
$DIMSAH
 70
     1
  9
$DIMBLK1
  1
OPEN30
  9
$DIMBLK2
  1
OPEN30
  9
$DIMSTYLE
  2
NEWX10
  9
$DIMCLRD
 70
   256
  9
$DIMCLRE
 70
   256
  9
$DIMCLRT
 70
   201
  9
$DIMTFAC
 40
0.7
  9
$DIMGAP
 40
0.7
  9
$LUNITS
 70
     2
  9
$LUPREC
 70
     4
  9
$SKETCHINC
 40
1.0
  9
$FILLETRAD
 40
0.5
  9
$AUNITS
 70
     0
  9
$AUPREC
 70
     2
  9
$MENU
  1
acad
  9
$ELEVATION
 40
0.0
  9
$PELEVATION
 40
0.0
  9
$THICKNESS
 40
0.0
  9
$LIMCHECK
 70
     0
  9
$BLIPMODE
 70
     0
  9
$CHAMFERA
 40
10.0
  9
$CHAMFERB
 40
10.0
  9
$SKPOLY
 70
     0
  9
$TDCREATE
 40
2453033.7326634838
  9
$TDUPDATE
 40
2454582.6858255561
  9
$TDINDWG
 40
0.4352081597
  9
$TDUSRTIMER
 40
0.4352081597
  9
$USRTIMER
 70
     1
  9
$ANGBASE
 50
0.0
  9
$ANGDIR
 70
     0
  9
$PDMODE
 70
     0
  9
$PDSIZE
 40
0.0
  9
$PLINEWID
 40
0.0
  9
$COORDS
 70
     2
  9
$SPLFRAME
 70
     0
  9
$SPLINETYPE
 70
     6
  9
$SPLINESEGS
 70
     8
  9
$ATTDIA
 70
     0
  9
$ATTREQ
 70
     1
  9
$HANDLING
 70
     1
  9
$HANDSEED
  5
4EA9
  9
$SURFTAB1
 70
     6
  9
$SURFTAB2
 70
     6
  9
$SURFTYPE
 70
     6
  9
$SURFU
 70
     6
  9
$SURFV
 70
     6
  9
$UCSNAME
  2

  9
$UCSORG
 10
0.0
 20
0.0
 30
0.0
  9
$UCSXDIR
 10
1.0
 20
0.0
 30
0.0
  9
$UCSYDIR
 10
0.0
 20
1.0
 30
0.0
  9
$PUCSNAME
  2

  9
$PUCSORG
 10
0.0
 20
0.0
 30
0.0
  9
$PUCSXDIR
 10
1.0
 20
0.0
 30
0.0
  9
$PUCSYDIR
 10
0.0
 20
1.0
 30
0.0
  9
$USERI1
 70
     0
  9
$USERI2
 70
     0
  9
$USERI3
 70
     0
  9
$USERI4
 70
     0
  9
$USERI5
 70
     0
  9
$USERR1
 40
0.0
  9
$USERR2
 40
0.0
  9
$USERR3
 40
0.0
  9
$USERR4
 40
0.0
  9
$USERR5
 40
32.0
  9
$WORLDVIEW
 70
     1
  9
$SHADEDGE
 70
     3
  9
$SHADEDIF
 70
    70
  9
$TILEMODE
 70
     1
  9
$MAXACTVP
 70
    48
  9
$PLIMCHECK
 70
     0
  9
$PEXTMIN
 10
1.0000000000000000E+020
 20
1.0000000000000000E+020
 30
1.0000000000000000E+020
  9
$PEXTMAX
 10
-1.0000000000000000E+020
 20
-1.0000000000000000E+020
 30
-1.0000000000000000E+020
  9
$PLIMMIN
 10
0.0
 20
0.0
  9
$PLIMMAX
 10
420.0
 20
297.0
  9
$UNITMODE
 70
     0
  9
$VISRETAIN
 70
     1
  9
$PLINEGEN
 70
     0
  9
$PSLTSCALE
 70
     1
  0
ENDSEC
  0
SECTION
  2
TABLES
  0
TABLE
  2
VPORT
 70
     8
  0
VPORT
  2
*ACTIVE
 70
     0
 10
0.0
 20
0.0
 11
1.0
 21
1.0
 12
191.52349825386909
 22
-41.73116492967813
 13
0.0
 23
0.0
 14
10.0
 24
10.0
 15
10.0
 25
10.0
 16
0.0
 26
0.0
 36
1.0
 17
0.0
 27
0.0
 37
0.0
 40
419.67278372237718
 41
1.508086253369272
 42
50.0
 43
0.0
 44
0.0
 50
0.0
 51
0.0
 71
     0
 72
   100
 73
     1
 74
     1
 75
     0
 76
     0
 77
     0
 78
     0
  0
ENDTAB
  0
TABLE
  2
LTYPE
 70
    14
  0
LTYPE
  2
CONTINUOUS
 70
     0
  3
Solid line
 72
    65
 73
     0
 40
0.0
  0
LTYPE
  2
CENTER2
 70
     0
  3
Center (.5x) ___ _ ___ _ ___ _ ___ _ ___ _ ___
 72
    65
 73
     4
 40
28.574999999999999
 49
19.050000000000001
 49
-3.1749999999999989
 49
3.1749999999999989
 49
-3.1749999999999989
  0
LTYPE
  2
XREF1|CENTER2
 70
    48
  3
Center (.5x) ___ _ ___ _ ___ _ ___ _ ___ _ ___
 72
    65
 73
     4
 40
28.574999999999999
 49
19.050000000000001
 49
-3.1749999999999989
 49
3.1749999999999989
 49
-3.1749999999999989
  0
LTYPE
  2
A3WAKUDAKE|CENTER2
 70
    48
  3
Center (.5x) ___ _ ___ _ ___ _ ___ _ ___ _ ___
 72
    65
 73
     4
 40
28.574999999999999
 49
19.050000000000001
 49
-3.1749999999999989
 49
3.1749999999999989
 49
-3.1749999999999989
  0
ENDTAB
  0
TABLE
  2
LAYER
 70
    47
  0
LAYER
  2
0
 70
     0
 62
     7
  6
CONTINUOUS
  0
LAYER
  2
1CENTER
 70
     0
 62
     7
  6
CENTER2
  0
LAYER
  2
1TEXT
 70
     0
 62
     7
  6
CONTINUOUS
  0
LAYER
  2
1DIM
 70
     0
 62
     7
  6
CONTINUOUS
  0
LAYER
  2
01
 70
     0
 62
     1
  6
CONTINUOUS
  0
LAYER
  2
1HATCH
 70
     0
 62
     7
  6
CONTINUOUS
  0
LAYER
  2
XREF1|1CENTER
 70
    48
 62
     7
  6
XREF1|CENTER2
  0
LAYER
  2
A3WAKUDAKE|THICK
 70
    48
 62
     7
  6
CONTINUOUS
  0
LAYER
  2
A3WAKUDAKE|POINT
 70
    48
 62
     7
  6
CONTINUOUS
  0
LAYER
  2
A3WAKUDAKE|1CENTER
 70
    48
 62
     7
  6
A3WAKUDAKE|CENTER2
  0
LAYER
  2
A3WAKUDAKE|0-6
 70
    48
 62
     7
  6
CONTINUOUS
  0
LAYER
  2
A3WAKUDAKE|1DIM
 70
    48
 62
     7
  6
CONTINUOUS
  0
ENDTAB
  0
TABLE
  2
STYLE
 70
    21
  0
STYLE
  2
STANDARD
 70
     0
 40
0.0
 41
1.0
 50
0.0
 71
     0
 42
4.0
  3
txt.shx
  4
extfont.shx
  0
ENDTAB
  0
TABLE
  2
VIEW
 70
     0
  0
ENDTAB
  0
TABLE
  2
UCS
 70
     0
  0
ENDTAB
  0
TABLE
  2
APPID
 70
     8
  0
APPID
  2
ACAD
 70
     0
  0
APPID
  2
DRAWINGVARIABLESXDATA
 70
     0
  0
APPID
  2
CONTENTTABDATA
 70
     0
  0
APPID
  2
CONTENTCURRENTTAB
 70
     0
  0
APPID
  2
CONTENTBLOCKDESCRIPTION
 70
     0
  0
APPID
  2
CONTENTBLOCKICON
 70
     0
  0
APPID
  2
CONTENTLONGBLOCKNAME
 70
     0
  0
APPID
  2
ACAD_PSEXT
 70
     0
  0
ENDTAB
  0
TABLE
  2
DIMSTYLE
 70
     7
  0
DIMSTYLE
  2
NEWX10
 70
     0
  3
 
  4

  5

  6
OPEN30
  7
OPEN30
 40
1.0
 41
2.0
 42
0.0
 43
7.0
 44
1.0
 45
0.0
 46
0.0
 47
0.0
 48
0.0
140
3.5
141
0.0
142
0.0
143
25.399999999999999
144
1.0
145
0.0
146
0.7
147
0.7
 71
     0
 72
     0
 73
     0
 74
     0
 75
     0
 76
     0
 77
     1
 78
     8
170
     0
171
     2
172
     1
173
     1
174
     0
175
     0
176
   256
177
   256
178
   201
  0
ENDTAB
  0
ENDSEC
  0
SECTION
  2
BLOCKS
  0
BLOCK
  8
0
  2
$MODEL_SPACE
 70
     0
 10
0.0
 20
0.0
 30
0.0
  3
$MODEL_SPACE
  1

  0
ENDBLK
  5
1A
  8
0
  0
BLOCK
 67
     1
  8
0
  2
$PAPER_SPACE
 70
     0
 10
0.0
 20
0.0
 30
0.0
  3
$PAPER_SPACE
  1

  0
ENDBLK
  5
17
 67
     1
  8
0
  0
BLOCK
  8
0
  2
_OPEN30
 70
     0
 10
0.0
 20
0.0
 30
0.0
  3
_OPEN30
  1

  0
LINE
  5
44
  8
0
  6
BYBLOCK
 62
     0
 10
-1.0
 20
0.26794919
 30
0.0
 11
0.0
 21
0.0
 31
0.0
  0
LINE
  5
45
  8
0
  6
BYBLOCK
 62
     0
 10
0.0
 20
0.0
 30
0.0
 11
-1.0
 21
-0.26794919
 31
0.0
  0
LINE
  5
46
  8
0
  6
BYBLOCK
 62
     0
 10
0.0
 20
0.0
 30
0.0
 11
-1.0
 21
0.0
 31
0.0
  0
ENDBLK
  5
47
  8
0
  0
BLOCK
  8
0
  2
XREF1
 70
    36
 10
0.0
 20
0.0
 30
0.0
  3
XREF1
  1
D:\ACLT\FORMAT\KAWAJUN(9)図面用.dwg
  0
ENDBLK
  5
5D
  8
0
  0
BLOCK
  8
0
  2
A3WAKUDAKE
 70
    36
 10
0.0
 20
0.0
 30
0.0
  3
A3WAKUDAKE
  1
D:\ACLT\FORMAT\A3WAKUdake.dwg
  0
ENDBLK
  5
D3B
  8
0
  0
BLOCK
  8
0
  2
*U21
 70
     1
 10
0.0
 20
0.0
 30
0.0
  3
*U21
  1

  0
LINE
  5
4DAB
  8
0
 10
-4.7499941827476269
 20
1.500051962965244
 30
0.0
 11
-1.6999825490125879
 21
1.5000142687798641
 31
0.0
  0
LINE
  5
4DAC
  8
0
 10
-4.9999912742822508
 20
1.250054871430506
 30
0.0
 11
-4.7499941827476269
 21
1.500051962965244
 31
0.0
  0
LINE
  5
4DAD
  8
0
 10
-0.1999790588486121
 20
3.0000003080426718
 30
0.0
 11
-1.6999825490125879
 21
1.5000142687798641
 31
0.0
  0
LINE
  5
4DAE
  8
0
 10
-4.9999912742822508
 20
1.250054871430506
 30
0.0
 11
-5.0000087252440153
 21
-1.249945128534363
 31
0.0
  0
LINE
  5
4DAF
  8
0
 10
-0.1999790588486121
 20
3.0000003080426718
 30
0.0
 11
0.0000209411432479
 21
2.9999984466066958
 31
0.0
  0
LINE
  5
4DB0
  8
0
 10
-5.0000087252440153
 20
-1.249945128534363
 30
0.0
 11
-4.7500058167220232
 21
-1.4999480370562419
 31
0.0
  0
LINE
  5
4DB1
  8
0
 10
0.0000209411432479
 20
2.9999984466066958
 30
0.0
 11
-0.0000209411649621
 21
-3.000001553263246
 31
0.0
  0
LINE
  5
4DB2
  8
0
 10
-4.7500058167220232
 20
-1.4999480370562419
 30
0.0
 11
-1.7000244313859409
 21
-1.4999857309602469
 31
0.0
  0
LINE
  5
4DB3
  8
0
 10
-0.2000209411568221
 20
-2.9999996918273828
 30
0.0
 11
-0.0000209411649621
 21
-3.000001553263246
 31
0.0
  0
LINE
  5
4DB4
  8
0
 10
-0.2000209411568221
 20
-2.9999996918273828
 30
0.0
 11
-1.7000244313859409
 21
-1.4999857309602469
 31
0.0
  0
ENDBLK
  5
4DB6
  8
0
  0
BLOCK
  8
0
  2
*U22
 70
     1
 10
0.0
 20
0.0
 30
0.0
  3
*U22
  1

  0
TEXT
  5
4DB8
  8
1DIM
 62
   201
 10
59.155910525146922
 20
82.511352865177855
 30
0.0
 40
3.5
  1
20 
  0
ENDBLK
  5
4DBA
  8
0
  0
BLOCK
  8
0
  2
*U23
 70
     1
 10
0.0
 20
0.0
 30
0.0
  3
*U23
  1

  0
TEXT
  5
4DBC
  8
1DIM
 62
   201
 10
58.864243858480243
 20
72.511352865177855
 30
0.0
 40
3.5
  1
22 
  0
ENDBLK
  5
4DBE
  8
0
  0
BLOCK
  8
0
  2
*U24
 70
     1
 10
0.0
 20
0.0
 30
0.0
  3
*U24
  1

  0
TEXT
  5
4DC0
  8
1DIM
 62
   201
 10
56.530910525146908
 20
62.511352865177862
 30
0.0
 40
3.5
  1
25.8 
  0
ENDBLK
  5
4DC2
  8
0
  0
BLOCK
  8
0
  2
*U25
 70
     1
 10
0.0
 20
0.0
 30
0.0
  3
*U25
  1

  0
TEXT
  5
4DC4
  8
1DIM
 62
   201
 10
58.864243858480187
 20
52.511352865177862
 30
0.0
 40
3.5
  1
32 
  0
ENDBLK
  5
4DC6
  8
0
  0
BLOCK
  8
0
  2
*U26
 70
     1
 10
0.0
 20
0.0
 30
0.0
  3
*U26
  1

  0
TEXT
  5
4DC8
  8
1DIM
 62
   201
 10
34.030910525146851
 20
152.5113528651778
 30
0.0
 40
3.5
  1
B.S=38 
  0
ENDBLK
  5
4DCA
  8
0
  0
BLOCK
  8
0
  2
*U27
 70
     1
 10
0.0
 20
0.0
 30
0.0
  3
*U27
  1

  0
TEXT
  5
4DCC
  8
1DIM
 62
   201
 10
13.08091052514683
 20
125.5530195318445
 30
0.0
 40
3.5
  1
切欠き深さ10 
 50
90.0
  0
ENDBLK
  5
4DCE
  8
0
  0
BLOCK
  8
0
  2
*U28
 70
     1
 10
0.0
 20
0.0
 30
0.0
  3
*U28
  1

  0
TEXT
  5
4DD0
  8
1DIM
 62
   201
 10
3.0809105251468281
 20
94.619686198511204
 30
0.0
 40
3.5
  1
扉厚30 以上
 50
90.0
  0
ENDBLK
  5
4DD2
  8
0
  0
BLOCK
  8
0
  2
*U29
 70
     1
 10
0.0
 20
0.0
 30
0.0
  3
*U29
  1

  0
TEXT
  5
4DD4
  8
1DIM
 62
   201
 10
3.0809105251468352
 20
79.467269563010561
 30
0.0
 40
3.5
  1
1.3 
 50
90.0
  0
ENDBLK
  5
4DD6
  8
0
  0
BLOCK
  8
0
  2
*U30
 70
     1
 10
0.0
 20
0.0
 30
0.0
  3
*U30
  1

  0
TEXT
  5
4DD8
  8
1DIM
 62
   201
 10
13.08091052514683
 20
93.061352865177767
 30
0.0
 40
3.5
  1
9.5 
 50
90.0
  0
ENDBLK
  5
4DDA
  8
0
  0
BLOCK
  8
0
  2
*U31
 70
     1
 10
0.0
 20
0.0
 30
0.0
  3
*U31
  1

  0
TEXT
  5
4DDC
  8
1DIM
 62
   201
 10
107.0809162369026
 20
79.4672695630112
 30
0.0
 40
3.5
  1
9.3 
 50
90.0
  0
ENDBLK
  5
4DDE
  8
0
  0
BLOCK
  8
0
  2
*U32
 70
     1
 10
0.0
 20
0.0
 30
0.0
  3
*U32
  1

  0
TEXT
  5
4DE0
  8
1DIM
 62
   201
 10
77.647577191813525
 20
142.5113528651778
 30
0.0
 40
3.5
  1
切欠き幅26 
  0
ENDBLK
  5
4DE2
  8
0
  0
BLOCK
  8
0
  2
*U33
 70
     1
 10
0.0
 20
0.0
 30
0.0
  3
*U33
  1

  0
TEXT
  5
4DE4
  8
1DIM
 62
   201
 10
238.04299353160911
 20
-178.76248115200039
 30
0.0
 40
3.5
  1
L=特注寸法
  0
ENDBLK
  5
4DE6
  8
0
  0
ENDSEC
  0
SECTION
  2
ENTITIES
  0
LINE
  5
305E
  8
01
 10
48.780910525146851
 20
121.81135286517789
 30
0.0
 11
23.780910525146851
 21
121.81135286517789
 31
0.0
  0
LINE
  5
305F
  8
01
 10
74.780910525146851
 20
121.81135286517789
 30
0.0
 11
92.099704889839458
 21
121.81135286517789
 31
0.0
  0
LINE
  5
3060
  8
01
 10
48.780910525146851
 20
111.8113528651778
 30
0.0
 11
74.780910525146851
 21
111.8113528651778
 31
0.0
  0
LINE
  5
3061
  8
01
 10
23.780910525146851
 20
91.811352865177867
 30
0.0
 11
48.780910525146851
 21
91.811352865177867
 31
0.0
  0
LINE
  5
3062
  8
01
 10
74.780910525146851
 20
91.811352865177867
 30
0.0
 11
90.737249900576543
 21
91.811352865177867
 31
0.0
  0
LINE
  5
3064
  8
01
 10
48.780910525146851
 20
121.81135286517789
 30
0.0
 11
48.780910525146851
 21
111.8113528651778
 31
0.0
  0
LINE
  5
3066
  8
01
 10
74.780910525146851
 20
121.81135286517789
 30
0.0
 11
74.780910525146851
 21
111.8113528651778
 31
0.0
  0
LINE
  5
3068
  8
01
 10
23.780910525146851
 20
121.81135286517789
 30
0.0
 11
23.780910525146851
 21
91.811352865177867
 31
0.0
  0
POLYLINE
  8
1DIM
  5
4DE7
  66
     1
 10
0.000000
 20
0.000000
 30
0.000000
  70
     8
  0
VERTEX
  8
1DIM
  5
4DE8
 10
90.9671
 20
124.418
 30
0.000000
  70
    32
  0
VERTEX
  8
1DIM
  5
4DE9
 10
91.0523
 20
124.226
 30
0.000000
  70
    32
  0
VERTEX
  8
1DIM
  5
4DEA
 10
91.1375
 20
124.034
 30
0.000000
  70
    32
  0
VERTEX
  8
1DIM
  5
4DEB
 10
91.2226
 20
123.841
 30
0.000000
  70
    32
  0
VERTEX
  8
1DIM
  5
4DEC
 10
91.3075
 20
123.649
 30
0.000000
  70
    32
  0
VERTEX
  8
1DIM
  5
4DED
 10
91.3922
 20
123.457
 30
0.000000
  70
    32
  0
VERTEX
  8
1DIM
  5
4DEE
 10
91.4765
 20
123.265
 30
0.000000
  70
    32
  0
VERTEX
  8
1DIM
  5
4DEF
 10
91.5605
 20
123.073
 30
0.000000
  70
    32
  0
VERTEX
  8
1DIM
  5
4DF0
 10
91.6441
 20
122.881
 30
0.000000
  70
    32
  0
VERTEX
  8
1DIM
  5
4DF1
 10
91.7273
 20
122.689
 30
0.000000
  70
    32
  0
VERTEX
  8
1DIM
  5
4DF2
 10
91.8098
 20
122.497
 30
0.000000
  70
    32
  0
VERTEX
  8
1DIM
  5
4DF3
 10
91.8918
 20
122.305
 30
0.000000
  70
    32
  0
VERTEX
  8
1DIM
  5
4DF4
 10
91.9732
 20
122.113
 30
0.000000
  70
    32
  0
VERTEX
  8
1DIM
  5
4DF5
 10
92.0538
 20
121.921
 30
0.000000
  70
    32
  0
VERTEX
  8
1DIM
  5
4DF6
 10
92.1336
 20
121.730
 30
0.000000
  70
    32
  0
VERTEX
  8
1DIM
  5
4DF7
 10
92.2127
 20
121.538
 30
0.000000
  70
    32
  0
VERTEX
  8
1DIM
  5
4DF8
 10
92.2908
 20
121.347
 30
0.000000
  70
    32
  0
VERTEX
  8
1DIM
  5
4DF9
 10
92.3680
 20
121.155
 30
0.000000
  70
    32
  0
VERTEX
  8
1DIM
  5
4DFA
 10
92.4441
 20
120.964
 30
0.000000
  70
    32
  0
VERTEX
  8
1DIM
  5
4DFB
 10
92.5193
 20
120.773
 30
0.000000
  70
    32
  0
VERTEX
  8
1DIM
  5
4DFC
 10
92.5932
 20
120.582
 30
0.000000
  70
    32
  0
VERTEX
  8
1DIM
  5
4DFD
 10
92.6660
 20
120.391
 30
0.000000
  70
    32
  0
VERTEX
  8
1DIM
  5
4DFE
 10
92.7376
 20
120.200
 30
0.000000
  70
    32
  0
VERTEX
  8
1DIM
  5
4DFF
 10
92.8078
 20
120.009
 30
0.000000
  70
    32
  0
VERTEX
  8
1DIM
  5
4E00
 10
92.8767
 20
119.819
 30
0.000000
  70
    32
  0
VERTEX
  8
1DIM
  5
4E01
 10
92.9441
 20
119.628
 30
0.000000
  70
    32
  0
VERTEX
  8
1DIM
  5
4E02
 10
93.0101
 20
119.438
 30
0.000000
  70
    32
  0
VERTEX
  8
1DIM
  5
4E03
 10
93.0745
 20
119.248
 30
0.000000
  70
    32
  0
VERTEX
  8
1DIM
  5
4E04
 10
93.1373
 20
119.058
 30
0.000000
  70
    32
  0
VERTEX
  8
1DIM
  5
4E05
 10
93.1985
 20
118.868
 30
0.000000
  70
    32
  0
VERTEX
  8
1DIM
  5
4E06
 10
93.2579
 20
118.678
 30
0.000000
  70
    32
  0
VERTEX
  8
1DIM
  5
4E07
 10
93.3155
 20
118.489
 30
0.000000
  70
    32
  0
VERTEX
  8
1DIM
  5
4E08
 10
93.3714
 20
118.300
 30
0.000000
  70
    32
  0
VERTEX
  8
1DIM
  5
4E09
 10
93.4253
 20
118.111
 30
0.000000
  70
    32
  0
VERTEX
  8
1DIM
  5
4E0A
 10
93.4772
 20
117.922
 30
0.000000
  70
    32
  0
VERTEX
  8
1DIM
  5
4E0B
 10
93.5272
 20
117.733
 30
0.000000
  70
    32
  0
VERTEX
  8
1DIM
  5
4E0C
 10
93.5750
 20
117.545
 30
0.000000
  70
    32
  0
VERTEX
  8
1DIM
  5
4E0D
 10
93.6207
 20
117.357
 30
0.000000
  70
    32
  0
VERTEX
  8
1DIM
  5
4E0E
 10
93.6643
 20
117.169
 30
0.000000
  70
    32
  0
VERTEX
  8
1DIM
  5
4E0F
 10
93.7055
 20
116.981
 30
0.000000
  70
    32
  0
VERTEX
  8
1DIM
  5
4E10
 10
93.7445
 20
116.793
 30
0.000000
  70
    32
  0
VERTEX
  8
1DIM
  5
4E11
 10
93.7810
 20
116.606
 30
0.000000
  70
    32
  0
VERTEX
  8
1DIM
  5
4E12
 10
93.8152
 20
116.419
 30
0.000000
  70
    32
  0
VERTEX
  8
1DIM
  5
4E13
 10
93.8468
 20
116.232
 30
0.000000
  70
    32
  0
VERTEX
  8
1DIM
  5
4E14
 10
93.8759
 20
116.046
 30
0.000000
  70
    32
  0
VERTEX
  8
1DIM
  5
4E15
 10
93.9024
 20
115.860
 30
0.000000
  70
    32
  0
VERTEX
  8
1DIM
  5
4E16
 10
93.9262
 20
115.674
 30
0.000000
  70
    32
  0
VERTEX
  8
1DIM
  5
4E17
 10
93.9473
 20
115.488
 30
0.000000
  70
    32
  0
VERTEX
  8
1DIM
  5
4E18
 10
93.9656
 20
115.303
 30
0.000000
  70
    32
  0
VERTEX
  8
1DIM
  5
4E19
 10
93.9811
 20
115.118
 30
0.000000
  70
    32
  0
VERTEX
  8
1DIM
  5
4E1A
 10
93.9936
 20
114.933
 30
0.000000
  70
    32
  0
VERTEX
  8
1DIM
  5
4E1B
 10
94.0032
 20
114.748
 30
0.000000
  70
    32
  0
VERTEX
  8
1DIM
  5
4E1C
 10
94.0097
 20
114.564
 30
0.000000
  70
    32
  0
VERTEX
  8
1DIM
  5
4E1D
 10
94.0132
 20
114.380
 30
0.000000
  70
    32
  0
VERTEX
  8
1DIM
  5
4E1E
 10
94.0135
 20
114.197
 30
0.000000
  70
    32
  0
VERTEX
  8
1DIM
  5
4E1F
 10
94.0106
 20
114.013
 30
0.000000
  70
    32
  0
VERTEX
  8
1DIM
  5
4E20
 10
94.0044
 20
113.830
 30
0.000000
  70
    32
  0
VERTEX
  8
1DIM
  5
4E21
 10
93.9949
 20
113.648
 30
0.000000
  70
    32
  0
VERTEX
  8
1DIM
  5
4E22
 10
93.9820
 20
113.466
 30
0.000000
  70
    32
  0
VERTEX
  8
1DIM
  5
4E23
 10
93.9657
 20
113.284
 30
0.000000
  70
    32
  0
VERTEX
  8
1DIM
  5
4E24
 10
93.9459
 20
113.102
 30
0.000000
  70
    32
  0
VERTEX
  8
1DIM
  5
4E25
 10
93.9225
 20
112.921
 30
0.000000
  70
    32
  0
VERTEX
  8
1DIM
  5
4E26
 10
93.8955
 20
112.740
 30
0.000000
  70
    32
  0
VERTEX
  8
1DIM
  5
4E27
 10
93.8648
 20
112.560
 30
0.000000
  70
    32
  0
VERTEX
  8
1DIM
  5
4E28
 10
93.8304
 20
112.380
 30
0.000000
  70
    32
  0
VERTEX
  8
1DIM
  5
4E29
 10
93.7922
 20
112.200
 30
0.000000
  70
    32
  0
VERTEX
  8
1DIM
  5
4E2A
 10
93.7501
 20
112.021
 30
0.000000
  70
    32
  0
VERTEX
  8
1DIM
  5
4E2B
 10
93.7042
 20
111.842
 30
0.000000
  70
    32
  0
VERTEX
  8
1DIM
  5
4E2C
 10
93.6545
 20
111.664
 30
0.000000
  70
    32
  0
VERTEX
  8
1DIM
  5
4E2D
 10
93.6013
 20
111.486
 30
0.000000
  70
    32
  0
VERTEX
  8
1DIM
  5
4E2E
 10
93.5446
 20
111.308
 30
0.000000
  70
    32
  0
VERTEX
  8
1DIM
  5
4E2F
 10
93.4845
 20
111.131
 30
0.000000
  70
    32
  0
VERTEX
  8
1DIM
  5
4E30
 10
93.4212
 20
110.954
 30
0.000000
  70
    32
  0
VERTEX
  8
1DIM
  5
4E31
 10
93.3549
 20
110.777
 30
0.000000
  70
    32
  0
VERTEX
  8
1DIM
  5
4E32
 10
93.2855
 20
110.600
 30
0.000000
  70
    32
  0
VERTEX
  8
1DIM
  5
4E33
 10
93.2134
 20
110.424
 30
0.000000
  70
    32
  0
VERTEX
  8
1DIM
  5
4E34
 10
93.1385
 20
110.248
 30
0.000000
  70
    32
  0
VERTEX
  8
1DIM
  5
4E35
 10
93.0611
 20
110.073
 30
0.000000
  70
    32
  0
VERTEX
  8
1DIM
  5
4E36
 10
92.9812
 20
109.897
 30
0.000000
  70
    32
  0
VERTEX
  8
1DIM
  5
4E37
 10
92.8991
 20
109.722
 30
0.000000
  70
    32
  0
VERTEX
  8
1DIM
  5
4E38
 10
92.8147
 20
109.548
 30
0.000000
  70
    32
  0
VERTEX
  8
1DIM
  5
4E39
 10
92.7283
 20
109.373
 30
0.000000
  70
    32
  0
VERTEX
  8
1DIM
  5
4E3A
 10
92.6399
 20
109.198
 30
0.000000
  70
    32
  0
VERTEX
  8
1DIM
  5
4E3B
 10
92.5498
 20
109.024
 30
0.000000
  70
    32
  0
VERTEX
  8
1DIM
  5
4E3C
 10
92.4580
 20
108.850
 30
0.000000
  70
    32
  0
VERTEX
  8
1DIM
  5
4E3D
 10
92.3646
 20
108.676
 30
0.000000
  70
    32
  0
VERTEX
  8
1DIM
  5
4E3E
 10
92.2698
 20
108.503
 30
0.000000
  70
    32
  0
VERTEX
  8
1DIM
  5
4E3F
 10
92.1738
 20
108.329
 30
0.000000
  70
    32
  0
VERTEX
  8
1DIM
  5
4E40
 10
92.0765
 20
108.156
 30
0.000000
  70
    32
  0
VERTEX
  8
1DIM
  5
4E41
 10
91.9783
 20
107.982
 30
0.000000
  70
    32
  0
VERTEX
  8
1DIM
  5
4E42
 10
91.8792
 20
107.809
 30
0.000000
  70
    32
  0
VERTEX
  8
1DIM
  5
4E43
 10
91.7792
 20
107.636
 30
0.000000
  70
    32
  0
VERTEX
  8
1DIM
  5
4E44
 10
91.6787
 20
107.463
 30
0.000000
  70
    32
  0
VERTEX
  8
1DIM
  5
4E45
 10
91.5776
 20
107.290
 30
0.000000
  70
    32
  0
VERTEX
  8
1DIM
  5
4E46
 10
91.4762
 20
107.117
 30
0.000000
  70
    32
  0
VERTEX
  8
1DIM
  5
4E47
 10
91.3745
 20
106.944
 30
0.000000
  70
    32
  0
VERTEX
  8
1DIM
  5
4E48
 10
91.2726
 20
106.772
 30
0.000000
  70
    32
  0
VERTEX
  8
1DIM
  5
4E49
 10
91.1708
 20
106.599
 30
0.000000
  70
    32
  0
VERTEX
  8
1DIM
  5
4E4A
 10
91.0691
 20
106.426
 30
0.000000
  70
    32
  0
VERTEX
  8
1DIM
  5
4E4B
 10
90.9676
 20
106.253
 30
0.000000
  70
    32
  0
VERTEX
  8
1DIM
  5
4E4C
 10
90.8666
 20
106.081
 30
0.000000
  70
    32
  0
VERTEX
  8
1DIM
  5
4E4D
 10
90.7660
 20
105.908
 30
0.000000
  70
    32
  0
VERTEX
  8
1DIM
  5
4E4E
 10
90.6661
 20
105.735
 30
0.000000
  70
    32
  0
VERTEX
  8
1DIM
  5
4E4F
 10
90.5670
 20
105.562
 30
0.000000
  70
    32
  0
VERTEX
  8
1DIM
  5
4E50
 10
90.4688
 20
105.389
 30
0.000000
  70
    32
  0
VERTEX
  8
1DIM
  5
4E51
 10
90.3716
 20
105.216
 30
0.000000
  70
    32
  0
VERTEX
  8
1DIM
  5
4E52
 10
90.2755
 20
105.043
 30
0.000000
  70
    32
  0
VERTEX
  8
1DIM
  5
4E53
 10
90.1808
 20
104.870
 30
0.000000
  70
    32
  0
VERTEX
  8
1DIM
  5
4E54
 10
90.0875
 20
104.697
 30
0.000000
  70
    32
  0
VERTEX
  8
1DIM
  5
4E55
 10
89.9957
 20
104.523
 30
0.000000
  70
    32
  0
VERTEX
  8
1DIM
  5
4E56
 10
89.9055
 20
104.350
 30
0.000000
  70
    32
  0
VERTEX
  8
1DIM
  5
4E57
 10
89.8172
 20
104.176
 30
0.000000
  70
    32
  0
VERTEX
  8
1DIM
  5
4E58
 10
89.7308
 20
104.002
 30
0.000000
  70
    32
  0
VERTEX
  8
1DIM
  5
4E59
 10
89.6465
 20
103.828
 30
0.000000
  70
    32
  0
VERTEX
  8
1DIM
  5
4E5A
 10
89.5644
 20
103.654
 30
0.000000
  70
    32
  0
VERTEX
  8
1DIM
  5
4E5B
 10
89.4846
 20
103.479
 30
0.000000
  70
    32
  0
VERTEX
  8
1DIM
  5
4E5C
 10
89.4072
 20
103.304
 30
0.000000
  70
    32
  0
VERTEX
  8
1DIM
  5
4E5D
 10
89.3324
 20
103.130
 30
0.000000
  70
    32
  0
VERTEX
  8
1DIM
  5
4E5E
 10
89.2603
 20
102.954
 30
0.000000
  70
    32
  0
VERTEX
  8
1DIM
  5
4E5F
 10
89.1910
 20
102.779
 30
0.000000
  70
    32
  0
VERTEX
  8
1DIM
  5
4E60
 10
89.1247
 20
102.603
 30
0.000000
  70
    32
  0
VERTEX
  8
1DIM
  5
4E61
 10
89.0615
 20
102.428
 30
0.000000
  70
    32
  0
VERTEX
  8
1DIM
  5
4E62
 10
89.0014
 20
102.251
 30
0.000000
  70
    32
  0
VERTEX
  8
1DIM
  5
4E63
 10
88.9448
 20
102.075
 30
0.000000
  70
    32
  0
VERTEX
  8
1DIM
  5
4E64
 10
88.8916
 20
101.898
 30
0.000000
  70
    32
  0
VERTEX
  8
1DIM
  5
4E65
 10
88.8420
 20
101.721
 30
0.000000
  70
    32
  0
VERTEX
  8
1DIM
  5
4E66
 10
88.7962
 20
101.544
 30
0.000000
  70
    32
  0
VERTEX
  8
1DIM
  5
4E67
 10
88.7542
 20
101.366
 30
0.000000
  70
    32
  0
VERTEX
  8
1DIM
  5
4E68
 10
88.7161
 20
101.188
 30
0.000000
  70
    32
  0
VERTEX
  8
1DIM
  5
4E69
 10
88.6822
 20
101.009
 30
0.000000
  70
    32
  0
VERTEX
  8
1DIM
  5
4E6A
 10
88.6523
 20
100.830
 30
0.000000
  70
    32
  0
VERTEX
  8
1DIM
  5
4E6B
 10
88.6264
 20
100.651
 30
0.000000
  70
    32
  0
VERTEX
  8
1DIM
  5
4E6C
 10
88.6043
 20
100.471
 30
0.000000
  70
    32
  0
VERTEX
  8
1DIM
  5
4E6D
 10
88.5861
 20
100.291
 30
0.000000
  70
    32
  0
VERTEX
  8
1DIM
  5
4E6E
 10
88.5717
 20
100.111
 30
0.000000
  70
    32
  0
VERTEX
  8
1DIM
  5
4E6F
 10
88.5609
 20
99.9305
 30
0.000000
  70
    32
  0
VERTEX
  8
1DIM
  5
4E70
 10
88.5538
 20
99.7496
 30
0.000000
  70
    32
  0
VERTEX
  8
1DIM
  5
4E71
 10
88.5503
 20
99.5683
 30
0.000000
  70
    32
  0
VERTEX
  8
1DIM
  5
4E72
 10
88.5503
 20
99.3867
 30
0.000000
  70
    32
  0
VERTEX
  8
1DIM
  5
4E73
 10
88.5537
 20
99.2048
 30
0.000000
  70
    32
  0
VERTEX
  8
1DIM
  5
4E74
 10
88.5606
 20
99.0226
 30
0.000000
  70
    32
  0
VERTEX
  8
1DIM
  5
4E75
 10
88.5707
 20
98.8401
 30
0.000000
  70
    32
  0
VERTEX
  8
1DIM
  5
4E76
 10
88.5841
 20
98.6573
 30
0.000000
  70
    32
  0
VERTEX
  8
1DIM
  5
4E77
 10
88.6006
 20
98.4743
 30
0.000000
  70
    32
  0
VERTEX
  8
1DIM
  5
4E78
 10
88.6203
 20
98.2909
 30
0.000000
  70
    32
  0
VERTEX
  8
1DIM
  5
4E79
 10
88.6430
 20
98.1073
 30
0.000000
  70
    32
  0
VERTEX
  8
1DIM
  5
4E7A
 10
88.6688
 20
97.9234
 30
0.000000
  70
    32
  0
VERTEX
  8
1DIM
  5
4E7B
 10
88.6974
 20
97.7392
 30
0.000000
  70
    32
  0
VERTEX
  8
1DIM
  5
4E7C
 10
88.7289
 20
97.5548
 30
0.000000
  70
    32
  0
VERTEX
  8
1DIM
  5
4E7D
 10
88.7632
 20
97.3701
 30
0.000000
  70
    32
  0
VERTEX
  8
1DIM
  5
4E7E
 10
88.8003
 20
97.1852
 30
0.000000
  70
    32
  0
VERTEX
  8
1DIM
  5
4E7F
 10
88.8400
 20
97.0000
 30
0.000000
  70
    32
  0
VERTEX
  8
1DIM
  5
4E80
 10
88.8823
 20
96.8146
 30
0.000000
  70
    32
  0
VERTEX
  8
1DIM
  5
4E81
 10
88.9271
 20
96.6290
 30
0.000000
  70
    32
  0
VERTEX
  8
1DIM
  5
4E82
 10
88.9744
 20
96.4431
 30
0.000000
  70
    32
  0
VERTEX
  8
1DIM
  5
4E83
 10
89.0241
 20
96.2571
 30
0.000000
  70
    32
  0
VERTEX
  8
1DIM
  5
4E84
 10
89.0762
 20
96.0708
 30
0.000000
  70
    32
  0
VERTEX
  8
1DIM
  5
4E85
 10
89.1305
 20
95.8843
 30
0.000000
  70
    32
  0
VERTEX
  8
1DIM
  5
4E86
 10
89.1871
 20
95.6976
 30
0.000000
  70
    32
  0
VERTEX
  8
1DIM
  5
4E87
 10
89.2457
 20
95.5107
 30
0.000000
  70
    32
  0
VERTEX
  8
1DIM
  5
4E88
 10
89.3065
 20
95.3237
 30
0.000000
  70
    32
  0
VERTEX
  8
1DIM
  5
4E89
 10
89.3693
 20
95.1364
 30
0.000000
  70
    32
  0
VERTEX
  8
1DIM
  5
4E8A
 10
89.4340
 20
94.9490
 30
0.000000
  70
    32
  0
VERTEX
  8
1DIM
  5
4E8B
 10
89.5006
 20
94.7614
 30
0.000000
  70
    32
  0
VERTEX
  8
1DIM
  5
4E8C
 10
89.5690
 20
94.5737
 30
0.000000
  70
    32
  0
VERTEX
  8
1DIM
  5
4E8D
 10
89.6392
 20
94.3858
 30
0.000000
  70
    32
  0
VERTEX
  8
1DIM
  5
4E8E
 10
89.7111
 20
94.1977
 30
0.000000
  70
    32
  0
VERTEX
  8
1DIM
  5
4E8F
 10
89.7846
 20
94.0095
 30
0.000000
  70
    32
  0
VERTEX
  8
1DIM
  5
4E90
 10
89.8597
 20
93.8211
 30
0.000000
  70
    32
  0
VERTEX
  8
1DIM
  5
4E91
 10
89.9362
 20
93.6326
 30
0.000000
  70
    32
  0
VERTEX
  8
1DIM
  5
4E92
 10
90.0142
 20
93.4440
 30
0.000000
  70
    32
  0
VERTEX
  8
1DIM
  5
4E93
 10
90.0935
 20
93.2553
 30
0.000000
  70
    32
  0
VERTEX
  8
1DIM
  5
4E94
 10
90.1742
 20
93.0664
 30
0.000000
  70
    32
  0
VERTEX
  8
1DIM
  5
4E95
 10
90.2561
 20
92.8775
 30
0.000000
  70
    32
  0
VERTEX
  8
1DIM
  5
4E96
 10
90.3391
 20
92.6884
 30
0.000000
  70
    32
  0
VERTEX
  8
1DIM
  5
4E97
 10
90.4233
 20
92.4992
 30
0.000000
  70
    32
  0
VERTEX
  8
1DIM
  5
4E98
 10
90.5085
 20
92.3100
 30
0.000000
  70
    32
  0
VERTEX
  8
1DIM
  5
4E99
 10
90.5947
 20
92.1206
 30
0.000000
  70
    32
  0
VERTEX
  8
1DIM
  5
4E9A
 10
90.6817
 20
91.9312
 30
0.000000
  70
    32
  0
VERTEX
  8
1DIM
  5
4E9B
 10
90.7697
 20
91.7417
 30
0.000000
  70
    32
  0
VERTEX
  8
1DIM
  5
4E9C
 10
90.8584
 20
91.5521
 30
0.000000
  70
    32
  0
VERTEX
  8
1DIM
  5
4E9D
 10
90.9478
 20
91.3624
 30
0.000000
  70
    32
  0
VERTEX
  8
1DIM
  5
4E9E
 10
91.0379
 20
91.1727
 30
0.000000
  70
    32
  0
VERTEX
  8
1DIM
  5
4E9F
 10
91.1285
 20
90.9830
 30
0.000000
  70
    32
  0
VERTEX
  8
1DIM
  5
4EA0
 10
91.2197
 20
90.7932
 30
0.000000
  70
    32
  0
VERTEX
  8
1DIM
  5
4EA1
 10
91.3114
 20
90.6033
 30
0.000000
  70
    32
  0
VERTEX
  8
1DIM
  5
4EA2
 10
91.4034
 20
90.4134
 30
0.000000
  70
    32
  0
VERTEX
  8
1DIM
  5
4EA3
 10
91.4957
 20
90.2235
 30
0.000000
  70
    32
  0
VERTEX
  8
1DIM
  5
4EA4
 10
91.5883
 20
90.0336
 30
0.000000
  70
    32
  0
VERTEX
  8
1DIM
  5
4EA5
 10
91.6811
 20
89.8436
 30
0.000000
  70
    32
  0
VERTEX
  8
1DIM
  5
4EA6
 10
91.7741
 20
89.6537
 30
0.000000
  70
    32
  0
VERTEX
  8
1DIM
  5
4EA7
 10
91.8671
 20
89.4637
 30
0.000000
  70
    32
  0
SEQEND
  8
1DIM
  5
4EA8
  0
LINE
  5
306A
  8
1CENTER
 10
97.85249883619565
 20
106.8113528651778
 30
0.0
 11
17.587664053710451
 21
106.8113528651778
 31
0.0
  0
LINE
  5
306B
  8
1CENTER
 10
61.780910525146851
 20
110.83204603869029
 30
0.0
 11
61.780910525146851
 21
124.8292104156225
 31
0.0
  0
LINE
  5
32E6
  8
01
  6
BYBLOCK
 10
115.4763230571032
 20
-159.71247734416261
 30
0.0
 11
115.4763230571032
 21
-127.4624697284851
 31
0.0
  0
LINE
  5
3350
  8
01
 10
115.47632305710221
 20
-159.46248115200041
 30
0.0
 11
383.47633067278252
 21
-159.46248115200041
 31
0.0
  0
LINE
  5
336C
  8
01
 10
383.47633067278252
 20
-127.462469728485
 30
0.0
 11
115.4763230571032
 21
-127.462469728485
 31
0.0
  0
LINE
  5
3443
  8
01
 10
115.4763230571032
 20
-133.46247734416349
 30
0.0
 11
383.47633067278252
 21
-133.46247734416349
 31
0.0
  0
LINE
  5
3444
  8
01
 10
115.4763230571032
 20
-153.4624735363229
 30
0.0
 11
383.47633067278252
 21
-153.4624735363229
 31
0.0
  0
LINE
  5
3492
  8
01
  6
BYBLOCK
 10
383.47633067278252
 20
-159.71247734416261
 30
0.0
 11
383.47633067278252
 21
-127.4624697284851
 31
0.0
  0
LINE
  5
3C07
  8
01
 10
72.480908621228139
 20
113.8113528651762
 30
0.0
 11
51.080912429066132
 21
113.8113528651762
 31
0.0
  0
ARC
  5
3C08
  8
01
 10
51.080912429066359
 20
114.1113528651764
 30
0.0
 40
0.3
 50
180.0
 51
269.99999999995441
  0
LINE
  5
3C09
  8
01
 10
50.780912429066859
 20
121.9535919946326
 30
0.0
 11
50.780912429066291
 21
114.1113528651764
 31
0.0
  0
ARC
  5
3C0A
  8
01
 10
61.780910525147021
 20
-226.6886471348237
 30
0.0
 40
350.0
 50
91.721591163850164
 51
92.541849178971816
  0
ARC
  5
3C0B
  8
01
 10
46.28090481339116
 20
122.4674781486025
 30
0.0
 40
0.5
 50
92.541849178971816
 51
179.9999999999479
  0
LINE
  5
3C0C
  8
01
 10
45.780904813391139
 20
121.8113528651763
 30
0.0
 11
45.780904813391139
 21
122.46747814860301
 31
0.0
  0
LINE
  5
3C0D
  8
01
 10
48.880912429065859
 20
121.8113528651763
 30
0.0
 11
45.780904813391139
 21
121.8113528651763
 31
0.0
  0
LINE
  5
3C0E
  8
01
 10
48.880912429065859
 20
121.8113528651763
 30
0.0
 11
48.880912429066768
 21
120.8113528651744
 31
0.0
  0
LINE
  5
3C0F
  8
01
 10
48.880912429066768
 20
120.8113528651744
 30
0.0
 11
49.380912429065859
 21
119.8113528651763
 31
0.0
  0
LINE
  5
3C10
  8
01
 10
48.880912429065859
 20
119.8113528651763
 30
0.0
 11
49.380912429065859
 21
119.8113528651763
 31
0.0
  0
LINE
  5
3C11
  8
01
 10
48.880912429065859
 20
119.8113528651763
 30
0.0
 11
49.380912429066541
 21
118.8113528651762
 31
0.0
  0
LINE
  5
3C12
  8
01
 10
48.880912429066768
 20
118.8113528651762
 30
0.0
 11
49.380912429066541
 21
118.8113528651762
 31
0.0
  0
LINE
  5
3C13
  8
01
 10
48.880912429066768
 20
118.8113528651762
 30
0.0
 11
49.380912429066768
 21
117.8113528651762
 31
0.0
  0
LINE
  5
3C14
  8
01
 10
49.380912429066768
 20
117.8113528651762
 30
0.0
 11
48.880912429066768
 21
117.81135286517581
 31
0.0
  0
LINE
  5
3C15
  8
01
 10
48.880912429066768
 20
117.81135286517581
 30
0.0
 11
48.880912429066768
 21
117.06134905733521
 31
0.0
  0
LINE
  5
3C16
  8
01
 10
48.880912429066768
 20
117.06134905733521
 30
0.0
 11
49.130908621225267
 21
116.8113528651762
 31
0.0
  0
LINE
  5
3C17
  8
01
 10
73.680908621227161
 20
112.3113528651776
 30
0.0
 11
49.880912429066541
 21
112.31135286517809
 31
0.0
  0
LINE
  5
3C18
  8
01
 10
48.88090862122516
 20
116.5613528651767
 30
0.0
 11
49.130908621225267
 21
116.8113528651762
 31
0.0
  0
LINE
  5
3C19
  8
01
 10
48.880912429066541
 20
114.3117148482776
 30
0.0
 11
49.880912429066541
 21
112.31135286517809
 31
0.0
  0
LINE
  5
3C1A
  8
01
 10
48.88090862122516
 20
116.5613528651767
 30
0.0
 11
48.880908621226631
 21
115.3117227699619
 31
0.0
  0
LINE
  5
3C1B
  8
01
 10
49.380912429066768
 20
114.3117227699628
 30
0.0
 11
48.880912429066541
 21
114.3117148482776
 31
0.0
  0
LINE
  5
3C1C
  8
01
 10
48.880908621226631
 20
115.3117227699619
 30
0.0
 11
49.380912429066768
 21
114.3117227699628
 31
0.0
  0
ARC
  5
3C1D
  8
01
 10
51.280912429066881
 20
122.6535919946329
 30
0.0
 40
0.5
 50
288.9246444160616
 51
91.721591163856672
  0
LINE
  5
3C1E
  8
01
 10
50.780912429066859
 20
121.9535919946326
 30
0.0
 11
51.443074591229163
 21
122.18061902165999
 31
0.0
  0
ARC
  5
3C1F
  8
01
 10
72.480908621227471
 20
114.1113528651764
 30
0.0
 40
0.3
 50
270.00000000004559
 51
0.0
  0
LINE
  5
3C20
  8
01
 10
72.780908621226843
 20
121.9535919946326
 30
0.0
 11
72.780908621227411
 21
114.1113528651764
 31
0.0
  0
ARC
  5
3C21
  8
01
 10
61.780910525146787
 20
-226.6886471348237
 30
0.0
 40
350.0
 50
87.458150821028198
 51
88.278408836149794
  0
ARC
  5
3C22
  8
01
 10
77.280916236902684
 20
122.4674781486025
 30
0.0
 40
0.5
 50
0.0000000000521183
 51
87.458150821028198
  0
LINE
  5
3C23
  8
01
 10
77.780916236902669
 20
121.8113528651763
 30
0.0
 11
77.780916236902669
 21
122.46747814860301
 31
0.0
  0
LINE
  5
3C24
  8
01
 10
74.680908621227957
 20
121.8113528651763
 30
0.0
 11
77.780916236902669
 21
121.8113528651763
 31
0.0
  0
LINE
  5
3C25
  8
01
 10
74.680908621227957
 20
121.8113528651763
 30
0.0
 11
74.680908621227033
 21
120.8113528651744
 31
0.0
  0
LINE
  5
3C26
  8
01
 10
74.680908621227033
 20
120.8113528651744
 30
0.0
 11
74.180908621227957
 21
119.8113528651763
 31
0.0
  0
LINE
  5
3C27
  8
01
 10
74.680908621227843
 20
119.8113528651763
 30
0.0
 11
74.180908621227957
 21
119.8113528651763
 31
0.0
  0
LINE
  5
3C28
  8
01
 10
74.680908621227843
 20
119.8113528651763
 30
0.0
 11
74.180908621227275
 21
118.8113528651762
 31
0.0
  0
LINE
  5
3C29
  8
01
 10
74.680908621227033
 20
118.8113528651762
 30
0.0
 11
74.180908621227275
 21
118.8113528651762
 31
0.0
  0
LINE
  5
3C2A
  8
01
 10
74.680908621227033
 20
118.8113528651762
 30
0.0
 11
74.180908621227047
 21
117.8113528651762
 31
0.0
  0
LINE
  5
3C2B
  8
01
 10
74.180908621227047
 20
117.8113528651762
 30
0.0
 11
74.680908621226934
 21
117.81135286517581
 31
0.0
  0
LINE
  5
3C2C
  8
01
 10
74.680908621226934
 20
117.81135286517581
 30
0.0
 11
74.680908621226934
 21
117.06134905733521
 31
0.0
  0
LINE
  5
3C2D
  8
01
 10
74.680908621226934
 20
117.06134905733521
 30
0.0
 11
74.430912429068414
 21
116.8113528651762
 31
0.0
  0
LINE
  5
3C2E
  8
01
 10
74.680912429068542
 20
116.5613528651767
 30
0.0
 11
74.430912429068414
 21
116.8113528651762
 31
0.0
  0
LINE
  5
3C2F
  8
01
 10
74.680908621227161
 20
114.3117148482776
 30
0.0
 11
73.680908621227161
 21
112.31135286517809
 31
0.0
  0
LINE
  5
3C30
  8
01
 10
74.680912429068542
 20
116.5613528651767
 30
0.0
 11
74.680912429067064
 21
115.3117227699619
 31
0.0
  0
LINE
  5
3C31
  8
01
 10
74.180908621227047
 20
114.3117227699628
 30
0.0
 11
74.680908621227161
 21
114.3117148482776
 31
0.0
  0
LINE
  5
3C32
  8
01
 10
74.680912429067064
 20
115.3117227699619
 30
0.0
 11
74.180908621227047
 21
114.3117227699628
 31
0.0
  0
ARC
  5
3C33
  8
01
 10
72.28090862122697
 20
122.6535919946329
 30
0.0
 40
0.5
 50
88.278408836143328
 51
251.0753555839384
  0
LINE
  5
3C34
  8
01
 10
72.780908621226956
 20
121.9535919946326
 30
0.0
 11
72.118746459064653
 21
122.18061902165999
 31
0.0
  0
LINE
  5
3C37
  8
01
 10
48.780910525146851
 20
101.81135286517789
 30
0.0
 11
74.780910525146851
 21
101.81135286517789
 31
0.0
  0
LINE
  5
3C38
  8
01
 10
48.780910525146851
 20
91.811352865177867
 30
0.0
 11
48.780910525146851
 21
101.81135286517789
 31
0.0
  0
LINE
  5
3C39
  8
01
 10
74.780910525146851
 20
91.811352865177867
 30
0.0
 11
74.780910525146851
 21
101.81135286517789
 31
0.0
  0
LINE
  5
3C3A
  8
1CENTER
 10
61.780910525146851
 20
102.7906596916654
 30
0.0
 11
61.780910525146851
 21
88.793495314733207
 31
0.0
  0
LINE
  5
3C3C
  8
01
 10
72.480908621228139
 20
99.811352865179472
 30
0.0
 11
51.080912429066132
 21
99.811352865179472
 31
0.0
  0
ARC
  5
3C3D
  8
01
 10
51.080912429066359
 20
99.511352865179276
 30
0.0
 40
0.3
 50
90.000000000045588
 51
180.0
  0
LINE
  5
3C3E
  8
01
 10
50.780912429066859
 20
91.669113735723087
 30
0.0
 11
50.780912429066291
 21
99.511352865179276
 31
0.0
  0
ARC
  5
3C3F
  8
01
 10
61.780910525147021
 20
440.31135286517957
 30
0.0
 40
350.0
 50
267.4581508210282
 51
268.27840883614988
  0
ARC
  5
3C40
  8
01
 10
46.28090481339116
 20
91.155227581753195
 30
0.0
 40
0.5
 50
180.0000000000521
 51
267.4581508210282
  0
LINE
  5
3C41
  8
01
 10
45.780904813391139
 20
91.811352865179458
 30
0.0
 11
45.780904813391139
 21
91.15522758175274
 31
0.0
  0
LINE
  5
3C42
  8
01
 10
48.880912429065859
 20
91.811352865179458
 30
0.0
 11
45.780904813391139
 21
91.811352865179458
 31
0.0
  0
LINE
  5
3C43
  8
01
 10
48.880912429065859
 20
91.811352865179458
 30
0.0
 11
48.880912429066768
 21
92.811352865181263
 31
0.0
  0
LINE
  5
3C44
  8
01
 10
48.880912429066768
 20
92.811352865181263
 30
0.0
 11
49.380912429065859
 21
93.811352865179444
 31
0.0
  0
LINE
  5
3C45
  8
01
 10
48.880912429065859
 20
93.811352865179444
 30
0.0
 11
49.380912429065859
 21
93.811352865179444
 31
0.0
  0
LINE
  5
3C46
  8
01
 10
48.880912429065859
 20
93.811352865179444
 30
0.0
 11
49.380912429066541
 21
94.811352865179444
 31
0.0
  0
LINE
  5
3C47
  8
01
 10
48.880912429066768
 20
94.811352865179444
 30
0.0
 11
49.380912429066541
 21
94.811352865179444
 31
0.0
  0
LINE
  5
3C48
  8
01
 10
48.880912429066768
 20
94.811352865179444
 30
0.0
 11
49.380912429066768
 21
95.811352865179458
 31
0.0
  0
LINE
  5
3C49
  8
01
 10
49.380912429066768
 20
95.811352865179458
 30
0.0
 11
48.880912429066768
 21
95.811352865179913
 31
0.0
  0
LINE
  5
3C4A
  8
01
 10
48.880912429066768
 20
95.811352865179913
 30
0.0
 11
48.880912429066768
 21
96.561356673020498
 31
0.0
  0
LINE
  5
3C4B
  8
01
 10
48.880912429066768
 20
96.561356673020498
 30
0.0
 11
49.130908621225267
 21
96.811352865179458
 31
0.0
  0
LINE
  5
3C4C
  8
01
 10
73.680908621227161
 20
101.31135286517809
 30
0.0
 11
49.880912429066541
 21
101.3113528651776
 31
0.0
  0
LINE
  5
3C4D
  8
01
 10
48.88090862122516
 20
97.061352865179003
 30
0.0
 11
49.130908621225267
 21
96.811352865179458
 31
0.0
  0
LINE
  5
3C4E
  8
01
 10
48.880912429066541
 20
99.310990882078102
 30
0.0
 11
49.880912429066541
 21
101.3113528651776
 31
0.0
  0
LINE
  5
3C4F
  8
01
 10
48.88090862122516
 20
97.061352865179003
 30
0.0
 11
48.880908621226631
 21
98.310982960393801
 31
0.0
  0
LINE
  5
3C50
  8
01
 10
49.380912429066768
 20
99.310982960392892
 30
0.0
 11
48.880912429066541
 21
99.310990882078102
 31
0.0
  0
LINE
  5
3C51
  8
01
 10
48.880908621226631
 20
98.310982960393801
 30
0.0
 11
49.380912429066768
 21
99.310982960392892
 31
0.0
  0
ARC
  5
3C52
  8
01
 10
51.280912429066881
 20
90.969113735722814
 30
0.0
 40
0.5
 50
268.2784088361434
 51
71.075355583938403
  0
LINE
  5
3C53
  8
01
 10
50.780912429066859
 20
91.669113735723087
 30
0.0
 11
51.443074591229163
 21
91.44208670869574
 31
0.0
  0
ARC
  5
3C54
  8
01
 10
72.480908621227471
 20
99.511352865179276
 30
0.0
 40
0.3
 50
0.0
 51
89.999999999954412
  0
LINE
  5
3C55
  8
01
 10
72.780908621226843
 20
91.669113735723087
 30
0.0
 11
72.780908621227411
 21
99.511352865179276
 31
0.0
  0
ARC
  5
3C56
  8
01
 10
61.780910525146787
 20
440.31135286517957
 30
0.0
 40
350.0
 50
271.72159116385018
 51
272.5418491789718
  0
ARC
  5
3C57
  8
01
 10
77.280916236902684
 20
91.155227581753195
 30
0.0
 40
0.5
 50
272.5418491789718
 51
359.99999999994787
  0
LINE
  5
3C58
  8
01
 10
77.780916236902669
 20
91.811352865179458
 30
0.0
 11
77.780916236902669
 21
91.15522758175274
 31
0.0
  0
LINE
  5
3C59
  8
01
 10
74.680908621227957
 20
91.811352865179458
 30
0.0
 11
77.780916236902669
 21
91.811352865179458
 31
0.0
  0
LINE
  5
3C5A
  8
01
 10
74.680908621227957
 20
91.811352865179458
 30
0.0
 11
74.680908621227033
 21
92.811352865181263
 31
0.0
  0
LINE
  5
3C5B
  8
01
 10
74.680908621227033
 20
92.811352865181263
 30
0.0
 11
74.180908621227957
 21
93.811352865179444
 31
0.0
  0
LINE
  5
3C5C
  8
01
 10
74.680908621227843
 20
93.811352865179444
 30
0.0
 11
74.180908621227957
 21
93.811352865179444
 31
0.0
  0
LINE
  5
3C5D
  8
01
 10
74.680908621227843
 20
93.811352865179444
 30
0.0
 11
74.180908621227275
 21
94.811352865179444
 31
0.0
  0
LINE
  5
3C5E
  8
01
 10
74.680908621227033
 20
94.811352865179444
 30
0.0
 11
74.180908621227275
 21
94.811352865179444
 31
0.0
  0
LINE
  5
3C5F
  8
01
 10
74.680908621227033
 20
94.811352865179444
 30
0.0
 11
74.180908621227047
 21
95.811352865179458
 31
0.0
  0
LINE
  5
3C60
  8
01
 10
74.180908621227047
 20
95.811352865179458
 30
0.0
 11
74.680908621226934
 21
95.811352865179913
 31
0.0
  0
LINE
  5
3C61
  8
01
 10
74.680908621226934
 20
95.811352865179913
 30
0.0
 11
74.680908621226934
 21
96.561356673020498
 31
0.0
  0
LINE
  5
3C62
  8
01
 10
74.680908621226934
 20
96.561356673020498
 30
0.0
 11
74.430912429068414
 21
96.811352865179458
 31
0.0
  0
LINE
  5
3C63
  8
01
 10
74.680912429068542
 20
97.061352865179003
 30
0.0
 11
74.430912429068414
 21
96.811352865179458
 31
0.0
  0
LINE
  5
3C64
  8
01
 10
74.680908621227161
 20
99.310990882078102
 30
0.0
 11
73.680908621227161
 21
101.3113528651776
 31
0.0
  0
LINE
  5
3C65
  8
01
 10
74.680912429068542
 20
97.061352865179003
 30
0.0
 11
74.680912429067064
 21
98.310982960393801
 31
0.0
  0
LINE
  5
3C66
  8
01
 10
74.180908621227047
 20
99.310982960392892
 30
0.0
 11
74.680908621227161
 21
99.310990882078102
 31
0.0
  0
LINE
  5
3C67
  8
01
 10
74.680912429067064
 20
98.310982960393801
 30
0.0
 11
74.180908621227047
 21
99.310982960392892
 31
0.0
  0
ARC
  5
3C68
  8
01
 10
72.28090862122697
 20
90.969113735722814
 30
0.0
 40
0.5
 50
108.9246444160616
 51
271.72159116385671
  0
LINE
  5
3C69
  8
01
 10
72.780908621226956
 20
91.669113735723087
 30
0.0
 11
72.118746459064653
 21
91.44208670869574
 31
0.0
  0
LINE
  5
3DE5
  8
01
  6
BYBLOCK
 10
115.4763230571032
 20
-239.46248115200041
 30
0.0
 11
115.4763230571032
 21
-207.4624697284851
 31
0.0
  0
LINE
  5
3DEC
  8
01
 10
115.47632305710221
 20
-239.46248115200041
 30
0.0
 11
383.47633067278252
 21
-239.46248115200041
 31
0.0
  0
LINE
  5
3DED
  8
01
 10
383.47633067278252
 20
-207.46246972848499
 30
0.0
 11
115.4763230571032
 21
-207.46246972848499
 31
0.0
  0
LINE
  5
3DF9
  8
01
  6
BYBLOCK
 10
383.47633067278258
 20
-239.46248115200041
 30
0.0
 11
383.47633067278252
 21
-207.46246972848499
 31
0.0
  0
LINE
  5
3E42
  8
01
  6
BYBLOCK
 10
383.47633067278252
 20
-210.5624773441626
 30
0.0
 11
115.4763230571032
 21
-210.5624773441626
 31
0.0
  0
LINE
  5
3E43
  8
01
  6
BYBLOCK
 10
383.47633067278252
 20
-236.36247734416261
 30
0.0
 11
115.4763230571032
 21
-236.36247734416261
 31
0.0
  0
LINE
  5
4187
  8
1DIM
 10
383.47633067278252
 20
-211.5624773441626
 30
0.0
 11
115.4763230571032
 21
-211.5624773441626
 31
0.0
  0
LINE
  5
4188
  8
1DIM
 10
383.47633067278252
 20
-235.36247734416261
 30
0.0
 11
115.4763230571032
 21
-235.36247734416261
 31
0.0
  0
TEXT
  5
4B57
  8
1TEXT
 10
128.96999304722621
 20
-45.220772711324138
 30
0.0
 40
2.3876872904039619
  1
商品コード
  0
TEXT
  5
4B5C
  8
1TEXT
 10
178.29088136739389
 20
-45.166507091087752
 30
0.0
 40
2.3876872904039619
  1
全長
  0
TEXT
  5
4B5E
  8
1TEXT
 10
213.46405312242189
 20
-45.186856698676422
 30
0.0
 40
2.3876872904039619
  1
記入例
  0
TEXT
  5
4B61
  8
1TEXT
 10
127.5700753328338
 20
-50.616516880506509
 30
0.0
 40
2.3469622282033442
  1
PA25S(L)
  0
TEXT
  5
4B66
  8
1TEXT
 10
177.40212119121821
 20
-50.676524437477681
 30
0.0
 40
2.3469622282033442
  1
図(L)
  0
TEXT
  5
4B68
  8
1TEXT
 10
193.01940042801661
 20
-50.74986700710901
 30
0.0
 40
2.3469622282033442
  1
特注寸法1890mm=PA25S1890
  0
LINE
  5
4B71
  8
1DIM
 10
246.1134467395577
 20
-41.183338666774439
 30
0.0
 11
246.1134467395577
 21
-57.608276036160191
 31
0.0
  0
LINE
  5
4B74
  8
1DIM
 10
191.0052768033141
 20
-41.183338666774453
 30
0.0
 11
191.0052768033141
 21
-57.608276036160191
 31
0.0
  0
LINE
  5
4B75
  8
1DIM
 10
170.5216129701962
 20
-41.183338666774432
 30
0.0
 11
170.5216129701962
 21
-57.608276036160191
 31
0.0
  0
LINE
  5
4B76
  8
1DIM
 10
147.38060984761799
 20
-41.183338666774432
 30
0.0
 11
147.38060984761799
 21
-52.16478252298991
 31
0.0
  0
LINE
  5
4B77
  8
1DIM
 10
147.38060984761799
 20
-41.183338666774397
 30
0.0
 11
147.38060984761799
 21
-57.608276036160191
 31
0.0
  0
LINE
  5
4B79
  8
1DIM
 10
123.20988327161049
 20
-57.608276036160191
 30
0.0
 11
123.20988327161059
 21
-41.183338666774411
 31
0.0
  0
TEXT
  5
4BFB
  8
1TEXT
 10
127.5700753328338
 20
-56.060010393676777
 30
0.0
 40
2.3469622282033442
  1
PA25Z(L)
  0
TEXT
  5
4BFD
  8
1TEXT
 10
177.40212119121821
 20
-56.120017950647949
 30
0.0
 40
2.3469622282033442
  1
図(L)
  0
TEXT
  5
4BFE
  8
1TEXT
 10
193.0194004280165
 20
-56.193360520279278
 30
0.0
 40
2.3469622282033442
  1
特注寸法1890mm=PA25S1890
  0
LINE
  5
4C11
  8
1DIM
 10
123.20988327161059
 20
-57.608276036160191
 30
0.0
 11
246.11344673955759
 21
-57.608276036160191
 31
0.0
  0
LINE
  5
4C12
  8
1DIM
 10
123.20988327161059
 20
-52.164782522989903
 30
0.0
 11
246.1134467395577
 21
-52.164782522989917
 31
0.0
  0
LINE
  5
4C13
  8
1DIM
 10
123.20988327161059
 20
-46.721289009819643
 30
0.0
 11
246.1134467395577
 21
-46.721289009819657
 31
0.0
  0
LINE
  5
4C14
  8
1DIM
 10
123.20988327161059
 20
-41.183338666774432
 30
0.0
 11
246.1134467395577
 21
-41.183338666774439
 31
0.0
  0
LINE
  5
4C15
  8
1DIM
 10
170.52161297019629
 20
-41.183338666774432
 30
0.0
 11
191.0052768033141
 21
-41.183338666774432
 31
0.0
  0
LINE
  5
4C1A
  8
1DIM
 10
170.5216129701962
 20
-57.608276036160177
 30
0.0
 11
170.52161297019629
 21
-41.183338666774411
 31
0.0
  0
TEXT
  5
4C1B
  8
1TEXT
 10
153.4045543537012
 20
-45.241122318912822
 30
0.0
 40
2.3876872904039619
  1
レール色
  0
TEXT
  5
4C1C
  8
1TEXT
 10
152.03462234053259
 20
-50.616516880506502
 30
0.0
 40
2.3469622282033442
  1
白アルマイト
  0
LINE
  5
4C1D
  8
1DIM
 10
147.38060984761799
 20
-57.608276036160177
 30
0.0
 11
147.38060984761799
 21
-41.183338666774418
 31
0.0
  0
TEXT
  5
4C1E
  8
1TEXT
 10
148.11419723782521
 20
-56.06001039367677
 30
0.0
 40
2.3469622282033442
  1
ステンカラーヘアライン
 41
0.7
  0
LINE
  5
4C32
  8
01
 10
91.423560475900786
 20
63.044018642347957
 30
0.0
 11
108.6153506354749
 21
63.044018642347957
 31
0.0
  0
LINE
  5
4C33
  8
01
 10
108.6153506354749
 20
63.044018642347957
 30
0.0
 11
108.6153506354749
 21
55.752431103728213
 31
0.0
  0
LINE
  5
4C34
  8
01
 10
108.6153506354749
 20
55.752431103728213
 30
0.0
 11
91.423560475900786
 21
55.752431103728213
 31
0.0
  0
LINE
  5
4C35
  8
01
 10
91.423560475900786
 20
55.752431103728213
 30
0.0
 11
91.423560475900786
 21
63.044018642347957
 31
0.0
  0
TEXT
  5
4C36
  8
1TEXT
 10
93.338075297827444
 20
57.619310170893179
 30
0.0
 40
4.0
  1
切欠図
  0
TEXT
  5
4C37
  8
1DIM
 10
326.37674810140442
 20
-169.22497807586379
 30
0.0
 40
3.5
  1
材質：アルミ
  0
TEXT
  5
4C38
  8
1DIM
 10
326.37674810140442
 20
-175.05831140919719
 30
0.0
 40
3.5
  1
仕上：ブラストアルマイト
  0
SOLID
  5
4C39
  8
1DIM
 10
313.49313481219031
 20
-161.30564477482349
 30
0.0
 11
312.64823306014267
 21
-159.46248115200041
 31
0.0
 12
314.04524724380599
 22
-160.93199211887159
 32
0.0
 13
314.04524724380599
 23
-160.93199211887159
 33
0.0
  0
TEXT
  5
4C3B
  8
1TEXT
 10
123.14878948558361
 20
-33.584676090068342
 30
0.0
 40
8.0
  1
PA25-
  0
LINE
  5
4C3C
  8
1DIM
 10
48.880912429065859
 20
91.811352865179458
 30
0.0
 11
48.880912429065859
 21
60.811352865177867
 31
0.0
  0
LINE
  5
4C3D
  8
1DIM
 10
74.680908621227957
 20
91.811352865179458
 30
0.0
 11
74.680908621227957
 21
60.811352865177867
 31
0.0
  0
LINE
  5
4C3E
  8
1DIM
 10
50.880912429065852
 20
61.811352865177859
 30
0.0
 11
72.680908621227957
 21
61.811352865177859
 31
0.0
  0
LINE
  5
4C42
  8
1DIM
 10
48.780910525146851
 20
91.811352865177867
 30
0.0
 11
12.780910525146851
 21
91.811352865177881
 31
0.0
  0
LINE
  5
4C43
  8
1DIM
 10
49.880912429066541
 20
101.3113528651776
 30
0.0
 11
12.780910525146851
 21
101.3113528651776
 31
0.0
  0
LINE
  5
4C44
  8
1DIM
 10
13.780910525146851
 20
93.811352865177867
 30
0.0
 11
13.780910525146851
 21
99.311352865177653
 31
0.0
  0
LINE
  5
4C48
  8
1DIM
 10
48.780910525146851
 20
111.8113528651778
 30
0.0
 11
12.780910525146851
 21
111.81135286517789
 31
0.0
  0
LINE
  5
4C49
  8
1DIM
 10
23.780910525146851
 20
121.81135286517789
 30
0.0
 11
12.780910525146851
 21
121.81135286517789
 31
0.0
  0
LINE
  5
4C4A
  8
1DIM
 10
13.78091052514684
 20
113.8113528651778
 30
0.0
 11
13.780910525146851
 21
119.81135286517789
 31
0.0
  0
LINE
  5
4C4B
  8
1DIM
 10
13.780910525146851
 20
121.81135286517789
 30
0.0
 11
13.780910525146851
 21
152.3780195318445
 31
0.0
  0
LINE
  5
4C4F
  8
1DIM
 10
48.780910525146851
 20
121.8113528651763
 30
0.0
 11
48.780910525146851
 21
142.81135286517781
 31
0.0
  0
LINE
  5
4C50
  8
1DIM
 10
74.780910525146851
 20
121.81135286517789
 30
0.0
 11
74.780910525146851
 21
142.81135286517781
 31
0.0
  0
LINE
  5
4C51
  8
1DIM
 10
50.780910525146851
 20
141.81135286517789
 30
0.0
 11
72.780910525146851
 21
141.81135286517789
 31
0.0
  0
LINE
  5
4C52
  8
1DIM
 10
74.780910525146851
 20
141.81135286517789
 30
0.0
 11
101.1475771918135
 21
141.81135286517789
 31
0.0
  0
LINE
  5
4C56
  8
1TEXT
 10
111.3615893994085
 20
-195.3013446231225
 30
0.0
 11
134.06188448741551
 21
-195.3013446231225
 31
0.0
  0
LINE
  5
4C57
  8
1TEXT
 10
134.06188448741551
 20
-195.3013446231225
 30
0.0
 11
134.06188448741551
 21
-204.85554412334841
 31
0.0
  0
LINE
  5
4C58
  8
1TEXT
 10
134.06188448741551
 20
-204.85554412334841
 30
0.0
 11
111.3615893994085
 21
-204.85554412334841
 31
0.0
  0
LINE
  5
4C59
  8
1TEXT
 10
111.3615893994085
 20
-204.85554412334841
 30
0.0
 11
111.3615893994085
 21
-195.3013446231225
 31
0.0
  0
TEXT
  5
4C5A
  8
1TEXT
 10
118.1286747332483
 20
-202.07862916183669
 30
0.0
 40
4.0
  1
裏面
  0
LINE
  5
4C5B
  8
1TEXT
 10
111.3615893994085
 20
-114.756843343431
 30
0.0
 11
147.01834735990059
 21
-114.756843343431
 31
0.0
  0
LINE
  5
4C5C
  8
1TEXT
 10
147.01834735990059
 20
-114.756843343431
 30
0.0
 11
147.01834735990059
 21
-124.31104284365691
 31
0.0
  0
LINE
  5
4C5D
  8
1TEXT
 10
147.01834735990059
 20
-124.31104284365691
 30
0.0
 11
111.3615893994085
 21
-124.31104284365691
 31
0.0
  0
LINE
  5
4C5E
  8
1TEXT
 10
111.3615893994085
 20
-124.31104284365691
 30
0.0
 11
111.3615893994085
 21
-114.756843343431
 31
0.0
  0
TEXT
  5
4C5F
  8
1TEXT
 10
118.1286747332483
 20
-121.5341278821452
 30
0.0
 40
4.0
  1
外観有効面
  0
LINE
  5
4C60
  8
1DIM
 10
115.47632305710221
 20
-159.46248115200041
 30
0.0
 11
115.47632305710221
 21
-180.46248115200041
 31
0.0
  0
LINE
  5
4C61
  8
1DIM
 10
383.47633067278252
 20
-159.46248115200041
 30
0.0
 11
383.47633067278252
 21
-180.46248115200041
 31
0.0
  0
LINE
  5
4C62
  8
1DIM
 10
117.47632305710221
 20
-179.46248115200041
 30
0.0
 11
381.47633067278258
 21
-179.46248115200041
 31
0.0
  0
LINE
  5
4C66
  8
1DIM
 10
50.780912429066859
 20
91.669113735723087
 30
0.0
 11
50.780912429066859
 21
70.811352865177867
 31
0.0
  0
LINE
  5
4C67
  8
1DIM
 10
72.780908621226956
 20
91.669113735723087
 30
0.0
 11
72.780908621226956
 21
70.811352865177867
 31
0.0
  0
LINE
  5
4C68
  8
1DIM
 10
52.780912429066859
 20
71.811352865177867
 30
0.0
 11
70.780908621226956
 21
71.811352865177867
 31
0.0
  0
LINE
  5
4C6C
  8
1HATCH
 10
77.620187646136017
 20
91.811352865179416
 30
0.0
 11
76.426751412777335
 21
90.617916631820748
 31
0.0
  0
LINE
  5
4C6D
  8
1HATCH
 10
76.497655631002374
 20
91.811352865179416
 30
0.0
 11
75.25719506785282
 21
90.570892302029876
 31
0.0
  0
LINE
  5
4C6E
  8
1HATCH
 10
75.375123615868773
 20
91.811352865179487
 30
0.0
 11
74.091698479776596
 21
90.527927729087295
 31
0.0
  0
LINE
  5
4C6F
  8
1HATCH
 10
74.680908621227573
 20
92.239669885671915
 30
0.0
 11
72.930218190184931
 21
90.488979454629273
 31
0.0
  0
LINE
  5
4C70
  8
1HATCH
 10
74.497292276019124
 20
93.178585555597124
 30
0.0
 11
71.930828038965544
 21
90.612121318543544
 31
0.0
  0
LINE
  5
4C71
  8
1HATCH
 10
74.456448270974349
 20
94.260273565685978
 30
0.0
 11
72.780908621226914
 21
92.584733915938543
 31
0.0
  0
LINE
  5
4C72
  8
1HATCH
 10
74.415604265929431
 20
95.341961575774704
 30
0.0
 11
72.780908621226985
 21
93.707265931072257
 31
0.0
  0
LINE
  5
4C73
  8
1HATCH
 10
74.596687984634343
 20
96.645577309613273
 30
0.0
 11
72.780908621227084
 21
94.829797946206
 31
0.0
  0
LINE
  5
4C74
  8
1HATCH
 10
74.680912429067604
 20
97.852333769180177
 30
0.0
 11
72.780908621227155
 21
95.952329961339714
 31
0.0
  0
LINE
  5
4C75
  8
1HATCH
 10
74.459617030892375
 20
98.753570386138577
 30
0.0
 11
72.780908621227226
 21
97.074861976473429
 31
0.0
  0
LINE
  5
4C76
  8
1HATCH
 10
74.418805876972115
 20
99.835291247351975
 30
0.0
 11
72.780908621227297
 21
98.197393991607171
 31
0.0
  0
LINE
  5
4C77
  8
1HATCH
 10
74.044673681771442
 20
100.5836910672849
 30
0.0
 11
72.780908621227397
 21
99.319926006740914
 31
0.0
  0
LINE
  5
4C78
  8
1HATCH
 10
73.649803464530962
 20
101.31135286517809
 30
0.0
 11
72.149803464532326
 21
99.811352865179472
 31
0.0
  0
LINE
  5
4C79
  8
1HATCH
 10
72.52727144939729
 20
101.31135286517809
 30
0.0
 11
71.027271449398683
 21
99.811352865179487
 31
0.0
  0
LINE
  5
4C7A
  8
1HATCH
 10
71.404739434263632
 20
101.31135286517799
 30
0.0
 11
69.904739434265025
 21
99.811352865179472
 31
0.0
  0
LINE
  5
4C7B
  8
1HATCH
 10
70.282207419129946
 20
101.31135286517799
 30
0.0
 11
68.782207419131353
 21
99.811352865179472
 31
0.0
  0
LINE
  5
4C7C
  8
1HATCH
 10
69.159675403996303
 20
101.31135286517799
 30
0.0
 11
67.659675403997738
 21
99.811352865179472
 31
0.0
  0
LINE
  5
4C7D
  8
1HATCH
 10
68.037143388862631
 20
101.31135286517799
 30
0.0
 11
66.537143388864109
 21
99.811352865179472
 31
0.0
  0
LINE
  5
4C7E
  8
1HATCH
 10
66.914611373728974
 20
101.31135286517799
 30
0.0
 11
65.414611373730452
 21
99.811352865179472
 31
0.0
  0
LINE
  5
4C7F
  8
1HATCH
 10
65.792079358595274
 20
101.31135286517789
 30
0.0
 11
64.292079358596808
 21
99.811352865179472
 31
0.0
  0
LINE
  5
4C80
  8
1HATCH
 10
64.669547343461645
 20
101.31135286517789
 30
0.0
 11
63.169547343463172
 21
99.811352865179472
 31
0.0
  0
LINE
  5
4C81
  8
1HATCH
 10
63.547015328327959
 20
101.31135286517789
 30
0.0
 11
62.047015328329522
 21
99.811352865179472
 31
0.0
  0
LINE
  5
4C82
  8
1HATCH
 10
62.424483313194308
 20
101.31135286517789
 30
0.0
 11
60.924483313195871
 21
99.811352865179472
 31
0.0
  0
LINE
  5
4C83
  8
1HATCH
 10
61.301951298060651
 20
101.3113528651778
 30
0.0
 11
59.801951298062221
 21
99.811352865179472
 31
0.0
  0
LINE
  5
4C84
  8
1HATCH
 10
51.435337767021238
 20
91.444739334138475
 30
0.0
 11
50.484303557114643
 21
90.49370512423188
 31
0.0
  0
LINE
  5
4C85
  8
1HATCH
 10
60.179419282926979
 20
101.3113528651778
 30
0.0
 11
58.679419282928578
 21
99.811352865179472
 31
0.0
  0
LINE
  5
4C86
  8
1HATCH
 10
50.780912429066831
 20
91.912846011317711
 30
0.0
 11
49.398521516293293
 21
90.530455098544167
 31
0.0
  0
LINE
  5
4C87
  8
1HATCH
 10
59.056887267793307
 20
101.3113528651778
 30
0.0
 11
57.556887267794949
 21
99.811352865179472
 31
0.0
  0
LINE
  5
4C88
  8
1HATCH
 10
50.78091242906676
 20
93.035378026451284
 30
0.0
 11
48.315989045211879
 21
90.570454642596403
 31
0.0
  0
LINE
  5
4C89
  8
1HATCH
 10
57.93435525265965
 20
101.3113528651778
 30
0.0
 11
56.434355252661298
 21
99.811352865179472
 31
0.0
  0
LINE
  5
4C8A
  8
1HATCH
 10
48.434355252661277
 20
91.811352865179444
 30
0.0
 11
47.236678241119897
 21
90.613675853638057
 31
0.0
  0
LINE
  5
4C8B
  8
1HATCH
 10
50.78091242906666
 20
94.157910041584827
 30
0.0
 11
48.880912429066257
 21
92.25791004158441
 31
0.0
  0
LINE
  5
4C8C
  8
1HATCH
 10
56.811823237525978
 20
101.3113528651778
 30
0.0
 11
55.311823237527648
 21
99.811352865179472
 31
0.0
  0
LINE
  5
4C8D
  8
1HATCH
 10
47.311823237527634
 20
91.811352865179444
 30
0.0
 11
46.168497238646268
 21
90.668026866298078
 31
0.0
  0
LINE
  5
4C8E
  8
1HATCH
 10
50.780912429066603
 20
95.280442056718414
 30
0.0
 11
49.311823237527641
 21
93.811352865179444
 31
0.0
  0
LINE
  5
4C8F
  8
1HATCH
 10
55.68929122239232
 20
101.3113528651777
 30
0.0
 11
54.189291222394012
 21
99.811352865179444
 31
0.0
  0
LINE
  5
4C90
  8
1HATCH
 10
46.18929122239399
 20
91.811352865179444
 30
0.0
 11
45.780904813391132
 21
91.402966456176586
 31
0.0
  0
LINE
  5
4C91
  8
1HATCH
 10
50.780912429066511
 20
96.402974071851958
 30
0.0
 11
49.189291222394012
 21
94.811352865179444
 31
0.0
  0
LINE
  5
4C92
  8
1HATCH
 10
54.566759207258642
 20
101.3113528651777
 30
0.0
 11
53.066759207260368
 21
99.811352865179472
 31
0.0
  0
LINE
  5
4C93
  8
1HATCH
 10
50.780912429066433
 20
97.525506086985516
 30
0.0
 11
49.066759207260652
 21
95.811352865179728
 31
0.0
  0
LINE
  5
4C94
  8
1HATCH
 10
53.444227192124991
 20
101.3113528651777
 30
0.0
 11
51.944227192126718
 21
99.811352865179472
 31
0.0
  0
LINE
  5
4C95
  8
1HATCH
 10
50.780912429066348
 20
98.648038102119102
 30
0.0
 11
49.037567906675882
 21
96.904693579728615
 31
0.0
  0
LINE
  5
4C96
  8
1HATCH
 10
52.321695176991319
 20
101.3113528651777
 30
0.0
 11
48.880908621226098
 21
97.87056630941251
 31
0.0
  0
LINE
  5
4C97
  8
1HATCH
 10
51.199163161857648
 20
101.3113528651777
 30
0.0
 11
49.198796142408639
 21
99.31098584572868
 31
0.0
  0
LINE
  5
4C98
  8
1HATCH
 10
50.07663114672399
 20
101.3113528651776
 30
0.0
 11
49.685264532641057
 21
100.9199862510947
 31
0.0
  0
LINE
  5
4C99
  8
1HATCH
 10
50.076631146723962
 20
112.31135286517809
 30
0.0
 11
49.685264532641057
 21
112.70271947926101
 31
0.0
  0
LINE
  5
4C9A
  8
1HATCH
 10
51.199163161857619
 20
112.31135286517799
 30
0.0
 11
49.198796142408661
 21
114.311719884627
 31
0.0
  0
LINE
  5
4C9B
  8
1HATCH
 10
52.321695176991291
 20
112.31135286517799
 30
0.0
 11
48.880908621226119
 21
115.75213942094319
 31
0.0
  0
LINE
  5
4C9C
  8
1HATCH
 10
53.444227192124949
 20
112.31135286517799
 30
0.0
 11
51.944227192126711
 21
113.8113528651762
 31
0.0
  0
LINE
  5
4C9D
  8
1HATCH
 10
50.780912429066341
 20
114.9746676282366
 30
0.0
 11
49.037567906675868
 21
116.7180121506271
 31
0.0
  0
LINE
  5
4C9E
  8
1HATCH
 10
54.566759207258627
 20
112.31135286517799
 30
0.0
 11
53.066759207260361
 21
113.8113528651762
 31
0.0
  0
LINE
  5
4C9F
  8
1HATCH
 10
50.780912429066433
 20
116.0971996433702
 30
0.0
 11
49.066759207260652
 21
117.811352865176
 31
0.0
  0
LINE
  5
4CA0
  8
1HATCH
 10
55.689291222392292
 20
112.31135286517789
 30
0.0
 11
54.18929122239399
 21
113.8113528651762
 31
0.0
  0
LINE
  5
4CA1
  8
1HATCH
 10
46.189291222393997
 20
121.8113528651762
 30
0.0
 11
45.780904813391132
 21
122.2197392741791
 31
0.0
  0
LINE
  5
4CA2
  8
1HATCH
 10
50.78091242906649
 20
117.2197316585037
 30
0.0
 11
49.189291222394012
 21
118.8113528651762
 31
0.0
  0
LINE
  5
4CA3
  8
1HATCH
 10
56.811823237525971
 20
112.31135286517789
 30
0.0
 11
55.311823237527648
 21
113.8113528651762
 31
0.0
  0
LINE
  5
4CA4
  8
1HATCH
 10
47.311823237527641
 20
121.8113528651763
 30
0.0
 11
46.16849723864641
 21
122.9546788640575
 31
0.0
  0
LINE
  5
4CA5
  8
1HATCH
 10
50.780912429066582
 20
118.34226367363731
 30
0.0
 11
49.311823237527641
 21
119.8113528651763
 31
0.0
  0
LINE
  5
4CA6
  8
1HATCH
 10
57.934355252659607
 20
112.31135286517789
 30
0.0
 11
56.43435525266127
 21
113.8113528651762
 31
0.0
  0
LINE
  5
4CA7
  8
1HATCH
 10
48.43435525266127
 20
121.8113528651763
 30
0.0
 11
47.236678241119911
 21
123.00902987671761
 31
0.0
  0
LINE
  5
4CA8
  8
1HATCH
 10
50.780912429066653
 20
119.46479568877091
 30
0.0
 11
48.88091242906625
 21
121.3647956887713
 31
0.0
  0
LINE
  5
4CA9
  8
1HATCH
 10
59.0568872677933
 20
112.31135286517789
 30
0.0
 11
57.556887267794927
 21
113.8113528651762
 31
0.0
  0
LINE
  5
4CAA
  8
1HATCH
 10
50.780912429066738
 20
120.58732770390441
 30
0.0
 11
48.315989045211779
 21
123.0522510877594
 31
0.0
  0
LINE
  5
4CAB
  8
1HATCH
 10
60.179419282926958
 20
112.3113528651778
 30
0.0
 11
58.679419282928571
 21
113.8113528651762
 31
0.0
  0
LINE
  5
4CAC
  8
1HATCH
 10
50.780912429066809
 20
121.70985971903799
 30
0.0
 11
49.39852151629308
 21
123.09225063181169
 31
0.0
  0
LINE
  5
4CAD
  8
1HATCH
 10
61.301951298060629
 20
112.3113528651778
 30
0.0
 11
59.801951298062207
 21
113.8113528651763
 31
0.0
  0
LINE
  5
4CAE
  8
1HATCH
 10
51.435337767021217
 20
122.1779663962172
 30
0.0
 11
50.48430355711433
 21
123.12900060612409
 31
0.0
  0
LINE
  5
4CAF
  8
1HATCH
 10
62.424483313194301
 20
112.3113528651778
 30
0.0
 11
60.924483313195857
 21
113.8113528651762
 31
0.0
  0
LINE
  5
4CB0
  8
1HATCH
 10
63.547015328327952
 20
112.3113528651778
 30
0.0
 11
62.047015328329508
 21
113.8113528651762
 31
0.0
  0
LINE
  5
4CB1
  8
1HATCH
 10
64.66954734346163
 20
112.3113528651778
 30
0.0
 11
63.169547343463137
 21
113.8113528651762
 31
0.0
  0
LINE
  5
4CB2
  8
1HATCH
 10
65.792079358595274
 20
112.3113528651778
 30
0.0
 11
64.292079358596794
 21
113.8113528651762
 31
0.0
  0
LINE
  5
4CB3
  8
1HATCH
 10
66.914611373728945
 20
112.3113528651777
 30
0.0
 11
65.414611373730423
 21
113.8113528651762
 31
0.0
  0
LINE
  5
4CB4
  8
1HATCH
 10
68.037143388862617
 20
112.3113528651777
 30
0.0
 11
66.537143388864081
 21
113.8113528651762
 31
0.0
  0
LINE
  5
4CB5
  8
1HATCH
 10
69.159675403996289
 20
112.3113528651777
 30
0.0
 11
67.659675403997696
 21
113.8113528651763
 31
0.0
  0
LINE
  5
4CB6
  8
1HATCH
 10
70.282207419129946
 20
112.3113528651777
 30
0.0
 11
68.782207419131353
 21
113.8113528651763
 31
0.0
  0
LINE
  5
4CB7
  8
1HATCH
 10
71.404739434263604
 20
112.3113528651776
 30
0.0
 11
69.904739434264997
 21
113.8113528651763
 31
0.0
  0
LINE
  5
4CB8
  8
1HATCH
 10
72.527271449397276
 20
112.3113528651776
 30
0.0
 11
71.027271449398654
 21
113.8113528651762
 31
0.0
  0
LINE
  5
4CB9
  8
1HATCH
 10
73.649803464530962
 20
112.3113528651776
 30
0.0
 11
72.149803464532312
 21
113.8113528651762
 31
0.0
  0
LINE
  5
4CBA
  8
1HATCH
 10
74.044673681771442
 20
113.0390146630708
 30
0.0
 11
72.780908621227383
 21
114.3027797236148
 31
0.0
  0
LINE
  5
4CBB
  8
1HATCH
 10
74.418805876972115
 20
113.7874144830037
 30
0.0
 11
72.780908621227297
 21
115.4253117387485
 31
0.0
  0
LINE
  5
4CBC
  8
1HATCH
 10
74.459617030892346
 20
114.8691353442171
 30
0.0
 11
72.780908621227226
 21
116.5478437538822
 31
0.0
  0
LINE
  5
4CBD
  8
1HATCH
 10
74.680912429067618
 20
115.7703719611755
 30
0.0
 11
72.780908621227141
 21
117.670375769016
 31
0.0
  0
LINE
  5
4CBE
  8
1HATCH
 10
74.596687984634315
 20
116.9771284207425
 30
0.0
 11
72.78090862122707
 21
118.7929077841497
 31
0.0
  0
LINE
  5
4CBF
  8
1HATCH
 10
74.415604265929403
 20
118.280744154581
 30
0.0
 11
72.780908621226985
 21
119.9154397992834
 31
0.0
  0
LINE
  5
4CC0
  8
1HATCH
 10
74.456448270974334
 20
119.3624321646697
 30
0.0
 11
72.780908621226914
 21
121.03797181441711
 31
0.0
  0
LINE
  5
4CC1
  8
1HATCH
 10
74.497292276019124
 20
120.44412017475859
 30
0.0
 11
71.930828038966013
 21
123.01058441181171
 31
0.0
  0
LINE
  5
4CC2
  8
1HATCH
 10
74.680908621227559
 20
121.3830358446838
 30
0.0
 11
72.93021819018503
 21
123.1337262757263
 31
0.0
  0
LINE
  5
4CC3
  8
1HATCH
 10
75.375123615868745
 20
121.8113528651762
 30
0.0
 11
74.091698479776625
 21
123.09477800126839
 31
0.0
  0
LINE
  5
4CC4
  8
1HATCH
 10
76.497655631002402
 20
121.8113528651762
 30
0.0
 11
75.257195067852635
 21
123.051813428326
 31
0.0
  0
LINE
  5
4CC5
  8
1HATCH
 10
77.620187646136031
 20
121.8113528651763
 30
0.0
 11
76.426751412777051
 21
123.0047890985352
 31
0.0
  0
LINE
  5
4CC6
  8
1DIM
 10
23.780910525146851
 20
121.81135286517789
 30
0.0
 11
23.780910525146851
 21
152.81135286517781
 31
0.0
  0
LINE
  5
4CC7
  8
1DIM
 10
61.780910525146851
 20
124.8292104156225
 30
0.0
 11
61.780910525146851
 21
152.81135286517781
 31
0.0
  0
LINE
  5
4CC8
  8
1DIM
 10
25.780910525146862
 20
151.81135286517781
 30
0.0
 11
59.780910525146851
 21
151.81135286517781
 31
0.0
  0
TEXT
  5
4CCC
  8
1DIM
 10
91.404305480519383
 20
131.9580235104732
 30
0.0
 40
3.5
  1
圧入接着による取り付け
  0
SOLID
  5
4CCD
  8
1DIM
 10
76.453809945505895
 20
119.04014018460749
 30
0.0
 11
74.77996872080314
 21
117.8958645772485
 31
0.0
 12
75.992215628270415
 22
119.52115487330251
 32
0.0
 13
75.992215628270415
 23
119.52115487330251
 33
0.0
  0
LINE
  5
4CCF
  8
1DIM
 10
23.780910525146851
 20
91.811352865177867
 30
0.0
 11
2.7809105251468491
 21
91.811352865177867
 31
0.0
  0
LINE
  5
4CD0
  8
1DIM
 10
50.280912429066682
 20
90.500602896343864
 30
0.0
 11
2.7809105251468491
 21
90.500602896343892
 31
0.0
  0
LINE
  5
4CD1
  8
1DIM
 10
3.7809105251468509
 20
93.811352865177867
 30
0.0
 11
3.7809105251468522
 21
95.811352865177867
 31
0.0
  0
LINE
  5
4CD2
  8
1DIM
 10
3.78091052514685
 20
88.500602896343906
 30
0.0
 11
3.7809105251468478
 21
78.267269563010572
 31
0.0
  0
LINE
  5
4CD3
  8
1DIM
 10
3.7809105251468509
 20
91.811352865177867
 30
0.0
 11
3.78091052514685
 21
90.500602896343892
 31
0.0
  0
LINE
  5
4CD7
  8
1DIM
 10
73.280908621227013
 20
90.500602896343864
 30
0.0
 11
108.7809162369026
 21
90.500602896343864
 31
0.0
  0
LINE
  5
4CD8
  8
1DIM
 10
72.480908621227741
 20
99.81135286517906
 30
0.0
 11
108.7809162369026
 21
99.811352865179046
 31
0.0
  0
LINE
  5
4CD9
  8
1DIM
 10
107.7809162369026
 20
97.811352865179046
 30
0.0
 11
107.7809162369026
 21
92.500602896343864
 31
0.0
  0
LINE
  5
4CDA
  8
1DIM
 10
107.7809162369026
 20
90.500602896343864
 30
0.0
 11
107.7809162369026
 21
78.600602896344512
 31
0.0
  0
LINE
  5
4CDE
  8
1DIM
 10
23.780910525146851
 20
91.811352865177867
 30
0.0
 11
2.780910525146842
 21
91.811352865177867
 31
0.0
  0
LINE
  5
4CDF
  8
1DIM
 10
23.780910525146851
 20
121.81135286517789
 30
0.0
 11
2.7809105251468491
 21
121.81135286517789
 31
0.0
  0
LINE
  5
4CE0
  8
1DIM
 10
3.7809105251468438
 20
93.811352865177867
 30
0.0
 11
3.78091052514685
 21
119.81135286517789
 31
0.0
  0
LINE
  5
4CE4
  8
1DIM
 10
45.78090481339143
 20
91.155227581751603
 30
0.0
 11
45.78090481339143
 21
50.811352865177867
 31
0.0
  0
LINE
  5
4CE5
  8
1DIM
 10
77.780916236902272
 20
91.155227581751149
 30
0.0
 11
77.780916236902272
 21
50.811352865177867
 31
0.0
  0
LINE
  5
4CE6
  8
1DIM
 10
47.78090481339143
 20
51.811352865177859
 30
0.0
 11
75.780916236902272
 21
51.811352865177859
 31
0.0
  0
LINE
  5
4CEA
  8
1DIM
 10
51.780912429066873
 20
90.969113735722814
 30
0.0
 11
51.780912429066873
 21
80.811352865177867
 31
0.0
  0
LINE
  5
4CEB
  8
1DIM
 10
71.78090862122697
 20
90.969113735722814
 30
0.0
 11
71.78090862122697
 21
80.811352865177867
 31
0.0
  0
LINE
  5
4CEC
  8
1DIM
 10
53.780912429066881
 20
81.811352865177867
 30
0.0
 11
69.78090862122697
 21
81.811352865177867
 31
0.0
  0
LINE
  5
4CF0
  8
1HATCH
 10
91.615626837952718
 20
121.811352865177
 30
0.0
 11
92.431707218340307
 21
120.9952724847894
 31
0.0
  0
LINE
  5
4CF1
  8
1HATCH
 10
89.370562807685715
 20
121.8113528651772
 30
0.0
 11
93.554234060205317
 21
117.6276816126576
 31
0.0
  0
LINE
  5
4CF2
  8
1HATCH
 10
87.125498777417974
 20
121.8113528651772
 30
0.0
 11
93.992918978600983
 21
114.9439326639942
 31
0.0
  0
LINE
  5
4CF3
  8
1HATCH
 10
84.880434747150503
 20
121.8113528651775
 30
0.0
 11
93.903102109381052
 21
112.7886855029469
 31
0.0
  0
LINE
  5
4CF4
  8
1HATCH
 10
82.635370716883699
 20
121.811352865177
 30
0.0
 11
93.440422970839776
 21
111.00630061122089
 31
0.0
  0
LINE
  5
4CF5
  8
1HATCH
 10
80.390306686616427
 20
121.8113528651765
 30
0.0
 11
92.761702275135121
 21
109.43995727665779
 31
0.0
  0
LINE
  5
4CF6
  8
1HATCH
 10
78.14524265634941
 20
121.8113528651768
 30
0.0
 11
91.976812716501385
 21
107.9797828050248
 31
0.0
  0
LINE
  5
4CF7
  8
1HATCH
 10
75.900178626081697
 20
121.8113528651768
 30
0.0
 11
90.900178626081484
 21
106.811352865177
 31
0.0
  0
LINE
  5
4CF8
  8
1HATCH
 10
90.900178626081697
 20
106.8113528651768
 30
0.0
 11
91.149218568276623
 21
106.5623129229818
 31
0.0
  0
LINE
  5
4CF9
  8
1HATCH
 10
74.780910525146282
 20
120.6855569358454
 30
0.0
 11
88.655114595814666
 21
106.811352865177
 31
0.0
  0
LINE
  5
4CFA
  8
1HATCH
 10
88.655114595814894
 20
106.8113528651768
 30
0.0
 11
90.328199102412555
 21
105.1382683585791
 31
0.0
  0
LINE
  5
4CFB
  8
1HATCH
 10
74.780910525146055
 20
118.4404929055779
 30
0.0
 11
86.410050565547181
 21
106.811352865177
 31
0.0
  0
LINE
  5
4CFC
  8
1HATCH
 10
86.410050565547181
 20
106.811352865177
 30
0.0
 11
89.565474573794987
 21
103.65592885692899
 31
0.0
  0
LINE
  5
4CFD
  8
1HATCH
 10
74.78091052514651
 20
116.1954288753109
 30
0.0
 11
84.164986535279937
 21
106.8113528651772
 31
0.0
  0
LINE
  5
4CFE
  8
1HATCH
 10
84.164986535279937
 20
106.8113528651772
 30
0.0
 11
88.934552554184165
 21
102.041786846273
 31
0.0
  0
LINE
  5
4CFF
  8
1HATCH
 10
74.780910525146282
 20
113.9503648450431
 30
0.0
 11
81.919922505012437
 21
106.811352865177
 31
0.0
  0
LINE
  5
4D00
  8
1HATCH
 10
81.919922505012664
 20
106.8113528651768
 30
0.0
 11
88.57493211590986
 21
100.1563432542798
 31
0.0
  0
LINE
  5
4D01
  8
1HATCH
 10
74.674858474745406
 20
111.8113528651772
 30
0.0
 11
79.674858474745633
 21
106.811352865177
 31
0.0
  0
LINE
  5
4D02
  8
1HATCH
 10
79.674858474745633
 20
106.811352865177
 30
0.0
 11
88.687922917333026
 21
97.798288422589636
 31
0.0
  0
LINE
  5
4D03
  8
1HATCH
 10
72.42979444447792
 20
111.811352865177
 30
0.0
 11
77.429794444477693
 21
106.8113528651772
 31
0.0
  0
LINE
  5
4D04
  8
1HATCH
 10
77.429794444477693
 20
106.8113528651772
 30
0.0
 11
89.512394840081924
 21
94.728752469572996
 31
0.0
  0
LINE
  5
4D05
  8
1HATCH
 10
70.184730414211117
 20
111.811352865177
 30
0.0
 11
75.184730414210662
 21
106.8113528651774
 31
0.0
  0
LINE
  5
4D06
  8
1HATCH
 10
75.184730414210662
 20
106.8113528651774
 30
0.0
 11
90.184730414210648
 21
91.811352865177696
 31
0.0
  0
LINE
  5
4D07
  8
1HATCH
 10
67.939666383943404
 20
111.811352865177
 30
0.0
 11
72.939666383943177
 21
106.8113528651774
 31
0.0
  0
LINE
  5
4D08
  8
1HATCH
 10
72.939666383943404
 20
106.811352865177
 30
0.0
 11
87.939666383943404
 21
91.811352865177014
 31
0.0
  0
LINE
  5
4D09
  8
1HATCH
 10
65.694602353676373
 20
111.8113528651772
 30
0.0
 11
70.694602353675918
 21
106.8113528651777
 31
0.0
  0
LINE
  5
4D0A
  8
1HATCH
 10
70.694602353676373
 20
106.8113528651774
 30
0.0
 11
85.694602353676146
 21
91.811352865177469
 31
0.0
  0
LINE
  5
4D0B
  8
1HATCH
 10
63.449538323408881
 20
111.811352865177
 30
0.0
 11
68.449538323408433
 21
106.8113528651774
 31
0.0
  0
LINE
  5
4D0C
  8
1HATCH
 10
74.78091052514651
 20
100.4799806634396
 30
0.0
 11
83.44953832340866
 21
91.811352865177241
 31
0.0
  0
LINE
  5
4D0D
  8
1HATCH
 10
68.44953832340866
 20
106.8113528651772
 30
0.0
 11
73.44953832340957
 21
101.8113528651763
 31
0.0
  0
LINE
  5
4D0E
  8
1HATCH
 10
61.20447429314094
 20
111.8113528651777
 30
0.0
 11
66.204474293141175
 21
106.8113528651774
 31
0.0
  0
LINE
  5
4D0F
  8
1HATCH
 10
74.780910525146055
 20
98.234916633172816
 30
0.0
 11
81.204474293141175
 21
91.811352865177696
 31
0.0
  0
LINE
  5
4D10
  8
1HATCH
 10
66.204474293141175
 20
106.8113528651774
 30
0.0
 11
71.204474293142084
 21
101.8113528651768
 31
0.0
  0
LINE
  5
4D11
  8
1HATCH
 10
58.959410262873917
 20
111.8113528651777
 30
0.0
 11
63.959410262874137
 21
106.8113528651774
 31
0.0
  0
LINE
  5
4D12
  8
1HATCH
 10
74.780910525146282
 20
95.989852602905088
 30
0.0
 11
78.959410262874371
 21
91.811352865177014
 31
0.0
  0
LINE
  5
4D13
  8
1HATCH
 10
63.959410262874371
 20
106.811352865177
 30
0.0
 11
68.959410262874826
 21
101.8113528651765
 31
0.0
  0
LINE
  5
4D14
  8
1HATCH
 10
46.714346232607113
 20
121.8113528651765
 30
0.0
 11
48.780910525146282
 21
119.7447885726374
 31
0.0
  0
LINE
  5
4D15
  8
1HATCH
 10
74.780910525146055
 20
93.744788572637617
 30
0.0
 11
76.714346232607113
 21
91.811352865176559
 31
0.0
  0
LINE
  5
4D16
  8
1HATCH
 10
56.714346232606651
 20
111.8113528651772
 30
0.0
 11
61.714346232606431
 21
106.8113528651772
 31
0.0
  0
LINE
  5
4D17
  8
1HATCH
 10
61.71434623260712
 20
106.8113528651765
 30
0.0
 11
66.71434623260734
 21
101.8113528651763
 31
0.0
  0
LINE
  5
4D18
  8
1HATCH
 10
44.469282202340082
 20
121.8113528651768
 30
0.0
 11
48.78091052514651
 21
117.4997245423703
 31
0.0
  0
LINE
  5
4D19
  8
1HATCH
 10
59.469282202339627
 20
106.8113528651772
 30
0.0
 11
64.469282202340537
 21
101.8113528651763
 31
0.0
  0
LINE
  5
4D1A
  8
1HATCH
 10
54.469282202339173
 20
111.8113528651777
 30
0.0
 11
59.4692822023394
 21
106.8113528651774
 31
0.0
  0
LINE
  5
4D1B
  8
1HATCH
 10
42.22421817207259
 20
121.8113528651768
 30
0.0
 11
48.78091052514651
 21
115.2546605121028
 31
0.0
  0
LINE
  5
4D1C
  8
1HATCH
 10
57.224218172072369
 20
106.8113528651768
 30
0.0
 11
62.22421817207259
 21
101.8113528651765
 31
0.0
  0
LINE
  5
4D1D
  8
1HATCH
 10
52.224218172071687
 20
111.8113528651777
 30
0.0
 11
57.224218172071687
 21
106.8113528651774
 31
0.0
  0
LINE
  5
4D1E
  8
1HATCH
 10
39.9791541418058
 20
121.8113528651768
 30
0.0
 11
48.780910525146282
 21
113.0095964818361
 31
0.0
  0
LINE
  5
4D1F
  8
1HATCH
 10
54.979154141805573
 20
106.8113528651768
 30
0.0
 11
59.979154141805111
 21
101.8113528651772
 31
0.0
  0
LINE
  5
4D20
  8
1HATCH
 10
49.979154141804877
 20
111.8113528651777
 30
0.0
 11
54.979154141804649
 21
106.8113528651777
 31
0.0
  0
LINE
  5
4D21
  8
1HATCH
 10
37.734090111537853
 20
121.8113528651768
 30
0.0
 11
52.734090111537171
 21
106.8113528651774
 31
0.0
  0
LINE
  5
4D22
  8
1HATCH
 10
52.734090111537853
 20
106.811352865177
 30
0.0
 11
57.73409011153808
 21
101.8113528651768
 31
0.0
  0
LINE
  5
4D23
  8
1HATCH
 10
35.489026081270602
 20
121.8113528651772
 30
0.0
 11
50.48902608127036
 21
106.8113528651774
 31
0.0
  0
LINE
  5
4D24
  8
1HATCH
 10
50.489026081271049
 20
106.811352865177
 30
0.0
 11
55.489026081270822
 21
101.811352865177
 31
0.0
  0
LINE
  5
4D25
  8
1HATCH
 10
33.243962051003109
 20
121.811352865177
 30
0.0
 11
48.24396205100242
 21
106.8113528651777
 31
0.0
  0
LINE
  5
4D26
  8
1HATCH
 10
48.243962051003336
 20
106.8113528651768
 30
0.0
 11
53.243962051002882
 21
101.8113528651772
 31
0.0
  0
LINE
  5
4D27
  8
1HATCH
 10
30.998898020736078
 20
121.8113528651775
 30
0.0
 11
45.998898020735403
 21
106.81135286517809
 31
0.0
  0
LINE
  5
4D28
  8
1HATCH
 10
45.998898020736533
 20
106.8113528651768
 30
0.0
 11
50.998898020736078
 21
101.8113528651772
 31
0.0
  0
LINE
  5
4D29
  8
1HATCH
 10
28.753833990468369
 20
121.8113528651772
 30
0.0
 11
43.753833990467683
 21
106.81135286517789
 31
0.0
  0
LINE
  5
4D2A
  8
1HATCH
 10
43.753833990469047
 20
106.8113528651765
 30
0.0
 11
48.780910525146282
 21
101.7842763304993
 31
0.0
  0
LINE
  5
4D2B
  8
1HATCH
 10
26.508769960201342
 20
121.8113528651775
 30
0.0
 11
41.508769960200652
 21
106.81135286517809
 31
0.0
  0
LINE
  5
4D2C
  8
1HATCH
 10
41.508769960202009
 20
106.811352865177
 30
0.0
 11
48.78091052514651
 21
99.539212300232293
 31
0.0
  0
LINE
  5
4D2D
  8
1HATCH
 10
24.26370592993408
 20
121.811352865177
 30
0.0
 11
39.263705929933167
 21
106.81135286517809
 31
0.0
  0
LINE
  5
4D2E
  8
1HATCH
 10
39.263705929934311
 20
106.8113528651768
 30
0.0
 11
48.780910525146282
 21
97.294148269964822
 31
0.0
  0
LINE
  5
4D2F
  8
1HATCH
 10
23.780910525146741
 20
120.04908423969781
 30
0.0
 11
37.01864189966637
 21
106.81135286517789
 31
0.0
  0
LINE
  5
4D30
  8
1HATCH
 10
37.018641899667273
 20
106.811352865177
 30
0.0
 11
48.78091052514673
 21
95.049084239697549
 31
0.0
  0
LINE
  5
4D31
  8
1HATCH
 10
23.78091052514651
 20
117.80402020943001
 30
0.0
 11
34.77357786939865
 21
106.81135286517789
 31
0.0
  0
LINE
  5
4D32
  8
1HATCH
 10
34.773577869399787
 20
106.811352865177
 30
0.0
 11
48.78091052514651
 21
92.804020209430064
 31
0.0
  0
LINE
  5
4D33
  8
1HATCH
 10
23.780910525146279
 20
115.558956179163
 30
0.0
 11
32.528513839130937
 21
106.81135286517861
 31
0.0
  0
LINE
  5
4D34
  8
1HATCH
 10
32.528513839132081
 20
106.8113528651772
 30
0.0
 11
47.528513839132067
 21
91.811352865177241
 31
0.0
  0
LINE
  5
4D35
  8
1HATCH
 10
23.780910525146279
 20
113.3138921488958
 30
0.0
 11
30.283449808864141
 21
106.81135286517809
 31
0.0
  0
LINE
  5
4D36
  8
1HATCH
 10
30.283449808865271
 20
106.8113528651768
 30
0.0
 11
45.283449808865271
 21
91.811352865176787
 31
0.0
  0
LINE
  5
4D37
  8
1HATCH
 10
23.780910525146279
 20
111.0688281186287
 30
0.0
 11
28.038385778596421
 21
106.81135286517831
 31
0.0
  0
LINE
  5
4D38
  8
1HATCH
 10
28.038385778597782
 20
106.811352865177
 30
0.0
 11
43.038385778597778
 21
91.811352865177014
 31
0.0
  0
LINE
  5
4D39
  8
1HATCH
 10
23.78091052514651
 20
108.823764088361
 30
0.0
 11
25.79332174832939
 21
106.81135286517809
 31
0.0
  0
LINE
  5
4D3A
  8
1HATCH
 10
25.793321748330751
 20
106.811352865177
 30
0.0
 11
40.793321748330747
 21
91.811352865177014
 31
0.0
  0
LINE
  5
4D3B
  8
1HATCH
 10
23.780910525146279
 20
106.5787000580935
 30
0.0
 11
38.548257718063041
 21
91.811352865176787
 31
0.0
  0
LINE
  5
4D3C
  8
1HATCH
 10
23.780910525146741
 20
104.3336360278265
 30
0.0
 11
36.303193687796238
 21
91.811352865176787
 31
0.0
  0
LINE
  5
4D3D
  8
1HATCH
 10
23.78091052514651
 20
102.0885719975588
 30
0.0
 11
34.058129657528298
 21
91.811352865177014
 31
0.0
  0
LINE
  5
4D3E
  8
1HATCH
 10
23.780910525146741
 20
99.843507967291771
 30
0.0
 11
31.81306562726127
 21
91.811352865177241
 31
0.0
  0
LINE
  5
4D3F
  8
1HATCH
 10
23.780910525146279
 20
97.598443937024513
 30
0.0
 11
29.568001596993781
 21
91.811352865177014
 31
0.0
  0
LINE
  5
4D40
  8
1HATCH
 10
23.780910525146741
 20
95.353379906757468
 30
0.0
 11
27.32293756672652
 21
91.811352865177469
 31
0.0
  0
LINE
  5
4D41
  8
1HATCH
 10
23.78091052514651
 20
93.108315876489755
 30
0.0
 11
25.077873536459041
 21
91.811352865177241
 31
0.0
  0
TEXT
  5
4D42
  8
1DIM
 10
59.155910525146922
 20
82.511352865177855
 30
0.0
 40
3.5
  1
20 
  0
LINE
  5
4D43
  8
0
  6
BYBLOCK
 10
69.78090862122697
 20
82.347251245177873
 30
0.0
 11
71.78090862122697
 21
81.811352865177867
 31
0.0
  0
LINE
  5
4D44
  8
0
  6
BYBLOCK
 10
71.78090862122697
 20
81.811352865177867
 30
0.0
 11
69.78090862122697
 21
81.27545448517786
 31
0.0
  0
LINE
  5
4D45
  8
0
  6
BYBLOCK
 10
71.78090862122697
 20
81.811352865177867
 30
0.0
 11
69.78090862122697
 21
81.811352865177867
 31
0.0
  0
LINE
  5
4D46
  8
0
  6
BYBLOCK
 10
53.780912429066881
 20
81.27545448517786
 30
0.0
 11
51.780912429066873
 21
81.811352865177867
 31
0.0
  0
LINE
  5
4D47
  8
0
  6
BYBLOCK
 10
51.780912429066873
 20
81.811352865177867
 30
0.0
 11
53.780912429066881
 21
82.347251245177873
 31
0.0
  0
LINE
  5
4D48
  8
0
  6
BYBLOCK
 10
51.780912429066873
 20
81.811352865177867
 30
0.0
 11
53.780912429066881
 21
81.811352865177867
 31
0.0
  0
TEXT
  5
4D49
  8
1DIM
 10
58.864243858480187
 20
52.511352865177862
 30
0.0
 40
3.5
  1
32 
  0
LINE
  5
4D4A
  8
0
  6
BYBLOCK
 10
75.780916236902272
 20
52.347251245177873
 30
0.0
 11
77.780916236902272
 21
51.811352865177859
 31
0.0
  0
LINE
  5
4D4B
  8
0
  6
BYBLOCK
 10
77.780916236902272
 20
51.811352865177859
 30
0.0
 11
75.780916236902272
 21
51.27545448517786
 31
0.0
  0
LINE
  5
4D4C
  8
0
  6
BYBLOCK
 10
77.780916236902272
 20
51.811352865177859
 30
0.0
 11
75.780916236902272
 21
51.811352865177859
 31
0.0
  0
LINE
  5
4D4D
  8
0
  6
BYBLOCK
 10
47.78090481339143
 20
51.27545448517786
 30
0.0
 11
45.78090481339143
 21
51.811352865177859
 31
0.0
  0
LINE
  5
4D4E
  8
0
  6
BYBLOCK
 10
45.78090481339143
 20
51.811352865177859
 30
0.0
 11
47.78090481339143
 21
52.347251245177873
 31
0.0
  0
LINE
  5
4D4F
  8
0
  6
BYBLOCK
 10
45.78090481339143
 20
51.811352865177859
 30
0.0
 11
47.78090481339143
 21
51.811352865177859
 31
0.0
  0
TEXT
  5
4D50
  8
1DIM
 10
3.0809105251468281
 20
94.619686198511204
 30
0.0
 40
3.5
  1
扉厚30 以上
 50
90.0
  0
LINE
  5
4D51
  8
0
  6
BYBLOCK
 10
3.2450121451468501
 20
119.81135286517789
 30
0.0
 11
3.78091052514685
 21
121.81135286517789
 31
0.0
  0
LINE
  5
4D52
  8
0
  6
BYBLOCK
 10
3.78091052514685
 20
121.81135286517789
 30
0.0
 11
4.3168089051468499
 21
119.81135286517789
 31
0.0
  0
LINE
  5
4D53
  8
0
  6
BYBLOCK
 10
3.78091052514685
 20
121.81135286517789
 30
0.0
 11
3.78091052514685
 21
119.81135286517789
 31
0.0
  0
LINE
  5
4D54
  8
0
  6
BYBLOCK
 10
4.3168089051468437
 20
93.811352865177867
 30
0.0
 11
3.7809105251468438
 21
91.811352865177867
 31
0.0
  0
LINE
  5
4D55
  8
0
  6
BYBLOCK
 10
3.7809105251468438
 20
91.811352865177867
 30
0.0
 11
3.2450121451468439
 21
93.811352865177867
 31
0.0
  0
LINE
  5
4D56
  8
0
  6
BYBLOCK
 10
3.7809105251468438
 20
91.811352865177867
 30
0.0
 11
3.7809105251468438
 21
93.811352865177867
 31
0.0
  0
TEXT
  5
4D57
  8
1DIM
 10
107.0809162369026
 20
79.4672695630112
 30
0.0
 40
3.5
  1
9.3 
 50
90.0
  0
LINE
  5
4D58
  8
0
  6
BYBLOCK
 10
108.3168146169026
 20
92.500602896343864
 30
0.0
 11
107.7809162369026
 21
90.500602896343864
 31
0.0
  0
LINE
  5
4D59
  8
0
  6
BYBLOCK
 10
107.7809162369026
 20
90.500602896343864
 30
0.0
 11
107.24501785690261
 21
92.500602896343864
 31
0.0
  0
LINE
  5
4D5A
  8
0
  6
BYBLOCK
 10
107.7809162369026
 20
90.500602896343864
 30
0.0
 11
107.7809162369026
 21
92.500602896343864
 31
0.0
  0
LINE
  5
4D5B
  8
0
  6
BYBLOCK
 10
107.24501785690261
 20
97.811352865179046
 30
0.0
 11
107.7809162369026
 21
99.811352865179046
 31
0.0
  0
LINE
  5
4D5C
  8
0
  6
BYBLOCK
 10
107.7809162369026
 20
99.811352865179046
 30
0.0
 11
108.3168146169027
 21
97.811352865179046
 31
0.0
  0
LINE
  5
4D5D
  8
0
  6
BYBLOCK
 10
107.7809162369026
 20
99.811352865179046
 30
0.0
 11
107.7809162369026
 21
97.811352865179046
 31
0.0
  0
TEXT
  5
4D5E
  8
1DIM
 10
3.0809105251468352
 20
79.467269563010561
 30
0.0
 40
3.5
  1
1.3 
 50
90.0
  0
LINE
  5
4D5F
  8
0
  6
BYBLOCK
 10
3.2450121451468501
 20
88.500602896343906
 30
0.0
 11
3.78091052514685
 21
90.500602896343892
 31
0.0
  0
LINE
  5
4D60
  8
0
  6
BYBLOCK
 10
3.78091052514685
 20
90.500602896343892
 30
0.0
 11
4.3168089051468499
 21
88.500602896343906
 31
0.0
  0
LINE
  5
4D61
  8
0
  6
BYBLOCK
 10
3.78091052514685
 20
90.500602896343892
 30
0.0
 11
3.78091052514685
 21
88.500602896343906
 31
0.0
  0
LINE
  5
4D62
  8
0
  6
BYBLOCK
 10
4.3168089051468508
 20
93.811352865177867
 30
0.0
 11
3.7809105251468509
 21
91.811352865177867
 31
0.0
  0
LINE
  5
4D63
  8
0
  6
BYBLOCK
 10
3.7809105251468509
 20
91.811352865177867
 30
0.0
 11
3.245012145146851
 21
93.811352865177867
 31
0.0
  0
LINE
  5
4D64
  8
0
  6
BYBLOCK
 10
3.7809105251468509
 20
91.811352865177867
 30
0.0
 11
3.7809105251468509
 21
93.811352865177867
 31
0.0
  0
LINE
  5
4D65
  8
1DIM
 10
76.223012786888148
 20
119.280647528955
 30
0.0
 11
88.704305480519565
 21
131.25802351047321
 31
0.0
  0
LINE
  5
4D66
  8
1DIM
 10
88.704305480519565
 20
131.25802351047321
 30
0.0
 11
136.43763881385291
 21
131.25802351047321
 31
0.0
  0
TEXT
  5
4D67
  8
1DIM
 10
34.030910525146851
 20
152.5113528651778
 30
0.0
 40
3.5
  1
B.S=38 
  0
LINE
  5
4D68
  8
0
  6
BYBLOCK
 10
59.780910525146851
 20
152.3472512451778
 30
0.0
 11
61.780910525146851
 21
151.81135286517781
 31
0.0
  0
LINE
  5
4D69
  8
0
  6
BYBLOCK
 10
61.780910525146851
 20
151.81135286517781
 30
0.0
 11
59.780910525146851
 21
151.27545448517779
 31
0.0
  0
LINE
  5
4D6A
  8
0
  6
BYBLOCK
 10
61.780910525146851
 20
151.81135286517781
 30
0.0
 11
59.780910525146851
 21
151.81135286517781
 31
0.0
  0
LINE
  5
4D6B
  8
0
  6
BYBLOCK
 10
25.780910525146862
 20
151.27545448517779
 30
0.0
 11
23.780910525146851
 21
151.81135286517781
 31
0.0
  0
LINE
  5
4D6C
  8
0
  6
BYBLOCK
 10
23.780910525146851
 20
151.81135286517781
 30
0.0
 11
25.780910525146862
 21
152.3472512451778
 31
0.0
  0
LINE
  5
4D6D
  8
0
  6
BYBLOCK
 10
23.780910525146851
 20
151.81135286517781
 30
0.0
 11
25.780910525146862
 21
151.81135286517781
 31
0.0
  0
TEXT
  5
4D6E
  8
1DIM
 10
58.864243858480243
 20
72.511352865177855
 30
0.0
 40
3.5
  1
22 
  0
LINE
  5
4D6F
  8
0
  6
BYBLOCK
 10
70.780908621226956
 20
72.347251245177873
 30
0.0
 11
72.780908621226956
 21
71.811352865177867
 31
0.0
  0
LINE
  5
4D70
  8
0
  6
BYBLOCK
 10
72.780908621226956
 20
71.811352865177867
 30
0.0
 11
70.780908621226956
 21
71.27545448517786
 31
0.0
  0
LINE
  5
4D71
  8
0
  6
BYBLOCK
 10
72.780908621226956
 20
71.811352865177867
 30
0.0
 11
70.780908621226956
 21
71.811352865177867
 31
0.0
  0
LINE
  5
4D72
  8
0
  6
BYBLOCK
 10
52.780912429066859
 20
71.27545448517786
 30
0.0
 11
50.780912429066859
 21
71.811352865177867
 31
0.0
  0
LINE
  5
4D73
  8
0
  6
BYBLOCK
 10
50.780912429066859
 20
71.811352865177867
 30
0.0
 11
52.780912429066859
 21
72.347251245177873
 31
0.0
  0
LINE
  5
4D74
  8
0
  6
BYBLOCK
 10
50.780912429066859
 20
71.811352865177867
 30
0.0
 11
52.780912429066859
 21
71.811352865177867
 31
0.0
  0
TEXT
  5
4D75
  8
1DIM
 10
238.04299353160911
 20
-178.76248115200039
 30
0.0
 40
3.5
  1
L=特注寸法
  0
LINE
  5
4D76
  8
0
  6
BYBLOCK
 10
381.47633067278258
 20
-178.92658277200039
 30
0.0
 11
383.47633067278252
 21
-179.46248115200041
 31
0.0
  0
LINE
  5
4D77
  8
0
  6
BYBLOCK
 10
383.47633067278252
 20
-179.46248115200041
 30
0.0
 11
381.47633067278258
 21
-179.9983795320004
 31
0.0
  0
LINE
  5
4D78
  8
0
  6
BYBLOCK
 10
383.47633067278252
 20
-179.46248115200041
 30
0.0
 11
381.47633067278258
 21
-179.46248115200041
 31
0.0
  0
LINE
  5
4D79
  8
0
  6
BYBLOCK
 10
117.47632305710221
 20
-179.9983795320004
 30
0.0
 11
115.47632305710221
 21
-179.46248115200041
 31
0.0
  0
LINE
  5
4D7A
  8
0
  6
BYBLOCK
 10
115.47632305710221
 20
-179.46248115200041
 30
0.0
 11
117.47632305710221
 21
-178.92658277200039
 31
0.0
  0
LINE
  5
4D7B
  8
0
  6
BYBLOCK
 10
115.47632305710221
 20
-179.46248115200041
 30
0.0
 11
117.47632305710221
 21
-179.46248115200041
 31
0.0
  0
TEXT
  5
4D7C
  8
1DIM
 10
77.647577191813525
 20
142.5113528651778
 30
0.0
 40
3.5
  1
切欠き幅26 
  0
LINE
  5
4D7D
  8
0
  6
BYBLOCK
 10
72.780910525146851
 20
142.3472512451778
 30
0.0
 11
74.780910525146851
 21
141.81135286517789
 31
0.0
  0
LINE
  5
4D7E
  8
0
  6
BYBLOCK
 10
74.780910525146851
 20
141.81135286517789
 30
0.0
 11
72.780910525146851
 21
141.2754544851779
 31
0.0
  0
LINE
  5
4D7F
  8
0
  6
BYBLOCK
 10
74.780910525146851
 20
141.81135286517789
 30
0.0
 11
72.780910525146851
 21
141.81135286517789
 31
0.0
  0
LINE
  5
4D80
  8
0
  6
BYBLOCK
 10
50.780910525146851
 20
141.2754544851779
 30
0.0
 11
48.780910525146851
 21
141.81135286517789
 31
0.0
  0
LINE
  5
4D81
  8
0
  6
BYBLOCK
 10
48.780910525146851
 20
141.81135286517789
 30
0.0
 11
50.780910525146851
 21
142.3472512451778
 31
0.0
  0
LINE
  5
4D82
  8
0
  6
BYBLOCK
 10
48.780910525146851
 20
141.81135286517789
 30
0.0
 11
50.780910525146851
 21
141.81135286517789
 31
0.0
  0
TEXT
  5
4D83
  8
1DIM
 10
13.08091052514683
 20
125.5530195318445
 30
0.0
 40
3.5
  1
切欠き深さ10 
 50
90.0
  0
LINE
  5
4D84
  8
0
  6
BYBLOCK
 10
13.24501214514685
 20
119.81135286517789
 30
0.0
 11
13.780910525146851
 21
121.81135286517789
 31
0.0
  0
LINE
  5
4D85
  8
0
  6
BYBLOCK
 10
13.780910525146851
 20
121.81135286517789
 30
0.0
 11
14.31680890514685
 21
119.81135286517789
 31
0.0
  0
LINE
  5
4D86
  8
0
  6
BYBLOCK
 10
13.780910525146851
 20
121.81135286517789
 30
0.0
 11
13.780910525146851
 21
119.81135286517789
 31
0.0
  0
LINE
  5
4D87
  8
0
  6
BYBLOCK
 10
14.31680890514685
 20
113.8113528651778
 30
0.0
 11
13.78091052514684
 21
111.81135286517789
 31
0.0
  0
LINE
  5
4D88
  8
0
  6
BYBLOCK
 10
13.78091052514684
 20
111.81135286517789
 30
0.0
 11
13.24501214514685
 21
113.8113528651778
 31
0.0
  0
LINE
  5
4D89
  8
0
  6
BYBLOCK
 10
13.78091052514684
 20
111.81135286517789
 30
0.0
 11
13.78091052514684
 21
113.8113528651778
 31
0.0
  0
TEXT
  5
4D8A
  8
1DIM
 10
13.08091052514683
 20
93.061352865177767
 30
0.0
 40
3.5
  1
9.5 
 50
90.0
  0
LINE
  5
4D8B
  8
0
  6
BYBLOCK
 10
13.24501214514685
 20
99.311352865177653
 30
0.0
 11
13.780910525146851
 21
101.3113528651776
 31
0.0
  0
LINE
  5
4D8C
  8
0
  6
BYBLOCK
 10
13.780910525146851
 20
101.3113528651776
 30
0.0
 11
14.31680890514685
 21
99.311352865177653
 31
0.0
  0
LINE
  5
4D8D
  8
0
  6
BYBLOCK
 10
13.780910525146851
 20
101.3113528651776
 30
0.0
 11
13.780910525146851
 21
99.311352865177653
 31
0.0
  0
LINE
  5
4D8E
  8
0
  6
BYBLOCK
 10
14.31680890514685
 20
93.811352865177867
 30
0.0
 11
13.78091052514684
 21
91.811352865177881
 31
0.0
  0
LINE
  5
4D8F
  8
0
  6
BYBLOCK
 10
13.78091052514684
 20
91.811352865177881
 30
0.0
 11
13.24501214514685
 21
93.811352865177867
 31
0.0
  0
LINE
  5
4D90
  8
0
  6
BYBLOCK
 10
13.78091052514684
 20
91.811352865177881
 30
0.0
 11
13.78091052514684
 21
93.811352865177867
 31
0.0
  0
TEXT
  5
4D91
  8
1DIM
 10
56.530910525146908
 20
62.511352865177862
 30
0.0
 40
3.5
  1
25.8 
  0
LINE
  5
4D92
  8
0
  6
BYBLOCK
 10
72.680908621227957
 20
62.347251245177873
 30
0.0
 11
74.680908621227957
 21
61.811352865177859
 31
0.0
  0
LINE
  5
4D93
  8
0
  6
BYBLOCK
 10
74.680908621227957
 20
61.811352865177859
 30
0.0
 11
72.680908621227957
 21
61.27545448517786
 31
0.0
  0
LINE
  5
4D94
  8
0
  6
BYBLOCK
 10
74.680908621227957
 20
61.811352865177859
 30
0.0
 11
72.680908621227957
 21
61.811352865177859
 31
0.0
  0
LINE
  5
4D95
  8
0
  6
BYBLOCK
 10
50.880912429065852
 20
61.27545448517786
 30
0.0
 11
48.880912429065859
 21
61.811352865177859
 31
0.0
  0
LINE
  5
4D96
  8
0
  6
BYBLOCK
 10
48.880912429065859
 20
61.811352865177859
 30
0.0
 11
50.880912429065852
 21
62.347251245177873
 31
0.0
  0
LINE
  5
4D97
  8
0
  6
BYBLOCK
 10
48.880912429065859
 20
61.811352865177859
 30
0.0
 11
50.880912429065852
 21
61.811352865177859
 31
0.0
  0
LINE
  5
4D98
  8
1DIM
 10
313.76919102799809
 20
-161.11881844684751
 30
0.0
 11
323.67674810140443
 21
-175.75831140919709
 31
0.0
  0
LINE
  5
4D99
  8
1DIM
 10
323.67674810140443
 20
-175.75831140919709
 30
0.0
 11
375.14341476807112
 21
-175.75831140919709
 31
0.0
  0
VIEWPORT
  5
57
 67
     1
  8
0
 10
-12.73141056964354
 20
10.083731670551
 30
0.0
 40
426.49732989047362
 41
282.80698729109162
 68
     1
 69
     1
1001
ACAD
1000
MVIEW
1002
{
1070
    16
1010
0.0
1020
0.0
1030
0.0
1010
0.0
1020
0.0
1030
1.0
1040
0.0
1040
282.80698729109162
1040
-12.73141056964354
1040
10.083731670551
1040
50.0
1040
0.0
1040
0.0
1070
     0
1070
   100
1070
     1
1070
     1
1070
     0
1070
     0
1070
     0
1070
     0
1040
0.0
1040
0.0
1040
0.0
1040
10.0
1040
10.0
1040
10.0
1040
10.0
1070
     0
1002
{
1002
}
1002
}
  0
ENDSEC
  0
EOF
