  0
SECTION
  2
HEADER
  9
$ACADVER
  1
AC1009
  9
$DWGCODEPAGE
  3
ansi_932
  9
$INSBASE
 10
0.0
 20
0.0
 30
0.0
  9
$EXTMIN
 10
785.2943166699865
 20
2.064037244214774
 30
0.0
  9
$EXTMAX
 10
1001.284184076194
 20
234.129977028486
 30
0.0
  9
$LIMMIN
 10
0.0
 20
0.0
  9
$LIMMAX
 10
420.0
 20
297.0
  9
$ORTHOMODE
 70
     0
  9
$REGENMODE
 70
     1
  9
$FILLMODE
 70
     1
  9
$QTEXTMODE
 70
     0
  9
$MIRRTEXT
 70
     0
  9
$DRAGMODE
 70
     2
  9
$LTSCALE
 40
0.5
  9
$OSMODE
 70
 14591
  9
$ATTMODE
 70
     1
  9
$TEXTSIZE
 40
4.0
  9
$TRACEWID
 40
1.0
  9
$TEXTSTYLE
  7
STANDARD
  9
$CLAYER
  8
1TEXT
  9
$CELTYPE
  6
BYLAYER
  9
$CECOLOR
 62
   256
  9
$DIMSCALE
 40
1.0
  9
$DIMASZ
 40
2.0
  9
$DIMEXO
 40
0.0
  9
$DIMDLI
 40
7.0
  9
$DIMRND
 40
0.0
  9
$DIMDLE
 40
0.0
  9
$DIMEXE
 40
1.0
  9
$DIMTP
 40
0.0
  9
$DIMTM
 40
0.0
  9
$DIMTXT
 40
3.5
  9
$DIMCEN
 40
0.0
  9
$DIMTSZ
 40
0.0
  9
$DIMTOL
 70
     0
  9
$DIMLIM
 70
     0
  9
$DIMTIH
 70
     0
  9
$DIMTOH
 70
     0
  9
$DIMSE1
 70
     0
  9
$DIMSE2
 70
     0
  9
$DIMTAD
 70
     1
  9
$DIMZIN
 70
     8
  9
$DIMBLK
  1

  9
$DIMASO
 70
     1
  9
$DIMSHO
 70
     1
  9
$DIMPOST
  1
 
  9
$DIMAPOST
  1

  9
$DIMALT
 70
     0
  9
$DIMALTD
 70
     2
  9
$DIMALTF
 40
25.4
  9
$DIMLFAC
 40
1.0
  9
$DIMTOFL
 70
     1
  9
$DIMTVP
 40
0.0
  9
$DIMTIX
 70
     0
  9
$DIMSOXD
 70
     0
  9
$DIMSAH
 70
     1
  9
$DIMBLK1
  1
OPEN30
  9
$DIMBLK2
  1
OPEN30
  9
$DIMSTYLE
  2
NEWX10
  9
$DIMCLRD
 70
   256
  9
$DIMCLRE
 70
   256
  9
$DIMCLRT
 70
   201
  9
$DIMTFAC
 40
0.7
  9
$DIMGAP
 40
0.7
  9
$LUNITS
 70
     2
  9
$LUPREC
 70
     4
  9
$SKETCHINC
 40
1.0
  9
$FILLETRAD
 40
0.0
  9
$AUNITS
 70
     0
  9
$AUPREC
 70
     2
  9
$MENU
  1
acad
  9
$ELEVATION
 40
0.0
  9
$PELEVATION
 40
0.0
  9
$THICKNESS
 40
0.0
  9
$LIMCHECK
 70
     0
  9
$CHAMFERA
 40
10.0
  9
$CHAMFERB
 40
10.0
  9
$SKPOLY
 70
     0
  9
$TDCREATE
 40
2453033.732663484
  9
$TDUPDATE
 40
2459824.388705151
  9
$TDINDWG
 40
0.4594486343
  9
$TDUSRTIMER
 40
0.4594486343
  9
$USRTIMER
 70
     1
  9
$ANGBASE
 50
0.0
  9
$ANGDIR
 70
     0
  9
$PDMODE
 70
     0
  9
$PDSIZE
 40
0.0
  9
$PLINEWID
 40
0.0
  9
$COORDS
 70
     2
  9
$SPLFRAME
 70
     0
  9
$SPLINETYPE
 70
     6
  9
$SPLINESEGS
 70
     8
  9
$ATTDIA
 70
     0
  9
$ATTREQ
 70
     1
  9
$HANDLING
 70
     1
  9
$HANDSEED
  5
ADB2
  9
$SURFTAB1
 70
     6
  9
$SURFTAB2
 70
     6
  9
$SURFTYPE
 70
     6
  9
$SURFU
 70
     6
  9
$SURFV
 70
     6
  9
$UCSNAME
  2

  9
$UCSORG
 10
0.0
 20
0.0
 30
0.0
  9
$UCSXDIR
 10
1.0
 20
0.0
 30
0.0
  9
$UCSYDIR
 10
0.0
 20
1.0
 30
0.0
  9
$PUCSNAME
  2

  9
$PUCSORG
 10
0.0
 20
0.0
 30
0.0
  9
$PUCSXDIR
 10
1.0
 20
0.0
 30
0.0
  9
$PUCSYDIR
 10
0.0
 20
1.0
 30
0.0
  9
$USERI1
 70
     0
  9
$USERI2
 70
     0
  9
$USERI3
 70
     0
  9
$USERI4
 70
     0
  9
$USERI5
 70
     0
  9
$USERR1
 40
0.0
  9
$USERR2
 40
0.0
  9
$USERR3
 40
0.0
  9
$USERR4
 40
0.0
  9
$USERR5
 40
0.0
  9
$WORLDVIEW
 70
     1
  9
$SHADEDGE
 70
     3
  9
$SHADEDIF
 70
    70
  9
$TILEMODE
 70
     1
  9
$MAXACTVP
 70
    48
  9
$PLIMCHECK
 70
     0
  9
$PEXTMIN
 10
1.000000000000000E+20
 20
1.000000000000000E+20
 30
1.000000000000000E+20
  9
$PEXTMAX
 10
-1.000000000000000E+20
 20
-1.000000000000000E+20
 30
-1.000000000000000E+20
  9
$PLIMMIN
 10
0.0
 20
0.0
  9
$PLIMMAX
 10
420.0
 20
297.0
  9
$UNITMODE
 70
     0
  9
$VISRETAIN
 70
     1
  9
$PLINEGEN
 70
     0
  9
$PSLTSCALE
 70
     1
  0
ENDSEC
  0
SECTION
  2
TABLES
  0
TABLE
  2
VPORT
 70
     2
  0
VPORT
  2
*ACTIVE
 70
     0
 10
0.0
 20
0.0
 11
1.0
 21
1.0
 12
893.28925037309
 22
118.0970071363504
 13
0.0
 23
0.0
 14
10.0
 24
10.0
 15
10.0
 25
10.0
 16
0.0
 26
0.0
 36
1.0
 17
0.0
 27
0.0
 37
0.0
 40
249.1655353473228
 41
1.866585067319461
 42
50.0
 43
0.0
 44
0.0
 50
0.0
 51
0.0
 71
    16
 72
   100
 73
     1
 74
     1
 75
     0
 76
     0
 77
     0
 78
     0
  0
ENDTAB
  0
TABLE
  2
LTYPE
 70
    14
  0
LTYPE
  2
CONTINUOUS
 70
     0
  3
Solid line
 72
    65
 73
     0
 40
0.0
  0
LTYPE
  2
CENTER2
 70
     0
  3
Center (.5x) ___ _ ___ _ ___ _ ___ _ ___ _ ___
 72
    65
 73
     4
 40
28.575
 49
19.05
 49
-3.175
 49
3.175
 49
-3.175
  0
LTYPE
  2
XREF1|CENTER2
 70
    16
  3
Center (.5x) ___ _ ___ _ ___ _ ___ _ ___ _ ___
 72
    65
 73
     4
 40
28.575
 49
19.05
 49
-3.175
 49
3.175
 49
-3.175
  0
ENDTAB
  0
TABLE
  2
LAYER
 70
    41
  0
LAYER
  2
0
 70
     0
 62
     7
  6
CONTINUOUS
  0
LAYER
  2
1CENTER
 70
     0
 62
     7
  6
CENTER2
  0
LAYER
  2
1TEXT
 70
     0
 62
     7
  6
CONTINUOUS
  0
LAYER
  2
1DIM
 70
     0
 62
     7
  6
CONTINUOUS
  0
LAYER
  2
1HATCH
 70
     0
 62
     7
  6
CONTINUOUS
  0
LAYER
  2
01
 70
     0
 62
     1
  6
CONTINUOUS
  0
ENDTAB
  0
TABLE
  2
STYLE
 70
    19
  0
STYLE
  2
STANDARD
 70
     0
 40
0.0
 41
1.0
 50
0.0
 71
     0
 42
4.0
  3
txt.shx
  4
extfont.shx
  0
STYLE
  2
XREF1|STANDARD
 70
    16
 40
0.0
 41
1.0
 50
0.0
 71
     0
 42
4.0
  3
romans.shx
  4
extfont.shx
  0
ENDTAB
  0
TABLE
  2
VIEW
 70
     0
  0
ENDTAB
  0
TABLE
  2
UCS
 70
     0
  0
ENDTAB
  0
TABLE
  2
APPID
 70
    12
  0
APPID
  2
ACAD
 70
     0
  0
APPID
  2
DRAWINGVARIABLESXDATA
 70
     0
  0
APPID
  2
CONTENTTABDATA
 70
     0
  0
APPID
  2
CONTENTCURRENTTAB
 70
     0
  0
APPID
  2
CONTENTBLOCKDESCRIPTION
 70
     0
  0
APPID
  2
CONTENTBLOCKICON
 70
     0
  0
APPID
  2
CONTENTLONGBLOCKNAME
 70
     0
  0
APPID
  2
ACAD_PSEXT
 70
     0
  0
APPID
  2
ACAD_DSTYLE_DIMTEXT_FILL
 70
     0
  0
APPID
  2
ACAD_MLEADERVER
 70
     0
  0
APPID
  2
ACADANNOTATIVE
 70
     0
  0
APPID
  2
ACDBBLOCKREPETAG
 70
     0
  0
ENDTAB
  0
TABLE
  2
DIMSTYLE
 70
     2
  0
DIMSTYLE
  2
NEWX10
 70
     0
  3
 
  4

  5

  6
OPEN30
  7
OPEN30
 40
1.0
 41
2.0
 42
0.0
 43
7.0
 44
1.0
 45
0.0
 46
0.0
 47
0.0
 48
0.0
140
3.5
141
0.0
142
0.0
143
25.4
144
1.0
145
0.0
146
0.7
147
0.7
 71
     0
 72
     0
 73
     0
 74
     0
 75
     0
 76
     0
 77
     1
 78
     8
170
     0
171
     2
172
     1
173
     1
174
     0
175
     0
176
   256
177
   256
178
   201
  0
ENDTAB
  0
ENDSEC
  0
SECTION
  2
BLOCKS
  0
BLOCK
  8
0
  2
$MODEL_SPACE
 70
     0
 10
0.0
 20
0.0
 30
0.0
  3
$MODEL_SPACE
  1

  0
ENDBLK
  5
1A
  8
0
  0
BLOCK
 67
     1
  8
0
  2
$PAPER_SPACE
 70
     0
 10
0.0
 20
0.0
 30
0.0
  3
$PAPER_SPACE
  1

  0
ENDBLK
  5
17
 67
     1
  8
0
  0
BLOCK
  8
0
  2
_OPEN30
 70
     0
 10
0.0
 20
0.0
 30
0.0
  3
_OPEN30
  1

  0
LINE
  5
44
  8
0
  6
BYBLOCK
 62
     0
 10
-1.0
 20
0.26794919
 30
0.0
 11
0.0
 21
0.0
 31
0.0
  0
LINE
  5
45
  8
0
  6
BYBLOCK
 62
     0
 10
0.0
 20
0.0
 30
0.0
 11
-1.0
 21
-0.26794919
 31
0.0
  0
LINE
  5
46
  8
0
  6
BYBLOCK
 62
     0
 10
0.0
 20
0.0
 30
0.0
 11
-1.0
 21
0.0
 31
0.0
  0
ENDBLK
  5
47
  8
0
  0
BLOCK
  8
0
  2
XREF1
 70
     4
 10
0.0
 20
0.0
 30
0.0
  3
XREF1
  1
D:\ACLT\FORMAT\KAWAJUN(9)図面用.dwg
  0
ENDBLK
  5
5D
  8
0
  0
BLOCK
  8
0
  2
A3WAKUKAWAJUN2017_HYOUDAI_
 70
     0
 10
0.0
 20
0.0
 30
0.0
  3
A3WAKUKAWAJUN2017_HYOUDAI_
  1

  0
LINE
  5
A3A8
  8
0
 10
13.26299999998673
 20
-0.0001000000000317
 30
0.0
 11
9.236999999990758
 21
8.999899999990987
 31
0.0
1001
ACAD
1000
ASC_BOUNDS
1002
{
1070
    19
1005
A3E9
1002
}
  0
LINE
  5
A3A9
  8
0
 10
5.657999999994331
 20
0.9999999999989768
 30
0.0
 11
9.236999999990758
 21
8.999999999991019
 31
0.0
1001
ACAD
1000
ASC_BOUNDS
1002
{
1070
    19
1005
A3E9
1002
}
  0
LINE
  5
A3AA
  8
0
 10
18.59199999998134
 20
-0.2368999999997641
 30
0.0
 11
16.46099999998353
 21
5.432899999994561
 31
0.0
1001
ACAD
1000
ASC_BOUNDS
1002
{
1070
    19
1005
A3EA
1002
}
  0
LINE
  5
A3AB
  8
0
 10
18.59199999998134
 20
-0.2368999999997641
 30
0.0
 11
22.38199999997767
 21
8.763099999991255
 31
0.0
1001
ACAD
1000
ASC_BOUNDS
1002
{
1070
    19
1005
A3EA
1002
}
  0
LINE
  5
A3AC
  8
0
 10
14.32899999998563
 20
-0.2368999999997641
 30
0.0
 11
16.46099999998353
 21
5.432899999994561
 31
0.0
1001
ACAD
1000
ASC_BOUNDS
1002
{
1070
    19
1005
A3EA
1002
}
  0
LINE
  5
A3AD
  8
0
 10
14.32899999998563
 20
-0.2368999999997641
 30
0.0
 11
10.53899999998941
 21
8.763099999991255
 31
0.0
1001
ACAD
1000
ASC_BOUNDS
1002
{
1070
    19
1005
A3EA
1002
}
  0
LINE
  5
A3AE
  8
0
 10
19.53899999998043
 20
-0.0001000000000317
 30
0.0
 11
23.56599999997638
 21
8.999899999990987
 31
0.0
1001
ACAD
1000
ASC_BOUNDS
1002
{
1070
    19
1005
A3EB
1002
}
  0
LINE
  5
A3AF
  8
0
 10
26.97358892824991
 20
1.383099999991202
 30
0.0
 11
23.56599999997638
 21
8.999899999990987
 31
0.0
1001
ACAD
1000
ASC_BOUNDS
1002
{
1070
    19
1005
A3EB
1002
}
  0
LINE
  5
A3B0
  8
0
 10
5.657999999994331
 20
0.9999999999989768
 30
0.0
 11
3.181999999996833
 21
4.668599999995308
 31
0.0
1001
ACAD
1000
ASC_BOUNDS
1002
{
1070
    19
1005
A3E9
1002
}
  0
LINE
  5
A3B1
  8
0
 10
4.617999999995391
 20
-0.0001000000000317
 30
0.0
 11
1.420999999998571
 21
4.736799999995242
 31
0.0
1001
ACAD
1000
ASC_BOUNDS
1002
{
1070
    19
1005
A3E9
1002
}
  0
LINE
  5
A3B2
  8
0
 10
1.420999999998571
 20
8.763099999991255
 30
0.0
 11
1.420999999998571
 21
0.0
 31
0.0
1001
ACAD
1000
ASC_BOUNDS
1002
{
1070
    19
1005
A3EE
1002
}
  0
LINE
  5
A3B3
  8
0
 10
0.0
 20
8.763099999991255
 30
0.0
 11
0.0
 21
0.0
 31
0.0
1001
ACAD
1000
ASC_BOUNDS
1002
{
1070
    19
1005
A3EE
1002
}
  0
LINE
  5
A3B4
  8
0
 10
6.766999999993232
 20
-0.0001000000000317
 30
0.0
 11
7.826999999992154
 21
2.368399999997621
 31
0.0
1001
ACAD
1000
ASC_BOUNDS
1002
{
1070
    19
1005
A3E9
1002
}
  0
LINE
  5
A3B5
  8
0
 10
0.0
 20
0.0
 30
0.0
 11
1.420999999998571
 21
0.0
 31
0.0
1001
ACAD
1000
ASC_BOUNDS
1002
{
1070
    19
1005
A3EE
1002
}
  0
LINE
  5
A3B6
  8
0
 10
4.617999999995391
 20
0.0
 30
0.0
 11
6.766999999993232
 21
0.0
 31
0.0
1001
ACAD
1000
ASC_BOUNDS
1002
{
1070
    19
1005
A3E9
1002
}
  0
LINE
  5
A3B7
  8
0
 10
11.70599999998831
 20
-0.0001000000000317
 30
0.0
 11
10.64699999998936
 21
2.368399999997621
 31
0.0
1001
ACAD
1000
ASC_BOUNDS
1002
{
1070
    19
1005
A3E9
1002
}
  0
LINE
  5
A3B8
  8
0
 10
7.826999999992154
 20
2.368399999997621
 30
0.0
 11
10.64699999998936
 21
2.368399999997621
 31
0.0
1001
ACAD
1000
ASC_BOUNDS
1002
{
1070
    19
1005
A3E9
1002
}
  0
LINE
  5
A3B9
  8
0
 10
11.70599999998831
 20
0.0
 30
0.0
 11
13.26299999998673
 21
0.0
 31
0.0
1001
ACAD
1000
ASC_BOUNDS
1002
{
1070
    19
1005
A3E9
1002
}
  0
LINE
  5
A3BA
  8
0
 10
22.15599999997789
 20
2.368399999997621
 30
0.0
 11
24.97599999997499
 21
2.368399999997621
 31
0.0
1001
ACAD
1000
ASC_BOUNDS
1002
{
1070
    19
1005
A3EB
1002
}
  0
LINE
  5
A3BB
  8
0
 10
19.53899999998043
 20
0.0
 30
0.0
 11
21.09599999997886
 21
0.0
 31
0.0
1001
ACAD
1000
ASC_BOUNDS
1002
{
1070
    19
1005
A3EB
1002
}
  0
LINE
  5
A3BC
  8
0
 10
21.09599999997886
 20
-0.0001000000000317
 30
0.0
 11
22.15599999997789
 21
2.368399999997621
 31
0.0
1001
ACAD
1000
ASC_BOUNDS
1002
{
1070
    19
1005
A3EB
1002
}
  0
LINE
  5
A3BD
  8
0
 10
26.02015566812236
 20
0.0330999999912365
 30
0.0
 11
24.97599999997499
 21
2.368399999997621
 31
0.0
1001
ACAD
1000
ASC_BOUNDS
1002
{
1070
    19
1005
A3EB
1002
}
  0
LINE
  5
A3BE
  8
0
 10
14.32399999998563
 20
3.315799999996671
 30
0.0
 11
16.46099999998353
 21
8.999899999990987
 31
0.0
1001
ACAD
1000
ASC_BOUNDS
1002
{
1070
    19
1005
A3EA
1002
}
  0
LINE
  5
A3BF
  8
0
 10
6.432999999993513
 20
8.763099999991255
 30
0.0
 11
3.181999999996833
 21
4.668599999995308
 31
0.0
1001
ACAD
1000
ASC_BOUNDS
1002
{
1070
    19
1005
A3E9
1002
}
  0
LINE
  5
A3C0
  8
0
 10
4.617999999995391
 20
8.763099999991255
 30
0.0
 11
1.420999999998571
 21
4.736799999995242
 31
0.0
1001
ACAD
1000
ASC_BOUNDS
1002
{
1070
    19
1005
A3E9
1002
}
  0
LINE
  5
A3C1
  8
0
 10
0.0
 20
8.763099999991255
 30
0.0
 11
1.420999999998571
 21
8.763099999991255
 31
0.0
1001
ACAD
1000
ASC_BOUNDS
1002
{
1070
    19
1005
A3EE
1002
}
  0
LINE
  5
A3C2
  8
0
 10
4.617999999995391
 20
8.763099999991255
 30
0.0
 11
6.432999999993513
 21
8.763099999991255
 31
0.0
1001
ACAD
1000
ASC_BOUNDS
1002
{
1070
    19
1005
A3E9
1002
}
  0
LINE
  5
A3C3
  8
0
 10
14.32399999998563
 20
3.315799999996671
 30
0.0
 11
12.02999999998792
 21
8.763099999991255
 31
0.0
1001
ACAD
1000
ASC_BOUNDS
1002
{
1070
    19
1005
A3EA
1002
}
  0
LINE
  5
A3C4
  8
0
 10
10.06399999998996
 20
3.670999999996297
 30
0.0
 11
9.236999999990758
 21
5.5200999999945
 31
0.0
1001
ACAD
1000
ASC_BOUNDS
1002
{
1070
    19
1005
A3E9
1002
}
  0
LINE
  5
A3C5
  8
0
 10
8.409999999991555
 20
3.670999999996297
 30
0.0
 11
9.236999999990758
 21
5.5200999999945
 31
0.0
1001
ACAD
1000
ASC_BOUNDS
1002
{
1070
    19
1005
A3E9
1002
}
  0
LINE
  5
A3C6
  8
0
 10
8.409999999991555
 20
3.670999999996297
 30
0.0
 11
10.06399999998996
 21
3.670999999996297
 31
0.0
1001
ACAD
1000
ASC_BOUNDS
1002
{
1070
    19
1005
A3E9
1002
}
  0
LINE
  5
A3C7
  8
0
 10
10.53899999998941
 20
8.763099999991255
 30
0.0
 11
12.02999999998792
 21
8.763099999991255
 31
0.0
1001
ACAD
1000
ASC_BOUNDS
1002
{
1070
    19
1005
A3EA
1002
}
  0
LINE
  5
A3C8
  8
0
 10
22.7389999999773
 20
3.670999999996297
 30
0.0
 11
23.56599999997638
 21
5.5200999999945
 31
0.0
1001
ACAD
1000
ASC_BOUNDS
1002
{
1070
    19
1005
A3EB
1002
}
  0
LINE
  5
A3C9
  8
0
 10
22.7389999999773
 20
3.670999999996297
 30
0.0
 11
24.39299999997559
 21
3.670999999996297
 31
0.0
1001
ACAD
1000
ASC_BOUNDS
1002
{
1070
    19
1005
A3EB
1002
}
  0
LINE
  5
A3CA
  8
0
 10
18.59799999998143
 20
3.315799999996671
 30
0.0
 11
20.89099999997916
 21
8.763099999991255
 31
0.0
1001
ACAD
1000
ASC_BOUNDS
1002
{
1070
    19
1005
A3EA
1002
}
  0
LINE
  5
A3CB
  8
0
 10
18.59799999998143
 20
3.315799999996671
 30
0.0
 11
16.46099999998353
 21
8.999899999990987
 31
0.0
1001
ACAD
1000
ASC_BOUNDS
1002
{
1070
    19
1005
A3EA
1002
}
  0
LINE
  5
A3CC
  8
0
 10
20.89099999997916
 20
8.763099999991255
 30
0.0
 11
22.38199999997767
 21
8.763099999991255
 31
0.0
1001
ACAD
1000
ASC_BOUNDS
1002
{
1070
    19
1005
A3EA
1002
}
  0
LINE
  5
A3CD
  8
0
 10
24.39299999997559
 20
3.670999999996297
 30
0.0
 11
23.56599999997638
 21
5.5200999999945
 31
0.0
1001
ACAD
1000
ASC_BOUNDS
1002
{
1070
    19
1005
A3EB
1002
}
  0
LINE
  5
A3CE
  8
0
 10
44.99999999995498
 20
-0.2368999999997641
 30
0.0
 11
40.02599999995994
 21
5.341799999994635
 31
0.0
1001
ACAD
1000
ASC_BOUNDS
1002
{
1070
    19
1005
A3ED
1002
}
  0
LINE
  5
A3CF
  8
0
 10
40.02599999995994
 20
5.341799999994635
 30
0.0
 11
40.02599999995994
 21
0.0
 31
0.0
1001
ACAD
1000
ASC_BOUNDS
1002
{
1070
    19
1005
A3ED
1002
}
  0
LINE
  5
A3D0
  8
0
 10
38.60499999996136
 20
8.999999999991019
 30
0.0
 11
38.60499999996136
 21
0.0
 31
0.0
1001
ACAD
1000
ASC_BOUNDS
1002
{
1070
    19
1005
A3ED
1002
}
  0
LINE
  5
A3D1
  8
0
 10
44.99999999995498
 20
8.763099999991255
 30
0.0
 11
44.99999999995498
 21
-0.2368999999997641
 31
0.0
1001
ACAD
1000
ASC_BOUNDS
1002
{
1070
    19
1005
A3ED
1002
}
  0
LINE
  5
A3D2
  8
0
 10
38.60499999996136
 20
0.0
 30
0.0
 11
40.02599999995994
 21
0.0
 31
0.0
1001
ACAD
1000
ASC_BOUNDS
1002
{
1070
    19
1005
A3ED
1002
}
  0
LINE
  5
A3D3
  8
0
 10
43.57899999995641
 20
3.421199999996588
 30
0.0
 11
38.60499999996136
 21
8.999899999990987
 31
0.0
1001
ACAD
1000
ASC_BOUNDS
1002
{
1070
    19
1005
A3ED
1002
}
  0
LINE
  5
A3D4
  8
0
 10
43.57899999995641
 20
8.763099999991255
 30
0.0
 11
43.57899999995641
 21
3.421199999996588
 31
0.0
1001
ACAD
1000
ASC_BOUNDS
1002
{
1070
    19
1005
A3ED
1002
}
  0
LINE
  5
A3D5
  8
0
 10
43.57899999995641
 20
8.763099999991255
 30
0.0
 11
44.99999999995498
 21
8.763099999991255
 31
0.0
1001
ACAD
1000
ASC_BOUNDS
1002
{
1070
    19
1005
A3ED
1002
}
  0
LINE
  5
A3D6
  8
0
 10
37.67199999996831
 20
8.763099999991255
 30
0.0
 11
36.23199999996837
 21
8.763099999991255
 31
0.0
  0
LINE
  5
A3D7
  8
0
 10
31.64199999996833
 20
8.763099999991255
 30
0.0
 11
31.64199999996833
 21
2.481619422925121
 31
0.0
  0
LINE
  5
A3D8
  8
0
 10
37.67199999996831
 20
8.763099999991255
 30
0.0
 11
37.67199999996831
 21
2.481619422925121
 31
0.0
  0
LINE
  5
A3D9
  8
0
 10
36.23199999996837
 20
8.763099999991255
 30
0.0
 11
36.23199999996837
 21
2.481619422925064
 31
0.0
  0
LINE
  5
A3DA
  8
0
 10
33.08199999996839
 20
8.763099999991255
 30
0.0
 11
33.08199999996839
 21
2.481619422925121
 31
0.0
  0
ARC
  5
A3DB
  8
0
 10
34.65699999996832
 20
3.183099999991214
 30
0.0
 40
3.420000000000007
 50
240.0000000000255
 51
299.9999999999766
  0
ARC
  5
A3DC
  8
0
 10
34.65699999996832
 20
3.183099999991214
 30
0.0
 40
1.97999999999999
 50
240.000000000026
 51
299.9999999999703
  0
LINE
  5
A3DD
  8
0
 10
33.08199999996828
 20
8.763099999991255
 30
0.0
 11
31.64199999996833
 21
8.763099999991255
 31
0.0
  0
ARC
  5
A3DE
  8
0
 10
35.06199999996829
 20
2.481619422925064
 30
0.0
 40
1.17
 50
299.9999999999699
 51
0.0
  0
ARC
  5
A3DF
  8
0
 10
34.25199999996835
 20
2.481619422925121
 30
0.0
 40
1.17
 50
180.0
 51
240.0000000000238
  0
ARC
  5
A3E0
  8
0
 10
35.06199999996841
 20
2.481619422925121
 30
0.0
 40
2.61
 50
299.9999999999756
 51
0.0
  0
ARC
  5
A3E1
  8
0
 10
34.25199999996835
 20
2.481619422925121
 30
0.0
 40
2.61
 50
180.0
 51
240.0000000000244
  0
LINE
  5
A3E2
  8
0
 10
29.30199999996933
 20
8.763099999991255
 30
0.0
 11
30.74199999996927
 21
8.763099999991255
 31
0.0
1001
ACAD
1000
ASC_BOUNDS
1002
{
1070
    19
1005
A3EB
1002
}
  0
LINE
  5
A3E3
  8
0
 10
30.74199999996927
 20
8.763099999991255
 30
0.0
 11
30.74199999996927
 21
2.373099999991211
 31
0.0
1001
ACAD
1000
ASC_BOUNDS
1002
{
1070
    19
1005
A3EB
1002
}
  0
LINE
  5
A3E4
  8
0
 10
26.02015566812236
 20
0.0330999999912365
 30
0.0
 11
28.40199999996923
 21
0.0330999999912365
 31
0.0
1001
ACAD
1000
ASC_BOUNDS
1002
{
1070
    19
1005
A3EB
1002
}
  0
LINE
  5
A3E5
  8
0
 10
29.30199999996933
 20
8.763099999991255
 30
0.0
 11
29.30199999996933
 21
2.283099999991236
 31
0.0
1001
ACAD
1000
ASC_BOUNDS
1002
{
1070
    19
1005
A3EB
1002
}
  0
LINE
  5
A3E6
  8
0
 10
26.97358892824991
 20
1.383099999991202
 30
0.0
 11
28.40199999996923
 21
1.383099999991202
 31
0.0
1001
ACAD
1000
ASC_BOUNDS
1002
{
1070
    19
1005
A3EB
1002
}
  0
ARC
  5
A3E7
  8
0
 10
28.40199999996923
 20
2.283099999991236
 30
0.0
 40
0.9
 50
270.0
 51
0.0
1001
ACAD
1000
ASC_BOUNDS
1002
{
1070
    19
1005
A3EB
1002
}
  0
ARC
  5
A3E8
  8
0
 10
28.40199999996923
 20
2.373099999991211
 30
0.0
 40
2.34
 50
270.0
 51
0.0
1001
ACAD
1000
ASC_BOUNDS
1002
{
1070
    19
1005
A3EB
1002
}
  0
INSERT
  5
A3E9
  8
0
  2
*X24
 10
0.0
 20
0.0
 30
0.0
1001
ACAD
1000
HATCH
1002
{
1070
    19
1000
ANSI37
1040
0.15
1040
0.0
1000
ASC_BOUNDS
1070
     2
1070
     2
1070
    12
1005
A3A8
1005
A3A9
1005
A3B0
1005
A3BF
1005
A3C2
1005
A3C0
1005
A3B1
1005
A3B6
1005
A3B4
1005
A3B8
1005
A3B7
1005
A3B9
1070
     2
1070
     3
1005
A3C4
1005
A3C6
1005
A3C5
1000
ASC_SEEDPOINT
1011
3.614004224891801
1021
2.996669441146025
1031
0.0
1021
2.996669441146025
1031
0.0
1000
R14_HATCH_DATA
1000
A3E9
1011
1.0
1021
0.0
1031
0.0
1021
0.0
1031
0.0
1011
0.0
1021
1.0
1031
0.0
1021
1.0
1031
0.0
1011
0.0
1021
0.0
1031
1.0
1021
0.0
1031
1.0
1040
0.0
1010
0.0
1020
0.0
1030
1.0
1000
ANSI37
1070
     0
1070
     1
1071
        2
1071
        7
1070
     0
1070
     1
1071
       17
1040
13.26299999998673
1040
-0.0001000000000317
1040
9.236999999990758
1040
8.999899999990987
1040
9.236999999990758
1040
8.999999999991019
1040
5.657999999994331
1040
0.9999999999989768
1040
3.181999999996833
1040
4.668599999995308
1040
6.432999999993513
1040
8.763099999991255
1040
4.617999999995391
1040
8.763099999991255
1040
1.420999999998571
1040
4.736799999995242
1040
4.617999999995391
1040
-0.0001000000000317
1040
4.617999999995391
1040
0.0
1040
6.766999999993232
1040
0.0
1040
6.766999999993232
1040
-0.0001000000000317
1040
7.826999999992154
1040
2.368399999997621
1040
10.64699999998936
1040
2.368399999997621
1040
11.70599999998831
1040
-0.0001000000000317
1040
11.70599999998831
1040
0.0
1040
13.26299999998673
1040
0.0
1071
       12
1005
A3A8
1005
A3A9
1005
A3B0
1005
A3BF
1005
A3C2
1005
A3C0
1005
A3B1
1005
A3B6
1005
A3B4
1005
A3B8
1005
A3B7
1005
A3B9
1071
       22
1070
     0
1070
     1
1071
        3
1040
9.236999999990758
1040
5.5200999999945
1040
10.06399999998996
1040
3.670999999996297
1040
8.409999999991555
1040
3.670999999996297
1071
        3
1005
A3C4
1005
A3C6
1005
A3C5
1070
     0
1070
     1
1040
0.0
1040
0.15
1070
     0
1070
     2
1040
0.7853981633974483
1040
49.29960901727088
1040
-10.17736998311392
1040
-0.3367596045400932
1040
0.3367596045400932
1070
     0
1040
2.356194490192345
1040
49.29960901727088
1040
-10.17736998311392
1040
-0.3367596045400932
1040
-0.3367596045400932
1070
     0
1040
0.0110235143455945
1071
        2
1040
3.614004224891801
1040
2.996669441146025
1040
0.0
1040
3.614004224891801
1040
2.996669441146025
1040
0.0
1002
}
  0
INSERT
  5
A3EA
  8
0
  2
*X25
 10
0.0
 20
0.0
 30
0.0
1001
ACAD
1000
HATCH
1002
{
1070
    19
1000
ANSI37
1040
0.15
1040
0.0
1000
ASC_BOUNDS
1070
     1
1070
     2
1070
    10
1005
A3AA
1005
A3AB
1005
A3CC
1005
A3CA
1005
A3CB
1005
A3BE
1005
A3C3
1005
A3C7
1005
A3AD
1005
A3AC
1000
ASC_SEEDPOINT
1011
14.73245321214324
1021
2.798246178283421
1031
0.0
1021
2.798246178283421
1031
0.0
1000
R14_HATCH_DATA
1000
A3EA
1011
1.0
1021
0.0
1031
0.0
1021
0.0
1031
0.0
1011
0.0
1021
1.0
1031
0.0
1021
1.0
1031
0.0
1011
0.0
1021
0.0
1031
1.0
1021
0.0
1031
1.0
1040
0.0
1010
0.0
1020
0.0
1030
1.0
1000
ANSI37
1070
     0
1070
     1
1071
        1
1071
        7
1070
     0
1070
     1
1071
       10
1040
16.46099999998353
1040
5.432899999994561
1040
18.59199999998134
1040
-0.2368999999997641
1040
22.38199999997767
1040
8.763099999991255
1040
20.89099999997916
1040
8.763099999991255
1040
18.59799999998143
1040
3.315799999996671
1040
16.46099999998353
1040
8.999899999990987
1040
14.32399999998563
1040
3.315799999996671
1040
12.02999999998792
1040
8.763099999991255
1040
10.53899999998941
1040
8.763099999991255
1040
14.32899999998563
1040
-0.2368999999997641
1071
       10
1005
A3AA
1005
A3AB
1005
A3CC
1005
A3CA
1005
A3CB
1005
A3BE
1005
A3C3
1005
A3C7
1005
A3AD
1005
A3AC
1070
     0
1070
     1
1040
0.0
1040
0.15
1070
     0
1070
     2
1040
0.7853981633974483
1040
49.29960901727088
1040
-10.17736998311392
1040
-0.3367596045400932
1040
0.3367596045400932
1070
     0
1040
2.356194490192345
1040
49.29960901727088
1040
-10.17736998311392
1040
-0.3367596045400932
1040
-0.3367596045400932
1070
     0
1040
0.0110235143455945
1071
        1
1040
14.73245321214324
1040
2.798246178283421
1040
0.0
1002
}
  0
INSERT
  5
A3EB
  8
0
  2
*X26
 10
0.0
 20
0.0
 30
0.0
1001
ACAD
1000
HATCH
1002
{
1070
    19
1000
ANSI37
1040
0.15
1040
0.0
1000
ASC_BOUNDS
1070
     2
1070
     2
1070
    13
1005
A3AE
1005
A3BB
1005
A3BC
1005
A3BA
1005
A3BD
1005
A3E4
1005
A3E8
1005
A3E3
1005
A3E2
1005
A3E5
1005
A3E7
1005
A3E6
1005
A3AF
1070
     2
1070
     3
1005
A3C8
1005
A3CD
1005
A3C9
1000
ASC_SEEDPOINT
1011
21.97929957367762
1021
3.294304244259308
1031
0.0
1021
3.294304244259308
1031
0.0
1000
R14_HATCH_DATA
1000
A3EB
1011
1.0
1021
0.0
1031
0.0
1021
0.0
1031
0.0
1011
0.0
1021
1.0
1031
0.0
1021
1.0
1031
0.0
1011
0.0
1021
0.0
1031
1.0
1021
0.0
1031
1.0
1040
0.0
1010
0.0
1020
0.0
1030
1.0
1000
ANSI37
1070
     0
1070
     1
1071
        2
1071
        7
1070
     1
1070
     1
1071
       15
1040
23.56599999997638
1040
8.999899999990987
1040
0.0
1040
19.53899999998043
1040
-0.0001000000000317
1040
0.0
1040
19.53899999998043
1040
0.0
1040
0.0
1040
21.09599999997886
1040
0.0
1040
0.0
1040
21.09599999997886
1040
-0.0001000000000317
1040
0.0
1040
22.15599999997789
1040
2.368399999997621
1040
0.0
1040
24.97599999997499
1040
2.368399999997621
1040
0.0
1040
26.02015566812236
1040
0.0330999999912365
1040
0.0
1040
28.40199999996923
1040
0.0330999999912365
1040
0.414213562373095
1040
30.74199999996923
1040
2.373099999991211
1040
0.0
1040
30.74199999996927
1040
8.763099999991255
1040
0.0
1040
29.30199999996933
1040
8.763099999991255
1040
0.0
1040
29.30199999996933
1040
2.283099999991236
1040
-0.414213562373095
1040
28.40199999996923
1040
1.383099999991237
1040
0.0
1040
26.97358892824991
1040
1.383099999991202
1040
0.0
1071
       13
1005
A3AE
1005
A3BB
1005
A3BC
1005
A3BA
1005
A3BD
1005
A3E4
1005
A3E8
1005
A3E3
1005
A3E2
1005
A3E5
1005
A3E7
1005
A3E6
1005
A3AF
1071
       22
1070
     0
1070
     1
1071
        3
1040
22.7389999999773
1040
3.670999999996297
1040
23.56599999997638
1040
5.5200999999945
1040
24.39299999997559
1040
3.670999999996297
1071
        3
1005
A3C8
1005
A3CD
1005
A3C9
1070
     0
1070
     1
1040
0.0
1040
0.15
1070
     0
1070
     2
1040
0.7853981633974483
1040
49.29960901727088
1040
-10.17736998311392
1040
-0.3367596045400932
1040
0.3367596045400932
1070
     0
1040
2.356194490192345
1040
49.29960901727088
1040
-10.17736998311392
1040
-0.3367596045400932
1040
-0.3367596045400932
1070
     0
1040
0.0110235143455945
1071
        2
1040
21.97929957367762
1040
3.294304244259308
1040
0.0
1040
21.97929957367762
1040
3.294304244259308
1040
0.0
1002
}
  0
INSERT
  5
A3EC
  8
0
  2
*X27
 10
0.0
 20
0.0
 30
0.0
1001
ACAD
1000
HATCH
1002
{
1070
    19
1000
ANSI37
1040
0.15
1040
0.0
1000
R14_HATCH_DATA
1000
A3EC
1011
1.0
1021
0.0
1031
0.0
1021
0.0
1031
0.0
1011
0.0
1021
1.0
1031
0.0
1021
1.0
1031
0.0
1011
0.0
1021
0.0
1031
1.0
1021
0.0
1031
1.0
1040
0.0
1010
0.0
1020
0.0
1030
1.0
1000
ANSI37
1070
     0
1070
     1
1071
        1
1071
        7
1070
     1
1070
     1
1071
       12
1040
31.64199999996833
1040
2.481619422925121
1040
0.2679491924310942
1040
32.94699999997067
1040
0.2212931190493919
1040
0.2679491924301353
1040
36.36699999995983
1040
0.2212931190459813
1040
0.2679491924321411
1040
37.67199999996831
1040
2.481619422928361
1040
0.0
1040
37.67199999996831
1040
8.763099999991255
1040
0.0
1040
36.23199999996837
1040
8.763099999991255
1040
0.0
1040
36.23199999996837
1040
2.481619422925064
1040
-0.2679491924310291
1040
35.64699999996708
1040
1.468369700498386
1040
-0.267949192430519
1040
33.66699999997093
1040
1.468369700497703
1040
-0.267949192431809
1040
33.08199999996839
1040
2.481619422926997
1040
0.0
1040
33.08199999996839
1040
8.763099999991255
1040
0.0
1040
31.64199999996833
1040
8.763099999991255
1040
0.0
1071
        0
1070
     0
1070
     1
1040
0.0
1040
0.15
1070
     0
1070
     2
1040
0.7853981633974483
1040
49.29960901727088
1040
-10.17736998311392
1040
-0.3367596045400932
1040
0.3367596045400932
1070
     0
1040
2.356194490192345
1040
49.29960901727088
1040
-10.17736998311392
1040
-0.3367596045400932
1040
-0.3367596045400932
1070
     0
1040
0.0110235143455945
1071
        1
1040
32.30357378967278
1040
3.988785755459219
1040
0.0
1002
}
  0
INSERT
  5
A3ED
  8
0
  2
*X28
 10
0.0
 20
0.0
 30
0.0
1001
ACAD
1000
HATCH
1002
{
1070
    19
1000
ANSI37
1040
0.15
1040
0.0
1000
ASC_BOUNDS
1070
     1
1070
     2
1070
     8
1005
A3CE
1005
A3D1
1005
A3D5
1005
A3D4
1005
A3D3
1005
A3D0
1005
A3D2
1005
A3CF
1000
ASC_SEEDPOINT
1011
39.74896370716704
1021
4.484843821435049
1031
0.0
1021
4.484843821435049
1031
0.0
1000
R14_HATCH_DATA
1000
A3ED
1011
1.0
1021
0.0
1031
0.0
1021
0.0
1031
0.0
1011
0.0
1021
1.0
1031
0.0
1021
1.0
1031
0.0
1011
0.0
1021
0.0
1031
1.0
1021
0.0
1031
1.0
1040
0.0
1010
0.0
1020
0.0
1030
1.0
1000
ANSI37
1070
     0
1070
     1
1071
        1
1071
        7
1070
     0
1070
     1
1071
        9
1040
40.02599999995994
1040
5.341799999994635
1040
44.99999999995498
1040
-0.2368999999997641
1040
44.99999999995498
1040
8.763099999991255
1040
43.57899999995641
1040
8.763099999991255
1040
43.57899999995641
1040
3.421199999996588
1040
38.60499999996136
1040
8.999899999990987
1040
38.60499999996136
1040
8.999999999991019
1040
38.60499999996136
1040
0.0
1040
40.02599999995994
1040
0.0
1071
        8
1005
A3CE
1005
A3D1
1005
A3D5
1005
A3D4
1005
A3D3
1005
A3D0
1005
A3D2
1005
A3CF
1070
     0
1070
     1
1040
0.0
1040
0.15
1070
     0
1070
     2
1040
0.7853981633974483
1040
49.29960901727088
1040
-10.17736998311392
1040
-0.3367596045400932
1040
0.3367596045400932
1070
     0
1040
2.356194490192345
1040
49.29960901727088
1040
-10.17736998311392
1040
-0.3367596045400932
1040
-0.3367596045400932
1070
     0
1040
0.0110235143455945
1071
        1
1040
39.74896370716704
1040
4.484843821435049
1040
0.0
1002
}
  0
INSERT
  5
A3EE
  8
0
  2
*X29
 10
0.0
 20
0.0
 30
0.0
1001
ACAD
1000
HATCH
1002
{
1070
    19
1000
ANSI37
1040
0.15
1040
0.0
1000
ASC_BOUNDS
1070
     1
1070
     2
1070
     4
1005
A3B2
1005
A3C1
1005
A3B3
1005
A3B5
1000
ASC_SEEDPOINT
1011
1.079051535452663
1021
4.148538732891836
1031
0.0
1021
4.148538732891836
1031
0.0
1000
R14_HATCH_DATA
1000
A3EE
1011
1.0
1021
0.0
1031
0.0
1021
0.0
1031
0.0
1011
0.0
1021
1.0
1031
0.0
1021
1.0
1031
0.0
1011
0.0
1021
0.0
1031
1.0
1021
0.0
1031
1.0
1040
0.0
1010
0.0
1020
0.0
1030
1.0
1000
ANSI37
1070
     0
1070
     1
1071
        1
1071
        7
1070
     0
1070
     1
1071
        4
1040
1.420999999998571
1040
0.0
1040
1.420999999998571
1040
8.763099999991255
1040
0.0
1040
8.763099999991255
1040
0.0
1040
0.0
1071
        4
1005
A3B2
1005
A3C1
1005
A3B3
1005
A3B5
1070
     0
1070
     1
1040
0.0
1040
0.15
1070
     0
1070
     2
1040
0.7853981633974483
1040
49.29960901727088
1040
-10.17736998311392
1040
-0.3367596045400932
1040
0.3367596045400932
1070
     0
1040
2.356194490192345
1040
49.29960901727088
1040
-10.17736998311392
1040
-0.3367596045400932
1040
-0.3367596045400932
1070
     0
1040
0.0053004257112761
1071
        1
1040
1.079051535452663
1040
4.148538732891836
1040
0.0
1002
}
  0
ENDBLK
  5
AAA7
  8
0
  0
BLOCK
  8
0
  2
*X24
 70
     1
 10
0.0
 20
0.0
 30
0.0
  3
*X24
  1

  0
LINE
  5
AC19
  8
0
  6
CONTINUOUS
 10
3.418023043697893
 20
7.251849696850613
 30
0.0
 11
4.929273346838536
 21
8.763099999991255
 31
0.0
  0
LINE
  5
AC1A
  8
0
  6
CONTINUOUS
 10
1.483656411257782
 20
4.643963855330318
 30
0.0
 11
5.60279255591872
 21
8.763099999991255
 31
0.0
  0
LINE
  5
AC1B
  8
0
  6
CONTINUOUS
 10
1.755053947328235
 20
4.241842182320584
 30
0.0
 11
6.276311764998907
 21
8.763099999991255
 31
0.0
  0
LINE
  5
AC1C
  8
0
  6
CONTINUOUS
 10
2.026451483398688
 20
3.839720509310849
 30
0.0
 11
4.441040904851878
 21
6.254309930764039
 31
0.0
  0
LINE
  5
AC1D
  8
0
  6
CONTINUOUS
 10
2.297849019469139
 20
3.437598836301114
 30
0.0
 11
3.321765168359338
 21
4.461514985191313
 31
0.0
  0
LINE
  5
AC1E
  8
0
  6
CONTINUOUS
 10
2.569246555539591
 20
3.03547716329138
 30
0.0
 11
3.593163397972743
 21
4.059394005724531
 31
0.0
  0
LINE
  5
AC1F
  8
0
  6
CONTINUOUS
 10
2.840644091610043
 20
2.633355490281646
 30
0.0
 11
3.864561627586149
 21
3.657273026257751
 31
0.0
  0
LINE
  5
AC20
  8
0
  6
CONTINUOUS
 10
3.112041627680496
 20
2.231233817271911
 30
0.0
 11
4.135959857199554
 21
3.25515204679097
 31
0.0
  0
LINE
  5
AC21
  8
0
  6
CONTINUOUS
 10
3.383439163750948
 20
1.829112144262177
 30
0.0
 11
4.40735808681296
 21
2.853031067324189
 31
0.0
  0
LINE
  5
AC22
  8
0
  6
CONTINUOUS
 10
3.654836699821399
 20
1.426990471252442
 30
0.0
 11
4.678756316426365
 21
2.450910087857407
 31
0.0
  0
LINE
  5
AC23
  8
0
  6
CONTINUOUS
 10
3.926234235891853
 20
1.024868798242709
 30
0.0
 11
4.95015454603977
 21
2.048789108390626
 31
0.0
  0
LINE
  5
AC24
  8
0
  6
CONTINUOUS
 10
4.197631771962304
 20
0.6227471252329737
 30
0.0
 11
5.221552775653176
 21
1.646668128923846
 31
0.0
  0
LINE
  5
AC25
  8
0
  6
CONTINUOUS
 10
8.715877546767851
 20
7.835069736359266
 30
0.0
 11
9.435953450375058
 21
8.555145639966472
 31
0.0
  0
LINE
  5
AC26
  8
0
  6
CONTINUOUS
 10
8.170620868422267
 20
6.616293848933497
 30
0.0
 11
9.644120833743461
 21
8.08979381425469
 31
0.0
  0
LINE
  5
AC27
  8
0
  6
CONTINUOUS
 10
7.625364190076684
 20
5.397517961507727
 30
0.0
 11
9.852288217111864
 21
7.624441988542907
 31
0.0
  0
LINE
  5
AC28
  8
0
  6
CONTINUOUS
 10
7.080107511731101
 20
4.178742074081957
 30
0.0
 11
10.06045560048027
 21
7.159090162831124
 31
0.0
  0
LINE
  5
AC29
  8
0
  6
CONTINUOUS
 10
6.534850833385518
 20
2.959966186656187
 30
0.0
 11
10.26862298384867
 21
6.693738337119342
 31
0.0
  0
LINE
  5
AC2A
  8
0
  6
CONTINUOUS
 10
4.469029308032756
 20
0.2206254522232385
 30
0.0
 11
5.492951005266582
 21
1.244547149457064
 31
0.0
  0
LINE
  5
AC2B
  8
0
  6
CONTINUOUS
 10
5.989594155039935
 20
1.741190299230417
 30
0.0
 11
8.806950407233131
 21
4.558546551423613
 31
0.0
  0
LINE
  5
AC2C
  8
0
  6
CONTINUOUS
 10
9.401251593263643
 20
5.152847737454126
 30
0.0
 11
10.47679036721708
 21
6.228386511407559
 31
0.0
  0
LINE
  5
AC2D
  8
0
  6
CONTINUOUS
 10
4.921837203428691
 20
-0.0000858614610131
 30
0.0
 11
8.592923064886001
 21
3.670999999996297
 31
0.0
  0
LINE
  5
AC2E
  8
0
  6
CONTINUOUS
 10
9.609390446785305
 20
4.6874673818956
 30
0.0
 11
10.68495775058548
 21
5.763034685695775
 31
0.0
  0
LINE
  5
AC2F
  8
0
  6
CONTINUOUS
 10
5.595387755019432
 20
-0.0000545189504582
 30
0.0
 11
7.716137258923768
 21
2.120694984953879
 31
0.0
  0
LINE
  5
AC30
  8
0
  6
CONTINUOUS
 10
6.268938306610172
 20
-0.000023176439905
 30
0.0
 11
7.170485805526503
 21
0.9015243224764267
 31
0.0
  0
LINE
  5
AC31
  8
0
  6
CONTINUOUS
 10
7.963842273967511
 20
2.368399999997621
 30
0.0
 11
9.266442273966188
 21
3.670999999996297
 31
0.0
  0
LINE
  5
AC32
  8
0
  6
CONTINUOUS
 10
8.637361483047696
 20
2.368399999997621
 30
0.0
 11
9.939961483046375
 21
3.670999999996297
 31
0.0
  0
LINE
  5
AC33
  8
0
  6
CONTINUOUS
 10
9.817529300306965
 20
4.222087026337075
 30
0.0
 11
10.89312513395388
 21
5.297682859983993
 31
0.0
  0
LINE
  5
AC34
  8
0
  6
CONTINUOUS
 10
10.02566815382863
 20
3.756706670778549
 30
0.0
 11
11.10129251732229
 21
4.832331034272211
 31
0.0
  0
LINE
  5
AC35
  8
0
  6
CONTINUOUS
 10
9.310880692127883
 20
2.368399999997621
 30
0.0
 11
11.30945990069069
 21
4.366979208560428
 31
0.0
  0
LINE
  5
AC36
  8
0
  6
CONTINUOUS
 10
9.98439990120807
 20
2.36839999999762
 30
0.0
 11
11.5176272840591
 21
3.901627382848645
 31
0.0
  0
LINE
  5
AC37
  8
0
  6
CONTINUOUS
 10
10.65037369446246
 20
2.36085458417182
 30
0.0
 11
11.7257946674275
 21
3.436275557136862
 31
0.0
  0
LINE
  5
AC38
  8
0
  6
CONTINUOUS
 10
10.85847197087848
 20
1.895433651507656
 30
0.0
 11
11.9339620507959
 21
2.97092373142508
 31
0.0
  0
LINE
  5
AC39
  8
0
  6
CONTINUOUS
 10
11.0665702472945
 20
1.430012718843491
 30
0.0
 11
12.14212943416431
 21
2.505571905713296
 31
0.0
  0
LINE
  5
AC3A
  8
0
  6
CONTINUOUS
 10
11.27466852371052
 20
0.9645917861793256
 30
0.0
 11
12.35029681753271
 21
2.040220080001513
 31
0.0
  0
LINE
  5
AC3B
  8
0
  6
CONTINUOUS
 10
11.48276680012654
 20
0.4991708535151611
 30
0.0
 11
12.55846420090111
 21
1.57486825428973
 31
0.0
  0
LINE
  5
AC3C
  8
0
  6
CONTINUOUS
 10
11.69086507654257
 20
0.0337499208509957
 30
0.0
 11
12.76663158426952
 21
1.109516428577947
 31
0.0
  0
LINE
  5
AC3D
  8
0
  6
CONTINUOUS
 10
12.33057447873954
 20
-0.0000598860322123
 30
0.0
 11
12.97479896763792
 21
0.6441646028661663
 31
0.0
  0
LINE
  5
AC3E
  8
0
  6
CONTINUOUS
 10
13.00413694809395
 20
-0.0000166257579952
 30
0.0
 11
13.18296635100632
 21
0.1788127771543824
 31
0.0
  0
LINE
  5
AC3F
  8
0
  6
CONTINUOUS
 10
4.772852165289667
 20
-0.000092794222212
 30
0.0
 11
4.296495091028902
 21
0.4762642800385528
 31
0.0
  0
LINE
  5
AC40
  8
0
  6
CONTINUOUS
 10
5.446340034776103
 20
-0.0000614546284616
 30
0.0
 11
2.898195908335625
 21
2.548082671812017
 31
0.0
  0
LINE
  5
AC41
  8
0
  6
CONTINUOUS
 10
6.119827904262539
 20
-0.0000301150347113
 30
0.0
 11
1.499896725642348
 21
4.61990106358548
 31
0.0
  0
LINE
  5
AC42
  8
0
  6
CONTINUOUS
 10
6.775136745476159
 20
0.0181802528318542
 30
0.0
 11
5.699826040202669
 21
1.093490958105344
 31
0.0
  0
LINE
  5
AC43
  8
0
  6
CONTINUOUS
 10
6.983376846288489
 20
0.4834593610997118
 30
0.0
 11
5.908008617934405
 21
1.558827589453796
 31
0.0
  0
LINE
  5
AC44
  8
0
  6
CONTINUOUS
 10
5.377063484962296
 20
1.416253513345719
 30
0.0
 11
1.702276957014131
 21
5.091040041293883
 31
0.0
  0
LINE
  5
AC45
  8
0
  6
CONTINUOUS
 10
3.978745891735324
 20
3.488090315652877
 30
0.0
 11
2.000373521109399
 21
5.466462686278803
 31
0.0
  0
LINE
  5
AC46
  8
0
  6
CONTINUOUS
 10
7.191616947100819
 20
0.948738469367568
 30
0.0
 11
6.11619119566614
 21
2.024164220802247
 31
0.0
  0
LINE
  5
AC47
  8
0
  6
CONTINUOUS
 10
7.399857047913149
 20
1.414017577635424
 30
0.0
 11
6.324373773397875
 21
2.489500852150698
 31
0.0
  0
LINE
  5
AC48
  8
0
  6
CONTINUOUS
 10
7.608097148725479
 20
1.879296685903281
 30
0.0
 11
6.53255635112961
 21
2.95483748349915
 31
0.0
  0
LINE
  5
AC49
  8
0
  6
CONTINUOUS
 10
7.816337249537808
 20
2.344575794171138
 30
0.0
 11
6.740738928861345
 21
3.420174114847601
 31
0.0
  0
LINE
  5
AC4A
  8
0
  6
CONTINUOUS
 10
3.310241080789734
 20
4.830114335678653
 30
0.0
 11
2.298470085204666
 21
5.84188533126372
 31
0.0
  0
LINE
  5
AC4B
  8
0
  6
CONTINUOUS
 10
3.60832983563551
 20
5.205544789913063
 30
0.0
 11
2.596566649299935
 21
6.217307976248638
 31
0.0
  0
LINE
  5
AC4C
  8
0
  6
CONTINUOUS
 10
3.906418590481286
 20
5.580975244147473
 30
0.0
 11
2.894663213395203
 21
6.592730621233557
 31
0.0
  0
LINE
  5
AC4D
  8
0
  6
CONTINUOUS
 10
4.204507345327062
 20
5.956405698381884
 30
0.0
 11
3.192759777490472
 21
6.968153266218474
 31
0.0
  0
LINE
  5
AC4E
  8
0
  6
CONTINUOUS
 10
8.466032252791512
 20
2.368399999997621
 30
0.0
 11
6.948921506593081
 21
3.885510746196053
 31
0.0
  0
LINE
  5
AC4F
  8
0
  6
CONTINUOUS
 10
9.139551461871699
 20
2.36839999999762
 30
0.0
 11
7.157104084324816
 21
4.350847377544504
 31
0.0
  0
LINE
  5
AC50
  8
0
  6
CONTINUOUS
 10
4.502596100172839
 20
6.331836152616295
 30
0.0
 11
3.49085634158574
 21
7.343575911203393
 31
0.0
  0
LINE
  5
AC51
  8
0
  6
CONTINUOUS
 10
4.800684855018615
 20
6.707266606850705
 30
0.0
 11
3.788952905681008
 21
7.718998556188312
 31
0.0
  0
LINE
  5
AC52
  8
0
  6
CONTINUOUS
 10
12.18154012887317
 20
-0.0000694579236642
 30
0.0
 11
11.32140332908496
 21
0.8600673418645499
 31
0.0
  0
LINE
  5
AC53
  8
0
  6
CONTINUOUS
 10
12.85501608323566
 20
-0.0000262032059659
 30
0.0
 11
10.77672456435345
 21
2.078265315676246
 31
0.0
  0
LINE
  5
AC54
  8
0
  6
CONTINUOUS
 10
9.813070670951886
 20
2.36839999999762
 30
0.0
 11
8.51047067095321
 21
3.670999999996297
 31
0.0
  0
LINE
  5
AC55
  8
0
  6
CONTINUOUS
 10
10.48658988003207
 20
2.36839999999762
 30
0.0
 11
9.183989880033396
 21
3.670999999996297
 31
0.0
  0
LINE
  5
AC56
  8
0
  6
CONTINUOUS
 10
8.441048632286794
 20
3.740422038662712
 30
0.0
 11
7.365286662056551
 21
4.816184008892956
 31
0.0
  0
LINE
  5
AC57
  8
0
  6
CONTINUOUS
 10
8.649187485808454
 20
4.205802394221237
 30
0.0
 11
7.573469239788285
 21
5.281520640241407
 31
0.0
  0
LINE
  5
AC58
  8
0
  6
CONTINUOUS
 10
5.098773609864391
 20
7.082697061085115
 30
0.0
 11
4.087049469776277
 21
8.09442120117323
 31
0.0
  0
LINE
  5
AC59
  8
0
  6
CONTINUOUS
 10
5.396862364710167
 20
7.458127515319526
 30
0.0
 11
4.385146033871544
 21
8.469843846158149
 31
0.0
  0
LINE
  5
AC5A
  8
0
  6
CONTINUOUS
 10
13.04801363231285
 20
0.4804954567970334
 30
0.0
 11
9.85750908911358
 21
3.670999999996297
 31
0.0
  0
LINE
  5
AC5B
  8
0
  6
CONTINUOUS
 10
8.857326339330116
 20
4.671182749779763
 30
0.0
 11
7.781651817520021
 21
5.746857271589858
 31
0.0
  0
LINE
  5
AC5C
  8
0
  6
CONTINUOUS
 10
5.694951119555943
 20
7.833557969553937
 30
0.0
 11
4.765409089118624
 21
8.763099999991255
 31
0.0
  0
LINE
  5
AC5D
  8
0
  6
CONTINUOUS
 10
12.50286117236978
 20
1.699167125820288
 30
0.0
 11
9.68611877250287
 21
4.515909525687196
 31
0.0
  0
LINE
  5
AC5E
  8
0
  6
CONTINUOUS
 10
9.065465192851777
 20
5.136563105338288
 30
0.0
 11
7.989834395251757
 21
6.21219390293831
 31
0.0
  0
LINE
  5
AC5F
  8
0
  6
CONTINUOUS
 10
5.993039874401719
 20
8.208988423788346
 30
0.0
 11
5.43892829819881
 21
8.763099999991255
 31
0.0
  0
LINE
  5
AC60
  8
0
  6
CONTINUOUS
 10
11.95770871242671
 20
2.917838794843543
 30
0.0
 11
8.19801697298349
 21
6.677530534286761
 31
0.0
  0
LINE
  5
AC61
  8
0
  6
CONTINUOUS
 10
6.291128629247495
 20
8.584418878022756
 30
0.0
 11
6.112447507278997
 21
8.763099999991255
 31
0.0
  0
LINE
  5
AC62
  8
0
  6
CONTINUOUS
 10
11.41255625248364
 20
4.136510463866797
 30
0.0
 11
8.406199550715227
 21
7.142867165635211
 31
0.0
  0
LINE
  5
AC63
  8
0
  6
CONTINUOUS
 10
10.86740379254057
 20
5.355182132890051
 30
0.0
 11
8.614382128446962
 21
7.608203796983664
 31
0.0
  0
LINE
  5
AC64
  8
0
  6
CONTINUOUS
 10
10.3222513325975
 20
6.573853801913305
 30
0.0
 11
8.822564706178696
 21
8.073540428332114
 31
0.0
  0
LINE
  5
AC65
  8
0
  6
CONTINUOUS
 10
9.777098872654436
 20
7.792525470936562
 30
0.0
 11
9.030747283910433
 21
8.538877059680566
 31
0.0
  0
ENDBLK
  5
ADA7
  8
0
  0
BLOCK
  8
0
  2
*X25
 70
     1
 10
0.0
 20
0.0
 30
0.0
  3
*X25
  1

  0
LINE
  5
AC67
  8
0
  6
CONTINUOUS
 10
10.67292308101235
 20
8.445076852443387
 30
0.0
 11
10.99094622856022
 21
8.763099999991255
 31
0.0
  0
LINE
  5
AC68
  8
0
  6
CONTINUOUS
 10
10.87250383178748
 20
7.971138394138331
 30
0.0
 11
11.6644654376404
 21
8.763099999991255
 31
0.0
  0
LINE
  5
AC69
  8
0
  6
CONTINUOUS
 10
11.07208458256261
 20
7.497199935833273
 30
0.0
 11
12.12126590876355
 21
8.546381262034211
 31
0.0
  0
LINE
  5
AC6A
  8
0
  6
CONTINUOUS
 10
11.27166533333774
 20
7.023261477528216
 30
0.0
 11
12.32085164573666
 21
8.072447789927136
 31
0.0
  0
LINE
  5
AC6B
  8
0
  6
CONTINUOUS
 10
11.47124608411287
 20
6.549323019223158
 30
0.0
 11
12.52043738270977
 21
7.59851431782006
 31
0.0
  0
LINE
  5
AC6C
  8
0
  6
CONTINUOUS
 10
11.670826834888
 20
6.075384560918101
 30
0.0
 11
12.72002311968288
 21
7.124580845712984
 31
0.0
  0
LINE
  5
AC6D
  8
0
  6
CONTINUOUS
 10
11.87040758566313
 20
5.601446102613043
 30
0.0
 11
12.91960885665599
 21
6.650647373605907
 31
0.0
  0
LINE
  5
AC6E
  8
0
  6
CONTINUOUS
 10
12.06998833643825
 20
5.127507644307986
 30
0.0
 11
13.1191945936291
 21
6.176713901498832
 31
0.0
  0
LINE
  5
AC6F
  8
0
  6
CONTINUOUS
 10
12.26956908721338
 20
4.65356918600293
 30
0.0
 11
13.31878033060221
 21
5.702780429391757
 31
0.0
  0
LINE
  5
AC70
  8
0
  6
CONTINUOUS
 10
12.46914983798851
 20
4.179630727697873
 30
0.0
 11
13.51836606757532
 21
5.228846957284683
 31
0.0
  0
LINE
  5
AC71
  8
0
  6
CONTINUOUS
 10
12.66873058876364
 20
3.705692269392816
 30
0.0
 11
13.71795180454843
 21
4.754913485177607
 31
0.0
  0
LINE
  5
AC72
  8
0
  6
CONTINUOUS
 10
12.86831133953877
 20
3.231753811087759
 30
0.0
 11
13.91753754152154
 21
4.280980013070531
 31
0.0
  0
LINE
  5
AC73
  8
0
  6
CONTINUOUS
 10
13.0678920903139
 20
2.757815352782702
 30
0.0
 11
14.11712327849465
 21
3.807046540963456
 31
0.0
  0
LINE
  5
AC74
  8
0
  6
CONTINUOUS
 10
13.26747284108903
 20
2.283876894477644
 30
0.0
 11
14.31670901546777
 21
3.333113068856379
 31
0.0
  0
LINE
  5
AC75
  8
0
  6
CONTINUOUS
 10
16.36767838827179
 20
8.751678487061342
 30
0.0
 11
16.50332410898388
 21
8.887324207773432
 31
0.0
  0
LINE
  5
AC76
  8
0
  6
CONTINUOUS
 10
15.96190732182191
 20
7.67238821153127
 30
0.0
 11
16.68735328004734
 21
8.397834169756699
 31
0.0
  0
LINE
  5
AC77
  8
0
  6
CONTINUOUS
 10
15.55613625537202
 20
6.593097936001196
 30
0.0
 11
16.87138245111079
 21
7.908344131739965
 31
0.0
  0
LINE
  5
AC78
  8
0
  6
CONTINUOUS
 10
15.15036518892213
 20
5.513807660471122
 30
0.0
 11
17.05541162217424
 21
7.418854093723231
 31
0.0
  0
LINE
  5
AC79
  8
0
  6
CONTINUOUS
 10
14.74459412247225
 20
4.434517384941048
 30
0.0
 11
17.2394407932377
 21
6.929364055706499
 31
0.0
  0
LINE
  5
AC7A
  8
0
  6
CONTINUOUS
 10
14.33882305602236
 20
3.355227109410975
 30
0.0
 11
17.42346996430115
 21
6.439874017689766
 31
0.0
  0
LINE
  5
AC7B
  8
0
  6
CONTINUOUS
 10
13.46705359186416
 20
1.809938436172586
 30
0.0
 11
16.0819338255367
 21
4.424818669845129
 31
0.0
  0
LINE
  5
AC7C
  8
0
  6
CONTINUOUS
 10
16.63283254238972
 20
4.975717386698149
 30
0.0
 11
17.60749913536461
 21
5.950383979673033
 31
0.0
  0
LINE
  5
AC7D
  8
0
  6
CONTINUOUS
 10
13.66663434263929
 20
1.335999977867529
 30
0.0
 11
15.67604797733754
 21
3.345413612565779
 31
0.0
  0
LINE
  5
AC7E
  8
0
  6
CONTINUOUS
 10
13.86621509341442
 20
0.8620615195624723
 30
0.0
 11
15.27016212913838
 21
2.26600855528643
 31
0.0
  0
LINE
  5
AC7F
  8
0
  6
CONTINUOUS
 10
16.81682257348267
 20
4.486188208710908
 30
0.0
 11
17.79152830642806
 21
5.460893941656299
 31
0.0
  0
LINE
  5
AC80
  8
0
  6
CONTINUOUS
 10
17.00081260457561
 20
3.996659030723667
 30
0.0
 11
17.97555747749151
 21
4.971403903639565
 31
0.0
  0
LINE
  5
AC81
  8
0
  6
CONTINUOUS
 10
20.74362343514722
 20
8.412989070375462
 30
0.0
 11
21.09373436476302
 21
8.763099999991256
 31
0.0
  0
LINE
  5
AC82
  8
0
  6
CONTINUOUS
 10
20.25401257174777
 20
7.249858997895826
 30
0.0
 11
21.7672535738432
 21
8.763099999991255
 31
0.0
  0
LINE
  5
AC83
  8
0
  6
CONTINUOUS
 10
14.06579584418955
 20
0.3881230612574149
 30
0.0
 11
14.86427628093921
 21
1.186603498007082
 31
0.0
  0
LINE
  5
AC84
  8
0
  6
CONTINUOUS
 10
14.26537659496467
 20
-0.0858153970476412
 30
0.0
 11
14.45839043274005
 21
0.1071984407277329
 31
0.0
  0
LINE
  5
AC85
  8
0
  6
CONTINUOUS
 10
17.18480263566856
 20
3.507129852736426
 30
0.0
 11
18.15958664855496
 21
4.481913865622833
 31
0.0
  0
LINE
  5
AC86
  8
0
  6
CONTINUOUS
 10
17.3687926667615
 20
3.017600674749186
 30
0.0
 11
18.34361581961842
 21
3.9924238276061
 31
0.0
  0
LINE
  5
AC87
  8
0
  6
CONTINUOUS
 10
19.76440170834832
 20
6.086728925416191
 30
0.0
 11
22.33924590259489
 21
8.661573119662755
 31
0.0
  0
LINE
  5
AC88
  8
0
  6
CONTINUOUS
 10
19.27479084494887
 20
4.923598852936555
 30
0.0
 11
21.84929622842713
 21
7.498104236414807
 31
0.0
  0
LINE
  5
AC89
  8
0
  6
CONTINUOUS
 10
17.55278269785445
 20
2.528071496761945
 30
0.0
 11
18.52764499068187
 21
3.502933789589366
 31
0.0
  0
LINE
  5
AC8A
  8
0
  6
CONTINUOUS
 10
18.78517998154942
 20
3.760468780456919
 30
0.0
 11
21.35934655425936
 21
6.33463535316686
 31
0.0
  0
LINE
  5
AC8B
  8
0
  6
CONTINUOUS
 10
17.73677272894739
 20
2.038542318774704
 30
0.0
 11
20.8693968800916
 21
5.171166469918914
 31
0.0
  0
LINE
  5
AC8C
  8
0
  6
CONTINUOUS
 10
17.92076276004034
 20
1.549013140787464
 30
0.0
 11
20.37944720592384
 21
4.007697586670968
 31
0.0
  0
LINE
  5
AC8D
  8
0
  6
CONTINUOUS
 10
18.10475279113329
 20
1.059483962800223
 30
0.0
 11
19.88949753175608
 21
2.84422870342302
 31
0.0
  0
LINE
  5
AC8E
  8
0
  6
CONTINUOUS
 10
18.28874282222623
 20
0.5699547848129822
 30
0.0
 11
19.39954785758832
 21
1.680759820175074
 31
0.0
  0
LINE
  5
AC8F
  8
0
  6
CONTINUOUS
 10
18.47273285331918
 20
0.0804256068257416
 30
0.0
 11
18.90959818342056
 21
0.517290936927127
 31
0.0
  0
LINE
  5
AC90
  8
0
  6
CONTINUOUS
 10
14.3590401358224
 20
-0.1570118376323384
 30
0.0
 11
14.24903296539946
 21
-0.0470046672093929
 31
0.0
  0
LINE
  5
AC91
  8
0
  6
CONTINUOUS
 10
14.54309291258661
 20
0.332454594683643
 30
0.0
 11
13.75908329123172
 21
1.116464216038529
 31
0.0
  0
LINE
  5
AC92
  8
0
  6
CONTINUOUS
 10
14.72714568935081
 20
0.8219210269996244
 30
0.0
 11
13.26913361706399
 21
2.27993309928645
 31
0.0
  0
LINE
  5
AC93
  8
0
  6
CONTINUOUS
 10
14.91119846611502
 20
1.311387459315606
 30
0.0
 11
12.77918394289625
 21
3.443401982534371
 31
0.0
  0
LINE
  5
AC94
  8
0
  6
CONTINUOUS
 10
15.09525124287922
 20
1.800853891631587
 30
0.0
 11
12.28923426872852
 21
4.606870865782293
 31
0.0
  0
LINE
  5
AC95
  8
0
  6
CONTINUOUS
 10
15.27930401964343
 20
2.290320323947569
 30
0.0
 11
11.79928459456078
 21
5.770339749030213
 31
0.0
  0
LINE
  5
AC96
  8
0
  6
CONTINUOUS
 10
15.46335679640763
 20
2.77978675626355
 30
0.0
 11
14.48885470994921
 21
3.754288842721972
 31
0.0
  0
LINE
  5
AC97
  8
0
  6
CONTINUOUS
 10
13.88507249233704
 20
4.358071060334137
 30
0.0
 11
11.30933492039305
 21
6.933808632278135
 31
0.0
  0
LINE
  5
AC98
  8
0
  6
CONTINUOUS
 10
18.75840522805855
 20
0.1582575336928151
 30
0.0
 11
18.25383727664818
 21
0.6628254851031863
 31
0.0
  0
LINE
  5
AC99
  8
0
  6
CONTINUOUS
 10
15.64740957317184
 20
3.269253188579531
 30
0.0
 11
14.67288388101266
 21
4.243778880738705
 31
0.0
  0
LINE
  5
AC9A
  8
0
  6
CONTINUOUS
 10
13.39509276772158
 20
5.521569994029786
 30
0.0
 11
10.81938524622531
 21
8.097277515526056
 31
0.0
  0
LINE
  5
AC9B
  8
0
  6
CONTINUOUS
 10
18.95798597883369
 20
0.6321959919978686
 30
0.0
 11
17.84825644852853
 21
1.741925522303024
 31
0.0
  0
LINE
  5
AC9C
  8
0
  6
CONTINUOUS
 10
19.15756672960882
 20
1.106134450302922
 30
0.0
 11
17.44267562040888
 21
2.821025559502861
 31
0.0
  0
LINE
  5
AC9D
  8
0
  6
CONTINUOUS
 10
15.83146234993604
 20
3.758719620895513
 30
0.0
 11
14.85691305207612
 21
4.733268918755439
 31
0.0
  0
LINE
  5
AC9E
  8
0
  6
CONTINUOUS
 10
16.01551512670025
 20
4.248186053211494
 30
0.0
 11
15.04094222313957
 21
5.222758956772172
 31
0.0
  0
LINE
  5
AC9F
  8
0
  6
CONTINUOUS
 10
12.90511304310612
 20
6.685068927725435
 30
0.0
 11
10.8270819708403
 21
8.763099999991255
 31
0.0
  0
LINE
  5
ACA0
  8
0
  6
CONTINUOUS
 10
12.41513331849066
 20
7.848567861421083
 30
0.0
 11
11.50060117992049
 21
8.763099999991255
 31
0.0
  0
LINE
  5
ACA1
  8
0
  6
CONTINUOUS
 10
19.35714748038395
 20
1.580072908607975
 30
0.0
 11
17.03709479228923
 21
3.900125596702697
 31
0.0
  0
LINE
  5
ACA2
  8
0
  6
CONTINUOUS
 10
19.55672823115909
 20
2.054011366913028
 30
0.0
 11
16.63151396416958
 21
4.979225633902534
 31
0.0
  0
LINE
  5
ACA3
  8
0
  6
CONTINUOUS
 10
16.19956790346445
 20
4.737652485527476
 30
0.0
 11
15.22497139420302
 21
5.712248994788904
 31
0.0
  0
LINE
  5
ACA4
  8
0
  6
CONTINUOUS
 10
16.38362068022866
 20
5.227118917843457
 30
0.0
 11
15.40900056526648
 21
6.201739032805637
 31
0.0
  0
LINE
  5
ACA5
  8
0
  6
CONTINUOUS
 10
19.75630898193422
 20
2.527949825218081
 30
0.0
 11
18.70774536448286
 21
3.576513442669441
 31
0.0
  0
LINE
  5
ACA6
  8
0
  6
CONTINUOUS
 10
19.95588973270936
 20
3.001888283523134
 30
0.0
 11
18.90726987211446
 21
4.050508144118028
 31
0.0
  0
LINE
  5
ACA7
  8
0
  6
CONTINUOUS
 10
20.15547048348449
 20
3.475826741828186
 30
0.0
 11
19.10679437974606
 21
4.524502845566614
 31
0.0
  0
LINE
  5
ACA8
  8
0
  6
CONTINUOUS
 10
20.35505123425962
 20
3.94976520013324
 30
0.0
 11
19.30631888737766
 21
4.998497547015201
 31
0.0
  0
LINE
  5
ACA9
  8
0
  6
CONTINUOUS
 10
20.55463198503475
 20
4.423703658438292
 30
0.0
 11
19.50584339500926
 21
5.472492248463787
 31
0.0
  0
LINE
  5
ACAA
  8
0
  6
CONTINUOUS
 10
18.37481191085755
 20
3.909446896294752
 30
0.0
 11
15.59302973632993
 21
6.691229070822371
 31
0.0
  0
LINE
  5
ACAB
  8
0
  6
CONTINUOUS
 10
17.96904084440766
 20
4.988737171824825
 30
0.0
 11
15.77705890739338
 21
7.180719108839104
 31
0.0
  0
LINE
  5
ACAC
  8
0
  6
CONTINUOUS
 10
17.56326977795777
 20
6.068027447354899
 30
0.0
 11
15.96108807845684
 21
7.670209146855838
 31
0.0
  0
LINE
  5
ACAD
  8
0
  6
CONTINUOUS
 10
17.15749871150789
 20
7.147317722884972
 30
0.0
 11
16.14511724952029
 21
8.15969918487257
 31
0.0
  0
LINE
  5
ACAE
  8
0
  6
CONTINUOUS
 10
16.751727645058
 20
8.226607998415046
 30
0.0
 11
16.32914642058374
 21
8.649189222889303
 31
0.0
  0
LINE
  5
ACAF
  8
0
  6
CONTINUOUS
 10
20.75421273580989
 20
4.897642116743345
 30
0.0
 11
19.70536790264086
 21
5.946486949912374
 31
0.0
  0
LINE
  5
ACB0
  8
0
  6
CONTINUOUS
 10
20.95379348658502
 20
5.371580575048398
 30
0.0
 11
19.90489241027246
 21
6.42048165136096
 31
0.0
  0
LINE
  5
ACB1
  8
0
  6
CONTINUOUS
 10
21.15337423736015
 20
5.845519033353452
 30
0.0
 11
20.10441691790406
 21
6.894476352809547
 31
0.0
  0
LINE
  5
ACB2
  8
0
  6
CONTINUOUS
 10
21.35295498813529
 20
6.319457491658505
 30
0.0
 11
20.30394142553566
 21
7.368471054258134
 31
0.0
  0
LINE
  5
ACB3
  8
0
  6
CONTINUOUS
 10
21.55253573891042
 20
6.793395949963558
 30
0.0
 11
20.50346593316726
 21
7.842465755706721
 31
0.0
  0
LINE
  5
ACB4
  8
0
  6
CONTINUOUS
 10
21.75211648968556
 20
7.267334408268612
 30
0.0
 11
20.70299044079886
 21
8.316460457155308
 31
0.0
  0
LINE
  5
ACB5
  8
0
  6
CONTINUOUS
 10
21.95169724046069
 20
7.741272866573663
 30
0.0
 11
20.9298701070431
 21
8.763099999991256
 31
0.0
  0
LINE
  5
ACB6
  8
0
  6
CONTINUOUS
 10
22.15127799123582
 20
8.215211324878716
 30
0.0
 11
21.60338931612328
 21
8.763099999991256
 31
0.0
  0
LINE
  5
ACB7
  8
0
  6
CONTINUOUS
 10
22.35085874201096
 20
8.689149783183769
 30
0.0
 11
22.27690852520347
 21
8.763099999991255
 31
0.0
  0
ENDBLK
  5
ADA9
  8
0
  0
BLOCK
  8
0
  2
*X26
 70
     1
 10
0.0
 20
0.0
 30
0.0
  3
*X26
  1

  0
LINE
  5
ACB9
  8
0
  6
CONTINUOUS
 10
23.19462913593892
 20
8.169917934846424
 30
0.0
 11
23.70775465517246
 21
8.683043454079957
 31
0.0
  0
LINE
  5
ACBA
  8
0
  6
CONTINUOUS
 10
22.64923161835078
 20
6.951001208178088
 30
0.0
 11
23.9159364069932
 21
8.217705996820516
 31
0.0
  0
LINE
  5
ACBB
  8
0
  6
CONTINUOUS
 10
22.10383410076263
 20
5.732084481509751
 30
0.0
 11
24.12411815881395
 21
7.752368539561078
 31
0.0
  0
LINE
  5
ACBC
  8
0
  6
CONTINUOUS
 10
21.55843658317447
 20
4.513167754841414
 30
0.0
 11
24.3322999106347
 21
7.287031082301639
 31
0.0
  0
LINE
  5
ACBD
  8
0
  6
CONTINUOUS
 10
21.01303906558632
 20
3.294251028173077
 30
0.0
 11
24.54048166245544
 21
6.821693625042199
 31
0.0
  0
LINE
  5
ACBE
  8
0
  6
CONTINUOUS
 10
20.46764154799817
 20
2.075334301504738
 30
0.0
 11
23.28571549467848
 21
4.89340824818505
 31
0.0
  0
LINE
  5
ACBF
  8
0
  6
CONTINUOUS
 10
19.92224403041002
 20
0.8564175748364002
 30
0.0
 11
22.74075865492779
 21
3.674932199354171
 31
0.0
  0
LINE
  5
ACC0
  8
0
  6
CONTINUOUS
 10
23.67305085490148
 20
5.280743608408048
 30
0.0
 11
24.74866341427619
 21
6.356356167782759
 31
0.0
  0
LINE
  5
ACC1
  8
0
  6
CONTINUOUS
 10
23.88118970842314
 20
4.815363252849522
 30
0.0
 11
24.95684516609694
 21
5.89101871052332
 31
0.0
  0
LINE
  5
ACC2
  8
0
  6
CONTINUOUS
 10
19.73925852647308
 20
-0.0000871381807288
 30
0.0
 11
23.4103456646501
 21
3.670999999996297
 31
0.0
  0
LINE
  5
ACC3
  8
0
  6
CONTINUOUS
 10
24.0893285619448
 20
4.349982897290997
 30
0.0
 11
25.16502691791769
 21
5.42568125326388
 31
0.0
  0
LINE
  5
ACC4
  8
0
  6
CONTINUOUS
 10
20.41282099582748
 20
-0.0000438779065108
 30
0.0
 11
21.64944178675636
 21
1.236576913022366
 31
0.0
  0
LINE
  5
ACC5
  8
0
  6
CONTINUOUS
 10
22.78126487373161
 20
2.36839999999762
 30
0.0
 11
24.08386487373029
 21
3.670999999996297
 31
0.0
  0
LINE
  5
ACC6
  8
0
  6
CONTINUOUS
 10
24.29746741546646
 20
3.884602541732471
 30
0.0
 11
25.37320866973843
 21
4.960343796004441
 31
0.0
  0
LINE
  5
ACC7
  8
0
  6
CONTINUOUS
 10
21.08638346518189
 20
-0.0000006176322938
 30
0.0
 11
21.10379033335899
 21
0.0174062505448083
 31
0.0
  0
LINE
  5
ACC8
  8
0
  6
CONTINUOUS
 10
23.4547840828118
 20
2.36839999999762
 30
0.0
 11
25.58139042155918
 21
4.495006338745002
 31
0.0
  0
LINE
  5
ACC9
  8
0
  6
CONTINUOUS
 10
29.30199999996933
 20
8.215615917155148
 30
0.0
 11
29.84948408280543
 21
8.763099999991255
 31
0.0
  0
LINE
  5
ACCA
  8
0
  6
CONTINUOUS
 10
24.12830329189199
 20
2.36839999999762
 30
0.0
 11
25.78957217337993
 21
4.029668881485562
 31
0.0
  0
LINE
  5
ACCB
  8
0
  6
CONTINUOUS
 10
29.30199999996933
 20
7.54209670807496
 30
0.0
 11
30.52300329188562
 21
8.763099999991255
 31
0.0
  0
LINE
  5
ACCC
  8
0
  6
CONTINUOUS
 10
24.80182250097217
 20
2.36839999999762
 30
0.0
 11
25.99775392520067
 21
3.564331424226122
 31
0.0
  0
LINE
  5
ACCD
  8
0
  6
CONTINUOUS
 10
29.30199999996933
 20
6.868577498994774
 30
0.0
 11
30.74199999996926
 21
8.308577498994712
 31
0.0
  0
LINE
  5
ACCE
  8
0
  6
CONTINUOUS
 10
25.13028238392013
 20
2.023340673865392
 30
0.0
 11
26.20593567702142
 21
3.098993966966683
 31
0.0
  0
LINE
  5
ACCF
  8
0
  6
CONTINUOUS
 10
25.33838066033617
 20
1.557919741201244
 30
0.0
 11
26.41411742884217
 21
2.633656509707244
 31
0.0
  0
LINE
  5
ACD0
  8
0
  6
CONTINUOUS
 10
25.54647893675221
 20
1.092498808537098
 30
0.0
 11
26.62229918066291
 21
2.168319052447804
 31
0.0
  0
LINE
  5
ACD1
  8
0
  6
CONTINUOUS
 10
25.75457721316825
 20
0.62707787587295
 30
0.0
 11
26.83048093248366
 21
1.702981595188365
 31
0.0
  0
LINE
  5
ACD2
  8
0
  6
CONTINUOUS
 10
29.30199999996933
 20
6.195058289914587
 30
0.0
 11
30.74199999996926
 21
7.635058289914522
 31
0.0
  0
LINE
  5
ACD3
  8
0
  6
CONTINUOUS
 10
29.30199999996933
 20
5.521539080834401
 30
0.0
 11
30.74199999996926
 21
6.961539080834331
 31
0.0
  0
LINE
  5
ACD4
  8
0
  6
CONTINUOUS
 10
29.30199999996933
 20
4.848019871754214
 30
0.0
 11
30.74199999996925
 21
6.288019871754143
 31
0.0
  0
LINE
  5
ACD5
  8
0
  6
CONTINUOUS
 10
29.30199999996933
 20
4.174500662674028
 30
0.0
 11
30.74199999996925
 21
5.614500662673953
 31
0.0
  0
LINE
  5
ACD6
  8
0
  6
CONTINUOUS
 10
25.96267548958429
 20
0.1616569432088024
 30
0.0
 11
27.18411854636669
 21
1.383099999991207
 31
0.0
  0
LINE
  5
ACD7
  8
0
  6
CONTINUOUS
 10
29.30199999996933
 20
3.500981453593841
 30
0.0
 11
30.74199999996925
 21
4.940981453593762
 31
0.0
  0
LINE
  5
ACD8
  8
0
  6
CONTINUOUS
 10
26.50763775544691
 20
0.0330999999912356
 30
0.0
 11
27.85763775544689
 21
1.383099999991223
 31
0.0
  0
LINE
  5
ACD9
  8
0
  6
CONTINUOUS
 10
29.30199999996933
 20
2.827462244513656
 30
0.0
 11
30.74199999996925
 21
4.267462244513574
 31
0.0
  0
LINE
  5
ACDA
  8
0
  6
CONTINUOUS
 10
27.18115696452709
 20
0.0330999999912356
 30
0.0
 11
28.55073879889363
 21
1.402681834357775
 31
0.0
  0
LINE
  5
ACDB
  8
0
  6
CONTINUOUS
 10
29.28241816560272
 20
2.134361201066866
 30
0.0
 11
30.74199999996924
 21
3.593943035433383
 31
0.0
  0
LINE
  5
ACDC
  8
0
  6
CONTINUOUS
 10
27.85467617360728
 20
0.0330999999912356
 30
0.0
 11
30.74199999996924
 21
2.920423826353195
 31
0.0
  0
LINE
  5
ACDD
  8
0
  6
CONTINUOUS
 10
28.53897559587887
 20
0.0438802131826428
 30
0.0
 11
30.73121978677781
 21
2.236124404081585
 31
0.0
  0
LINE
  5
ACDE
  8
0
  6
CONTINUOUS
 10
29.45140055588722
 20
0.2827859641107988
 30
0.0
 11
30.49231403584965
 21
1.323699444073236
 31
0.0
  0
LINE
  5
ACDF
  8
0
  6
CONTINUOUS
 10
19.59027867740337
 20
-0.0000967065718083
 30
0.0
 11
19.55485265190471
 21
0.035329318926844
 31
0.0
  0
LINE
  5
ACE0
  8
0
  6
CONTINUOUS
 10
20.26375463176586
 20
-0.0000534518541091
 30
0.0
 11
19.76305575737534
 21
0.5006454225364014
 31
0.0
  0
LINE
  5
ACE1
  8
0
  6
CONTINUOUS
 10
20.93723058612834
 20
-0.0000101971364099
 30
0.0
 11
19.97125886284597
 21
0.965961526145958
 31
0.0
  0
LINE
  5
ACE2
  8
0
  6
CONTINUOUS
 10
21.25514828313686
 20
0.355591314935257
 30
0.0
 11
20.1794619683166
 21
1.431277629755512
 31
0.0
  0
LINE
  5
ACE3
  8
0
  6
CONTINUOUS
 10
21.46338838394921
 20
0.8208704232030986
 30
0.0
 11
20.38766507378723
 21
1.896593733365069
 31
0.0
  0
LINE
  5
ACE4
  8
0
  6
CONTINUOUS
 10
21.67162848476155
 20
1.28614953147094
 30
0.0
 11
20.59586817925786
 21
2.361909836974626
 31
0.0
  0
LINE
  5
ACE5
  8
0
  6
CONTINUOUS
 10
21.8798685855739
 20
1.751428639738782
 30
0.0
 11
20.80407128472849
 21
2.827225940584183
 31
0.0
  0
LINE
  5
ACE6
  8
0
  6
CONTINUOUS
 10
22.08810868638624
 20
2.216707748006623
 30
0.0
 11
21.01227439019912
 21
3.292542044193739
 31
0.0
  0
LINE
  5
ACE7
  8
0
  6
CONTINUOUS
 10
22.60993564347543
 20
2.36839999999762
 30
0.0
 11
21.22047749566975
 21
3.757858147803296
 31
0.0
  0
LINE
  5
ACE8
  8
0
  6
CONTINUOUS
 10
23.28345485255561
 20
2.36839999999762
 30
0.0
 11
21.42868060114038
 21
4.223174251412853
 31
0.0
  0
LINE
  5
ACE9
  8
0
  6
CONTINUOUS
 10
26.29227406164219
 20
0.0330999999912356
 30
0.0
 11
25.80009199592872
 21
0.5252820657046957
 31
0.0
  0
LINE
  5
ACEA
  8
0
  6
CONTINUOUS
 10
23.9569740616358
 20
2.36839999999762
 30
0.0
 11
21.63688370661101
 21
4.688490355022409
 31
0.0
  0
LINE
  5
ACEB
  8
0
  6
CONTINUOUS
 10
26.96579327072237
 20
0.0330999999912356
 30
0.0
 11
25.2554132311971
 21
1.743480039516508
 31
0.0
  0
LINE
  5
ACEC
  8
0
  6
CONTINUOUS
 10
24.63049327071599
 20
2.36839999999762
 30
0.0
 11
23.32789327071731
 21
3.670999999996297
 31
0.0
  0
LINE
  5
ACED
  8
0
  6
CONTINUOUS
 10
22.92098674744635
 20
4.077906523267254
 30
0.0
 11
21.84508681208164
 21
5.153806458631966
 31
0.0
  0
LINE
  5
ACEE
  8
0
  6
CONTINUOUS
 10
27.63931247980256
 20
0.0330999999912356
 30
0.0
 11
24.0014124797975
 21
3.670999999996297
 31
0.0
  0
LINE
  5
ACEF
  8
0
  6
CONTINUOUS
 10
23.129125600968
 20
4.5432868788258
 30
0.0
 11
22.05328991755227
 21
5.619122562241522
 31
0.0
  0
LINE
  5
ACF0
  8
0
  6
CONTINUOUS
 10
28.31283168888275
 20
0.0330999999912356
 30
0.0
 11
24.16488385994816
 21
4.181047828925828
 31
0.0
  0
LINE
  5
ACF1
  8
0
  6
CONTINUOUS
 10
23.33726445448964
 20
5.008667234384345
 30
0.0
 11
22.2614930230229
 21
6.084438665851079
 31
0.0
  0
LINE
  5
ACF2
  8
0
  6
CONTINUOUS
 10
28.92085740005492
 20
0.0985934978992438
 30
0.0
 11
27.63635089796295
 21
1.383099999991217
 31
0.0
  0
LINE
  5
ACF3
  8
0
  6
CONTINUOUS
 10
26.43704649509776
 20
2.582404402856405
 30
0.0
 11
23.61992702019732
 21
5.399523877756844
 31
0.0
  0
LINE
  5
ACF4
  8
0
  6
CONTINUOUS
 10
23.54540330801128
 20
5.47404758994289
 30
0.0
 11
22.46969612849353
 21
6.549754769460635
 31
0.0
  0
LINE
  5
ACF5
  8
0
  6
CONTINUOUS
 10
29.42225615078443
 20
0.2707139562499279
 30
0.0
 11
28.30987010704312
 21
1.383099999991234
 31
0.0
  0
LINE
  5
ACF6
  8
0
  6
CONTINUOUS
 10
25.89179548232307
 20
3.801174624711282
 30
0.0
 11
22.67789923396416
 21
7.015070873070191
 31
0.0
  0
LINE
  5
ACF7
  8
0
  6
CONTINUOUS
 10
29.83624534690007
 20
0.5302439692144705
 30
0.0
 11
28.85811781497101
 21
1.508371501143527
 31
0.0
  0
LINE
  5
ACF8
  8
0
  6
CONTINUOUS
 10
25.34654446954838
 20
5.01994484656616
 30
0.0
 11
22.88610233943479
 21
7.480386976679748
 31
0.0
  0
LINE
  5
ACF9
  8
0
  6
CONTINUOUS
 10
30.17865975401872
 20
0.8613487711760022
 30
0.0
 11
29.18888744090175
 21
1.851121084292977
 31
0.0
  0
LINE
  5
ACFA
  8
0
  6
CONTINUOUS
 10
24.80129345677369
 20
6.238715068421037
 30
0.0
 11
23.09430544490542
 21
7.945703080289305
 31
0.0
  0
LINE
  5
ACFB
  8
0
  6
CONTINUOUS
 10
30.45496647202376
 20
1.258561262251155
 30
0.0
 11
29.30199999996933
 21
2.411527734305588
 31
0.0
  0
LINE
  5
ACFC
  8
0
  6
CONTINUOUS
 10
24.256042443999
 20
7.457485290275915
 30
0.0
 11
23.30250855037605
 21
8.411019183898862
 31
0.0
  0
LINE
  5
ACFD
  8
0
  6
CONTINUOUS
 10
30.64868582078271
 20
1.738361122572387
 30
0.0
 11
29.30199999996933
 21
3.085046943385775
 31
0.0
  0
LINE
  5
ACFE
  8
0
  6
CONTINUOUS
 10
23.71079143122431
 20
8.676255512130794
 30
0.0
 11
23.51071165584668
 21
8.876335287508416
 31
0.0
  0
LINE
  5
ACFF
  8
0
  6
CONTINUOUS
 10
30.73802122914428
 20
2.322544923291007
 30
0.0
 11
29.30199999996933
 21
3.758566152465961
 31
0.0
  0
LINE
  5
AD00
  8
0
  6
CONTINUOUS
 10
30.74199999996924
 20
2.992085361546236
 30
0.0
 11
29.30199999996933
 21
4.432085361546148
 31
0.0
  0
LINE
  5
AD01
  8
0
  6
CONTINUOUS
 10
30.74199999996924
 20
3.665604570626419
 30
0.0
 11
29.30199999996933
 21
5.105604570626333
 31
0.0
  0
LINE
  5
AD02
  8
0
  6
CONTINUOUS
 10
30.74199999996925
 20
4.339123779706602
 30
0.0
 11
29.30199999996933
 21
5.77912377970652
 31
0.0
  0
LINE
  5
AD03
  8
0
  6
CONTINUOUS
 10
30.74199999996925
 20
5.012642988786785
 30
0.0
 11
29.30199999996933
 21
6.452642988786707
 31
0.0
  0
LINE
  5
AD04
  8
0
  6
CONTINUOUS
 10
30.74199999996925
 20
5.68616219786697
 30
0.0
 11
29.30199999996933
 21
7.126162197866894
 31
0.0
  0
LINE
  5
AD05
  8
0
  6
CONTINUOUS
 10
30.74199999996925
 20
6.359681406947153
 30
0.0
 11
29.30199999996933
 21
7.799681406947081
 31
0.0
  0
LINE
  5
AD06
  8
0
  6
CONTINUOUS
 10
30.74199999996926
 20
7.033200616027337
 30
0.0
 11
29.30199999996933
 21
8.473200616027269
 31
0.0
  0
LINE
  5
AD07
  8
0
  6
CONTINUOUS
 10
30.74199999996926
 20
7.706719825107518
 30
0.0
 11
29.68561982508552
 21
8.763099999991255
 31
0.0
  0
LINE
  5
AD08
  8
0
  6
CONTINUOUS
 10
30.74199999996926
 20
8.380239034187703
 30
0.0
 11
30.35913903416571
 21
8.763099999991255
 31
0.0
  0
ENDBLK
  5
ADAB
  8
0
  0
BLOCK
  8
0
  2
*X27
 70
     1
 10
0.0
 20
0.0
 30
0.0
  3
*X27
  1

  0
LINE
  5
AD0A
  8
0
  6
CONTINUOUS
 10
31.64199999996833
 20
8.535058289913598
 30
0.0
 11
31.87004171004599
 21
8.763099999991255
 31
0.0
  0
LINE
  5
AD0B
  8
0
  6
CONTINUOUS
 10
31.64199999996833
 20
7.861539080833412
 30
0.0
 11
32.54356091912618
 21
8.763099999991255
 31
0.0
  0
LINE
  5
AD0C
  8
0
  6
CONTINUOUS
 10
31.64199999996833
 20
7.188019871753226
 30
0.0
 11
33.08199999996839
 21
8.628019871753281
 31
0.0
  0
LINE
  5
AD0D
  8
0
  6
CONTINUOUS
 10
31.64199999996833
 20
6.51450066267304
 30
0.0
 11
33.08199999996839
 21
7.954500662673095
 31
0.0
  0
LINE
  5
AD0E
  8
0
  6
CONTINUOUS
 10
31.64199999996833
 20
5.840981453592853
 30
0.0
 11
33.08199999996839
 21
7.280981453592908
 31
0.0
  0
LINE
  5
AD0F
  8
0
  6
CONTINUOUS
 10
31.64199999996833
 20
5.167462244512667
 30
0.0
 11
33.08199999996839
 21
6.607462244512721
 31
0.0
  0
LINE
  5
AD10
  8
0
  6
CONTINUOUS
 10
31.64199999996833
 20
4.493943035432481
 30
0.0
 11
33.08199999996839
 21
5.933943035432535
 31
0.0
  0
LINE
  5
AD11
  8
0
  6
CONTINUOUS
 10
31.64199999996833
 20
3.820423826352293
 30
0.0
 11
33.08199999996839
 21
5.260423826352348
 31
0.0
  0
LINE
  5
AD12
  8
0
  6
CONTINUOUS
 10
31.64199999996833
 20
3.146904617272106
 30
0.0
 11
33.08199999996839
 21
4.586904617272161
 31
0.0
  0
LINE
  5
AD13
  8
0
  6
CONTINUOUS
 10
36.23199999996837
 20
8.410423826352325
 30
0.0
 11
36.5846761736073
 21
8.763099999991255
 31
0.0
  0
LINE
  5
AD14
  8
0
  6
CONTINUOUS
 10
36.23199999996837
 20
7.73690461727214
 30
0.0
 11
37.25819538268748
 21
8.763099999991255
 31
0.0
  0
LINE
  5
AD15
  8
0
  6
CONTINUOUS
 10
31.64257403601376
 20
2.473959444237348
 30
0.0
 11
33.08199999996839
 21
3.913385408191974
 31
0.0
  0
LINE
  5
AD16
  8
0
  6
CONTINUOUS
 10
36.23199999996837
 20
7.063385408191953
 30
0.0
 11
37.67199999996831
 21
8.503385408191894
 31
0.0
  0
LINE
  5
AD17
  8
0
  6
CONTINUOUS
 10
31.72013636841932
 20
1.87800256756272
 30
0.0
 11
33.08199999996839
 21
3.239866199111788
 31
0.0
  0
LINE
  5
AD18
  8
0
  6
CONTINUOUS
 10
36.23199999996837
 20
6.389866199111767
 30
0.0
 11
37.67199999996831
 21
7.829866199111708
 31
0.0
  0
LINE
  5
AD19
  8
0
  6
CONTINUOUS
 10
31.89042734314753
 20
1.374774333210744
 30
0.0
 11
33.08199999996839
 21
2.566346990031601
 31
0.0
  0
LINE
  5
AD1A
  8
0
  6
CONTINUOUS
 10
36.23199999996837
 20
5.71634699003158
 30
0.0
 11
37.67199999996831
 21
7.156346990031521
 31
0.0
  0
LINE
  5
AD1B
  8
0
  6
CONTINUOUS
 10
32.14210568064475
 20
0.952933461627778
 30
0.0
 11
33.18745552475986
 21
1.998283305742888
 31
0.0
  0
LINE
  5
AD1C
  8
0
  6
CONTINUOUS
 10
36.23199999996837
 20
5.042827780951393
 30
0.0
 11
37.67199999996831
 21
6.482827780951334
 31
0.0
  0
LINE
  5
AD1D
  8
0
  6
CONTINUOUS
 10
32.45820639400955
 20
0.5955149659123915
 30
0.0
 11
33.47242681921943
 21
1.60973539112227
 31
0.0
  0
LINE
  5
AD1E
  8
0
  6
CONTINUOUS
 10
36.23199999996837
 20
4.369308571871207
 30
0.0
 11
37.67199999996831
 21
5.809308571871147
 31
0.0
  0
LINE
  5
AD1F
  8
0
  6
CONTINUOUS
 10
32.83432456621412
 20
0.2981139290367771
 30
0.0
 11
33.89722476612215
 21
1.361014128944803
 31
0.0
  0
LINE
  5
AD20
  8
0
  6
CONTINUOUS
 10
36.23199999996837
 20
3.69578936279102
 30
0.0
 11
37.67199999996831
 21
5.135789362790962
 31
0.0
  0
LINE
  5
AD21
  8
0
  6
CONTINUOUS
 10
33.2711633111245
 20
0.0614334648669672
 30
0.0
 11
34.43247338014423
 21
1.222743533886696
 31
0.0
  0
LINE
  5
AD22
  8
0
  6
CONTINUOUS
 10
36.23199999996837
 20
3.022270153710834
 30
0.0
 11
37.67199999996831
 21
4.462270153710775
 31
0.0
  0
LINE
  5
AD23
  8
0
  6
CONTINUOUS
 10
33.76515245874577
 20
-0.1180965965919523
 30
0.0
 11
35.1587445516215
 21
1.27549549628378
 31
0.0
  0
LINE
  5
AD24
  8
0
  6
CONTINUOUS
 10
36.21639478609585
 20
2.333145730758136
 30
0.0
 11
37.67199999996831
 21
3.788750944630588
 31
0.0
  0
LINE
  5
AD25
  8
0
  6
CONTINUOUS
 10
34.34060583368432
 20
-0.2161624307335863
 30
0.0
 11
37.67199999996831
 21
3.115231735550401
 31
0.0
  0
LINE
  5
AD26
  8
0
  6
CONTINUOUS
 10
35.01698193613905
 20
-0.2133055373590427
 30
0.0
 11
37.66876712070525
 21
2.438479647207154
 31
0.0
  0
LINE
  5
AD27
  8
0
  6
CONTINUOUS
 10
35.90743367693304
 20
0.0036269943547609
 30
0.0
 11
37.51723902192366
 21
1.613432339345381
 31
0.0
  0
LINE
  5
AD28
  8
0
  6
CONTINUOUS
 10
32.55309425579761
 20
0.5074718966376706
 30
0.0
 11
32.27784730925847
 21
0.7827188431768102
 31
0.0
  0
LINE
  5
AD29
  8
0
  6
CONTINUOUS
 10
33.87496468909684
 20
-0.1408793275813673
 30
0.0
 11
31.67993083278052
 21
2.054154528734943
 31
0.0
  0
LINE
  5
AD2A
  8
0
  6
CONTINUOUS
 10
34.64362813207632
 20
-0.2360235614806649
 30
0.0
 11
31.64199999996833
 21
2.765604570627322
 31
0.0
  0
LINE
  5
AD2B
  8
0
  6
CONTINUOUS
 10
35.25801106796118
 20
-0.1768872882853429
 30
0.0
 11
31.64199999996833
 21
3.439123779707508
 31
0.0
  0
LINE
  5
AD2C
  8
0
  6
CONTINUOUS
 10
35.79065650332146
 20
-0.0360135145654361
 30
0.0
 11
34.54143210838231
 21
1.213210880373721
 31
0.0
  0
LINE
  5
AD2D
  8
0
  6
CONTINUOUS
 10
33.08199999996839
 20
2.67264298878764
 30
0.0
 11
31.64199999996833
 21
4.112642988787695
 31
0.0
  0
LINE
  5
AD2E
  8
0
  6
CONTINUOUS
 10
36.25975597779143
 20
0.1684062200447833
 30
0.0
 11
35.15395110240023
 21
1.274211095435983
 31
0.0
  0
LINE
  5
AD2F
  8
0
  6
CONTINUOUS
 10
33.08199999996839
 20
3.346162197867826
 30
0.0
 11
31.64199999996833
 21
4.786162197867881
 31
0.0
  0
LINE
  5
AD30
  8
0
  6
CONTINUOUS
 10
36.67226329638774
 20
0.4294181105286579
 30
0.0
 11
35.63766478748767
 21
1.464016619428737
 31
0.0
  0
LINE
  5
AD31
  8
0
  6
CONTINUOUS
 10
33.08199999996839
 20
4.019681406948012
 30
0.0
 11
31.64199999996833
 21
5.459681406948068
 31
0.0
  0
LINE
  5
AD32
  8
0
  6
CONTINUOUS
 10
37.01677749710036
 20
0.7584231188962329
 30
0.0
 11
35.99563422741351
 21
1.779566388583076
 31
0.0
  0
LINE
  5
AD33
  8
0
  6
CONTINUOUS
 10
33.08199999996839
 20
4.693200616028199
 30
0.0
 11
31.64199999996833
 21
6.133200616028255
 31
0.0
  0
LINE
  5
AD34
  8
0
  6
CONTINUOUS
 10
37.29859977568887
 20
1.1501200493879
 30
0.0
 11
36.20680593341555
 21
2.241913891661226
 31
0.0
  0
LINE
  5
AD35
  8
0
  6
CONTINUOUS
 10
33.08199999996839
 20
5.366719825108386
 30
0.0
 11
31.64199999996833
 21
6.80671982510844
 31
0.0
  0
LINE
  5
AD36
  8
0
  6
CONTINUOUS
 10
37.5148623517228
 20
1.607376682434161
 30
0.0
 11
36.23199999996837
 21
2.890239034188594
 31
0.0
  0
LINE
  5
AD37
  8
0
  6
CONTINUOUS
 10
33.08199999996839
 20
6.040239034188573
 30
0.0
 11
31.64199999996833
 21
7.480239034188627
 31
0.0
  0
LINE
  5
AD38
  8
0
  6
CONTINUOUS
 10
37.64705163358367
 20
2.148706609653477
 30
0.0
 11
36.23199999996837
 21
3.56375824326878
 31
0.0
  0
LINE
  5
AD39
  8
0
  6
CONTINUOUS
 10
33.08199999996839
 20
6.713758243268758
 30
0.0
 11
31.64199999996833
 21
8.153758243268815
 31
0.0
  0
LINE
  5
AD3A
  8
0
  6
CONTINUOUS
 10
37.67199999996831
 20
2.797277452349026
 30
0.0
 11
36.23199999996837
 21
4.237277452348967
 31
0.0
  0
LINE
  5
AD3B
  8
0
  6
CONTINUOUS
 10
37.67199999996831
 20
3.470796661429213
 30
0.0
 11
36.23199999996837
 21
4.910796661429154
 31
0.0
  0
LINE
  5
AD3C
  8
0
  6
CONTINUOUS
 10
37.67199999996831
 20
4.144315870509399
 30
0.0
 11
36.23199999996837
 21
5.58431587050934
 31
0.0
  0
LINE
  5
AD3D
  8
0
  6
CONTINUOUS
 10
33.08199999996839
 20
7.387277452348945
 30
0.0
 11
31.70617745232608
 21
8.763099999991255
 31
0.0
  0
LINE
  5
AD3E
  8
0
  6
CONTINUOUS
 10
33.08199999996839
 20
8.060796661429132
 30
0.0
 11
32.37969666140626
 21
8.763099999991255
 31
0.0
  0
LINE
  5
AD3F
  8
0
  6
CONTINUOUS
 10
33.08199999996839
 20
8.734315870509318
 30
0.0
 11
33.05321587048645
 21
8.763099999991255
 31
0.0
  0
LINE
  5
AD40
  8
0
  6
CONTINUOUS
 10
37.67199999996831
 20
4.817835079589585
 30
0.0
 11
36.23199999996837
 21
6.257835079589526
 31
0.0
  0
LINE
  5
AD41
  8
0
  6
CONTINUOUS
 10
37.67199999996831
 20
5.491354288669771
 30
0.0
 11
36.23199999996837
 21
6.931354288669713
 31
0.0
  0
LINE
  5
AD42
  8
0
  6
CONTINUOUS
 10
37.67199999996831
 20
6.164873497749958
 30
0.0
 11
36.23199999996837
 21
7.6048734977499
 31
0.0
  0
LINE
  5
AD43
  8
0
  6
CONTINUOUS
 10
37.67199999996831
 20
6.838392706830144
 30
0.0
 11
36.23199999996837
 21
8.278392706830086
 31
0.0
  0
LINE
  5
AD44
  8
0
  6
CONTINUOUS
 10
37.67199999996831
 20
7.511911915910332
 30
0.0
 11
36.42081191588738
 21
8.763099999991255
 31
0.0
  0
LINE
  5
AD45
  8
0
  6
CONTINUOUS
 10
37.67199999996831
 20
8.185431124990519
 30
0.0
 11
37.09433112496757
 21
8.763099999991255
 31
0.0
  0
ENDBLK
  5
ADAD
  8
0
  0
BLOCK
  8
0
  2
*X28
 70
     1
 10
0.0
 20
0.0
 30
0.0
  3
*X28
  1

  0
LINE
  5
AD47
  8
0
  6
CONTINUOUS
 10
38.60499999996136
 20
8.762866199104765
 30
0.0
 11
38.71672554182345
 21
8.874591740966855
 31
0.0
  0
LINE
  5
AD48
  8
0
  6
CONTINUOUS
 10
38.60499999996136
 20
8.089346990024577
 30
0.0
 11
39.03418785440363
 21
8.518534844466847
 31
0.0
  0
LINE
  5
AD49
  8
0
  6
CONTINUOUS
 10
38.60499999996136
 20
7.41582778094439
 30
0.0
 11
39.35165016698382
 21
8.16247794796684
 31
0.0
  0
LINE
  5
AD4A
  8
0
  6
CONTINUOUS
 10
38.60499999996136
 20
6.742308571864204
 30
0.0
 11
39.66911247956399
 21
7.806421051466834
 31
0.0
  0
LINE
  5
AD4B
  8
0
  6
CONTINUOUS
 10
38.60499999996136
 20
6.068789362784018
 30
0.0
 11
39.98657479214418
 21
7.450364154966827
 31
0.0
  0
LINE
  5
AD4C
  8
0
  6
CONTINUOUS
 10
38.60499999996136
 20
5.395270153703832
 30
0.0
 11
40.30403710472435
 21
7.09430725846682
 31
0.0
  0
LINE
  5
AD4D
  8
0
  6
CONTINUOUS
 10
38.60499999996136
 20
4.721750944623645
 30
0.0
 11
40.62149941730453
 21
6.738250361966813
 31
0.0
  0
LINE
  5
AD4E
  8
0
  6
CONTINUOUS
 10
38.60499999996136
 20
4.048231735543458
 30
0.0
 11
40.93896172988471
 21
6.382193465466806
 31
0.0
  0
LINE
  5
AD4F
  8
0
  6
CONTINUOUS
 10
38.60499999996136
 20
3.374712526463272
 30
0.0
 11
40.02599999995994
 21
4.795712526461843
 31
0.0
  0
LINE
  5
AD50
  8
0
  6
CONTINUOUS
 10
38.60499999996136
 20
2.701193317383085
 30
0.0
 11
40.02599999995994
 21
4.122193317381657
 31
0.0
  0
LINE
  5
AD51
  8
0
  6
CONTINUOUS
 10
40.28339754687704
 20
5.053110073378947
 30
0.0
 11
41.25642404246489
 21
6.026136568966799
 31
0.0
  0
LINE
  5
AD52
  8
0
  6
CONTINUOUS
 10
40.60085985945722
 20
4.697053176878939
 30
0.0
 11
41.57388635504507
 21
5.670079672466793
 31
0.0
  0
LINE
  5
AD53
  8
0
  6
CONTINUOUS
 10
43.57899999995641
 20
8.348712526458318
 30
0.0
 11
43.99338747348935
 21
8.763099999991255
 31
0.0
  0
LINE
  5
AD54
  8
0
  6
CONTINUOUS
 10
43.57899999995641
 20
7.675193317378131
 30
0.0
 11
44.66690668256953
 21
8.763099999991255
 31
0.0
  0
LINE
  5
AD55
  8
0
  6
CONTINUOUS
 10
38.60499999996136
 20
2.027674108302898
 30
0.0
 11
40.02599999995994
 21
3.44867410830147
 31
0.0
  0
LINE
  5
AD56
  8
0
  6
CONTINUOUS
 10
38.60499999996136
 20
1.354154899222712
 30
0.0
 11
40.02599999995994
 21
2.775154899221284
 31
0.0
  0
LINE
  5
AD57
  8
0
  6
CONTINUOUS
 10
38.60499999996136
 20
0.6806356901425255
 30
0.0
 11
40.02599999995994
 21
2.101635690141098
 31
0.0
  0
LINE
  5
AD58
  8
0
  6
CONTINUOUS
 10
38.60499999996136
 20
0.0071164810623383
 30
0.0
 11
40.02599999995994
 21
1.428116481060911
 31
0.0
  0
LINE
  5
AD59
  8
0
  6
CONTINUOUS
 10
40.9183221720374
 20
4.340996280378933
 30
0.0
 11
41.89134866762525
 21
5.314022775966786
 31
0.0
  0
LINE
  5
AD5A
  8
0
  6
CONTINUOUS
 10
41.23578448461758
 20
3.984939383878926
 30
0.0
 11
42.20881098020543
 21
4.957965879466778
 31
0.0
  0
LINE
  5
AD5B
  8
0
  6
CONTINUOUS
 10
41.55324679719776
 20
3.628882487378919
 30
0.0
 11
42.52627329278561
 21
4.601908982966772
 31
0.0
  0
LINE
  5
AD5C
  8
0
  6
CONTINUOUS
 10
41.87070910977793
 20
3.272825590878912
 30
0.0
 11
42.84373560536579
 21
4.245852086466765
 31
0.0
  0
LINE
  5
AD5D
  8
0
  6
CONTINUOUS
 10
43.57899999995641
 20
7.001674108297943
 30
0.0
 11
44.99999999995498
 21
8.422674108296516
 31
0.0
  0
LINE
  5
AD5E
  8
0
  6
CONTINUOUS
 10
43.57899999995641
 20
6.328154899217758
 30
0.0
 11
44.99999999995498
 21
7.749154899216329
 31
0.0
  0
LINE
  5
AD5F
  8
0
  6
CONTINUOUS
 10
43.57899999995641
 20
5.654635690137571
 30
0.0
 11
44.99999999995498
 21
7.075635690136142
 31
0.0
  0
LINE
  5
AD60
  8
0
  6
CONTINUOUS
 10
43.57899999995641
 20
4.981116481057384
 30
0.0
 11
44.99999999995498
 21
6.402116481055955
 31
0.0
  0
LINE
  5
AD61
  8
0
  6
CONTINUOUS
 10
39.27140272797921
 20
-0.0000000000000009
 30
0.0
 11
40.02599999995994
 21
0.7545972719807246
 31
0.0
  0
LINE
  5
AD62
  8
0
  6
CONTINUOUS
 10
39.9449219370594
 20
-0.0000000000000009
 30
0.0
 11
40.02599999995994
 21
0.0810780629005379
 31
0.0
  0
LINE
  5
AD63
  8
0
  6
CONTINUOUS
 10
42.18817142235812
 20
2.916768694378905
 30
0.0
 11
43.16119791794597
 21
3.889795189966758
 31
0.0
  0
LINE
  5
AD64
  8
0
  6
CONTINUOUS
 10
42.50563373493829
 20
2.560711797878898
 30
0.0
 11
43.47866023052615
 21
3.533738293466751
 31
0.0
  0
LINE
  5
AD65
  8
0
  6
CONTINUOUS
 10
43.57899999995641
 20
4.307597271977198
 30
0.0
 11
44.99999999995498
 21
5.728597271975769
 31
0.0
  0
LINE
  5
AD66
  8
0
  6
CONTINUOUS
 10
43.57899999995641
 20
3.634078062897011
 30
0.0
 11
44.99999999995498
 21
5.055078062895582
 31
0.0
  0
LINE
  5
AD67
  8
0
  6
CONTINUOUS
 10
42.82309604751848
 20
2.204654901378891
 30
0.0
 11
44.99999999995498
 21
4.381558853815395
 31
0.0
  0
LINE
  5
AD68
  8
0
  6
CONTINUOUS
 10
43.14055836009865
 20
1.848598004878885
 30
0.0
 11
44.99999999995498
 21
3.70803964473521
 31
0.0
  0
LINE
  5
AD69
  8
0
  6
CONTINUOUS
 10
43.45802067267883
 20
1.492541108378878
 30
0.0
 11
44.99999999995498
 21
3.034520435655023
 31
0.0
  0
LINE
  5
AD6A
  8
0
  6
CONTINUOUS
 10
43.77548298525902
 20
1.136484211878871
 30
0.0
 11
44.99999999995498
 21
2.361001226574837
 31
0.0
  0
LINE
  5
AD6B
  8
0
  6
CONTINUOUS
 10
44.09294529783919
 20
0.7804273153788639
 30
0.0
 11
44.99999999995498
 21
1.687482017494649
 31
0.0
  0
LINE
  5
AD6C
  8
0
  6
CONTINUOUS
 10
44.41040761041938
 20
0.4243704188788566
 30
0.0
 11
44.99999999995498
 21
1.013962808414463
 31
0.0
  0
LINE
  5
AD6D
  8
0
  6
CONTINUOUS
 10
44.72786992299955
 20
0.0683135223788494
 30
0.0
 11
44.99999999995498
 21
0.340443599334276
 31
0.0
  0
LINE
  5
AD6E
  8
0
  6
CONTINUOUS
 10
39.12223903415696
 20
-0.0000000000000009
 30
0.0
 11
38.60499999996136
 21
0.5172390341955961
 31
0.0
  0
LINE
  5
AD6F
  8
0
  6
CONTINUOUS
 10
39.79575824323715
 20
-0.0000000000000009
 30
0.0
 11
38.60499999996136
 21
1.190758243275783
 31
0.0
  0
LINE
  5
AD70
  8
0
  6
CONTINUOUS
 10
40.02599999995994
 20
0.443277452357397
 30
0.0
 11
38.60499999996136
 21
1.864277452355969
 31
0.0
  0
LINE
  5
AD71
  8
0
  6
CONTINUOUS
 10
40.02599999995994
 20
1.116796661437583
 30
0.0
 11
38.60499999996136
 21
2.537796661436155
 31
0.0
  0
LINE
  5
AD72
  8
0
  6
CONTINUOUS
 10
40.02599999995994
 20
1.79031587051777
 30
0.0
 11
38.60499999996136
 21
3.211315870516341
 31
0.0
  0
LINE
  5
AD73
  8
0
  6
CONTINUOUS
 10
40.02599999995994
 20
2.463835079597956
 30
0.0
 11
38.60499999996136
 21
3.884835079596527
 31
0.0
  0
LINE
  5
AD74
  8
0
  6
CONTINUOUS
 10
40.02599999995994
 20
3.137354288678143
 30
0.0
 11
38.60499999996136
 21
4.558354288676714
 31
0.0
  0
LINE
  5
AD75
  8
0
  6
CONTINUOUS
 10
40.02599999995994
 20
3.810873497758329
 30
0.0
 11
38.60499999996136
 21
5.2318734977569
 31
0.0
  0
LINE
  5
AD76
  8
0
  6
CONTINUOUS
 10
40.02599999995994
 20
4.484392706838515
 30
0.0
 11
38.60499999996136
 21
5.905392706837086
 31
0.0
  0
LINE
  5
AD77
  8
0
  6
CONTINUOUS
 10
44.99999999995498
 20
0.183911915923658
 30
0.0
 11
41.53858364506288
 21
3.64532827081576
 31
0.0
  0
LINE
  5
AD78
  8
0
  6
CONTINUOUS
 10
40.02599999995994
 20
5.157911915918703
 30
0.0
 11
38.60499999996136
 21
6.578911915917274
 31
0.0
  0
LINE
  5
AD79
  8
0
  6
CONTINUOUS
 10
44.99999999995498
 20
0.8574311250038447
 30
0.0
 11
38.60499999996136
 21
7.25243112499746
 31
0.0
  0
LINE
  5
AD7A
  8
0
  6
CONTINUOUS
 10
44.99999999995498
 20
1.530950334084031
 30
0.0
 11
38.60499999996136
 21
7.925950334077647
 31
0.0
  0
LINE
  5
AD7B
  8
0
  6
CONTINUOUS
 10
44.99999999995498
 20
2.204469543164218
 30
0.0
 11
43.57899999995641
 21
3.625469543162789
 31
0.0
  0
LINE
  5
AD7C
  8
0
  6
CONTINUOUS
 10
41.89876730984767
 20
5.305702233271528
 30
0.0
 11
38.60499999996136
 21
8.599469543157834
 31
0.0
  0
LINE
  5
AD7D
  8
0
  6
CONTINUOUS
 10
44.99999999995498
 20
2.877988752244405
 30
0.0
 11
43.57899999995641
 21
4.298988752242975
 31
0.0
  0
LINE
  5
AD7E
  8
0
  6
CONTINUOUS
 10
44.99999999995498
 20
3.551507961324591
 30
0.0
 11
43.57899999995641
 21
4.972507961323163
 31
0.0
  0
LINE
  5
AD7F
  8
0
  6
CONTINUOUS
 10
44.99999999995498
 20
4.225027170404777
 30
0.0
 11
43.57899999995641
 21
5.646027170403348
 31
0.0
  0
LINE
  5
AD80
  8
0
  6
CONTINUOUS
 10
44.99999999995498
 20
4.898546379484964
 30
0.0
 11
43.57899999995641
 21
6.319546379483535
 31
0.0
  0
LINE
  5
AD81
  8
0
  6
CONTINUOUS
 10
44.99999999995498
 20
5.572065588565151
 30
0.0
 11
43.57899999995641
 21
6.993065588563722
 31
0.0
  0
LINE
  5
AD82
  8
0
  6
CONTINUOUS
 10
44.99999999995498
 20
6.245584797645336
 30
0.0
 11
43.57899999995641
 21
7.666584797643908
 31
0.0
  0
LINE
  5
AD83
  8
0
  6
CONTINUOUS
 10
44.99999999995498
 20
6.919104006725522
 30
0.0
 11
43.57899999995641
 21
8.340104006724093
 31
0.0
  0
LINE
  5
AD84
  8
0
  6
CONTINUOUS
 10
44.99999999995498
 20
7.592623215805709
 30
0.0
 11
43.82952321576943
 21
8.763099999991255
 31
0.0
  0
LINE
  5
AD85
  8
0
  6
CONTINUOUS
 10
44.99999999995498
 20
8.266142424885896
 30
0.0
 11
44.50304242484962
 21
8.763099999991255
 31
0.0
  0
ENDBLK
  5
ADAF
  8
0
  0
BLOCK
  8
0
  2
*X29
 70
     1
 10
0.0
 20
0.0
 30
0.0
  3
*X29
  1

  0
LINE
  5
AD87
  8
0
  6
CONTINUOUS
 10
0.0
 20
8.548461116714023
 30
0.0
 11
0.2146388832772324
 21
8.763099999991255
 31
0.0
  0
LINE
  5
AD88
  8
0
  6
CONTINUOUS
 10
-0.0000000000000002
 20
7.874941907633837
 30
0.0
 11
0.8881580923574184
 21
8.763099999991255
 31
0.0
  0
LINE
  5
AD89
  8
0
  6
CONTINUOUS
 10
0.0
 20
7.20142269855365
 30
0.0
 11
1.420999999998572
 21
8.622422698552223
 31
0.0
  0
LINE
  5
AD8A
  8
0
  6
CONTINUOUS
 10
-0.0000000000000001
 20
6.527903489473465
 30
0.0
 11
1.420999999998571
 21
7.948903489472036
 31
0.0
  0
LINE
  5
AD8B
  8
0
  6
CONTINUOUS
 10
-0.0000000000000002
 20
5.854384280393278
 30
0.0
 11
1.420999999998571
 21
7.275384280391849
 31
0.0
  0
LINE
  5
AD8C
  8
0
  6
CONTINUOUS
 10
-0.0000000000000002
 20
5.180865071313091
 30
0.0
 11
1.420999999998571
 21
6.601865071311663
 31
0.0
  0
LINE
  5
AD8D
  8
0
  6
CONTINUOUS
 10
0.0
 20
4.507345862232905
 30
0.0
 11
1.420999999998571
 21
5.928345862231477
 31
0.0
  0
LINE
  5
AD8E
  8
0
  6
CONTINUOUS
 10
-0.0000000000000003
 20
3.833826653152718
 30
0.0
 11
1.420999999998571
 21
5.25482665315129
 31
0.0
  0
LINE
  5
AD8F
  8
0
  6
CONTINUOUS
 10
-0.0000000000000002
 20
3.160307444072532
 30
0.0
 11
1.420999999998571
 21
4.581307444071103
 31
0.0
  0
LINE
  5
AD90
  8
0
  6
CONTINUOUS
 10
-0.0000000000000001
 20
2.486788234992345
 30
0.0
 11
1.420999999998571
 21
3.907788234990917
 31
0.0
  0
LINE
  5
AD91
  8
0
  6
CONTINUOUS
 10
-0.0000000000000006
 20
1.813269025912159
 30
0.0
 11
1.420999999998571
 21
3.234269025910731
 31
0.0
  0
LINE
  5
AD92
  8
0
  6
CONTINUOUS
 10
0.0
 20
1.139749816831973
 30
0.0
 11
1.420999999998571
 21
2.560749816830544
 31
0.0
  0
LINE
  5
AD93
  8
0
  6
CONTINUOUS
 10
0.0000000000000002
 20
0.466230607751787
 30
0.0
 11
1.420999999998571
 21
1.887230607750358
 31
0.0
  0
LINE
  5
AD94
  8
0
  6
CONTINUOUS
 10
0.2072886013284003
 20
-0.0000000000000009
 30
0.0
 11
1.420999999998571
 21
1.213711398670171
 31
0.0
  0
LINE
  5
AD95
  8
0
  6
CONTINUOUS
 10
0.8808078104085864
 20
-0.0000000000000009
 30
0.0
 11
1.420999999998571
 21
0.5401921895899839
 31
0.0
  0
LINE
  5
AD96
  8
0
  6
CONTINUOUS
 10
0.0581249075061505
 20
-0.0000000000000009
 30
0.0
 11
-0.0000000000000002
 21
0.0581249075061496
 31
0.0
  0
LINE
  5
AD97
  8
0
  6
CONTINUOUS
 10
0.7316441165863372
 20
-0.0000000000000009
 30
0.0
 11
-0.0000000000000002
 21
0.7316441165863363
 31
0.0
  0
LINE
  5
AD98
  8
0
  6
CONTINUOUS
 10
1.405163325666523
 20
-0.0000000000000009
 30
0.0
 11
-0.0000000000000002
 21
1.405163325666523
 31
0.0
  0
LINE
  5
AD99
  8
0
  6
CONTINUOUS
 10
1.420999999998572
 20
0.6576825347481381
 30
0.0
 11
-0.0000000000000001
 21
2.07868253474671
 31
0.0
  0
LINE
  5
AD9A
  8
0
  6
CONTINUOUS
 10
1.420999999998571
 20
1.331201743828324
 30
0.0
 11
-0.0000000000000001
 21
2.752201743826896
 31
0.0
  0
LINE
  5
AD9B
  8
0
  6
CONTINUOUS
 10
1.420999999998571
 20
2.004720952908511
 30
0.0
 11
-0.0000000000000002
 21
3.425720952907082
 31
0.0
  0
LINE
  5
AD9C
  8
0
  6
CONTINUOUS
 10
1.420999999998571
 20
2.678240161988697
 30
0.0
 11
-0.0000000000000001
 21
4.099240161987269
 31
0.0
  0
LINE
  5
AD9D
  8
0
  6
CONTINUOUS
 10
1.420999999998572
 20
3.351759371068884
 30
0.0
 11
0.0
 21
4.772759371067455
 31
0.0
  0
LINE
  5
AD9E
  8
0
  6
CONTINUOUS
 10
1.420999999998571
 20
4.02527858014907
 30
0.0
 11
-0.0000000000000003
 21
5.446278580147642
 31
0.0
  0
LINE
  5
AD9F
  8
0
  6
CONTINUOUS
 10
1.420999999998571
 20
4.698797789229257
 30
0.0
 11
0.0
 21
6.119797789227828
 31
0.0
  0
LINE
  5
ADA0
  8
0
  6
CONTINUOUS
 10
1.420999999998571
 20
5.372316998309444
 30
0.0
 11
-0.0000000000000001
 21
6.793316998308015
 31
0.0
  0
LINE
  5
ADA1
  8
0
  6
CONTINUOUS
 10
1.420999999998572
 20
6.045836207389629
 30
0.0
 11
-0.0000000000000004
 21
7.466836207388202
 31
0.0
  0
LINE
  5
ADA2
  8
0
  6
CONTINUOUS
 10
1.420999999998571
 20
6.719355416469816
 30
0.0
 11
0.0
 21
8.140355416468388
 31
0.0
  0
LINE
  5
ADA3
  8
0
  6
CONTINUOUS
 10
1.420999999998571
 20
7.392874625550003
 30
0.0
 11
0.0507746255573185
 21
8.763099999991255
 31
0.0
  0
LINE
  5
ADA4
  8
0
  6
CONTINUOUS
 10
1.420999999998571
 20
8.06639383463019
 30
0.0
 11
0.7242938346375052
 21
8.763099999991255
 31
0.0
  0
LINE
  5
ADA5
  8
0
  6
CONTINUOUS
 10
1.420999999998571
 20
8.739913043710375
 30
0.0
 11
1.397813043717691
 21
8.763099999991255
 31
0.0
  0
ENDBLK
  5
ADB1
  8
0
  0
ENDSEC
  0
SECTION
  2
ENTITIES
  0
TEXT
  5
87D2
  8
1TEXT
 10
785.2943166699865
 20
227.1202548062638
 30
0.0
 40
7.0
  1
PA58-
 41
1.0098214
  0
LINE
  5
9459
  8
01
  6
BYBLOCK
 10
817.4974026522582
 20
160.2190444732591
 30
0.0
 11
917.4974026522582
 21
160.2190444732645
 31
0.0
  0
LINE
  5
945C
  8
01
  6
BYBLOCK
 10
817.9974026522582
 20
177.2190444732645
 30
0.0
 11
916.9974026522582
 21
177.2190444732608
 31
0.0
  0
LINE
  5
945F
  8
01
  6
BYBLOCK
 10
817.4974026522582
 20
176.7190444732645
 30
0.0
 11
817.4974026522581
 21
160.2190444732591
 31
0.0
  0
ARC
  5
9460
  8
01
  6
BYBLOCK
 10
817.9974026522581
 20
175.7360815601173
 30
0.0
 40
0.5
 50
180.0
 51
270.0
  0
ARC
  5
9461
  8
01
  6
BYBLOCK
 10
817.9974026522582
 20
176.7190444732645
 30
0.0
 40
0.5
 50
90.0
 51
180.0
  0
LINE
  5
9462
  8
01
  6
BYBLOCK
 10
917.4974026522582
 20
176.7190444732609
 30
0.0
 11
917.4974026522582
 21
160.2190444732591
 31
0.0
  0
ARC
  5
9463
  8
01
 10
916.9974026522582
 20
176.7190444732609
 30
0.0
 40
0.5
 50
0.0
 51
90.0
  0
ARC
  5
9464
  8
01
 10
916.9974026522582
 20
175.7360815601191
 30
0.0
 40
0.5
 50
270.0
 51
0.0
  0
LINE
  5
9465
  8
01
  6
BYBLOCK
 10
817.9974026522581
 20
175.2360815601173
 30
0.0
 11
916.9974026522582
 21
175.2360815601191
 31
0.0
  0
LINE
  5
9468
  8
01
  6
BYBLOCK
 10
817.4974026522582
 20
202.5240631908913
 30
0.0
 11
817.4974026522564
 21
216.5240631908895
 31
0.0
  0
ARC
  5
9469
  8
01
  6
BYBLOCK
 10
817.9974026522564
 20
216.5240631908895
 30
0.0
 40
0.5
 50
90.0
 51
180.0000000000065
  0
LINE
  5
946A
  8
01
  6
BYBLOCK
 10
817.9974026522582
 20
202.0240631908914
 30
0.0
 11
916.9974026522599
 21
202.0240631908878
 31
0.0
  0
ARC
  5
946D
  8
01
 10
916.9974026522599
 20
202.5240631908877
 30
0.0
 40
0.5
 50
270.0
 51
359.9999999999902
  0
ARC
  5
946E
  8
01
  6
BYBLOCK
 10
817.9974026522582
 20
202.5240631908914
 30
0.0
 40
0.5
 50
180.0000000000065
 51
270.0
  0
LINE
  5
946F
  8
01
  6
BYBLOCK
 10
817.9974026522564
 20
217.0240631908895
 30
0.0
 11
916.9974026522618
 21
217.0240631908877
 31
0.0
  0
LINE
  5
9472
  8
01
  6
BYBLOCK
 10
917.4974026522599
 20
202.5240631908877
 30
0.0
 11
917.4974026522618
 21
216.5240631908877
 31
0.0
  0
ARC
  5
9473
  8
01
 10
916.9974026522618
 20
216.5240631908877
 30
0.0
 40
0.5
 50
359.9999999999935
 51
90.0
  0
LINE
  5
94AE
  8
01
  6
BYBLOCK
 10
955.4517080847195
 20
177.2190444732645
 30
0.0
 11
942.4517080847231
 21
177.2190444732645
 31
0.0
  0
LINE
  5
94AF
  8
1CENTER
 10
948.9517080847213
 20
168.2190444732591
 30
0.0
 11
948.9517080847213
 21
158.2190444732591
 31
0.0
  0
LINE
  5
94B0
  8
01
  6
BYBLOCK
 10
944.9517080847231
 20
160.2190444732591
 30
0.0
 11
952.9517080847195
 21
160.2190444732591
 31
0.0
  0
ARC
  5
94B1
  8
01
  6
BYBLOCK
 10
942.4517080847231
 20
176.2190444732645
 30
0.0
 40
1.0
 50
90.0
 51
180.0
  0
LINE
  5
94B2
  8
01
  6
BYBLOCK
 10
941.4517080847231
 20
175.7190444732645
 30
0.0
 11
941.4517080847231
 21
176.2190444732645
 31
0.0
  0
ARC
  5
94B3
  8
01
  6
BYBLOCK
 10
941.9517080847231
 20
175.7190444732645
 30
0.0
 40
0.5
 50
180.0
 51
329.9999999999882
  0
ARC
  5
94B4
  8
01
  6
BYBLOCK
 10
942.8177334885072
 20
175.2190444732645
 30
0.0
 40
0.5
 50
90.0
 51
149.999999999897
  0
LINE
  5
94B5
  8
01
  6
BYBLOCK
 10
944.8293542081658
 20
175.7190444732681
 30
0.0
 11
942.8177334885072
 21
175.7190444732645
 31
0.0
  0
ARC
  5
94B6
  8
01
  6
BYBLOCK
 10
955.4517080847195
 20
176.2190444732645
 30
0.0
 40
1.0
 50
0.0
 51
90.0
  0
LINE
  5
94B7
  8
01
  6
BYBLOCK
 10
956.4517080847195
 20
175.7190444732645
 30
0.0
 11
956.4517080847195
 21
176.2190444732645
 31
0.0
  0
ARC
  5
94B8
  8
01
  6
BYBLOCK
 10
955.9517080847177
 20
175.7190444732645
 30
0.0
 40
0.4999999999999999
 50
209.9999999998689
 51
0.0
  0
ARC
  5
94B9
  8
01
  6
BYBLOCK
 10
955.0856826809336
 20
175.2190444732645
 30
0.0
 40
0.4999999999999999
 50
30.00000000009705
 51
90.0
  0
LINE
  5
94BA
  8
01
 10
944.9517080847227
 20
160.2190444732561
 30
0.0
 11
946.8098903456524
 21
173.4406982713479
 31
0.0
  0
ARC
  5
94BB
  8
01
 10
944.8293542081693
 20
173.7190444732681
 30
0.0
 40
2.0
 50
351.999999999999
 51
90.0000000000977
  0
LINE
  5
94BC
  8
01
  6
BYBLOCK
 10
953.0740619612767
 20
175.7190444732681
 30
0.0
 11
955.0856826809354
 21
175.7190444732645
 31
0.0
  0
LINE
  5
94BD
  8
01
 10
952.9517080847199
 20
160.2190444732561
 30
0.0
 11
951.0935258237901
 21
173.4406982713479
 31
0.0
  0
ARC
  5
94BE
  8
01
 10
953.0740619612732
 20
173.7190444732681
 30
0.0
 40
2.0
 50
89.99999999989578
 51
188.0000000000009
  0
LINE
  5
9776
  8
1DIM
 10
880.0229924640412
 20
43.56637153339359
 30
0.0
 11
880.0229924640412
 21
15.56637153339359
 31
0.0
  0
LINE
  5
9777
  8
1DIM
 10
830.8387629156587
 20
17.53921926727692
 30
0.0
 11
880.0229924640412
 21
17.53921926727692
 31
0.0
  0
LINE
  5
9778
  8
1DIM
 10
830.8387629156587
 20
24.53921926727692
 30
0.0
 11
880.0229924640412
 21
24.53921926727692
 31
0.0
  0
LINE
  5
9779
  8
1DIM
 10
830.8387629156587
 20
31.53921926727692
 30
0.0
 11
880.0229924640412
 21
31.53921926727692
 31
0.0
  0
TEXT
  5
977A
  8
1TEXT
 10
832.2223073635779
 20
33.03921926727692
 30
0.0
 40
4.0
  1
コード
 72
     1
 11
839.0889740302446
 21
33.03921926727692
 31
0.0
  0
TEXT
  5
977B
  8
1TEXT
 10
837.755640696912
 20
19.03921926727647
 30
0.0
 40
4.0
  1
Z
 72
     1
 11
839.0889740302454
 21
19.03921926727647
 31
0.0
  0
TEXT
  5
977C
  8
1TEXT
 10
837.7556406969112
 20
26.03921926727692
 30
0.0
 40
4.0
  1
S
 72
     1
 11
839.0889740302446
 21
26.03921926727692
 31
0.0
  0
TEXT
  5
977D
  8
1TEXT
 10
849.4029924640412
 20
26.03921926727692
 30
0.0
 40
4.0
  1
ブラストシルバー
 41
0.7
 72
     1
 11
862.4229924640412
 21
26.03921926727692
 31
0.0
  0
TEXT
  5
977E
  8
1TEXT
 10
846.7829924640412
 20
19.03921926727692
 30
0.0
 40
4.0
  1
ステンカラーヘアライン
 41
0.6
 72
     1
 11
862.4229924640412
 21
19.03921926727692
 31
0.0
  0
TEXT
  5
977F
  8
1TEXT
 10
853.1563257973745
 20
33.03921926727692
 30
0.0
 40
4.0
  1
表面処理
 72
     1
 11
862.4229924640412
 21
33.03921926727692
 31
0.0
  0
TEXT
  5
9780
  8
1TEXT
 10
829.8286410599289
 20
77.44496242788615
 30
0.0
 40
4.0
  1
商品コード
 72
     1
 11
841.2286410599289
 21
77.44496242788615
 31
0.0
  0
LINE
  5
9781
  8
1DIM
 10
882.2068227893783
 20
77.06403724421455
 30
0.0
 11
800.2197640433842
 21
77.06403724421455
 31
0.0
  0
TEXT
  5
9782
  8
1TEXT
 10
801.1168618724394
 20
69.7806408774485
 30
0.0
 40
4.0
  1
例）PA58S30
 72
     1
 11
819.0140840946616
 21
69.7806408774485
 31
0.0
  0
TEXT
  5
9783
  8
1TEXT
 10
811.0556206202019
 20
59.85771578561777
 30
0.0
 40
4.0
  1
PA58
 72
     1
 11
818.4028428424241
 21
59.85771578561777
 31
0.0
  0
LINE
  5
9786
  8
1DIM
 10
846.1687716218745
 20
38.53921926727692
 30
0.0
 11
846.1687716218745
 21
10.53921926727692
 31
0.0
  0
LINE
  5
9788
  8
1DIM
 10
827.9678046710068
 20
59.33814947430973
 30
0.0
 11
827.9678046710068
 21
21.03584496411794
 31
0.0
  0
LINE
  5
9789
  8
1DIM
 10
827.9678046710068
 20
21.03584496411794
 30
0.0
 11
830.8387629156587
 21
21.03584496411794
 31
0.0
  0
LINE
  5
978A
  8
1DIM
 10
835.6212774474252
 20
59.33814947430973
 30
0.0
 11
835.6212774474252
 21
46.40298152583343
 31
0.0
  0
LINE
  5
978B
  8
1DIM
 10
846.1687716218745
 20
49.85556732980253
 30
0.0
 11
880.0229924640412
 21
49.85556732980253
 31
0.0
  0
TEXT
  5
978C
  8
1TEXT
 10
853.9179924640412
 20
44.35556732980253
 30
0.0
 40
4.0
  1
30～1200
 41
0.7
 72
     1
 11
862.4229924640412
 21
44.35556732980253
 31
0.0
  0
TEXT
  5
978D
  8
1TEXT
 10
856.0229924640412
 20
51.35556732980253
 30
0.0
 40
4.0
  1
L寸法
 72
     1
 11
862.4229924640412
 21
51.35556732980253
 31
0.0
  0
LINE
  5
978F
  8
1DIM
 10
830.8387629156587
 20
31.35129824802591
 30
0.0
 11
880.0229924640412
 21
31.35129824802591
 31
0.0
  0
LINE
  5
9790
  8
1DIM
 10
846.1687716218745
 20
49.72537139914574
 30
0.0
 11
880.0229924640412
 21
49.72537139914574
 31
0.0
  0
LINE
  5
9791
  8
1DIM
 10
846.1687716218745
 20
46.40298152583343
 30
0.0
 11
835.6212774474252
 21
46.40298152583343
 31
0.0
  0
LINE
  5
9792
  8
1HATCH
 10
891.3036044547209
 20
24.3350662425533
 30
0.0
 11
945.4314850964731
 21
24.3350662425533
 31
0.0
  0
LINE
  5
9793
  8
1HATCH
 10
891.3036044547209
 20
19.8350662425533
 30
0.0
 11
945.4314850964731
 21
19.83506624255322
 31
0.0
  0
TEXT
  5
9794
  8
1TEXT
 10
899.2403282245699
 20
20.65622624255318
 30
0.0
 40
2.85768
  1
300～599
 72
     1
 11
908.5866617245699
 21
22.08506624255318
 31
0.0
 73
     2
  0
TEXT
  5
9795
  8
1TEXT
 10
900.1949766452715
 20
16.15622624255318
 30
0.0
 40
2.85768
  1
600～1199
 72
     1
 11
910.0175901452715
 21
17.58506624255318
 31
0.0
 73
     2
  0
TEXT
  5
9796
  8
1TEXT
 10
934.1766796203955
 20
16.15622624255318
 30
0.0
 40
2.85768
  1
5
 72
     1
 11
935.1292396203954
 21
17.58506624255318
 31
0.0
 73
     2
  0
TEXT
  5
9797
  8
1TEXT
 10
934.1766796203955
 20
20.65622624255318
 30
0.0
 40
2.85768
  1
3
 72
     1
 11
935.1292396203954
 21
22.08506624255318
 31
0.0
 73
     2
  0
LINE
  5
9798
  8
1HATCH
 10
891.3036002059615
 20
15.33506624255328
 30
0.0
 11
945.4314850964731
 21
15.33506624255324
 31
0.0
  0
LINE
  5
9799
  8
1HATCH
 10
926.1292396203954
 20
33.3350662425533
 30
0.0
 11
926.1292396203954
 21
10.83506624255325
 31
0.0
  0
LINE
  5
979A
  8
1HATCH
 10
891.3036002059616
 20
37.83506624255321
 30
0.0
 11
891.3036002059615
 21
10.8350662425533
 31
0.0
  0
LINE
  5
979B
  8
1HATCH
 10
891.3036002059616
 20
33.33506624255327
 30
0.0
 11
945.4314850964731
 21
33.33506624255327
 31
0.0
  0
LINE
  5
979C
  8
1HATCH
 10
891.3035959572024
 20
37.83506624255324
 30
0.0
 11
945.4314850964731
 21
37.83506624255324
 31
0.0
  0
TEXT
  5
979D
  8
1TEXT
 10
909.9797139516326
 20
34.15622624255327
 30
0.0
 40
2.85768
  1
穴数対応表
 72
     1
 11
918.3622419516325
 21
35.58506624255327
 31
0.0
 73
     2
  0
TEXT
  5
979E
  8
1TEXT
 10
900.4409464758106
 20
25.15622624255324
 30
0.0
 40
2.85768
  1
30～299
 72
     1
 11
908.5866574758106
 21
26.58506624255324
 31
0.0
 73
     2
  0
TEXT
  5
979F
  8
1TEXT
 10
934.1766753716362
 20
25.15622624255324
 30
0.0
 40
2.85768
  1
2
 72
     1
 11
935.1292353716361
 21
26.58506624255324
 31
0.0
 73
     2
  0
LINE
  5
97A0
  8
1HATCH
 10
891.3036044547209
 20
28.8350662425533
 30
0.0
 11
945.4314850964731
 21
28.8350662425533
 31
0.0
  0
TEXT
  5
97A1
  8
1TEXT
 10
928.4136916203954
 20
29.65622624255324
 30
0.0
 40
2.85768
  1
ネジ穴数
 72
     1
 11
935.1292396203954
 21
31.08506624255324
 31
0.0
 73
     2
  0
TEXT
  5
97A2
  8
1TEXT
 10
904.01437372457
 20
29.65622624255324
 30
0.0
 40
2.85768
  1
L寸法
 72
     4
 11
908.5866617245699
 21
31.08506624255324
 31
0.0
  0
LINE
  5
97A3
  8
1DIM
 10
945.4314850964731
 20
10.83506624255325
 30
0.0
 11
945.4314850964731
 21
37.83506624255324
 31
0.0
  0
LINE
  5
97A4
  8
1DIM
 10
830.8387629156587
 20
10.53921926727692
 30
0.0
 11
880.0229924640412
 21
10.53921926727692
 31
0.0
  0
TEXT
  5
97A5
  8
1TEXT
 10
836.4223073635787
 20
12.03921926727648
 30
0.0
 40
4.0
  1
1U
 72
     1
 11
839.0889740302454
 21
12.03921926727648
 31
0.0
  0
TEXT
  5
97A6
  8
1TEXT
 10
846.7829924640412
 20
12.03921926727693
 30
0.0
 40
4.0
  1
ブラストダークブロンズ
 41
0.6
 72
     1
 11
862.4229924640412
 21
12.03921926727693
 31
0.0
  0
LINE
  5
97A7
  8
1DIM
 10
830.8387629156587
 20
10.53921926727691
 30
0.0
 11
880.0229924640412
 21
10.53921926727691
 31
0.0
  0
TEXT
  5
97A8
  8
1TEXT
 10
905.3791396404139
 20
77.44496242788614
 30
0.0
 40
4.0
  1
商品コード（既製サイズ）
 72
     1
 11
932.3124729737472
 21
77.44496242788614
 31
0.0
  0
LINE
  5
97A9
  8
1DIM
 10
1001.284184076194
 20
77.06403724421455
 30
0.0
 11
891.3035959572024
 21
77.06403724421455
 31
0.0
  0
LINE
  5
97AA
  8
1DIM
 10
1001.284184076194
 20
72.56403724421459
 30
0.0
 11
891.3035959572024
 21
72.56403724421459
 31
0.0
  0
LINE
  5
97AB
  8
1DIM
 10
1001.284184076194
 20
68.06403724421465
 30
0.0
 11
891.3035959572024
 21
68.06403724421465
 31
0.0
  0
LINE
  5
97AC
  8
1DIM
 10
1001.284184076194
 20
63.5640372442147
 30
0.0
 11
891.3035959572024
 21
63.5640372442147
 31
0.0
  0
LINE
  5
97AD
  8
1DIM
 10
1001.284184076194
 20
59.06403724421477
 30
0.0
 11
891.3035959572024
 21
59.06403724421476
 31
0.0
  0
LINE
  5
97AE
  8
1DIM
 10
1001.284184076194
 20
54.14353455472907
 30
0.0
 11
891.3035959572024
 21
54.14353455472909
 31
0.0
  0
LINE
  5
97AF
  8
1DIM
 10
1001.284184076194
 20
49.64353455472914
 30
0.0
 11
891.3035959572024
 21
49.64353455472914
 31
0.0
  0
LINE
  5
97B0
  8
1DIM
 10
973.2906547031965
 20
45.1435345547292
 30
0.0
 11
891.3035959572024
 21
45.1435345547292
 31
0.0
  0
TEXT
  5
97B1
  8
1TEXT
 10
898.5615685839964
 20
72.8987290824499
 30
0.0
 40
4.0
  1
コード
 72
     1
 11
905.4282352506631
 21
72.8987290824499
 31
0.0
  0
TEXT
  5
97B2
  8
1TEXT
 10
928.4664185115425
 20
72.8987290824499
 30
0.0
 40
4.0
  1
長さ
 72
     1
 11
932.5997518448759
 21
72.8987290824499
 31
0.0
  0
TEXT
  5
97B3
  8
1TEXT
 10
949.5283392186012
 20
72.8987290824499
 30
0.0
 40
4.0
  1
ネジ穴数
 72
     1
 11
958.9283392186012
 21
72.8987290824499
 31
0.0
  0
LINE
  5
97B4
  8
1DIM
 10
919.2971253301995
 20
77.06403724421455
 30
0.0
 11
919.2971253301995
 21
45.1435345547292
 31
0.0
  0
LINE
  5
97B5
  8
1DIM
 10
945.2971253301995
 20
77.06403724421455
 30
0.0
 11
945.2971253301995
 21
45.1435345547292
 31
0.0
  0
TEXT
  5
97B6
  8
1TEXT
 10
894.6304574728853
 20
68.39872908244996
 30
0.0
 40
3.2
  1
PA58　30
 72
     1
 11
905.4282352506631
 21
68.39872908244996
 31
0.0
  0
TEXT
  5
97B7
  8
1TEXT
 10
929.8302157698121
 20
68.39872908244996
 30
0.0
 40
3.2
  1
30
 72
     1
 11
932.2968824364788
 21
68.39872908244996
 31
0.0
  0
TEXT
  5
97B8
  8
1TEXT
 10
958.3550979569934
 20
68.39872908244996
 30
0.0
 40
3.2
  1
2
 72
     1
 11
959.4217646236601
 21
68.39872908244996
 31
0.0
  0
TEXT
  5
97B9
  8
1TEXT
 10
894.6193463617742
 20
63.89872908245002
 30
0.0
 40
3.2
  1
PA58　60
 72
     1
 11
905.4282352506631
 21
63.89872908245002
 31
0.0
  0
TEXT
  5
97BA
  8
1TEXT
 10
929.819104658701
 20
63.89872908245002
 30
0.0
 40
3.2
  1
60
 72
     1
 11
932.2968824364788
 21
63.89872908245002
 31
0.0
  0
TEXT
  5
97BB
  8
1TEXT
 10
958.3550979569934
 20
63.89872908245002
 30
0.0
 40
3.2
  1
2
 72
     1
 11
959.4217646236601
 21
63.89872908245002
 31
0.0
  0
TEXT
  5
97BC
  8
1TEXT
 10
893.5526796951075
 20
59.39872908245007
 30
0.0
 40
3.2
  1
PA58　150
 72
     1
 11
905.4282352506631
 21
59.39872908245007
 31
0.0
  0
TEXT
  5
97BD
  8
1TEXT
 10
928.7524379920343
 20
59.39872908245007
 30
0.0
 40
3.2
  1
150
 72
     1
 11
932.2968824364788
 21
59.39872908245007
 31
0.0
  0
TEXT
  5
97BE
  8
1TEXT
 10
958.3550979569934
 20
59.39872908245007
 30
0.0
 40
3.2
  1
2
 72
     1
 11
959.4217646236601
 21
59.39872908245007
 31
0.0
  0
TEXT
  5
97BF
  8
1TEXT
 10
893.297124139552
 20
54.47822639296439
 30
0.0
 40
3.2
  1
PA58　300
 72
     1
 11
905.4282352506631
 21
54.47822639296439
 31
0.0
  0
TEXT
  5
97C0
  8
1TEXT
 10
928.4968824364788
 20
54.47822639296439
 30
0.0
 40
3.2
  1
300
 72
     1
 11
932.2968824364788
 21
54.47822639296439
 31
0.0
  0
TEXT
  5
97C1
  8
1TEXT
 10
958.3550979569934
 20
54.47822639296439
 30
0.0
 40
3.2
  1
3
 72
     1
 11
959.4217646236601
 21
54.47822639296439
 31
0.0
  0
TEXT
  5
97C2
  8
1TEXT
 10
893.297124139552
 20
49.97822639296444
 30
0.0
 40
3.2
  1
PA58　800
 72
     1
 11
905.4282352506631
 21
49.97822639296444
 31
0.0
  0
TEXT
  5
97C3
  8
1TEXT
 10
928.4968824364788
 20
49.97822639296444
 30
0.0
 40
3.2
  1
800
 72
     1
 11
932.2968824364788
 21
49.97822639296444
 31
0.0
  0
TEXT
  5
97C4
  8
1TEXT
 10
958.3550979569934
 20
49.97822639296444
 30
0.0
 40
3.2
  1
5
 72
     1
 11
959.4217646236601
 21
49.97822639296444
 31
0.0
  0
TEXT
  5
97C5
  8
1TEXT
 10
892.2304574728853
 20
45.4782263929645
 30
0.0
 40
3.2
  1
PA58　1200
 72
     1
 11
905.4282352506631
 21
45.4782263929645
 31
0.0
  0
TEXT
  5
97C6
  8
1TEXT
 10
927.4302157698121
 20
45.4782263929645
 30
0.0
 40
3.2
  1
1200
 72
     1
 11
932.2968824364788
 21
45.4782263929645
 31
0.0
  0
TEXT
  5
97C7
  8
1TEXT
 10
958.3550979569934
 20
45.4782263929645
 30
0.0
 40
3.2
  1
7
 72
     1
 11
959.4217646236601
 21
45.4782263929645
 31
0.0
  0
TEXT
  5
97CE
  8
1TEXT
 10
975.1218685915983
 20
72.89872908244989
 30
0.0
 40
4.0
  1
ピッチ寸法
 72
     1
 11
986.9218685915982
 21
72.89872908244989
 31
0.0
  0
TEXT
  5
97CF
  8
1TEXT
 10
985.2819606633238
 20
68.39872908244995
 30
0.0
 40
3.2
  1
18
 72
     1
 11
987.4152939966572
 21
68.39872908244995
 31
0.0
  0
TEXT
  5
97D0
  8
1TEXT
 10
984.9486273299905
 20
63.89872908245
 30
0.0
 40
3.2
  1
40
 72
     1
 11
987.4152939966572
 21
63.89872908245
 31
0.0
  0
TEXT
  5
97D1
  8
1TEXT
 10
983.8819606633239
 20
59.39872908245006
 30
0.0
 40
3.2
  1
130
 72
     1
 11
987.4152939966572
 21
59.39872908245006
 31
0.0
  0
TEXT
  5
97D2
  8
1TEXT
 10
983.8819606633239
 20
54.47822639296439
 30
0.0
 40
3.2
  1
140
 72
     1
 11
987.4152939966572
 21
54.47822639296439
 31
0.0
  0
TEXT
  5
97D3
  8
1TEXT
 10
983.6812199225831
 20
49.97822639296444
 30
0.0
 40
3.2
  1
195
 72
     1
 11
987.4152939966572
 21
49.97822639296444
 31
0.0
  0
LINE
  5
97D6
  8
1DIM
 10
973.2906547031965
 20
77.06403724421455
 30
0.0
 11
973.2906547031965
 21
45.1435345547292
 31
0.0
  0
LINE
  5
9855
  8
1CENTER
 10
907.4974026522582
 20
168.2190444732591
 30
0.0
 11
907.4974026522582
 21
158.2190444732591
 31
0.0
  0
LINE
  5
9871
  8
1CENTER
 10
827.4974026522582
 20
168.2190444732591
 30
0.0
 11
827.4974026522582
 21
158.2190444732591
 31
0.0
  0
TEXT
  5
9AD7
  8
1TEXT
 10
934.2255690827927
 20
11.2759581049198
 30
0.0
 40
2.85768
  1
7
 72
     1
 11
935.1781290827927
 21
12.7047981049198
 31
0.0
 73
     2
  0
TEXT
  5
9AD8
  8
1TEXT
 10
983.8138917162739
 20
45.4782263929645
 30
0.0
 40
3.2
  1
196.7
 72
     1
 11
989.6924102347924
 21
45.4782263929645
 31
0.0
  0
LINE
  5
9AE0
  8
1HATCH
 10
891.3036002059615
 20
10.8350662425533
 30
0.0
 11
945.4314850964731
 21
10.83506624255325
 31
0.0
  0
TEXT
  5
9AE1
  8
1TEXT
 10
904.6004892087935
 20
11.2585351698277
 30
0.0
 40
2.85768
  1
1200
 72
     1
 11
908.9465442087935
 21
12.6873751698277
 31
0.0
 73
     2
  0
LINE
  5
AB65
  8
1DIM
 10
817.4974026522581
 20
160.2190444732591
 30
0.0
 11
817.4974026522581
 21
128.2190444732589
 31
0.0
  0
LINE
  5
AB66
  8
1DIM
 10
917.4974026522582
 20
160.2190444732591
 30
0.0
 11
917.4974026522582
 21
128.2190444732589
 31
0.0
  0
LINE
  5
AB67
  8
1DIM
 10
819.4974026522581
 20
129.2190444732589
 30
0.0
 11
915.4974026522582
 21
129.2190444732589
 31
0.0
  0
LINE
  5
AB6B
  8
1DIM
 10
827.4974026522582
 20
158.2190444732591
 30
0.0
 11
827.4974026522582
 21
136.6393312201265
 31
0.0
  0
LINE
  5
AB6C
  8
1DIM
 10
907.4974026522582
 20
158.2190444732591
 30
0.0
 11
907.4974026522582
 21
136.6393312201265
 31
0.0
  0
LINE
  5
AB6D
  8
1DIM
 10
829.4974026522582
 20
137.6393312201265
 30
0.0
 11
905.4974026522582
 21
137.6393312201265
 31
0.0
  0
LINE
  5
AB71
  8
1DIM
 10
882.2068227893783
 20
2.064037244214774
 30
0.0
 11
800.2197640433842
 21
2.064037244214788
 31
0.0
  0
LINE
  5
AB72
  8
1DIM
 10
800.2197640433842
 20
2.064037244214788
 30
0.0
 11
800.2197640433842
 21
81.5640372442145
 31
0.0
  0
LINE
  5
AB73
  8
1DIM
 10
800.2197640433842
 20
81.5640372442145
 30
0.0
 11
882.2068227893783
 21
81.56403724421449
 31
0.0
  0
LINE
  5
AB74
  8
1DIM
 10
882.2068227893783
 20
81.56403724421449
 30
0.0
 11
882.2068227893783
 21
2.064037244214774
 31
0.0
  0
LINE
  5
AB75
  8
1DIM
 10
825.9732632748306
 20
64.39191277115437
 30
0.0
 11
829.9623460671828
 21
64.39191277115437
 31
0.0
  0
LINE
  5
AB76
  8
1DIM
 10
829.9623460671828
 20
64.39191277115437
 30
0.0
 11
829.9623460671828
 21
59.33814947430973
 31
0.0
  0
LINE
  5
AB77
  8
1DIM
 10
829.9623460671828
 20
59.33814947430973
 30
0.0
 11
825.9732632748306
 21
59.33814947430973
 31
0.0
  0
LINE
  5
AB78
  8
1DIM
 10
825.9732632748306
 20
59.33814947430973
 30
0.0
 11
825.9732632748306
 21
64.39191277115437
 31
0.0
  0
LINE
  5
AB79
  8
1DIM
 10
830.2406543290091
 20
64.39191277115437
 30
0.0
 11
841.0019005658413
 21
64.39191277115437
 31
0.0
  0
LINE
  5
AB7A
  8
1DIM
 10
841.0019005658413
 20
64.39191277115437
 30
0.0
 11
841.0019005658413
 21
59.33814947430973
 31
0.0
  0
LINE
  5
AB7B
  8
1DIM
 10
841.0019005658413
 20
59.33814947430973
 30
0.0
 11
830.2406543290091
 21
59.33814947430973
 31
0.0
  0
LINE
  5
AB7C
  8
1DIM
 10
830.2406543290091
 20
59.33814947430973
 30
0.0
 11
830.2406543290091
 21
64.39191277115437
 31
0.0
  0
LINE
  5
AB7D
  8
1DIM
 10
830.8387629156587
 20
10.53921926727691
 30
0.0
 11
830.8387629156587
 21
38.53921926727692
 31
0.0
  0
LINE
  5
AB7E
  8
1DIM
 10
830.8387629156587
 20
38.53921926727692
 30
0.0
 11
880.0229924640412
 21
38.53921926727692
 31
0.0
  0
LINE
  5
AB7F
  8
1DIM
 10
880.0229924640412
 20
38.53921926727692
 30
0.0
 11
880.0229924640412
 21
10.53921926727691
 31
0.0
  0
LINE
  5
AB80
  8
1DIM
 10
846.1687716218745
 20
56.85556732980253
 30
0.0
 11
880.0229924640412
 21
56.85556732980253
 31
0.0
  0
LINE
  5
AB81
  8
1DIM
 10
880.0229924640412
 20
56.85556732980253
 30
0.0
 11
880.0229924640412
 21
42.85556732980253
 31
0.0
  0
LINE
  5
AB82
  8
1DIM
 10
880.0229924640412
 20
42.85556732980253
 30
0.0
 11
846.1687716218745
 21
42.85556732980253
 31
0.0
  0
LINE
  5
AB83
  8
1DIM
 10
846.1687716218745
 20
42.85556732980253
 30
0.0
 11
846.1687716218745
 21
56.85556732980253
 31
0.0
  0
LINE
  5
AB84
  8
1DIM
 10
906.6844896015908
 20
71.62587972454185
 30
0.0
 11
910.0174527484055
 21
71.62587972454185
 31
0.0
  0
LINE
  5
AB85
  8
1DIM
 10
910.0174527484055
 20
71.62587972454185
 30
0.0
 11
910.0174527484055
 21
68.29291657772723
 31
0.0
  0
LINE
  5
AB86
  8
1DIM
 10
910.0174527484055
 20
68.29291657772723
 30
0.0
 11
906.6844896015908
 21
68.29291657772723
 31
0.0
  0
LINE
  5
AB87
  8
1DIM
 10
906.6844896015908
 20
68.29291657772723
 30
0.0
 11
906.6844896015908
 21
71.62587972454185
 31
0.0
  0
LINE
  5
AB88
  8
1DIM
 10
906.6844896015908
 20
67.29400635431602
 30
0.0
 11
910.0174527484055
 21
67.29400635431602
 31
0.0
  0
LINE
  5
AB89
  8
1DIM
 10
910.0174527484055
 20
67.29400635431602
 30
0.0
 11
910.0174527484055
 21
63.9610432075014
 31
0.0
  0
LINE
  5
AB8A
  8
1DIM
 10
910.0174527484055
 20
63.9610432075014
 30
0.0
 11
906.6844896015908
 21
63.9610432075014
 31
0.0
  0
LINE
  5
AB8B
  8
1DIM
 10
906.6844896015908
 20
63.9610432075014
 30
0.0
 11
906.6844896015908
 21
67.29400635431602
 31
0.0
  0
LINE
  5
AB8C
  8
1DIM
 10
905.3477303977559
 20
62.82986310402441
 30
0.0
 11
908.6806935445704
 21
62.82986310402441
 31
0.0
  0
LINE
  5
AB8D
  8
1DIM
 10
908.6806935445704
 20
62.82986310402441
 30
0.0
 11
908.6806935445704
 21
59.49689995720979
 31
0.0
  0
LINE
  5
AB8E
  8
1DIM
 10
908.6806935445704
 20
59.49689995720979
 30
0.0
 11
905.3477303977559
 21
59.49689995720979
 31
0.0
  0
LINE
  5
AB8F
  8
1DIM
 10
905.3477303977559
 20
59.49689995720979
 30
0.0
 11
905.3477303977559
 21
62.82986310402441
 31
0.0
  0
LINE
  5
AB90
  8
1DIM
 10
905.3477303977559
 20
57.89213326537708
 30
0.0
 11
908.6806935445704
 21
57.89213326537708
 31
0.0
  0
LINE
  5
AB91
  8
1DIM
 10
908.6806935445704
 20
57.89213326537708
 30
0.0
 11
908.6806935445704
 21
54.55917011856246
 31
0.0
  0
LINE
  5
AB92
  8
1DIM
 10
908.6806935445704
 20
54.55917011856246
 30
0.0
 11
905.3477303977559
 21
54.55917011856246
 31
0.0
  0
LINE
  5
AB93
  8
1DIM
 10
905.3477303977559
 20
54.55917011856246
 30
0.0
 11
905.3477303977559
 21
57.89213326537708
 31
0.0
  0
LINE
  5
AB94
  8
1DIM
 10
903.951832358781
 20
48.85758310259052
 30
0.0
 11
907.2847955055956
 21
48.85758310259052
 31
0.0
  0
LINE
  5
AB95
  8
1DIM
 10
907.2847955055956
 20
48.85758310259052
 30
0.0
 11
907.2847955055956
 21
45.5246199557759
 31
0.0
  0
LINE
  5
AB96
  8
1DIM
 10
907.2847955055956
 20
45.5246199557759
 30
0.0
 11
903.951832358781
 21
45.5246199557759
 31
0.0
  0
LINE
  5
AB97
  8
1DIM
 10
903.951832358781
 20
45.5246199557759
 30
0.0
 11
903.951832358781
 21
48.85758310259052
 31
0.0
  0
LINE
  5
AB98
  8
1DIM
 10
905.3477303977559
 20
53.25418639766099
 30
0.0
 11
908.6806935445704
 21
53.25418639766099
 31
0.0
  0
LINE
  5
AB99
  8
1DIM
 10
908.6806935445704
 20
53.25418639766099
 30
0.0
 11
908.6806935445704
 21
49.92122325084637
 31
0.0
  0
LINE
  5
AB9A
  8
1DIM
 10
908.6806935445704
 20
49.92122325084637
 30
0.0
 11
905.3477303977559
 21
49.92122325084637
 31
0.0
  0
LINE
  5
AB9B
  8
1DIM
 10
905.3477303977559
 20
49.92122325084637
 30
0.0
 11
905.3477303977559
 21
53.25418639766099
 31
0.0
  0
LINE
  5
AB9C
  8
1DIM
 10
1001.284184076194
 20
81.56403724421449
 30
0.0
 11
891.3035959572024
 21
81.56403724421449
 31
0.0
  0
LINE
  5
AB9D
  8
1DIM
 10
891.3035959572024
 20
81.56403724421449
 30
0.0
 11
891.3035959572024
 21
45.1435345547292
 31
0.0
  0
LINE
  5
AB9E
  8
1DIM
 10
891.3035959572024
 20
45.1435345547292
 30
0.0
 11
1001.284184076194
 21
45.1435345547292
 31
0.0
  0
LINE
  5
AB9F
  8
1DIM
 10
1001.284184076194
 20
45.1435345547292
 30
0.0
 11
1001.284184076194
 21
81.56403724421449
 31
0.0
  0
LINE
  5
ABA0
  8
1DIM
 10
907.4974026522582
 20
158.2190444732591
 30
0.0
 11
907.4974026522582
 21
136.6393312201265
 31
0.0
  0
LINE
  5
ABA1
  8
1DIM
 10
917.4974026522582
 20
160.2190444732591
 30
0.0
 11
917.4974026522582
 21
136.6393312201265
 31
0.0
  0
LINE
  5
ABA2
  8
1DIM
 10
909.4974026522582
 20
137.6393312201265
 30
0.0
 11
915.4974026522582
 21
137.6393312201265
 31
0.0
  0
LINE
  5
ABA6
  8
1DIM
 10
817.4974026522581
 20
160.2190444732591
 30
0.0
 11
817.4974026522581
 21
136.6393312201268
 31
0.0
  0
LINE
  5
ABA7
  8
1DIM
 10
827.4974026522582
 20
158.2190444732591
 30
0.0
 11
827.4974026522582
 21
136.6393312201268
 31
0.0
  0
LINE
  5
ABA8
  8
1DIM
 10
819.4974026522581
 20
137.6393312201268
 30
0.0
 11
825.4974026522582
 21
137.6393312201268
 31
0.0
  0
SOLID
  5
ABAC
  8
1DIM
 10
824.2843754100068
 20
136.6812918294046
 30
0.0
 11
822.4974026522582
 21
137.6393312201268
 31
0.0
 12
824.4984977660384
 22
137.3126364746594
 32
0.0
 13
824.4984977660384
 23
137.3126364746594
 33
0.0
  0
LINE
  5
ABAD
  8
1DIM
 10
824.3914365880227
 20
136.996964152032
 30
0.0
 11
878.5379367323558
 21
118.6330225728795
 31
0.0
  0
LINE
  5
ABAE
  8
1DIM
 10
878.5379367323558
 20
118.6330225728795
 30
0.0
 11
931.9046033990224
 21
118.6330225728795
 31
0.0
  0
TEXT
  5
ABAF
  8
1DIM
  6
CONTINUOUS
 10
881.2379367323558
 20
119.3330225728795
 30
0.0
 40
3.5
  1
W30～49の場合は6mm
  0
SOLID
  5
ABB0
  8
1DIM
 10
910.5893537345992
 20
136.9534300326866
 30
0.0
 11
912.4974026522582
 21
137.6393312201265
 31
0.0
 12
910.9149459531018
 22
136.3716790965507
 32
0.0
 13
910.9149459531018
 23
136.3716790965507
 33
0.0
  0
LINE
  5
ABB1
  8
1DIM
 10
910.7521498438505
 20
136.6625545646187
 30
0.0
 11
878.5379367323558
 21
118.6330225728795
 31
0.0
  0
LINE
  5
ABB2
  8
1DIM
 10
952.9517080847199
 20
160.2190444732561
 30
0.0
 11
975.4664320087857
 21
160.2190444732561
 31
0.0
  0
LINE
  5
ABB3
  8
1DIM
 10
955.4517080847195
 20
177.2190444732645
 30
0.0
 11
975.4664320087857
 21
177.2190444732645
 31
0.0
  0
LINE
  5
ABB4
  8
1DIM
 10
974.4664320087857
 20
162.2190444732561
 30
0.0
 11
974.4664320087857
 21
175.2190444732645
 31
0.0
  0
LINE
  5
ABB8
  8
1DIM
 10
944.9517080847231
 20
160.2190444732591
 30
0.0
 11
944.9517080847231
 21
146.0716035911205
 31
0.0
  0
LINE
  5
ABB9
  8
1DIM
 10
952.9517080847199
 20
160.2190444732561
 30
0.0
 11
952.9517080847199
 21
146.0716035911205
 31
0.0
  0
LINE
  5
ABBA
  8
1DIM
 10
946.9517080847231
 20
147.0716035911205
 30
0.0
 11
950.9517080847199
 21
147.0716035911205
 31
0.0
  0
LINE
  5
ABBE
  8
1DIM
 10
916.9974026522599
 20
202.0240631908878
 30
0.0
 11
927.8496753465079
 21
202.0240631908878
 31
0.0
  0
LINE
  5
ABBF
  8
1DIM
 10
916.9974026522618
 20
217.0240631908877
 30
0.0
 11
927.8496753465079
 21
217.0240631908877
 31
0.0
  0
LINE
  5
ABC0
  8
1DIM
 10
926.8496753465079
 20
204.0240631908878
 30
0.0
 11
926.8496753465079
 21
215.0240631908877
 31
0.0
  0
LINE
  5
ABC4
  8
1DIM
 10
955.9517080847177
 20
175.2190444732645
 30
0.0
 11
964.9019468231672
 21
175.2190444732645
 31
0.0
  0
LINE
  5
ABC5
  8
1DIM
 10
955.4517080847195
 20
177.2190444732645
 30
0.0
 11
964.9019468231672
 21
177.2190444732645
 31
0.0
  0
LINE
  5
ABC6
  8
1DIM
 10
963.9019468231672
 20
173.2190444732645
 30
0.0
 11
963.9019468231672
 21
171.2190444732645
 31
0.0
  0
LINE
  5
ABC7
  8
1DIM
 10
963.9019468231672
 20
179.2190444732645
 30
0.0
 11
963.9019468231672
 21
184.9523778065978
 31
0.0
  0
LINE
  5
ABC8
  8
1DIM
 10
963.9019468231672
 20
175.2190444732645
 30
0.0
 11
963.9019468231672
 21
177.2190444732645
 31
0.0
  0
SOLID
  5
ABCC
  8
1DIM
 10
950.26287631828
 20
158.2740046334357
 30
0.0
 11
949.1721299107703
 21
159.9832101171667
 31
0.0
 12
950.7582539666516
 22
158.7201497106676
 32
0.0
 13
950.7582539666516
 23
158.7201497106676
 33
0.0
  0
LINE
  5
ABCD
  8
1DIM
 10
950.5105651424658
 20
158.4970771720517
 30
0.0
 11
961.785374873807
 21
145.9780805147212
 31
0.0
  0
LINE
  5
ABCE
  8
1DIM
 10
961.785374873807
 20
145.9780805147212
 30
0.0
 11
978.3187082071403
 21
145.9780805147212
 31
0.0
  0
TEXT
  5
ABCF
  8
1DIM
  6
CONTINUOUS
 10
964.485374873807
 20
146.6780805147212
 30
0.0
 40
3.5
  1
M4-8
  0
LINE
  5
ABD0
  8
1DIM
 10
955.9517080847177
 20
175.2190444732645
 30
0.0
 11
964.9019468231672
 21
175.2190444732645
 31
0.0
  0
LINE
  5
ABD1
  8
1DIM
 10
952.9517080847199
 20
160.2190444732591
 30
0.0
 11
964.9019468231672
 21
160.2190444732591
 31
0.0
  0
LINE
  5
ABD2
  8
1DIM
 10
963.9019468231672
 20
173.2190444732645
 30
0.0
 11
963.9019468231672
 21
162.2190444732591
 31
0.0
  0
LINE
  5
ABD6
  8
0
  6
BYBLOCK
 10
819.4974026522581
 20
128.683146093259
 30
0.0
 11
817.4974026522581
 21
129.2190444732589
 31
0.0
  0
LINE
  5
ABD7
  8
0
  6
BYBLOCK
 10
817.4974026522581
 20
129.2190444732589
 30
0.0
 11
819.4974026522581
 21
129.7549428532589
 31
0.0
  0
LINE
  5
ABD8
  8
0
  6
BYBLOCK
 10
817.4974026522581
 20
129.2190444732589
 30
0.0
 11
819.4974026522581
 21
129.2190444732589
 31
0.0
  0
LINE
  5
ABD9
  8
0
  6
BYBLOCK
 10
915.4974026522582
 20
129.7549428532589
 30
0.0
 11
917.4974026522582
 21
129.2190444732589
 31
0.0
  0
LINE
  5
ABDA
  8
0
  6
BYBLOCK
 10
917.4974026522582
 20
129.2190444732589
 30
0.0
 11
915.4974026522582
 21
128.683146093259
 31
0.0
  0
LINE
  5
ABDB
  8
0
  6
BYBLOCK
 10
917.4974026522582
 20
129.2190444732589
 30
0.0
 11
915.4974026522582
 21
129.2190444732589
 31
0.0
  0
TEXT
  5
ABDC
  8
1DIM
  6
CONTINUOUS
 10
861.8974026522582
 20
129.9190444732589
 30
0.0
 40
3.5
  1
L寸法
  0
LINE
  5
ABDD
  8
0
  6
BYBLOCK
 10
829.4974026522582
 20
137.1034328401265
 30
0.0
 11
827.4974026522582
 21
137.6393312201265
 31
0.0
  0
LINE
  5
ABDE
  8
0
  6
BYBLOCK
 10
827.4974026522582
 20
137.6393312201265
 30
0.0
 11
829.4974026522582
 21
138.1752296001264
 31
0.0
  0
LINE
  5
ABDF
  8
0
  6
BYBLOCK
 10
827.4974026522582
 20
137.6393312201265
 30
0.0
 11
829.4974026522582
 21
137.6393312201265
 31
0.0
  0
LINE
  5
ABE0
  8
0
  6
BYBLOCK
 10
905.4974026522582
 20
138.1752296001264
 30
0.0
 11
907.4974026522582
 21
137.6393312201265
 31
0.0
  0
LINE
  5
ABE1
  8
0
  6
BYBLOCK
 10
907.4974026522582
 20
137.6393312201265
 30
0.0
 11
905.4974026522582
 21
137.1034328401265
 31
0.0
  0
LINE
  5
ABE2
  8
0
  6
BYBLOCK
 10
907.4974026522582
 20
137.6393312201265
 30
0.0
 11
905.4974026522582
 21
137.6393312201265
 31
0.0
  0
TEXT
  5
ABE3
  8
1DIM
  6
CONTINUOUS
 10
837.5612996808132
 20
138.3393312201264
 30
0.0
 40
3.5
  1
穴数は表による　ピッチは均等割
  0
LINE
  5
ABE4
  8
0
  6
BYBLOCK
 10
909.4974026522582
 20
137.1034328401265
 30
0.0
 11
907.4974026522582
 21
137.6393312201265
 31
0.0
  0
LINE
  5
ABE5
  8
0
  6
BYBLOCK
 10
907.4974026522582
 20
137.6393312201265
 30
0.0
 11
909.4974026522582
 21
138.1752296001264
 31
0.0
  0
LINE
  5
ABE6
  8
0
  6
BYBLOCK
 10
907.4974026522582
 20
137.6393312201265
 30
0.0
 11
909.4974026522582
 21
137.6393312201265
 31
0.0
  0
LINE
  5
ABE7
  8
0
  6
BYBLOCK
 10
915.4974026522582
 20
138.1752296001264
 30
0.0
 11
917.4974026522582
 21
137.6393312201265
 31
0.0
  0
LINE
  5
ABE8
  8
0
  6
BYBLOCK
 10
917.4974026522582
 20
137.6393312201265
 30
0.0
 11
915.4974026522582
 21
137.1034328401265
 31
0.0
  0
LINE
  5
ABE9
  8
0
  6
BYBLOCK
 10
917.4974026522582
 20
137.6393312201265
 30
0.0
 11
915.4974026522582
 21
137.6393312201265
 31
0.0
  0
TEXT
  5
ABEA
  8
1DIM
  6
CONTINUOUS
 10
910.3828193189248
 20
138.3393312201264
 30
0.0
 40
3.5
  1
10
  0
LINE
  5
ABEB
  8
0
  6
BYBLOCK
 10
819.4974026522581
 20
137.1034328401268
 30
0.0
 11
817.4974026522581
 21
137.6393312201268
 31
0.0
  0
LINE
  5
ABEC
  8
0
  6
BYBLOCK
 10
817.4974026522581
 20
137.6393312201268
 30
0.0
 11
819.4974026522581
 21
138.1752296001268
 31
0.0
  0
LINE
  5
ABED
  8
0
  6
BYBLOCK
 10
817.4974026522581
 20
137.6393312201268
 30
0.0
 11
819.4974026522581
 21
137.6393312201268
 31
0.0
  0
LINE
  5
ABEE
  8
0
  6
BYBLOCK
 10
825.4974026522582
 20
138.1752296001268
 30
0.0
 11
827.4974026522582
 21
137.6393312201268
 31
0.0
  0
LINE
  5
ABEF
  8
0
  6
BYBLOCK
 10
827.4974026522582
 20
137.6393312201268
 30
0.0
 11
825.4974026522582
 21
137.1034328401268
 31
0.0
  0
LINE
  5
ABF0
  8
0
  6
BYBLOCK
 10
827.4974026522582
 20
137.6393312201268
 30
0.0
 11
825.4974026522582
 21
137.6393312201268
 31
0.0
  0
TEXT
  5
ABF1
  8
1DIM
  6
CONTINUOUS
 10
820.3828193189248
 20
138.3393312201268
 30
0.0
 40
3.5
  1
10
  0
LINE
  5
ABF2
  8
0
  6
BYBLOCK
 10
975.0023303887857
 20
162.2190444732561
 30
0.0
 11
974.4664320087857
 21
160.2190444732561
 31
0.0
  0
LINE
  5
ABF3
  8
0
  6
BYBLOCK
 10
974.4664320087857
 20
160.2190444732561
 30
0.0
 11
973.9305336287856
 21
162.2190444732561
 31
0.0
  0
LINE
  5
ABF4
  8
0
  6
BYBLOCK
 10
974.4664320087857
 20
160.2190444732561
 30
0.0
 11
974.4664320087857
 21
162.2190444732561
 31
0.0
  0
LINE
  5
ABF5
  8
0
  6
BYBLOCK
 10
973.9305336287856
 20
175.2190444732645
 30
0.0
 11
974.4664320087857
 21
177.2190444732645
 31
0.0
  0
LINE
  5
ABF6
  8
0
  6
BYBLOCK
 10
974.4664320087857
 20
177.2190444732645
 30
0.0
 11
975.0023303887857
 21
175.2190444732645
 31
0.0
  0
LINE
  5
ABF7
  8
0
  6
BYBLOCK
 10
974.4664320087857
 20
177.2190444732645
 30
0.0
 11
974.4664320087857
 21
175.2190444732645
 31
0.0
  0
TEXT
  5
ABF8
  8
1DIM
  6
CONTINUOUS
 10
973.7664320087857
 20
166.3857111399271
 30
0.0
 40
3.5
  1
17
 50
90.0
  0
LINE
  5
ABF9
  8
0
  6
BYBLOCK
 10
946.9517080847231
 20
146.5357052111205
 30
0.0
 11
944.9517080847231
 21
147.0716035911205
 31
0.0
  0
LINE
  5
ABFA
  8
0
  6
BYBLOCK
 10
944.9517080847231
 20
147.0716035911205
 30
0.0
 11
946.9517080847231
 21
147.6075019711205
 31
0.0
  0
LINE
  5
ABFB
  8
0
  6
BYBLOCK
 10
944.9517080847231
 20
147.0716035911205
 30
0.0
 11
946.9517080847231
 21
147.0716035911205
 31
0.0
  0
LINE
  5
ABFC
  8
0
  6
BYBLOCK
 10
950.9517080847199
 20
147.6075019711205
 30
0.0
 11
952.9517080847199
 21
147.0716035911205
 31
0.0
  0
LINE
  5
ABFD
  8
0
  6
BYBLOCK
 10
952.9517080847199
 20
147.0716035911205
 30
0.0
 11
950.9517080847199
 21
146.5357052111205
 31
0.0
  0
LINE
  5
ABFE
  8
0
  6
BYBLOCK
 10
952.9517080847199
 20
147.0716035911205
 30
0.0
 11
950.9517080847199
 21
147.0716035911205
 31
0.0
  0
TEXT
  5
ABFF
  8
1DIM
  6
CONTINUOUS
 10
947.7850414180549
 20
147.7716035911205
 30
0.0
 40
3.5
  1
8
  0
LINE
  5
AC00
  8
0
  6
BYBLOCK
 10
927.3855737265079
 20
204.0240631908878
 30
0.0
 11
926.8496753465079
 21
202.0240631908878
 31
0.0
  0
LINE
  5
AC01
  8
0
  6
BYBLOCK
 10
926.8496753465079
 20
202.0240631908878
 30
0.0
 11
926.3137769665078
 21
204.0240631908878
 31
0.0
  0
LINE
  5
AC02
  8
0
  6
BYBLOCK
 10
926.8496753465079
 20
202.0240631908878
 30
0.0
 11
926.8496753465079
 21
204.0240631908878
 31
0.0
  0
LINE
  5
AC03
  8
0
  6
BYBLOCK
 10
926.3137769665078
 20
215.0240631908877
 30
0.0
 11
926.8496753465079
 21
217.0240631908877
 31
0.0
  0
LINE
  5
AC04
  8
0
  6
BYBLOCK
 10
926.8496753465079
 20
217.0240631908877
 30
0.0
 11
927.3855737265079
 21
215.0240631908877
 31
0.0
  0
LINE
  5
AC05
  8
0
  6
BYBLOCK
 10
926.8496753465079
 20
217.0240631908877
 30
0.0
 11
926.8496753465079
 21
215.0240631908877
 31
0.0
  0
TEXT
  5
AC06
  8
1DIM
  6
CONTINUOUS
 10
926.1496753465078
 20
207.1907298575545
 30
0.0
 40
3.5
  1
15
 50
90.0
  0
LINE
  5
AC07
  8
0
  6
BYBLOCK
 10
963.3660484431672
 20
173.2190444732645
 30
0.0
 11
963.9019468231672
 21
175.2190444732645
 31
0.0
  0
LINE
  5
AC08
  8
0
  6
BYBLOCK
 10
963.9019468231672
 20
175.2190444732645
 30
0.0
 11
964.4378452031673
 21
173.2190444732645
 31
0.0
  0
LINE
  5
AC09
  8
0
  6
BYBLOCK
 10
963.9019468231672
 20
175.2190444732645
 30
0.0
 11
963.9019468231672
 21
173.2190444732645
 31
0.0
  0
LINE
  5
AC0A
  8
0
  6
BYBLOCK
 10
964.4378452031673
 20
179.2190444732645
 30
0.0
 11
963.9019468231672
 21
177.2190444732645
 31
0.0
  0
LINE
  5
AC0B
  8
0
  6
BYBLOCK
 10
963.9019468231672
 20
177.2190444732645
 30
0.0
 11
963.3660484431672
 21
179.2190444732645
 31
0.0
  0
LINE
  5
AC0C
  8
0
  6
BYBLOCK
 10
963.9019468231672
 20
177.2190444732645
 30
0.0
 11
963.9019468231672
 21
179.2190444732645
 31
0.0
  0
TEXT
  5
AC0D
  8
1DIM
  6
CONTINUOUS
 10
963.2019468231673
 20
181.9190444732648
 30
0.0
 40
3.5
  1
2
 50
90.0
  0
LINE
  5
AC0E
  8
0
  6
BYBLOCK
 10
963.3660484431672
 20
173.2190444732645
 30
0.0
 11
963.9019468231672
 21
175.2190444732645
 31
0.0
  0
LINE
  5
AC0F
  8
0
  6
BYBLOCK
 10
963.9019468231672
 20
175.2190444732645
 30
0.0
 11
964.4378452031673
 21
173.2190444732645
 31
0.0
  0
LINE
  5
AC10
  8
0
  6
BYBLOCK
 10
963.9019468231672
 20
175.2190444732645
 30
0.0
 11
963.9019468231672
 21
173.2190444732645
 31
0.0
  0
LINE
  5
AC11
  8
0
  6
BYBLOCK
 10
964.4378452031673
 20
162.2190444732591
 30
0.0
 11
963.9019468231672
 21
160.2190444732591
 31
0.0
  0
LINE
  5
AC12
  8
0
  6
BYBLOCK
 10
963.9019468231672
 20
160.2190444732591
 30
0.0
 11
963.3660484431672
 21
162.2190444732591
 31
0.0
  0
LINE
  5
AC13
  8
0
  6
BYBLOCK
 10
963.9019468231672
 20
160.2190444732591
 30
0.0
 11
963.9019468231672
 21
162.2190444732591
 31
0.0
  0
TEXT
  5
AC14
  8
1DIM
  6
CONTINUOUS
 10
963.2019468231672
 20
165.3857111399286
 30
0.0
 40
3.5
  1
15
 50
90.0
  0
VIEWPORT
  5
57
 67
     1
  8
0
 10
0.0
 20
0.0
 30
0.0
 40
554.37576499388
 41
297.0
 68
     1
 69
     1
1001
ACAD
1000
MVIEW
1002
{
1070
    16
1010
0.0
1020
0.0
1030
0.0
1010
0.0
1020
0.0
1030
1.0
1040
0.0
1040
297.0
1040
23.16169734441067
1040
9.267478234946424
1040
50.0
1040
0.0
1040
0.0
1070
    16
1070
   100
1070
     0
1070
     1
1070
     0
1070
     0
1070
     0
1070
     0
1040
0.0
1040
0.0
1040
0.0
1040
10.0
1040
10.0
1040
10.0
1040
10.0
1070
     0
1002
{
1002
}
1002
}
  0
ENDSEC
  0
EOF
