  0
SECTION
  2
HEADER
  9
$ACADVER
  1
AC1012
  9
$DWGCODEPAGE
  3
ansi_932
  9
$INSBASE
 10
0.0
 20
0.0
 30
0.0
  9
$EXTMIN
 10
200.041822191993
 20
-36.32797331908346
 30
0.0
  9
$EXTMAX
 10
513.8648579205731
 20
185.222021687491
 30
0.0
  9
$LIMMIN
 10
0.0
 20
0.0
  9
$LIMMAX
 10
420.0
 20
297.0
  9
$ORTHOMODE
 70
     0
  9
$REGENMODE
 70
     1
  9
$FILLMODE
 70
     1
  9
$QTEXTMODE
 70
     0
  9
$MIRRTEXT
 70
     0
  9
$DRAGMODE
 70
     2
  9
$LTSCALE
 40
0.5
  9
$OSMODE
 70
 14591
  9
$ATTMODE
 70
     1
  9
$TEXTSIZE
 40
4.0
  9
$TRACEWID
 40
1.0
  9
$TEXTSTYLE
  7
STANDARD
  9
$CLAYER
  8
1TEXT
  9
$CELTYPE
  6
BYLAYER
  9
$CECOLOR
 62
   256
  9
$CELTSCALE
 40
1.0
  9
$DELOBJ
 70
     1
  9
$DISPSILH
 70
     0
  9
$DIMSCALE
 40
1.0
  9
$DIMASZ
 40
2.0
  9
$DIMEXO
 40
0.0
  9
$DIMDLI
 40
7.0
  9
$DIMRND
 40
0.0
  9
$DIMDLE
 40
0.0
  9
$DIMEXE
 40
1.0
  9
$DIMTP
 40
0.0
  9
$DIMTM
 40
0.0
  9
$DIMTXT
 40
3.5
  9
$DIMCEN
 40
0.0
  9
$DIMTSZ
 40
0.0
  9
$DIMTOL
 70
     0
  9
$DIMLIM
 70
     0
  9
$DIMTIH
 70
     0
  9
$DIMTOH
 70
     0
  9
$DIMSE1
 70
     0
  9
$DIMSE2
 70
     0
  9
$DIMTAD
 70
     1
  9
$DIMZIN
 70
     8
  9
$DIMBLK
  1

  9
$DIMASO
 70
     1
  9
$DIMSHO
 70
     1
  9
$DIMPOST
  1
 
  9
$DIMAPOST
  1

  9
$DIMALT
 70
     0
  9
$DIMALTD
 70
     2
  9
$DIMALTF
 40
25.4
  9
$DIMLFAC
 40
1.0
  9
$DIMTOFL
 70
     1
  9
$DIMTVP
 40
0.0
  9
$DIMTIX
 70
     0
  9
$DIMSOXD
 70
     0
  9
$DIMSAH
 70
     1
  9
$DIMBLK1
  1
OPEN30
  9
$DIMBLK2
  1
OPEN30
  9
$DIMSTYLE
  2
NEWX10
  9
$DIMCLRD
 70
   256
  9
$DIMCLRE
 70
   256
  9
$DIMCLRT
 70
   201
  9
$DIMTFAC
 40
0.7
  9
$DIMGAP
 40
0.7
  9
$DIMJUST
 70
     0
  9
$DIMSD1
 70
     0
  9
$DIMSD2
 70
     0
  9
$DIMTOLJ
 70
     1
  9
$DIMTZIN
 70
     8
  9
$DIMALTZ
 70
     0
  9
$DIMALTTZ
 70
     0
  9
$DIMFIT
 70
     2
  9
$DIMUPT
 70
     0
  9
$DIMUNIT
 70
     2
  9
$DIMDEC
 70
     2
  9
$DIMTDEC
 70
     4
  9
$DIMALTU
 70
     2
  9
$DIMALTTD
 70
     2
  9
$DIMTXSTY
  7
STANDARD
  9
$DIMAUNIT
 70
     0
  9
$LUNITS
 70
     2
  9
$LUPREC
 70
     4
  9
$SKETCHINC
 40
1.0
  9
$FILLETRAD
 40
0.0
  9
$AUNITS
 70
     0
  9
$AUPREC
 70
     2
  9
$MENU
  1
acad
  9
$ELEVATION
 40
0.0
  9
$PELEVATION
 40
0.0
  9
$THICKNESS
 40
0.0
  9
$LIMCHECK
 70
     0
  9
$CHAMFERA
 40
10.0
  9
$CHAMFERB
 40
10.0
  9
$CHAMFERC
 40
20.0
  9
$CHAMFERD
 40
0.0
  9
$SKPOLY
 70
     0
  9
$TDCREATE
 40
2451318.621352917
  9
$TDUPDATE
 40
2458101.391167002
  9
$TDINDWG
 40
0.6608119907
  9
$TDUSRTIMER
 40
0.6608119907
  9
$USRTIMER
 70
     1
  9
$ANGBASE
 50
0.0
  9
$ANGDIR
 70
     0
  9
$PDMODE
 70
     0
  9
$PDSIZE
 40
0.0
  9
$PLINEWID
 40
0.0
  9
$COORDS
 70
     2
  9
$SPLFRAME
 70
     0
  9
$SPLINETYPE
 70
     6
  9
$SPLINESEGS
 70
     8
  9
$ATTDIA
 70
     0
  9
$ATTREQ
 70
     1
  9
$HANDLING
 70
     1
  9
$HANDSEED
  5
10492
  9
$SURFTAB1
 70
     6
  9
$SURFTAB2
 70
     6
  9
$SURFTYPE
 70
     6
  9
$SURFU
 70
     6
  9
$SURFV
 70
     6
  9
$UCSNAME
  2

  9
$UCSORG
 10
0.0
 20
0.0
 30
0.0
  9
$UCSXDIR
 10
1.0
 20
0.0
 30
0.0
  9
$UCSYDIR
 10
0.0
 20
1.0
 30
0.0
  9
$PUCSNAME
  2

  9
$PUCSORG
 10
0.0
 20
0.0
 30
0.0
  9
$PUCSXDIR
 10
1.0
 20
0.0
 30
0.0
  9
$PUCSYDIR
 10
0.0
 20
1.0
 30
0.0
  9
$USERI1
 70
     0
  9
$USERI2
 70
     0
  9
$USERI3
 70
     0
  9
$USERI4
 70
     0
  9
$USERI5
 70
     0
  9
$USERR1
 40
0.0
  9
$USERR2
 40
0.0
  9
$USERR3
 40
0.0
  9
$USERR4
 40
0.0
  9
$USERR5
 40
0.0
  9
$WORLDVIEW
 70
     1
  9
$SHADEDGE
 70
     3
  9
$SHADEDIF
 70
    70
  9
$TILEMODE
 70
     1
  9
$MAXACTVP
 70
    48
  9
$PINSBASE
 10
0.0
 20
0.0
 30
0.0
  9
$PLIMCHECK
 70
     0
  9
$PEXTMIN
 10
1.000000000000000E+20
 20
1.000000000000000E+20
 30
1.000000000000000E+20
  9
$PEXTMAX
 10
-1.000000000000000E+20
 20
-1.000000000000000E+20
 30
-1.000000000000000E+20
  9
$PLIMMIN
 10
0.0
 20
0.0
  9
$PLIMMAX
 10
420.0
 20
297.0
  9
$UNITMODE
 70
     0
  9
$VISRETAIN
 70
     1
  9
$PLINEGEN
 70
     0
  9
$PSLTSCALE
 70
     1
  9
$TREEDEPTH
 70
  3020
  9
$PICKSTYLE
 70
     1
  9
$CMLSTYLE
  2
STANDARD
  9
$CMLJUST
 70
     0
  9
$CMLSCALE
 40
20.0
  9
$SAVEIMAGES
 70
     1
  0
ENDSEC
  0
SECTION
  2
CLASSES
  0
CLASS
  1
DICTIONARYVAR
  2
AcDbDictionaryVar
  3
ObjectDBX Classes
 90
        0
280
     0
281
     0
  0
CLASS
  1
IDBUFFER
  2
AcDbIdBuffer
  3
ObjectDBX Classes
 90
    32768
280
     0
281
     0
  0
CLASS
  1
LWPOLYLINE
  2
AcDbPolyline
  3
ObjectDBX Classes
 90
    32768
280
     0
281
     1
  0
CLASS
  1
ACDBDICTIONARYWDFLT
  2
AcDbDictionaryWithDefault
  3
ObjectDBX Classes
 90
    32768
280
     0
281
     0
  0
CLASS
  1
ACDBPLACEHOLDER
  2
AcDbPlaceHolder
  3
ObjectDBX Classes
 90
        0
280
     0
281
     0
  0
CLASS
  1
LAYOUT
  2
AcDbLayout
  3
ObjectDBX Classes
 90
        0
280
     0
281
     0
  0
CLASS
  1
TABLESTYLE
  2
AcDbTableStyle
  3
ObjectDBX Classes
 90
     4095
280
     0
281
     0
  0
CLASS
  1
SORTENTSTABLE
  2
AcDbSortentsTable
  3
ObjectDBX Classes
 90
    32768
280
     0
281
     0
  0
CLASS
  1
MATERIAL
  2
AcDbMaterial
  3
ObjectDBX Classes
 90
     1153
280
     0
281
     0
  0
CLASS
  1
VISUALSTYLE
  2
AcDbVisualStyle
  3
ObjectDBX Classes
 90
     4095
280
     0
281
     0
  0
CLASS
  1
SCALE
  2
AcDbScale
  3
ObjectDBX Classes
 90
     1153
280
     0
281
     0
  0
CLASS
  1
MLEADERSTYLE
  2
AcDbMLeaderStyle
  3
ACDB_MLEADERSTYLE_CLASS
 90
     4095
280
     0
281
     0
  0
CLASS
  1
CELLSTYLEMAP
  2
AcDbCellStyleMap
  3
ObjectDBX Classes
 90
     1152
280
     0
281
     0
  0
CLASS
  1
SUN
  2
AcDbSun
  3
SCENEOE
 90
     1153
280
     0
281
     0
  0
CLASS
  1
XRECORD
  2
AcDbXrecord
  3
ObjectDBX Classes
 90
    32768
280
     0
281
     0
  0
CLASS
  1
HATCH
  2
AcDbHatch
  3
ObjectDBX Classes
 90
    32768
280
     0
281
     1
  0
ENDSEC
  0
SECTION
  2
TABLES
  0
TABLE
  2
VPORT
  5
8
330
0
100
AcDbSymbolTable
 70
     1
  0
VPORT
  5
CFAB
330
8
100
AcDbSymbolTableRecord
100
AcDbViewportTableRecord
  2
*ACTIVE
 70
     0
 10
0.0
 20
0.0
 11
1.0
 21
1.0
 12
356.953340056283
 22
74.44702418420378
 13
0.0
 23
0.0
 14
10.0
 24
10.0
 15
10.0
 25
10.0
 16
0.0
 26
0.0
 36
1.0
 17
0.0
 27
0.0
 37
0.0
 40
237.8747314807432
 41
2.020775623268698
 42
50.0
 43
0.0
 44
0.0
 50
0.0
 51
0.0
 71
    16
 72
   100
 73
     1
 74
     1
 75
     0
 76
     0
 77
     0
 78
     0
  0
ENDTAB
  0
TABLE
  2
LTYPE
  5
5
330
0
100
AcDbSymbolTable
 70
     3
  0
LTYPE
  5
12
330
5
100
AcDbSymbolTableRecord
100
AcDbLinetypeTableRecord
  2
BYBLOCK
 70
     0
  3

 72
    65
 73
     0
 40
0.0
  0
LTYPE
  5
13
330
5
100
AcDbSymbolTableRecord
100
AcDbLinetypeTableRecord
  2
BYLAYER
 70
     0
  3

 72
    65
 73
     0
 40
0.0
  0
LTYPE
  5
14
330
5
100
AcDbSymbolTableRecord
100
AcDbLinetypeTableRecord
  2
CONTINUOUS
 70
     0
  3
Solid line
 72
    65
 73
     0
 40
0.0
  0
LTYPE
  5
2C03
330
5
100
AcDbSymbolTableRecord
100
AcDbLinetypeTableRecord
  2
HIDDEN
 70
     0
  3
Hidden __ __ __ __ __ __ __ __ __ __ __ __ __ _
 72
    65
 73
     2
 40
9.524999999999999
 49
6.35
 74
     0
 49
-3.175
 74
     0
  0
LTYPE
  5
A61B
330
5
100
AcDbSymbolTableRecord
100
AcDbLinetypeTableRecord
  2
CENTER2
 70
     0
  3
Center (.5x) ___ _ ___ _ ___ _ ___ _ ___ _ ___
 72
    65
 73
     4
 40
28.575
 49
19.05
 74
     0
 49
-3.175
 74
     0
 49
3.175
 74
     0
 49
-3.175
 74
     0
  0
ENDTAB
  0
TABLE
  2
LAYER
  5
2
102
{ACAD_XDICTIONARY
360
D16C
102
}
330
0
100
AcDbSymbolTable
 70
     6
  0
LAYER
  5
E
102
{ACAD_XDICTIONARY
360
D0B5
102
}
330
2
100
AcDbSymbolTableRecord
100
AcDbLayerTableRecord
  2
0
 70
     0
 62
     7
  6
CONTINUOUS
  0
LAYER
  5
29
102
{ACAD_XDICTIONARY
360
D0B7
102
}
330
2
100
AcDbSymbolTableRecord
100
AcDbLayerTableRecord
  2
1CENTER
 70
     0
 62
     7
  6
CENTER2
  0
LAYER
  5
31
102
{ACAD_XDICTIONARY
360
D0B9
102
}
330
2
100
AcDbSymbolTableRecord
100
AcDbLayerTableRecord
  2
1TEXT
 70
     0
 62
     7
  6
CONTINUOUS
  0
LAYER
  5
243
102
{ACAD_XDICTIONARY
360
D0BF
102
}
330
2
100
AcDbSymbolTableRecord
100
AcDbLayerTableRecord
  2
01
 70
     0
 62
     1
  6
CONTINUOUS
  0
LAYER
  5
24E
102
{ACAD_XDICTIONARY
360
D0C5
102
}
330
2
100
AcDbSymbolTableRecord
100
AcDbLayerTableRecord
  2
1DIM
 70
     0
 62
     7
  6
CONTINUOUS
  0
LAYER
  5
2C05
102
{ACAD_XDICTIONARY
360
D0D3
102
}
330
2
100
AcDbSymbolTableRecord
100
AcDbLayerTableRecord
  2
1HIDDEN
 70
     0
 62
     7
  6
HIDDEN
  0
ENDTAB
  0
TABLE
  2
STYLE
  5
3
330
0
100
AcDbSymbolTable
 70
     1
  0
STYLE
  5
F
330
3
100
AcDbSymbolTableRecord
100
AcDbTextStyleTableRecord
  2
STANDARD
 70
     0
 40
0.0
 41
1.0
 50
0.0
 71
     0
 42
4.0
  3
txt.shx
  4
extfont.shx
  0
ENDTAB
  0
TABLE
  2
VIEW
  5
6
330
0
100
AcDbSymbolTable
 70
     0
  0
ENDTAB
  0
TABLE
  2
UCS
  5
7
330
0
100
AcDbSymbolTable
 70
     0
  0
ENDTAB
  0
TABLE
  2
APPID
  5
9
330
0
100
AcDbSymbolTable
 70
    13
  0
APPID
  5
10
330
9
100
AcDbSymbolTableRecord
100
AcDbRegAppTableRecord
  2
ACAD
 70
     0
  0
APPID
  5
21
330
9
100
AcDbSymbolTableRecord
100
AcDbRegAppTableRecord
  2
DRAWINGVARIABLESXDATA
 70
     0
  0
APPID
  5
64
330
9
100
AcDbSymbolTableRecord
100
AcDbRegAppTableRecord
  2
CONTENTTABDATA
 70
     0
  0
APPID
  5
65
330
9
100
AcDbSymbolTableRecord
100
AcDbRegAppTableRecord
  2
CONTENTCURRENTTAB
 70
     0
  0
APPID
  5
66
330
9
100
AcDbSymbolTableRecord
100
AcDbRegAppTableRecord
  2
CONTENTBLOCKDESCRIPTION
 70
     0
  0
APPID
  5
67
330
9
100
AcDbSymbolTableRecord
100
AcDbRegAppTableRecord
  2
CONTENTBLOCKICON
 70
     0
  0
APPID
  5
68
330
9
100
AcDbSymbolTableRecord
100
AcDbRegAppTableRecord
  2
CONTENTLONGBLOCKNAME
 70
     0
  0
APPID
  5
2AE
330
9
100
AcDbSymbolTableRecord
100
AcDbRegAppTableRecord
  2
ACAD_PSEXT
 70
     0
  0
APPID
  5
D09F
330
9
100
AcDbSymbolTableRecord
100
AcDbRegAppTableRecord
  2
ACAD_MLEADERVER
 70
     0
  0
APPID
  5
D7D9
330
9
100
AcDbSymbolTableRecord
100
AcDbRegAppTableRecord
  2
ACAD_EXEMPT_FROM_CAD_STAND
 70
     0
  0
APPID
  5
DB3E
330
9
100
AcDbSymbolTableRecord
100
AcDbRegAppTableRecord
  2
ACAECLAYERSTANDARD
 70
     0
  0
APPID
  5
F056
330
9
100
AcDbSymbolTableRecord
100
AcDbRegAppTableRecord
  2
ACADANNOTATIVE
 70
     0
  0
APPID
  5
F057
330
9
100
AcDbSymbolTableRecord
100
AcDbRegAppTableRecord
  2
ACDBBLOCKREPETAG
 70
     0
  0
ENDTAB
  0
TABLE
  2
DIMSTYLE
  5
A
330
0
100
AcDbSymbolTable
 70
     1
  0
DIMSTYLE
105
48
330
A
100
AcDbSymbolTableRecord
100
AcDbDimStyleTableRecord
  2
NEWX10
 70
     0
  3
 
  4

  5

  6
OPEN30
  7
OPEN30
 40
1.0
 41
2.0
 42
0.0
 43
7.0
 44
1.0
 45
0.0
 46
0.0
 47
0.0
 48
0.0
140
3.5
141
0.0
142
0.0
143
25.4
144
1.0
145
0.0
146
0.7
147
0.7
 71
     0
 72
     0
 73
     0
 74
     0
 75
     0
 76
     0
 77
     1
 78
     8
170
     0
171
     2
172
     1
173
     1
174
     0
175
     0
176
   256
177
   256
178
   201
179
     2
270
     2
271
     2
272
     4
273
     2
274
     2
340
F
275
     0
280
     0
281
     0
282
     0
283
     1
284
     8
285
     0
286
     0
287
     2
288
     0
  0
ENDTAB
  0
TABLE
  2
BLOCK_RECORD
  5
1
330
0
100
AcDbSymbolTable
 70
     8
  0
BLOCK_RECORD
  5
18
102
{ACAD_XDICTIONARY
360
88F
102
}
330
1
100
AcDbSymbolTableRecord
100
AcDbBlockTableRecord
  2
*MODEL_SPACE
  0
BLOCK_RECORD
  5
15
330
1
100
AcDbSymbolTableRecord
100
AcDbBlockTableRecord
  2
*PAPER_SPACE
  0
BLOCK_RECORD
  5
42
330
1
100
AcDbSymbolTableRecord
100
AcDbBlockTableRecord
  2
_OPEN30
  0
BLOCK_RECORD
  5
F0A6
330
1
100
AcDbSymbolTableRecord
100
AcDbBlockTableRecord
  2
A3WAKUKAWAJUN2017_HYOUDAI_
  0
BLOCK_RECORD
  5
102F2
330
1
100
AcDbSymbolTableRecord
100
AcDbBlockTableRecord
  2
*X68
  0
BLOCK_RECORD
  5
10340
330
1
100
AcDbSymbolTableRecord
100
AcDbBlockTableRecord
  2
*X69
  0
BLOCK_RECORD
  5
10392
330
1
100
AcDbSymbolTableRecord
100
AcDbBlockTableRecord
  2
*X70
  0
BLOCK_RECORD
  5
103E3
330
1
100
AcDbSymbolTableRecord
100
AcDbBlockTableRecord
  2
*X71
  0
BLOCK_RECORD
  5
10420
330
1
100
AcDbSymbolTableRecord
100
AcDbBlockTableRecord
  2
*X72
  0
BLOCK_RECORD
  5
10460
330
1
100
AcDbSymbolTableRecord
100
AcDbBlockTableRecord
  2
*X73
  0
ENDTAB
  0
ENDSEC
  0
SECTION
  2
BLOCKS
  0
BLOCK
  5
19
330
18
100
AcDbEntity
  8
0
100
AcDbBlockBegin
  2
*MODEL_SPACE
 70
     0
 10
0.0
 20
0.0
 30
0.0
  3
*MODEL_SPACE
  1

  0
ENDBLK
  5
1A
330
18
100
AcDbEntity
  8
0
100
AcDbBlockEnd
  0
BLOCK
  5
16
330
15
100
AcDbEntity
 67
     1
  8
0
100
AcDbBlockBegin
  2
*PAPER_SPACE
 70
     0
 10
0.0
 20
0.0
 30
0.0
  3
*PAPER_SPACE
  1

  0
ENDBLK
  5
17
330
15
100
AcDbEntity
 67
     1
  8
0
100
AcDbBlockEnd
  0
BLOCK
  5
43
330
42
100
AcDbEntity
  8
0
100
AcDbBlockBegin
  2
_OPEN30
 70
     0
 10
0.0
 20
0.0
 30
0.0
  3
_OPEN30
  1

  0
LINE
  5
44
330
42
100
AcDbEntity
  8
0
  6
BYBLOCK
 62
     0
100
AcDbLine
 10
-1.0
 20
0.26794919
 30
0.0
 11
0.0
 21
0.0
 31
0.0
  0
LINE
  5
45
330
42
100
AcDbEntity
  8
0
  6
BYBLOCK
 62
     0
100
AcDbLine
 10
0.0
 20
0.0
 30
0.0
 11
-1.0
 21
-0.26794919
 31
0.0
  0
LINE
  5
46
330
42
100
AcDbEntity
  8
0
  6
BYBLOCK
 62
     0
100
AcDbLine
 10
0.0
 20
0.0
 30
0.0
 11
-1.0
 21
0.0
 31
0.0
  0
ENDBLK
  5
47
330
42
100
AcDbEntity
  8
0
100
AcDbBlockEnd
  0
BLOCK
  5
F7A5
330
F0A6
100
AcDbEntity
  8
0
100
AcDbBlockBegin
  2
A3WAKUKAWAJUN2017_HYOUDAI_
 70
     0
 10
0.0
 20
0.0
 30
0.0
  3
A3WAKUKAWAJUN2017_HYOUDAI_
  1

  0
LINE
  5
F0A8
330
F0A6
100
AcDbEntity
  8
0
100
AcDbLine
 10
13.26299999998673
 20
-0.0001000000000317
 30
0.0
 11
9.236999999990758
 21
8.999899999990987
 31
0.0
1001
ACAD
1000
ASC_BOUNDS
1002
{
1070
    19
1005
F0E9
1002
}
  0
LINE
  5
F0A9
330
F0A6
100
AcDbEntity
  8
0
100
AcDbLine
 10
5.657999999994331
 20
0.9999999999989768
 30
0.0
 11
9.236999999990758
 21
8.999999999991019
 31
0.0
1001
ACAD
1000
ASC_BOUNDS
1002
{
1070
    19
1005
F0E9
1002
}
  0
LINE
  5
F0AA
330
F0A6
100
AcDbEntity
  8
0
100
AcDbLine
 10
18.59199999998134
 20
-0.2368999999997641
 30
0.0
 11
16.46099999998353
 21
5.432899999994561
 31
0.0
1001
ACAD
1000
ASC_BOUNDS
1002
{
1070
    19
1005
F0EA
1002
}
  0
LINE
  5
F0AB
330
F0A6
100
AcDbEntity
  8
0
100
AcDbLine
 10
18.59199999998134
 20
-0.2368999999997641
 30
0.0
 11
22.38199999997767
 21
8.763099999991255
 31
0.0
1001
ACAD
1000
ASC_BOUNDS
1002
{
1070
    19
1005
F0EA
1002
}
  0
LINE
  5
F0AC
330
F0A6
100
AcDbEntity
  8
0
100
AcDbLine
 10
14.32899999998563
 20
-0.2368999999997641
 30
0.0
 11
16.46099999998353
 21
5.432899999994561
 31
0.0
1001
ACAD
1000
ASC_BOUNDS
1002
{
1070
    19
1005
F0EA
1002
}
  0
LINE
  5
F0AD
330
F0A6
100
AcDbEntity
  8
0
100
AcDbLine
 10
14.32899999998563
 20
-0.2368999999997641
 30
0.0
 11
10.53899999998941
 21
8.763099999991255
 31
0.0
1001
ACAD
1000
ASC_BOUNDS
1002
{
1070
    19
1005
F0EA
1002
}
  0
LINE
  5
F0AE
330
F0A6
100
AcDbEntity
  8
0
100
AcDbLine
 10
19.53899999998043
 20
-0.0001000000000317
 30
0.0
 11
23.56599999997638
 21
8.999899999990987
 31
0.0
1001
ACAD
1000
ASC_BOUNDS
1002
{
1070
    19
1005
F0EB
1002
}
  0
LINE
  5
F0AF
330
F0A6
100
AcDbEntity
  8
0
100
AcDbLine
 10
26.97358892824991
 20
1.383099999991202
 30
0.0
 11
23.56599999997638
 21
8.999899999990987
 31
0.0
1001
ACAD
1000
ASC_BOUNDS
1002
{
1070
    19
1005
F0EB
1002
}
  0
LINE
  5
F0B0
330
F0A6
100
AcDbEntity
  8
0
100
AcDbLine
 10
5.657999999994331
 20
0.9999999999989768
 30
0.0
 11
3.181999999996833
 21
4.668599999995308
 31
0.0
1001
ACAD
1000
ASC_BOUNDS
1002
{
1070
    19
1005
F0E9
1002
}
  0
LINE
  5
F0B1
330
F0A6
100
AcDbEntity
  8
0
100
AcDbLine
 10
4.617999999995391
 20
-0.0001000000000317
 30
0.0
 11
1.420999999998571
 21
4.736799999995242
 31
0.0
1001
ACAD
1000
ASC_BOUNDS
1002
{
1070
    19
1005
F0E9
1002
}
  0
LINE
  5
F0B2
330
F0A6
100
AcDbEntity
  8
0
100
AcDbLine
 10
1.420999999998571
 20
8.763099999991255
 30
0.0
 11
1.420999999998571
 21
0.0
 31
0.0
1001
ACAD
1000
ASC_BOUNDS
1002
{
1070
    19
1005
F0EE
1002
}
  0
LINE
  5
F0B3
330
F0A6
100
AcDbEntity
  8
0
100
AcDbLine
 10
0.0
 20
8.763099999991255
 30
0.0
 11
0.0
 21
0.0
 31
0.0
1001
ACAD
1000
ASC_BOUNDS
1002
{
1070
    19
1005
F0EE
1002
}
  0
LINE
  5
F0B4
330
F0A6
100
AcDbEntity
  8
0
100
AcDbLine
 10
6.766999999993232
 20
-0.0001000000000317
 30
0.0
 11
7.826999999992154
 21
2.368399999997621
 31
0.0
1001
ACAD
1000
ASC_BOUNDS
1002
{
1070
    19
1005
F0E9
1002
}
  0
LINE
  5
F0B5
330
F0A6
100
AcDbEntity
  8
0
100
AcDbLine
 10
0.0
 20
0.0
 30
0.0
 11
1.420999999998571
 21
0.0
 31
0.0
1001
ACAD
1000
ASC_BOUNDS
1002
{
1070
    19
1005
F0EE
1002
}
  0
LINE
  5
F0B6
330
F0A6
100
AcDbEntity
  8
0
100
AcDbLine
 10
4.617999999995391
 20
0.0
 30
0.0
 11
6.766999999993232
 21
0.0
 31
0.0
1001
ACAD
1000
ASC_BOUNDS
1002
{
1070
    19
1005
F0E9
1002
}
  0
LINE
  5
F0B7
330
F0A6
100
AcDbEntity
  8
0
100
AcDbLine
 10
11.70599999998831
 20
-0.0001000000000317
 30
0.0
 11
10.64699999998936
 21
2.368399999997621
 31
0.0
1001
ACAD
1000
ASC_BOUNDS
1002
{
1070
    19
1005
F0E9
1002
}
  0
LINE
  5
F0B8
330
F0A6
100
AcDbEntity
  8
0
100
AcDbLine
 10
7.826999999992154
 20
2.368399999997621
 30
0.0
 11
10.64699999998936
 21
2.368399999997621
 31
0.0
1001
ACAD
1000
ASC_BOUNDS
1002
{
1070
    19
1005
F0E9
1002
}
  0
LINE
  5
F0B9
330
F0A6
100
AcDbEntity
  8
0
100
AcDbLine
 10
11.70599999998831
 20
0.0
 30
0.0
 11
13.26299999998673
 21
0.0
 31
0.0
1001
ACAD
1000
ASC_BOUNDS
1002
{
1070
    19
1005
F0E9
1002
}
  0
LINE
  5
F0BA
330
F0A6
100
AcDbEntity
  8
0
100
AcDbLine
 10
22.15599999997789
 20
2.368399999997621
 30
0.0
 11
24.97599999997499
 21
2.368399999997621
 31
0.0
1001
ACAD
1000
ASC_BOUNDS
1002
{
1070
    19
1005
F0EB
1002
}
  0
LINE
  5
F0BB
330
F0A6
100
AcDbEntity
  8
0
100
AcDbLine
 10
19.53899999998043
 20
0.0
 30
0.0
 11
21.09599999997886
 21
0.0
 31
0.0
1001
ACAD
1000
ASC_BOUNDS
1002
{
1070
    19
1005
F0EB
1002
}
  0
LINE
  5
F0BC
330
F0A6
100
AcDbEntity
  8
0
100
AcDbLine
 10
21.09599999997886
 20
-0.0001000000000317
 30
0.0
 11
22.15599999997789
 21
2.368399999997621
 31
0.0
1001
ACAD
1000
ASC_BOUNDS
1002
{
1070
    19
1005
F0EB
1002
}
  0
LINE
  5
F0BD
330
F0A6
100
AcDbEntity
  8
0
100
AcDbLine
 10
26.02015566812236
 20
0.0330999999912365
 30
0.0
 11
24.97599999997499
 21
2.368399999997621
 31
0.0
1001
ACAD
1000
ASC_BOUNDS
1002
{
1070
    19
1005
F0EB
1002
}
  0
LINE
  5
F0BE
330
F0A6
100
AcDbEntity
  8
0
100
AcDbLine
 10
14.32399999998563
 20
3.315799999996671
 30
0.0
 11
16.46099999998353
 21
8.999899999990987
 31
0.0
1001
ACAD
1000
ASC_BOUNDS
1002
{
1070
    19
1005
F0EA
1002
}
  0
LINE
  5
F0BF
330
F0A6
100
AcDbEntity
  8
0
100
AcDbLine
 10
6.432999999993513
 20
8.763099999991255
 30
0.0
 11
3.181999999996833
 21
4.668599999995308
 31
0.0
1001
ACAD
1000
ASC_BOUNDS
1002
{
1070
    19
1005
F0E9
1002
}
  0
LINE
  5
F0C0
330
F0A6
100
AcDbEntity
  8
0
100
AcDbLine
 10
4.617999999995391
 20
8.763099999991255
 30
0.0
 11
1.420999999998571
 21
4.736799999995242
 31
0.0
1001
ACAD
1000
ASC_BOUNDS
1002
{
1070
    19
1005
F0E9
1002
}
  0
LINE
  5
F0C1
330
F0A6
100
AcDbEntity
  8
0
100
AcDbLine
 10
0.0
 20
8.763099999991255
 30
0.0
 11
1.420999999998571
 21
8.763099999991255
 31
0.0
1001
ACAD
1000
ASC_BOUNDS
1002
{
1070
    19
1005
F0EE
1002
}
  0
LINE
  5
F0C2
330
F0A6
100
AcDbEntity
  8
0
100
AcDbLine
 10
4.617999999995391
 20
8.763099999991255
 30
0.0
 11
6.432999999993513
 21
8.763099999991255
 31
0.0
1001
ACAD
1000
ASC_BOUNDS
1002
{
1070
    19
1005
F0E9
1002
}
  0
LINE
  5
F0C3
330
F0A6
100
AcDbEntity
  8
0
100
AcDbLine
 10
14.32399999998563
 20
3.315799999996671
 30
0.0
 11
12.02999999998792
 21
8.763099999991255
 31
0.0
1001
ACAD
1000
ASC_BOUNDS
1002
{
1070
    19
1005
F0EA
1002
}
  0
LINE
  5
F0C4
330
F0A6
100
AcDbEntity
  8
0
100
AcDbLine
 10
10.06399999998996
 20
3.670999999996297
 30
0.0
 11
9.236999999990758
 21
5.5200999999945
 31
0.0
1001
ACAD
1000
ASC_BOUNDS
1002
{
1070
    19
1005
F0E9
1002
}
  0
LINE
  5
F0C5
330
F0A6
100
AcDbEntity
  8
0
100
AcDbLine
 10
8.409999999991555
 20
3.670999999996297
 30
0.0
 11
9.236999999990758
 21
5.5200999999945
 31
0.0
1001
ACAD
1000
ASC_BOUNDS
1002
{
1070
    19
1005
F0E9
1002
}
  0
LINE
  5
F0C6
330
F0A6
100
AcDbEntity
  8
0
100
AcDbLine
 10
8.409999999991555
 20
3.670999999996297
 30
0.0
 11
10.06399999998996
 21
3.670999999996297
 31
0.0
1001
ACAD
1000
ASC_BOUNDS
1002
{
1070
    19
1005
F0E9
1002
}
  0
LINE
  5
F0C7
330
F0A6
100
AcDbEntity
  8
0
100
AcDbLine
 10
10.53899999998941
 20
8.763099999991255
 30
0.0
 11
12.02999999998792
 21
8.763099999991255
 31
0.0
1001
ACAD
1000
ASC_BOUNDS
1002
{
1070
    19
1005
F0EA
1002
}
  0
LINE
  5
F0C8
330
F0A6
100
AcDbEntity
  8
0
100
AcDbLine
 10
22.7389999999773
 20
3.670999999996297
 30
0.0
 11
23.56599999997638
 21
5.5200999999945
 31
0.0
1001
ACAD
1000
ASC_BOUNDS
1002
{
1070
    19
1005
F0EB
1002
}
  0
LINE
  5
F0C9
330
F0A6
100
AcDbEntity
  8
0
100
AcDbLine
 10
22.7389999999773
 20
3.670999999996297
 30
0.0
 11
24.39299999997559
 21
3.670999999996297
 31
0.0
1001
ACAD
1000
ASC_BOUNDS
1002
{
1070
    19
1005
F0EB
1002
}
  0
LINE
  5
F0CA
330
F0A6
100
AcDbEntity
  8
0
100
AcDbLine
 10
18.59799999998143
 20
3.315799999996671
 30
0.0
 11
20.89099999997916
 21
8.763099999991255
 31
0.0
1001
ACAD
1000
ASC_BOUNDS
1002
{
1070
    19
1005
F0EA
1002
}
  0
LINE
  5
F0CB
330
F0A6
100
AcDbEntity
  8
0
100
AcDbLine
 10
18.59799999998143
 20
3.315799999996671
 30
0.0
 11
16.46099999998353
 21
8.999899999990987
 31
0.0
1001
ACAD
1000
ASC_BOUNDS
1002
{
1070
    19
1005
F0EA
1002
}
  0
LINE
  5
F0CC
330
F0A6
100
AcDbEntity
  8
0
100
AcDbLine
 10
20.89099999997916
 20
8.763099999991255
 30
0.0
 11
22.38199999997767
 21
8.763099999991255
 31
0.0
1001
ACAD
1000
ASC_BOUNDS
1002
{
1070
    19
1005
F0EA
1002
}
  0
LINE
  5
F0CD
330
F0A6
100
AcDbEntity
  8
0
100
AcDbLine
 10
24.39299999997559
 20
3.670999999996297
 30
0.0
 11
23.56599999997638
 21
5.5200999999945
 31
0.0
1001
ACAD
1000
ASC_BOUNDS
1002
{
1070
    19
1005
F0EB
1002
}
  0
LINE
  5
F0CE
330
F0A6
100
AcDbEntity
  8
0
100
AcDbLine
 10
44.99999999995498
 20
-0.2368999999997641
 30
0.0
 11
40.02599999995994
 21
5.341799999994635
 31
0.0
1001
ACAD
1000
ASC_BOUNDS
1002
{
1070
    19
1005
F0ED
1002
}
  0
LINE
  5
F0CF
330
F0A6
100
AcDbEntity
  8
0
100
AcDbLine
 10
40.02599999995994
 20
5.341799999994635
 30
0.0
 11
40.02599999995994
 21
0.0
 31
0.0
1001
ACAD
1000
ASC_BOUNDS
1002
{
1070
    19
1005
F0ED
1002
}
  0
LINE
  5
F0D0
330
F0A6
100
AcDbEntity
  8
0
100
AcDbLine
 10
38.60499999996136
 20
8.999999999991019
 30
0.0
 11
38.60499999996136
 21
0.0
 31
0.0
1001
ACAD
1000
ASC_BOUNDS
1002
{
1070
    19
1005
F0ED
1002
}
  0
LINE
  5
F0D1
330
F0A6
100
AcDbEntity
  8
0
100
AcDbLine
 10
44.99999999995498
 20
8.763099999991255
 30
0.0
 11
44.99999999995498
 21
-0.2368999999997641
 31
0.0
1001
ACAD
1000
ASC_BOUNDS
1002
{
1070
    19
1005
F0ED
1002
}
  0
LINE
  5
F0D2
330
F0A6
100
AcDbEntity
  8
0
100
AcDbLine
 10
38.60499999996136
 20
0.0
 30
0.0
 11
40.02599999995994
 21
0.0
 31
0.0
1001
ACAD
1000
ASC_BOUNDS
1002
{
1070
    19
1005
F0ED
1002
}
  0
LINE
  5
F0D3
330
F0A6
100
AcDbEntity
  8
0
100
AcDbLine
 10
43.57899999995641
 20
3.421199999996588
 30
0.0
 11
38.60499999996136
 21
8.999899999990987
 31
0.0
1001
ACAD
1000
ASC_BOUNDS
1002
{
1070
    19
1005
F0ED
1002
}
  0
LINE
  5
F0D4
330
F0A6
100
AcDbEntity
  8
0
100
AcDbLine
 10
43.57899999995641
 20
8.763099999991255
 30
0.0
 11
43.57899999995641
 21
3.421199999996588
 31
0.0
1001
ACAD
1000
ASC_BOUNDS
1002
{
1070
    19
1005
F0ED
1002
}
  0
LINE
  5
F0D5
330
F0A6
100
AcDbEntity
  8
0
100
AcDbLine
 10
43.57899999995641
 20
8.763099999991255
 30
0.0
 11
44.99999999995498
 21
8.763099999991255
 31
0.0
1001
ACAD
1000
ASC_BOUNDS
1002
{
1070
    19
1005
F0ED
1002
}
  0
LINE
  5
F0D6
330
F0A6
100
AcDbEntity
  8
0
100
AcDbLine
 10
37.67199999996831
 20
8.763099999991255
 30
0.0
 11
36.23199999996837
 21
8.763099999991255
 31
0.0
  0
LINE
  5
F0D7
330
F0A6
100
AcDbEntity
  8
0
100
AcDbLine
 10
31.64199999996833
 20
8.763099999991255
 30
0.0
 11
31.64199999996833
 21
2.481619422925121
 31
0.0
  0
LINE
  5
F0D8
330
F0A6
100
AcDbEntity
  8
0
100
AcDbLine
 10
37.67199999996831
 20
8.763099999991255
 30
0.0
 11
37.67199999996831
 21
2.481619422925121
 31
0.0
  0
LINE
  5
F0D9
330
F0A6
100
AcDbEntity
  8
0
100
AcDbLine
 10
36.23199999996837
 20
8.763099999991255
 30
0.0
 11
36.23199999996837
 21
2.481619422925064
 31
0.0
  0
LINE
  5
F0DA
330
F0A6
100
AcDbEntity
  8
0
100
AcDbLine
 10
33.08199999996839
 20
8.763099999991255
 30
0.0
 11
33.08199999996839
 21
2.481619422925121
 31
0.0
  0
ARC
  5
F0DB
330
F0A6
100
AcDbEntity
  8
0
100
AcDbCircle
 10
34.65699999996832
 20
3.183099999991214
 30
0.0
 40
3.420000000000007
100
AcDbArc
 50
240.0000000000255
 51
299.9999999999766
  0
ARC
  5
F0DC
330
F0A6
100
AcDbEntity
  8
0
100
AcDbCircle
 10
34.65699999996832
 20
3.183099999991214
 30
0.0
 40
1.97999999999999
100
AcDbArc
 50
240.000000000026
 51
299.9999999999703
  0
LINE
  5
F0DD
330
F0A6
100
AcDbEntity
  8
0
100
AcDbLine
 10
33.08199999996828
 20
8.763099999991255
 30
0.0
 11
31.64199999996833
 21
8.763099999991255
 31
0.0
  0
ARC
  5
F0DE
330
F0A6
100
AcDbEntity
  8
0
100
AcDbCircle
 10
35.06199999996829
 20
2.481619422925064
 30
0.0
 40
1.17
100
AcDbArc
 50
299.9999999999699
 51
0.0
  0
ARC
  5
F0DF
330
F0A6
100
AcDbEntity
  8
0
100
AcDbCircle
 10
34.25199999996835
 20
2.481619422925121
 30
0.0
 40
1.17
100
AcDbArc
 50
180.0
 51
240.0000000000238
  0
ARC
  5
F0E0
330
F0A6
100
AcDbEntity
  8
0
100
AcDbCircle
 10
35.06199999996841
 20
2.481619422925121
 30
0.0
 40
2.61
100
AcDbArc
 50
299.9999999999756
 51
0.0
  0
ARC
  5
F0E1
330
F0A6
100
AcDbEntity
  8
0
100
AcDbCircle
 10
34.25199999996835
 20
2.481619422925121
 30
0.0
 40
2.61
100
AcDbArc
 50
180.0
 51
240.0000000000244
  0
LINE
  5
F0E2
330
F0A6
100
AcDbEntity
  8
0
100
AcDbLine
 10
29.30199999996933
 20
8.763099999991255
 30
0.0
 11
30.74199999996927
 21
8.763099999991255
 31
0.0
1001
ACAD
1000
ASC_BOUNDS
1002
{
1070
    19
1005
F0EB
1002
}
  0
LINE
  5
F0E3
330
F0A6
100
AcDbEntity
  8
0
100
AcDbLine
 10
30.74199999996927
 20
8.763099999991255
 30
0.0
 11
30.74199999996927
 21
2.373099999991211
 31
0.0
1001
ACAD
1000
ASC_BOUNDS
1002
{
1070
    19
1005
F0EB
1002
}
  0
LINE
  5
F0E4
330
F0A6
100
AcDbEntity
  8
0
100
AcDbLine
 10
26.02015566812236
 20
0.0330999999912365
 30
0.0
 11
28.40199999996923
 21
0.0330999999912365
 31
0.0
1001
ACAD
1000
ASC_BOUNDS
1002
{
1070
    19
1005
F0EB
1002
}
  0
LINE
  5
F0E5
330
F0A6
100
AcDbEntity
  8
0
100
AcDbLine
 10
29.30199999996933
 20
8.763099999991255
 30
0.0
 11
29.30199999996933
 21
2.283099999991236
 31
0.0
1001
ACAD
1000
ASC_BOUNDS
1002
{
1070
    19
1005
F0EB
1002
}
  0
LINE
  5
F0E6
330
F0A6
100
AcDbEntity
  8
0
100
AcDbLine
 10
26.97358892824991
 20
1.383099999991202
 30
0.0
 11
28.40199999996923
 21
1.383099999991202
 31
0.0
1001
ACAD
1000
ASC_BOUNDS
1002
{
1070
    19
1005
F0EB
1002
}
  0
ARC
  5
F0E7
330
F0A6
100
AcDbEntity
  8
0
100
AcDbCircle
 10
28.40199999996923
 20
2.283099999991236
 30
0.0
 40
0.9
100
AcDbArc
 50
270.0
 51
0.0
1001
ACAD
1000
ASC_BOUNDS
1002
{
1070
    19
1005
F0EB
1002
}
  0
ARC
  5
F0E8
330
F0A6
100
AcDbEntity
  8
0
100
AcDbCircle
 10
28.40199999996923
 20
2.373099999991211
 30
0.0
 40
2.34
100
AcDbArc
 50
270.0
 51
0.0
1001
ACAD
1000
ASC_BOUNDS
1002
{
1070
    19
1005
F0EB
1002
}
  0
INSERT
  5
F0E9
330
F0A6
100
AcDbEntity
  8
0
100
AcDbBlockReference
  2
*X68
 10
0.0
 20
0.0
 30
0.0
1001
ACAD
1000
HATCH
1002
{
1070
    19
1000
ANSI37
1040
0.15
1040
0.0
1000
ASC_BOUNDS
1070
     2
1070
     2
1070
    12
1005
F0A8
1005
F0A9
1005
F0B0
1005
F0BF
1005
F0C2
1005
F0C0
1005
F0B1
1005
F0B6
1005
F0B4
1005
F0B8
1005
F0B7
1005
F0B9
1070
     2
1070
     3
1005
F0C4
1005
F0C6
1005
F0C5
1000
ASC_SEEDPOINT
1011
3.614004224891801
1021
2.996669441146025
1031
0.0
1000
R14_HATCH_DATA
1000
F0E9
1011
1.0
1021
0.0
1031
0.0
1011
0.0
1021
1.0
1031
0.0
1011
0.0
1021
0.0
1031
1.0
1040
0.0
1010
0.0
1020
0.0
1030
1.0
1000
ANSI37
1070
     0
1070
     1
1071
        2
1071
        7
1070
     0
1070
     1
1071
       17
1040
13.26299999998673
1040
-0.0001000000000317
1040
9.236999999990758
1040
8.999899999990987
1040
9.236999999990758
1040
8.999999999991019
1040
5.657999999994331
1040
0.9999999999989768
1040
3.181999999996833
1040
4.668599999995308
1040
6.432999999993513
1040
8.763099999991255
1040
4.617999999995391
1040
8.763099999991255
1040
1.420999999998571
1040
4.736799999995242
1040
4.617999999995391
1040
-0.0001000000000317
1040
4.617999999995391
1040
0.0
1040
6.766999999993232
1040
0.0
1040
6.766999999993232
1040
-0.0001000000000317
1040
7.826999999992154
1040
2.368399999997621
1040
10.64699999998936
1040
2.368399999997621
1040
11.70599999998831
1040
-0.0001000000000317
1040
11.70599999998831
1040
0.0
1040
13.26299999998673
1040
0.0
1071
       12
1005
F0A8
1005
F0A9
1005
F0B0
1005
F0BF
1005
F0C2
1005
F0C0
1005
F0B1
1005
F0B6
1005
F0B4
1005
F0B8
1005
F0B7
1005
F0B9
1071
       22
1070
     0
1070
     1
1071
        3
1040
9.236999999990758
1040
5.5200999999945
1040
10.06399999998996
1040
3.670999999996297
1040
8.409999999991555
1040
3.670999999996297
1071
        3
1005
F0C4
1005
F0C6
1005
F0C5
1070
     0
1070
     1
1040
0.0
1040
0.15
1070
     0
1070
     2
1040
0.7853981633974483
1040
49.29960901727088
1040
-10.17736998311392
1040
-0.3367596045400932
1040
0.3367596045400932
1070
     0
1040
2.356194490192345
1040
49.29960901727088
1040
-10.17736998311392
1040
-0.3367596045400932
1040
-0.3367596045400932
1070
     0
1040
0.0110235143455945
1071
        2
1040
3.614004224891801
1040
2.996669441146025
1040
0.0
1040
3.614004224891801
1040
2.996669441146025
1040
0.0
1002
}
  0
INSERT
  5
F0EA
330
F0A6
100
AcDbEntity
  8
0
100
AcDbBlockReference
  2
*X69
 10
0.0
 20
0.0
 30
0.0
1001
ACAD
1000
HATCH
1002
{
1070
    19
1000
ANSI37
1040
0.15
1040
0.0
1000
ASC_BOUNDS
1070
     1
1070
     2
1070
    10
1005
F0AA
1005
F0AB
1005
F0CC
1005
F0CA
1005
F0CB
1005
F0BE
1005
F0C3
1005
F0C7
1005
F0AD
1005
F0AC
1000
ASC_SEEDPOINT
1011
14.73245321214324
1021
2.798246178283421
1031
0.0
1000
R14_HATCH_DATA
1000
F0EA
1011
1.0
1021
0.0
1031
0.0
1011
0.0
1021
1.0
1031
0.0
1011
0.0
1021
0.0
1031
1.0
1040
0.0
1010
0.0
1020
0.0
1030
1.0
1000
ANSI37
1070
     0
1070
     1
1071
        1
1071
        7
1070
     0
1070
     1
1071
       10
1040
16.46099999998353
1040
5.432899999994561
1040
18.59199999998134
1040
-0.2368999999997641
1040
22.38199999997767
1040
8.763099999991255
1040
20.89099999997916
1040
8.763099999991255
1040
18.59799999998143
1040
3.315799999996671
1040
16.46099999998353
1040
8.999899999990987
1040
14.32399999998563
1040
3.315799999996671
1040
12.02999999998792
1040
8.763099999991255
1040
10.53899999998941
1040
8.763099999991255
1040
14.32899999998563
1040
-0.2368999999997641
1071
       10
1005
F0AA
1005
F0AB
1005
F0CC
1005
F0CA
1005
F0CB
1005
F0BE
1005
F0C3
1005
F0C7
1005
F0AD
1005
F0AC
1070
     0
1070
     1
1040
0.0
1040
0.15
1070
     0
1070
     2
1040
0.7853981633974483
1040
49.29960901727088
1040
-10.17736998311392
1040
-0.3367596045400932
1040
0.3367596045400932
1070
     0
1040
2.356194490192345
1040
49.29960901727088
1040
-10.17736998311392
1040
-0.3367596045400932
1040
-0.3367596045400932
1070
     0
1040
0.0110235143455945
1071
        1
1040
14.73245321214324
1040
2.798246178283421
1040
0.0
1002
}
  0
INSERT
  5
F0EB
330
F0A6
100
AcDbEntity
  8
0
100
AcDbBlockReference
  2
*X70
 10
0.0
 20
0.0
 30
0.0
1001
ACAD
1000
HATCH
1002
{
1070
    19
1000
ANSI37
1040
0.15
1040
0.0
1000
ASC_BOUNDS
1070
     2
1070
     2
1070
    13
1005
F0AE
1005
F0BB
1005
F0BC
1005
F0BA
1005
F0BD
1005
F0E4
1005
F0E8
1005
F0E3
1005
F0E2
1005
F0E5
1005
F0E7
1005
F0E6
1005
F0AF
1070
     2
1070
     3
1005
F0C8
1005
F0CD
1005
F0C9
1000
ASC_SEEDPOINT
1011
21.97929957367762
1021
3.294304244259308
1031
0.0
1000
R14_HATCH_DATA
1000
F0EB
1011
1.0
1021
0.0
1031
0.0
1011
0.0
1021
1.0
1031
0.0
1011
0.0
1021
0.0
1031
1.0
1040
0.0
1010
0.0
1020
0.0
1030
1.0
1000
ANSI37
1070
     0
1070
     1
1071
        2
1071
        7
1070
     1
1070
     1
1071
       15
1040
23.56599999997638
1040
8.999899999990987
1040
0.0
1040
19.53899999998043
1040
-0.0001000000000317
1040
0.0
1040
19.53899999998043
1040
0.0
1040
0.0
1040
21.09599999997886
1040
0.0
1040
0.0
1040
21.09599999997886
1040
-0.0001000000000317
1040
0.0
1040
22.15599999997789
1040
2.368399999997621
1040
0.0
1040
24.97599999997499
1040
2.368399999997621
1040
0.0
1040
26.02015566812236
1040
0.0330999999912365
1040
0.0
1040
28.40199999996923
1040
0.0330999999912365
1040
0.414213562373095
1040
30.74199999996923
1040
2.373099999991211
1040
0.0
1040
30.74199999996927
1040
8.763099999991255
1040
0.0
1040
29.30199999996933
1040
8.763099999991255
1040
0.0
1040
29.30199999996933
1040
2.283099999991236
1040
-0.414213562373095
1040
28.40199999996923
1040
1.383099999991237
1040
0.0
1040
26.97358892824991
1040
1.383099999991202
1040
0.0
1071
       13
1005
F0AE
1005
F0BB
1005
F0BC
1005
F0BA
1005
F0BD
1005
F0E4
1005
F0E8
1005
F0E3
1005
F0E2
1005
F0E5
1005
F0E7
1005
F0E6
1005
F0AF
1071
       22
1070
     0
1070
     1
1071
        3
1040
22.7389999999773
1040
3.670999999996297
1040
23.56599999997638
1040
5.5200999999945
1040
24.39299999997559
1040
3.670999999996297
1071
        3
1005
F0C8
1005
F0CD
1005
F0C9
1070
     0
1070
     1
1040
0.0
1040
0.15
1070
     0
1070
     2
1040
0.7853981633974483
1040
49.29960901727088
1040
-10.17736998311392
1040
-0.3367596045400932
1040
0.3367596045400932
1070
     0
1040
2.356194490192345
1040
49.29960901727088
1040
-10.17736998311392
1040
-0.3367596045400932
1040
-0.3367596045400932
1070
     0
1040
0.0110235143455945
1071
        2
1040
21.97929957367762
1040
3.294304244259308
1040
0.0
1040
21.97929957367762
1040
3.294304244259308
1040
0.0
1002
}
  0
INSERT
  5
F0EC
330
F0A6
100
AcDbEntity
  8
0
100
AcDbBlockReference
  2
*X71
 10
0.0
 20
0.0
 30
0.0
1001
ACAD
1000
HATCH
1002
{
1070
    19
1000
ANSI37
1040
0.15
1040
0.0
1000
R14_HATCH_DATA
1000
F0EC
1011
1.0
1021
0.0
1031
0.0
1011
0.0
1021
1.0
1031
0.0
1011
0.0
1021
0.0
1031
1.0
1040
0.0
1010
0.0
1020
0.0
1030
1.0
1000
ANSI37
1070
     0
1070
     1
1071
        1
1071
        7
1070
     1
1070
     1
1071
       12
1040
31.64199999996833
1040
2.481619422925121
1040
0.2679491924310942
1040
32.94699999997067
1040
0.2212931190493919
1040
0.2679491924301353
1040
36.36699999995983
1040
0.2212931190459813
1040
0.2679491924321411
1040
37.67199999996831
1040
2.481619422928361
1040
0.0
1040
37.67199999996831
1040
8.763099999991255
1040
0.0
1040
36.23199999996837
1040
8.763099999991255
1040
0.0
1040
36.23199999996837
1040
2.481619422925064
1040
-0.2679491924310291
1040
35.64699999996708
1040
1.468369700498386
1040
-0.267949192430519
1040
33.66699999997093
1040
1.468369700497703
1040
-0.267949192431809
1040
33.08199999996839
1040
2.481619422926997
1040
0.0
1040
33.08199999996839
1040
8.763099999991255
1040
0.0
1040
31.64199999996833
1040
8.763099999991255
1040
0.0
1071
        0
1070
     0
1070
     1
1040
0.0
1040
0.15
1070
     0
1070
     2
1040
0.7853981633974483
1040
49.29960901727088
1040
-10.17736998311392
1040
-0.3367596045400932
1040
0.3367596045400932
1070
     0
1040
2.356194490192345
1040
49.29960901727088
1040
-10.17736998311392
1040
-0.3367596045400932
1040
-0.3367596045400932
1070
     0
1040
0.0110235143455945
1071
        1
1040
32.30357378967278
1040
3.988785755459219
1040
0.0
1002
}
  0
INSERT
  5
F0ED
330
F0A6
100
AcDbEntity
  8
0
100
AcDbBlockReference
  2
*X72
 10
0.0
 20
0.0
 30
0.0
1001
ACAD
1000
HATCH
1002
{
1070
    19
1000
ANSI37
1040
0.15
1040
0.0
1000
ASC_BOUNDS
1070
     1
1070
     2
1070
     8
1005
F0CE
1005
F0D1
1005
F0D5
1005
F0D4
1005
F0D3
1005
F0D0
1005
F0D2
1005
F0CF
1000
ASC_SEEDPOINT
1011
39.74896370716704
1021
4.484843821435049
1031
0.0
1000
R14_HATCH_DATA
1000
F0ED
1011
1.0
1021
0.0
1031
0.0
1011
0.0
1021
1.0
1031
0.0
1011
0.0
1021
0.0
1031
1.0
1040
0.0
1010
0.0
1020
0.0
1030
1.0
1000
ANSI37
1070
     0
1070
     1
1071
        1
1071
        7
1070
     0
1070
     1
1071
        9
1040
40.02599999995994
1040
5.341799999994635
1040
44.99999999995498
1040
-0.2368999999997641
1040
44.99999999995498
1040
8.763099999991255
1040
43.57899999995641
1040
8.763099999991255
1040
43.57899999995641
1040
3.421199999996588
1040
38.60499999996136
1040
8.999899999990987
1040
38.60499999996136
1040
8.999999999991019
1040
38.60499999996136
1040
0.0
1040
40.02599999995994
1040
0.0
1071
        8
1005
F0CE
1005
F0D1
1005
F0D5
1005
F0D4
1005
F0D3
1005
F0D0
1005
F0D2
1005
F0CF
1070
     0
1070
     1
1040
0.0
1040
0.15
1070
     0
1070
     2
1040
0.7853981633974483
1040
49.29960901727088
1040
-10.17736998311392
1040
-0.3367596045400932
1040
0.3367596045400932
1070
     0
1040
2.356194490192345
1040
49.29960901727088
1040
-10.17736998311392
1040
-0.3367596045400932
1040
-0.3367596045400932
1070
     0
1040
0.0110235143455945
1071
        1
1040
39.74896370716704
1040
4.484843821435049
1040
0.0
1002
}
  0
INSERT
  5
F0EE
330
F0A6
100
AcDbEntity
  8
0
100
AcDbBlockReference
  2
*X73
 10
0.0
 20
0.0
 30
0.0
1001
ACAD
1000
HATCH
1002
{
1070
    19
1000
ANSI37
1040
0.15
1040
0.0
1000
ASC_BOUNDS
1070
     1
1070
     2
1070
     4
1005
F0B2
1005
F0C1
1005
F0B3
1005
F0B5
1000
ASC_SEEDPOINT
1011
1.079051535452663
1021
4.148538732891836
1031
0.0
1000
R14_HATCH_DATA
1000
F0EE
1011
1.0
1021
0.0
1031
0.0
1011
0.0
1021
1.0
1031
0.0
1011
0.0
1021
0.0
1031
1.0
1040
0.0
1010
0.0
1020
0.0
1030
1.0
1000
ANSI37
1070
     0
1070
     1
1071
        1
1071
        7
1070
     0
1070
     1
1071
        4
1040
1.420999999998571
1040
0.0
1040
1.420999999998571
1040
8.763099999991255
1040
0.0
1040
8.763099999991255
1040
0.0
1040
0.0
1071
        4
1005
F0B2
1005
F0C1
1005
F0B3
1005
F0B5
1070
     0
1070
     1
1040
0.0
1040
0.15
1070
     0
1070
     2
1040
0.7853981633974483
1040
49.29960901727088
1040
-10.17736998311392
1040
-0.3367596045400932
1040
0.3367596045400932
1070
     0
1040
2.356194490192345
1040
49.29960901727088
1040
-10.17736998311392
1040
-0.3367596045400932
1040
-0.3367596045400932
1070
     0
1040
0.0053004257112761
1071
        1
1040
1.079051535452663
1040
4.148538732891836
1040
0.0
1002
}
  0
ENDBLK
  5
F7A6
330
F0A6
100
AcDbEntity
  8
0
100
AcDbBlockEnd
  0
BLOCK
  5
10480
330
102F2
100
AcDbEntity
  8
0
100
AcDbBlockBegin
  2
*X68
 70
     1
 10
0.0
 20
0.0
 30
0.0
  3
*X68
  1

  0
LINE
  5
102F3
330
102F2
100
AcDbEntity
  8
0
  6
CONTINUOUS
100
AcDbLine
 10
3.418023043697893
 20
7.251849696850613
 30
0.0
 11
4.929273346838536
 21
8.763099999991255
 31
0.0
  0
LINE
  5
102F4
330
102F2
100
AcDbEntity
  8
0
  6
CONTINUOUS
100
AcDbLine
 10
1.483656411257782
 20
4.643963855330318
 30
0.0
 11
5.60279255591872
 21
8.763099999991255
 31
0.0
  0
LINE
  5
102F5
330
102F2
100
AcDbEntity
  8
0
  6
CONTINUOUS
100
AcDbLine
 10
1.755053947328235
 20
4.241842182320584
 30
0.0
 11
6.276311764998907
 21
8.763099999991255
 31
0.0
  0
LINE
  5
102F6
330
102F2
100
AcDbEntity
  8
0
  6
CONTINUOUS
100
AcDbLine
 10
2.026451483398688
 20
3.839720509310849
 30
0.0
 11
4.441040904851878
 21
6.254309930764039
 31
0.0
  0
LINE
  5
102F7
330
102F2
100
AcDbEntity
  8
0
  6
CONTINUOUS
100
AcDbLine
 10
2.297849019469139
 20
3.437598836301114
 30
0.0
 11
3.321765168359338
 21
4.461514985191313
 31
0.0
  0
LINE
  5
102F8
330
102F2
100
AcDbEntity
  8
0
  6
CONTINUOUS
100
AcDbLine
 10
2.569246555539591
 20
3.03547716329138
 30
0.0
 11
3.593163397972743
 21
4.059394005724531
 31
0.0
  0
LINE
  5
102F9
330
102F2
100
AcDbEntity
  8
0
  6
CONTINUOUS
100
AcDbLine
 10
2.840644091610043
 20
2.633355490281646
 30
0.0
 11
3.864561627586149
 21
3.657273026257751
 31
0.0
  0
LINE
  5
102FA
330
102F2
100
AcDbEntity
  8
0
  6
CONTINUOUS
100
AcDbLine
 10
3.112041627680496
 20
2.231233817271911
 30
0.0
 11
4.135959857199554
 21
3.25515204679097
 31
0.0
  0
LINE
  5
102FB
330
102F2
100
AcDbEntity
  8
0
  6
CONTINUOUS
100
AcDbLine
 10
3.383439163750948
 20
1.829112144262177
 30
0.0
 11
4.40735808681296
 21
2.853031067324189
 31
0.0
  0
LINE
  5
102FC
330
102F2
100
AcDbEntity
  8
0
  6
CONTINUOUS
100
AcDbLine
 10
3.654836699821399
 20
1.426990471252442
 30
0.0
 11
4.678756316426365
 21
2.450910087857407
 31
0.0
  0
LINE
  5
102FD
330
102F2
100
AcDbEntity
  8
0
  6
CONTINUOUS
100
AcDbLine
 10
3.926234235891853
 20
1.024868798242709
 30
0.0
 11
4.95015454603977
 21
2.048789108390626
 31
0.0
  0
LINE
  5
102FE
330
102F2
100
AcDbEntity
  8
0
  6
CONTINUOUS
100
AcDbLine
 10
4.197631771962304
 20
0.6227471252329737
 30
0.0
 11
5.221552775653176
 21
1.646668128923846
 31
0.0
  0
LINE
  5
102FF
330
102F2
100
AcDbEntity
  8
0
  6
CONTINUOUS
100
AcDbLine
 10
8.715877546767851
 20
7.835069736359266
 30
0.0
 11
9.435953450375058
 21
8.555145639966472
 31
0.0
  0
LINE
  5
10300
330
102F2
100
AcDbEntity
  8
0
  6
CONTINUOUS
100
AcDbLine
 10
8.170620868422267
 20
6.616293848933497
 30
0.0
 11
9.644120833743461
 21
8.08979381425469
 31
0.0
  0
LINE
  5
10301
330
102F2
100
AcDbEntity
  8
0
  6
CONTINUOUS
100
AcDbLine
 10
7.625364190076684
 20
5.397517961507727
 30
0.0
 11
9.852288217111864
 21
7.624441988542907
 31
0.0
  0
LINE
  5
10302
330
102F2
100
AcDbEntity
  8
0
  6
CONTINUOUS
100
AcDbLine
 10
7.080107511731101
 20
4.178742074081957
 30
0.0
 11
10.06045560048027
 21
7.159090162831124
 31
0.0
  0
LINE
  5
10303
330
102F2
100
AcDbEntity
  8
0
  6
CONTINUOUS
100
AcDbLine
 10
6.534850833385518
 20
2.959966186656187
 30
0.0
 11
10.26862298384867
 21
6.693738337119342
 31
0.0
  0
LINE
  5
10304
330
102F2
100
AcDbEntity
  8
0
  6
CONTINUOUS
100
AcDbLine
 10
4.469029308032756
 20
0.2206254522232385
 30
0.0
 11
5.492951005266582
 21
1.244547149457064
 31
0.0
  0
LINE
  5
10305
330
102F2
100
AcDbEntity
  8
0
  6
CONTINUOUS
100
AcDbLine
 10
5.989594155039935
 20
1.741190299230417
 30
0.0
 11
8.806950407233131
 21
4.558546551423613
 31
0.0
  0
LINE
  5
10306
330
102F2
100
AcDbEntity
  8
0
  6
CONTINUOUS
100
AcDbLine
 10
9.401251593263643
 20
5.152847737454126
 30
0.0
 11
10.47679036721708
 21
6.228386511407559
 31
0.0
  0
LINE
  5
10307
330
102F2
100
AcDbEntity
  8
0
  6
CONTINUOUS
100
AcDbLine
 10
4.921837203428691
 20
-0.0000858614610131
 30
0.0
 11
8.592923064886001
 21
3.670999999996297
 31
0.0
  0
LINE
  5
10308
330
102F2
100
AcDbEntity
  8
0
  6
CONTINUOUS
100
AcDbLine
 10
9.609390446785305
 20
4.6874673818956
 30
0.0
 11
10.68495775058548
 21
5.763034685695775
 31
0.0
  0
LINE
  5
10309
330
102F2
100
AcDbEntity
  8
0
  6
CONTINUOUS
100
AcDbLine
 10
5.595387755019432
 20
-0.0000545189504582
 30
0.0
 11
7.716137258923768
 21
2.120694984953879
 31
0.0
  0
LINE
  5
1030A
330
102F2
100
AcDbEntity
  8
0
  6
CONTINUOUS
100
AcDbLine
 10
6.268938306610172
 20
-0.000023176439905
 30
0.0
 11
7.170485805526503
 21
0.9015243224764267
 31
0.0
  0
LINE
  5
1030B
330
102F2
100
AcDbEntity
  8
0
  6
CONTINUOUS
100
AcDbLine
 10
7.963842273967511
 20
2.368399999997621
 30
0.0
 11
9.266442273966188
 21
3.670999999996297
 31
0.0
  0
LINE
  5
1030C
330
102F2
100
AcDbEntity
  8
0
  6
CONTINUOUS
100
AcDbLine
 10
8.637361483047696
 20
2.368399999997621
 30
0.0
 11
9.939961483046375
 21
3.670999999996297
 31
0.0
  0
LINE
  5
1030D
330
102F2
100
AcDbEntity
  8
0
  6
CONTINUOUS
100
AcDbLine
 10
9.817529300306965
 20
4.222087026337075
 30
0.0
 11
10.89312513395388
 21
5.297682859983993
 31
0.0
  0
LINE
  5
1030E
330
102F2
100
AcDbEntity
  8
0
  6
CONTINUOUS
100
AcDbLine
 10
10.02566815382863
 20
3.756706670778549
 30
0.0
 11
11.10129251732229
 21
4.832331034272211
 31
0.0
  0
LINE
  5
1030F
330
102F2
100
AcDbEntity
  8
0
  6
CONTINUOUS
100
AcDbLine
 10
9.310880692127883
 20
2.368399999997621
 30
0.0
 11
11.30945990069069
 21
4.366979208560428
 31
0.0
  0
LINE
  5
10310
330
102F2
100
AcDbEntity
  8
0
  6
CONTINUOUS
100
AcDbLine
 10
9.98439990120807
 20
2.36839999999762
 30
0.0
 11
11.5176272840591
 21
3.901627382848645
 31
0.0
  0
LINE
  5
10311
330
102F2
100
AcDbEntity
  8
0
  6
CONTINUOUS
100
AcDbLine
 10
10.65037369446246
 20
2.36085458417182
 30
0.0
 11
11.7257946674275
 21
3.436275557136862
 31
0.0
  0
LINE
  5
10312
330
102F2
100
AcDbEntity
  8
0
  6
CONTINUOUS
100
AcDbLine
 10
10.85847197087848
 20
1.895433651507656
 30
0.0
 11
11.9339620507959
 21
2.97092373142508
 31
0.0
  0
LINE
  5
10313
330
102F2
100
AcDbEntity
  8
0
  6
CONTINUOUS
100
AcDbLine
 10
11.0665702472945
 20
1.430012718843491
 30
0.0
 11
12.14212943416431
 21
2.505571905713296
 31
0.0
  0
LINE
  5
10314
330
102F2
100
AcDbEntity
  8
0
  6
CONTINUOUS
100
AcDbLine
 10
11.27466852371052
 20
0.9645917861793256
 30
0.0
 11
12.35029681753271
 21
2.040220080001513
 31
0.0
  0
LINE
  5
10315
330
102F2
100
AcDbEntity
  8
0
  6
CONTINUOUS
100
AcDbLine
 10
11.48276680012654
 20
0.4991708535151611
 30
0.0
 11
12.55846420090111
 21
1.57486825428973
 31
0.0
  0
LINE
  5
10316
330
102F2
100
AcDbEntity
  8
0
  6
CONTINUOUS
100
AcDbLine
 10
11.69086507654257
 20
0.0337499208509957
 30
0.0
 11
12.76663158426952
 21
1.109516428577947
 31
0.0
  0
LINE
  5
10317
330
102F2
100
AcDbEntity
  8
0
  6
CONTINUOUS
100
AcDbLine
 10
12.33057447873954
 20
-0.0000598860322123
 30
0.0
 11
12.97479896763792
 21
0.6441646028661663
 31
0.0
  0
LINE
  5
10318
330
102F2
100
AcDbEntity
  8
0
  6
CONTINUOUS
100
AcDbLine
 10
13.00413694809395
 20
-0.0000166257579952
 30
0.0
 11
13.18296635100632
 21
0.1788127771543824
 31
0.0
  0
LINE
  5
10319
330
102F2
100
AcDbEntity
  8
0
  6
CONTINUOUS
100
AcDbLine
 10
4.772852165289667
 20
-0.000092794222212
 30
0.0
 11
4.296495091028902
 21
0.4762642800385528
 31
0.0
  0
LINE
  5
1031A
330
102F2
100
AcDbEntity
  8
0
  6
CONTINUOUS
100
AcDbLine
 10
5.446340034776103
 20
-0.0000614546284616
 30
0.0
 11
2.898195908335625
 21
2.548082671812017
 31
0.0
  0
LINE
  5
1031B
330
102F2
100
AcDbEntity
  8
0
  6
CONTINUOUS
100
AcDbLine
 10
6.119827904262539
 20
-0.0000301150347113
 30
0.0
 11
1.499896725642348
 21
4.61990106358548
 31
0.0
  0
LINE
  5
1031C
330
102F2
100
AcDbEntity
  8
0
  6
CONTINUOUS
100
AcDbLine
 10
6.775136745476159
 20
0.0181802528318542
 30
0.0
 11
5.699826040202669
 21
1.093490958105344
 31
0.0
  0
LINE
  5
1031D
330
102F2
100
AcDbEntity
  8
0
  6
CONTINUOUS
100
AcDbLine
 10
6.983376846288489
 20
0.4834593610997118
 30
0.0
 11
5.908008617934405
 21
1.558827589453796
 31
0.0
  0
LINE
  5
1031E
330
102F2
100
AcDbEntity
  8
0
  6
CONTINUOUS
100
AcDbLine
 10
5.377063484962296
 20
1.416253513345719
 30
0.0
 11
1.702276957014131
 21
5.091040041293883
 31
0.0
  0
LINE
  5
1031F
330
102F2
100
AcDbEntity
  8
0
  6
CONTINUOUS
100
AcDbLine
 10
3.978745891735324
 20
3.488090315652877
 30
0.0
 11
2.000373521109399
 21
5.466462686278803
 31
0.0
  0
LINE
  5
10320
330
102F2
100
AcDbEntity
  8
0
  6
CONTINUOUS
100
AcDbLine
 10
7.191616947100819
 20
0.948738469367568
 30
0.0
 11
6.11619119566614
 21
2.024164220802247
 31
0.0
  0
LINE
  5
10321
330
102F2
100
AcDbEntity
  8
0
  6
CONTINUOUS
100
AcDbLine
 10
7.399857047913149
 20
1.414017577635424
 30
0.0
 11
6.324373773397875
 21
2.489500852150698
 31
0.0
  0
LINE
  5
10322
330
102F2
100
AcDbEntity
  8
0
  6
CONTINUOUS
100
AcDbLine
 10
7.608097148725479
 20
1.879296685903281
 30
0.0
 11
6.53255635112961
 21
2.95483748349915
 31
0.0
  0
LINE
  5
10323
330
102F2
100
AcDbEntity
  8
0
  6
CONTINUOUS
100
AcDbLine
 10
7.816337249537808
 20
2.344575794171138
 30
0.0
 11
6.740738928861345
 21
3.420174114847601
 31
0.0
  0
LINE
  5
10324
330
102F2
100
AcDbEntity
  8
0
  6
CONTINUOUS
100
AcDbLine
 10
3.310241080789734
 20
4.830114335678653
 30
0.0
 11
2.298470085204666
 21
5.84188533126372
 31
0.0
  0
LINE
  5
10325
330
102F2
100
AcDbEntity
  8
0
  6
CONTINUOUS
100
AcDbLine
 10
3.60832983563551
 20
5.205544789913063
 30
0.0
 11
2.596566649299935
 21
6.217307976248638
 31
0.0
  0
LINE
  5
10326
330
102F2
100
AcDbEntity
  8
0
  6
CONTINUOUS
100
AcDbLine
 10
3.906418590481286
 20
5.580975244147473
 30
0.0
 11
2.894663213395203
 21
6.592730621233557
 31
0.0
  0
LINE
  5
10327
330
102F2
100
AcDbEntity
  8
0
  6
CONTINUOUS
100
AcDbLine
 10
4.204507345327062
 20
5.956405698381884
 30
0.0
 11
3.192759777490472
 21
6.968153266218474
 31
0.0
  0
LINE
  5
10328
330
102F2
100
AcDbEntity
  8
0
  6
CONTINUOUS
100
AcDbLine
 10
8.466032252791512
 20
2.368399999997621
 30
0.0
 11
6.948921506593081
 21
3.885510746196053
 31
0.0
  0
LINE
  5
10329
330
102F2
100
AcDbEntity
  8
0
  6
CONTINUOUS
100
AcDbLine
 10
9.139551461871699
 20
2.36839999999762
 30
0.0
 11
7.157104084324816
 21
4.350847377544504
 31
0.0
  0
LINE
  5
1032A
330
102F2
100
AcDbEntity
  8
0
  6
CONTINUOUS
100
AcDbLine
 10
4.502596100172839
 20
6.331836152616295
 30
0.0
 11
3.49085634158574
 21
7.343575911203393
 31
0.0
  0
LINE
  5
1032B
330
102F2
100
AcDbEntity
  8
0
  6
CONTINUOUS
100
AcDbLine
 10
4.800684855018615
 20
6.707266606850705
 30
0.0
 11
3.788952905681008
 21
7.718998556188312
 31
0.0
  0
LINE
  5
1032C
330
102F2
100
AcDbEntity
  8
0
  6
CONTINUOUS
100
AcDbLine
 10
12.18154012887317
 20
-0.0000694579236642
 30
0.0
 11
11.32140332908496
 21
0.8600673418645499
 31
0.0
  0
LINE
  5
1032D
330
102F2
100
AcDbEntity
  8
0
  6
CONTINUOUS
100
AcDbLine
 10
12.85501608323566
 20
-0.0000262032059659
 30
0.0
 11
10.77672456435345
 21
2.078265315676246
 31
0.0
  0
LINE
  5
1032E
330
102F2
100
AcDbEntity
  8
0
  6
CONTINUOUS
100
AcDbLine
 10
9.813070670951886
 20
2.36839999999762
 30
0.0
 11
8.51047067095321
 21
3.670999999996297
 31
0.0
  0
LINE
  5
1032F
330
102F2
100
AcDbEntity
  8
0
  6
CONTINUOUS
100
AcDbLine
 10
10.48658988003207
 20
2.36839999999762
 30
0.0
 11
9.183989880033396
 21
3.670999999996297
 31
0.0
  0
LINE
  5
10330
330
102F2
100
AcDbEntity
  8
0
  6
CONTINUOUS
100
AcDbLine
 10
8.441048632286794
 20
3.740422038662712
 30
0.0
 11
7.365286662056551
 21
4.816184008892956
 31
0.0
  0
LINE
  5
10331
330
102F2
100
AcDbEntity
  8
0
  6
CONTINUOUS
100
AcDbLine
 10
8.649187485808454
 20
4.205802394221237
 30
0.0
 11
7.573469239788285
 21
5.281520640241407
 31
0.0
  0
LINE
  5
10332
330
102F2
100
AcDbEntity
  8
0
  6
CONTINUOUS
100
AcDbLine
 10
5.098773609864391
 20
7.082697061085115
 30
0.0
 11
4.087049469776277
 21
8.09442120117323
 31
0.0
  0
LINE
  5
10333
330
102F2
100
AcDbEntity
  8
0
  6
CONTINUOUS
100
AcDbLine
 10
5.396862364710167
 20
7.458127515319526
 30
0.0
 11
4.385146033871544
 21
8.469843846158149
 31
0.0
  0
LINE
  5
10334
330
102F2
100
AcDbEntity
  8
0
  6
CONTINUOUS
100
AcDbLine
 10
13.04801363231285
 20
0.4804954567970334
 30
0.0
 11
9.85750908911358
 21
3.670999999996297
 31
0.0
  0
LINE
  5
10335
330
102F2
100
AcDbEntity
  8
0
  6
CONTINUOUS
100
AcDbLine
 10
8.857326339330116
 20
4.671182749779763
 30
0.0
 11
7.781651817520021
 21
5.746857271589858
 31
0.0
  0
LINE
  5
10336
330
102F2
100
AcDbEntity
  8
0
  6
CONTINUOUS
100
AcDbLine
 10
5.694951119555943
 20
7.833557969553937
 30
0.0
 11
4.765409089118624
 21
8.763099999991255
 31
0.0
  0
LINE
  5
10337
330
102F2
100
AcDbEntity
  8
0
  6
CONTINUOUS
100
AcDbLine
 10
12.50286117236978
 20
1.699167125820288
 30
0.0
 11
9.68611877250287
 21
4.515909525687196
 31
0.0
  0
LINE
  5
10338
330
102F2
100
AcDbEntity
  8
0
  6
CONTINUOUS
100
AcDbLine
 10
9.065465192851777
 20
5.136563105338288
 30
0.0
 11
7.989834395251757
 21
6.21219390293831
 31
0.0
  0
LINE
  5
10339
330
102F2
100
AcDbEntity
  8
0
  6
CONTINUOUS
100
AcDbLine
 10
5.993039874401719
 20
8.208988423788346
 30
0.0
 11
5.43892829819881
 21
8.763099999991255
 31
0.0
  0
LINE
  5
1033A
330
102F2
100
AcDbEntity
  8
0
  6
CONTINUOUS
100
AcDbLine
 10
11.95770871242671
 20
2.917838794843543
 30
0.0
 11
8.19801697298349
 21
6.677530534286761
 31
0.0
  0
LINE
  5
1033B
330
102F2
100
AcDbEntity
  8
0
  6
CONTINUOUS
100
AcDbLine
 10
6.291128629247495
 20
8.584418878022756
 30
0.0
 11
6.112447507278997
 21
8.763099999991255
 31
0.0
  0
LINE
  5
1033C
330
102F2
100
AcDbEntity
  8
0
  6
CONTINUOUS
100
AcDbLine
 10
11.41255625248364
 20
4.136510463866797
 30
0.0
 11
8.406199550715227
 21
7.142867165635211
 31
0.0
  0
LINE
  5
1033D
330
102F2
100
AcDbEntity
  8
0
  6
CONTINUOUS
100
AcDbLine
 10
10.86740379254057
 20
5.355182132890051
 30
0.0
 11
8.614382128446962
 21
7.608203796983664
 31
0.0
  0
LINE
  5
1033E
330
102F2
100
AcDbEntity
  8
0
  6
CONTINUOUS
100
AcDbLine
 10
10.3222513325975
 20
6.573853801913305
 30
0.0
 11
8.822564706178696
 21
8.073540428332114
 31
0.0
  0
LINE
  5
1033F
330
102F2
100
AcDbEntity
  8
0
  6
CONTINUOUS
100
AcDbLine
 10
9.777098872654436
 20
7.792525470936562
 30
0.0
 11
9.030747283910433
 21
8.538877059680566
 31
0.0
  0
ENDBLK
  5
10481
330
102F2
100
AcDbEntity
  8
0
100
AcDbBlockEnd
  0
BLOCK
  5
10482
330
10340
100
AcDbEntity
  8
0
100
AcDbBlockBegin
  2
*X69
 70
     1
 10
0.0
 20
0.0
 30
0.0
  3
*X69
  1

  0
LINE
  5
10341
330
10340
100
AcDbEntity
  8
0
  6
CONTINUOUS
100
AcDbLine
 10
10.67292308101235
 20
8.445076852443387
 30
0.0
 11
10.99094622856022
 21
8.763099999991255
 31
0.0
  0
LINE
  5
10342
330
10340
100
AcDbEntity
  8
0
  6
CONTINUOUS
100
AcDbLine
 10
10.87250383178748
 20
7.971138394138331
 30
0.0
 11
11.6644654376404
 21
8.763099999991255
 31
0.0
  0
LINE
  5
10343
330
10340
100
AcDbEntity
  8
0
  6
CONTINUOUS
100
AcDbLine
 10
11.07208458256261
 20
7.497199935833273
 30
0.0
 11
12.12126590876355
 21
8.546381262034211
 31
0.0
  0
LINE
  5
10344
330
10340
100
AcDbEntity
  8
0
  6
CONTINUOUS
100
AcDbLine
 10
11.27166533333774
 20
7.023261477528216
 30
0.0
 11
12.32085164573666
 21
8.072447789927136
 31
0.0
  0
LINE
  5
10345
330
10340
100
AcDbEntity
  8
0
  6
CONTINUOUS
100
AcDbLine
 10
11.47124608411287
 20
6.549323019223158
 30
0.0
 11
12.52043738270977
 21
7.59851431782006
 31
0.0
  0
LINE
  5
10346
330
10340
100
AcDbEntity
  8
0
  6
CONTINUOUS
100
AcDbLine
 10
11.670826834888
 20
6.075384560918101
 30
0.0
 11
12.72002311968288
 21
7.124580845712984
 31
0.0
  0
LINE
  5
10347
330
10340
100
AcDbEntity
  8
0
  6
CONTINUOUS
100
AcDbLine
 10
11.87040758566313
 20
5.601446102613043
 30
0.0
 11
12.91960885665599
 21
6.650647373605907
 31
0.0
  0
LINE
  5
10348
330
10340
100
AcDbEntity
  8
0
  6
CONTINUOUS
100
AcDbLine
 10
12.06998833643825
 20
5.127507644307986
 30
0.0
 11
13.1191945936291
 21
6.176713901498832
 31
0.0
  0
LINE
  5
10349
330
10340
100
AcDbEntity
  8
0
  6
CONTINUOUS
100
AcDbLine
 10
12.26956908721338
 20
4.65356918600293
 30
0.0
 11
13.31878033060221
 21
5.702780429391757
 31
0.0
  0
LINE
  5
1034A
330
10340
100
AcDbEntity
  8
0
  6
CONTINUOUS
100
AcDbLine
 10
12.46914983798851
 20
4.179630727697873
 30
0.0
 11
13.51836606757532
 21
5.228846957284683
 31
0.0
  0
LINE
  5
1034B
330
10340
100
AcDbEntity
  8
0
  6
CONTINUOUS
100
AcDbLine
 10
12.66873058876364
 20
3.705692269392816
 30
0.0
 11
13.71795180454843
 21
4.754913485177607
 31
0.0
  0
LINE
  5
1034C
330
10340
100
AcDbEntity
  8
0
  6
CONTINUOUS
100
AcDbLine
 10
12.86831133953877
 20
3.231753811087759
 30
0.0
 11
13.91753754152154
 21
4.280980013070531
 31
0.0
  0
LINE
  5
1034D
330
10340
100
AcDbEntity
  8
0
  6
CONTINUOUS
100
AcDbLine
 10
13.0678920903139
 20
2.757815352782702
 30
0.0
 11
14.11712327849465
 21
3.807046540963456
 31
0.0
  0
LINE
  5
1034E
330
10340
100
AcDbEntity
  8
0
  6
CONTINUOUS
100
AcDbLine
 10
13.26747284108903
 20
2.283876894477644
 30
0.0
 11
14.31670901546777
 21
3.333113068856379
 31
0.0
  0
LINE
  5
1034F
330
10340
100
AcDbEntity
  8
0
  6
CONTINUOUS
100
AcDbLine
 10
16.36767838827179
 20
8.751678487061342
 30
0.0
 11
16.50332410898388
 21
8.887324207773432
 31
0.0
  0
LINE
  5
10350
330
10340
100
AcDbEntity
  8
0
  6
CONTINUOUS
100
AcDbLine
 10
15.96190732182191
 20
7.67238821153127
 30
0.0
 11
16.68735328004734
 21
8.397834169756699
 31
0.0
  0
LINE
  5
10351
330
10340
100
AcDbEntity
  8
0
  6
CONTINUOUS
100
AcDbLine
 10
15.55613625537202
 20
6.593097936001196
 30
0.0
 11
16.87138245111079
 21
7.908344131739965
 31
0.0
  0
LINE
  5
10352
330
10340
100
AcDbEntity
  8
0
  6
CONTINUOUS
100
AcDbLine
 10
15.15036518892213
 20
5.513807660471122
 30
0.0
 11
17.05541162217424
 21
7.418854093723231
 31
0.0
  0
LINE
  5
10353
330
10340
100
AcDbEntity
  8
0
  6
CONTINUOUS
100
AcDbLine
 10
14.74459412247225
 20
4.434517384941048
 30
0.0
 11
17.2394407932377
 21
6.929364055706499
 31
0.0
  0
LINE
  5
10354
330
10340
100
AcDbEntity
  8
0
  6
CONTINUOUS
100
AcDbLine
 10
14.33882305602236
 20
3.355227109410975
 30
0.0
 11
17.42346996430115
 21
6.439874017689766
 31
0.0
  0
LINE
  5
10355
330
10340
100
AcDbEntity
  8
0
  6
CONTINUOUS
100
AcDbLine
 10
13.46705359186416
 20
1.809938436172586
 30
0.0
 11
16.0819338255367
 21
4.424818669845129
 31
0.0
  0
LINE
  5
10356
330
10340
100
AcDbEntity
  8
0
  6
CONTINUOUS
100
AcDbLine
 10
16.63283254238972
 20
4.975717386698149
 30
0.0
 11
17.60749913536461
 21
5.950383979673033
 31
0.0
  0
LINE
  5
10357
330
10340
100
AcDbEntity
  8
0
  6
CONTINUOUS
100
AcDbLine
 10
13.66663434263929
 20
1.335999977867529
 30
0.0
 11
15.67604797733754
 21
3.345413612565779
 31
0.0
  0
LINE
  5
10358
330
10340
100
AcDbEntity
  8
0
  6
CONTINUOUS
100
AcDbLine
 10
13.86621509341442
 20
0.8620615195624723
 30
0.0
 11
15.27016212913838
 21
2.26600855528643
 31
0.0
  0
LINE
  5
10359
330
10340
100
AcDbEntity
  8
0
  6
CONTINUOUS
100
AcDbLine
 10
16.81682257348267
 20
4.486188208710908
 30
0.0
 11
17.79152830642806
 21
5.460893941656299
 31
0.0
  0
LINE
  5
1035A
330
10340
100
AcDbEntity
  8
0
  6
CONTINUOUS
100
AcDbLine
 10
17.00081260457561
 20
3.996659030723667
 30
0.0
 11
17.97555747749151
 21
4.971403903639565
 31
0.0
  0
LINE
  5
1035B
330
10340
100
AcDbEntity
  8
0
  6
CONTINUOUS
100
AcDbLine
 10
20.74362343514722
 20
8.412989070375462
 30
0.0
 11
21.09373436476302
 21
8.763099999991256
 31
0.0
  0
LINE
  5
1035C
330
10340
100
AcDbEntity
  8
0
  6
CONTINUOUS
100
AcDbLine
 10
20.25401257174777
 20
7.249858997895826
 30
0.0
 11
21.7672535738432
 21
8.763099999991255
 31
0.0
  0
LINE
  5
1035D
330
10340
100
AcDbEntity
  8
0
  6
CONTINUOUS
100
AcDbLine
 10
14.06579584418955
 20
0.3881230612574149
 30
0.0
 11
14.86427628093921
 21
1.186603498007082
 31
0.0
  0
LINE
  5
1035E
330
10340
100
AcDbEntity
  8
0
  6
CONTINUOUS
100
AcDbLine
 10
14.26537659496467
 20
-0.0858153970476412
 30
0.0
 11
14.45839043274005
 21
0.1071984407277329
 31
0.0
  0
LINE
  5
1035F
330
10340
100
AcDbEntity
  8
0
  6
CONTINUOUS
100
AcDbLine
 10
17.18480263566856
 20
3.507129852736426
 30
0.0
 11
18.15958664855496
 21
4.481913865622833
 31
0.0
  0
LINE
  5
10360
330
10340
100
AcDbEntity
  8
0
  6
CONTINUOUS
100
AcDbLine
 10
17.3687926667615
 20
3.017600674749186
 30
0.0
 11
18.34361581961842
 21
3.9924238276061
 31
0.0
  0
LINE
  5
10361
330
10340
100
AcDbEntity
  8
0
  6
CONTINUOUS
100
AcDbLine
 10
19.76440170834832
 20
6.086728925416191
 30
0.0
 11
22.33924590259489
 21
8.661573119662755
 31
0.0
  0
LINE
  5
10362
330
10340
100
AcDbEntity
  8
0
  6
CONTINUOUS
100
AcDbLine
 10
19.27479084494887
 20
4.923598852936555
 30
0.0
 11
21.84929622842713
 21
7.498104236414807
 31
0.0
  0
LINE
  5
10363
330
10340
100
AcDbEntity
  8
0
  6
CONTINUOUS
100
AcDbLine
 10
17.55278269785445
 20
2.528071496761945
 30
0.0
 11
18.52764499068187
 21
3.502933789589366
 31
0.0
  0
LINE
  5
10364
330
10340
100
AcDbEntity
  8
0
  6
CONTINUOUS
100
AcDbLine
 10
18.78517998154942
 20
3.760468780456919
 30
0.0
 11
21.35934655425936
 21
6.33463535316686
 31
0.0
  0
LINE
  5
10365
330
10340
100
AcDbEntity
  8
0
  6
CONTINUOUS
100
AcDbLine
 10
17.73677272894739
 20
2.038542318774704
 30
0.0
 11
20.8693968800916
 21
5.171166469918914
 31
0.0
  0
LINE
  5
10366
330
10340
100
AcDbEntity
  8
0
  6
CONTINUOUS
100
AcDbLine
 10
17.92076276004034
 20
1.549013140787464
 30
0.0
 11
20.37944720592384
 21
4.007697586670968
 31
0.0
  0
LINE
  5
10367
330
10340
100
AcDbEntity
  8
0
  6
CONTINUOUS
100
AcDbLine
 10
18.10475279113329
 20
1.059483962800223
 30
0.0
 11
19.88949753175608
 21
2.84422870342302
 31
0.0
  0
LINE
  5
10368
330
10340
100
AcDbEntity
  8
0
  6
CONTINUOUS
100
AcDbLine
 10
18.28874282222623
 20
0.5699547848129822
 30
0.0
 11
19.39954785758832
 21
1.680759820175074
 31
0.0
  0
LINE
  5
10369
330
10340
100
AcDbEntity
  8
0
  6
CONTINUOUS
100
AcDbLine
 10
18.47273285331918
 20
0.0804256068257416
 30
0.0
 11
18.90959818342056
 21
0.517290936927127
 31
0.0
  0
LINE
  5
1036A
330
10340
100
AcDbEntity
  8
0
  6
CONTINUOUS
100
AcDbLine
 10
14.3590401358224
 20
-0.1570118376323384
 30
0.0
 11
14.24903296539946
 21
-0.0470046672093929
 31
0.0
  0
LINE
  5
1036B
330
10340
100
AcDbEntity
  8
0
  6
CONTINUOUS
100
AcDbLine
 10
14.54309291258661
 20
0.332454594683643
 30
0.0
 11
13.75908329123172
 21
1.116464216038529
 31
0.0
  0
LINE
  5
1036C
330
10340
100
AcDbEntity
  8
0
  6
CONTINUOUS
100
AcDbLine
 10
14.72714568935081
 20
0.8219210269996244
 30
0.0
 11
13.26913361706399
 21
2.27993309928645
 31
0.0
  0
LINE
  5
1036D
330
10340
100
AcDbEntity
  8
0
  6
CONTINUOUS
100
AcDbLine
 10
14.91119846611502
 20
1.311387459315606
 30
0.0
 11
12.77918394289625
 21
3.443401982534371
 31
0.0
  0
LINE
  5
1036E
330
10340
100
AcDbEntity
  8
0
  6
CONTINUOUS
100
AcDbLine
 10
15.09525124287922
 20
1.800853891631587
 30
0.0
 11
12.28923426872852
 21
4.606870865782293
 31
0.0
  0
LINE
  5
1036F
330
10340
100
AcDbEntity
  8
0
  6
CONTINUOUS
100
AcDbLine
 10
15.27930401964343
 20
2.290320323947569
 30
0.0
 11
11.79928459456078
 21
5.770339749030213
 31
0.0
  0
LINE
  5
10370
330
10340
100
AcDbEntity
  8
0
  6
CONTINUOUS
100
AcDbLine
 10
15.46335679640763
 20
2.77978675626355
 30
0.0
 11
14.48885470994921
 21
3.754288842721972
 31
0.0
  0
LINE
  5
10371
330
10340
100
AcDbEntity
  8
0
  6
CONTINUOUS
100
AcDbLine
 10
13.88507249233704
 20
4.358071060334137
 30
0.0
 11
11.30933492039305
 21
6.933808632278135
 31
0.0
  0
LINE
  5
10372
330
10340
100
AcDbEntity
  8
0
  6
CONTINUOUS
100
AcDbLine
 10
18.75840522805855
 20
0.1582575336928151
 30
0.0
 11
18.25383727664818
 21
0.6628254851031863
 31
0.0
  0
LINE
  5
10373
330
10340
100
AcDbEntity
  8
0
  6
CONTINUOUS
100
AcDbLine
 10
15.64740957317184
 20
3.269253188579531
 30
0.0
 11
14.67288388101266
 21
4.243778880738705
 31
0.0
  0
LINE
  5
10374
330
10340
100
AcDbEntity
  8
0
  6
CONTINUOUS
100
AcDbLine
 10
13.39509276772158
 20
5.521569994029786
 30
0.0
 11
10.81938524622531
 21
8.097277515526056
 31
0.0
  0
LINE
  5
10375
330
10340
100
AcDbEntity
  8
0
  6
CONTINUOUS
100
AcDbLine
 10
18.95798597883369
 20
0.6321959919978686
 30
0.0
 11
17.84825644852853
 21
1.741925522303024
 31
0.0
  0
LINE
  5
10376
330
10340
100
AcDbEntity
  8
0
  6
CONTINUOUS
100
AcDbLine
 10
19.15756672960882
 20
1.106134450302922
 30
0.0
 11
17.44267562040888
 21
2.821025559502861
 31
0.0
  0
LINE
  5
10377
330
10340
100
AcDbEntity
  8
0
  6
CONTINUOUS
100
AcDbLine
 10
15.83146234993604
 20
3.758719620895513
 30
0.0
 11
14.85691305207612
 21
4.733268918755439
 31
0.0
  0
LINE
  5
10378
330
10340
100
AcDbEntity
  8
0
  6
CONTINUOUS
100
AcDbLine
 10
16.01551512670025
 20
4.248186053211494
 30
0.0
 11
15.04094222313957
 21
5.222758956772172
 31
0.0
  0
LINE
  5
10379
330
10340
100
AcDbEntity
  8
0
  6
CONTINUOUS
100
AcDbLine
 10
12.90511304310612
 20
6.685068927725435
 30
0.0
 11
10.8270819708403
 21
8.763099999991255
 31
0.0
  0
LINE
  5
1037A
330
10340
100
AcDbEntity
  8
0
  6
CONTINUOUS
100
AcDbLine
 10
12.41513331849066
 20
7.848567861421083
 30
0.0
 11
11.50060117992049
 21
8.763099999991255
 31
0.0
  0
LINE
  5
1037B
330
10340
100
AcDbEntity
  8
0
  6
CONTINUOUS
100
AcDbLine
 10
19.35714748038395
 20
1.580072908607975
 30
0.0
 11
17.03709479228923
 21
3.900125596702697
 31
0.0
  0
LINE
  5
1037C
330
10340
100
AcDbEntity
  8
0
  6
CONTINUOUS
100
AcDbLine
 10
19.55672823115909
 20
2.054011366913028
 30
0.0
 11
16.63151396416958
 21
4.979225633902534
 31
0.0
  0
LINE
  5
1037D
330
10340
100
AcDbEntity
  8
0
  6
CONTINUOUS
100
AcDbLine
 10
16.19956790346445
 20
4.737652485527476
 30
0.0
 11
15.22497139420302
 21
5.712248994788904
 31
0.0
  0
LINE
  5
1037E
330
10340
100
AcDbEntity
  8
0
  6
CONTINUOUS
100
AcDbLine
 10
16.38362068022866
 20
5.227118917843457
 30
0.0
 11
15.40900056526648
 21
6.201739032805637
 31
0.0
  0
LINE
  5
1037F
330
10340
100
AcDbEntity
  8
0
  6
CONTINUOUS
100
AcDbLine
 10
19.75630898193422
 20
2.527949825218081
 30
0.0
 11
18.70774536448286
 21
3.576513442669441
 31
0.0
  0
LINE
  5
10380
330
10340
100
AcDbEntity
  8
0
  6
CONTINUOUS
100
AcDbLine
 10
19.95588973270936
 20
3.001888283523134
 30
0.0
 11
18.90726987211446
 21
4.050508144118028
 31
0.0
  0
LINE
  5
10381
330
10340
100
AcDbEntity
  8
0
  6
CONTINUOUS
100
AcDbLine
 10
20.15547048348449
 20
3.475826741828186
 30
0.0
 11
19.10679437974606
 21
4.524502845566614
 31
0.0
  0
LINE
  5
10382
330
10340
100
AcDbEntity
  8
0
  6
CONTINUOUS
100
AcDbLine
 10
20.35505123425962
 20
3.94976520013324
 30
0.0
 11
19.30631888737766
 21
4.998497547015201
 31
0.0
  0
LINE
  5
10383
330
10340
100
AcDbEntity
  8
0
  6
CONTINUOUS
100
AcDbLine
 10
20.55463198503475
 20
4.423703658438292
 30
0.0
 11
19.50584339500926
 21
5.472492248463787
 31
0.0
  0
LINE
  5
10384
330
10340
100
AcDbEntity
  8
0
  6
CONTINUOUS
100
AcDbLine
 10
18.37481191085755
 20
3.909446896294752
 30
0.0
 11
15.59302973632993
 21
6.691229070822371
 31
0.0
  0
LINE
  5
10385
330
10340
100
AcDbEntity
  8
0
  6
CONTINUOUS
100
AcDbLine
 10
17.96904084440766
 20
4.988737171824825
 30
0.0
 11
15.77705890739338
 21
7.180719108839104
 31
0.0
  0
LINE
  5
10386
330
10340
100
AcDbEntity
  8
0
  6
CONTINUOUS
100
AcDbLine
 10
17.56326977795777
 20
6.068027447354899
 30
0.0
 11
15.96108807845684
 21
7.670209146855838
 31
0.0
  0
LINE
  5
10387
330
10340
100
AcDbEntity
  8
0
  6
CONTINUOUS
100
AcDbLine
 10
17.15749871150789
 20
7.147317722884972
 30
0.0
 11
16.14511724952029
 21
8.15969918487257
 31
0.0
  0
LINE
  5
10388
330
10340
100
AcDbEntity
  8
0
  6
CONTINUOUS
100
AcDbLine
 10
16.751727645058
 20
8.226607998415046
 30
0.0
 11
16.32914642058374
 21
8.649189222889303
 31
0.0
  0
LINE
  5
10389
330
10340
100
AcDbEntity
  8
0
  6
CONTINUOUS
100
AcDbLine
 10
20.75421273580989
 20
4.897642116743345
 30
0.0
 11
19.70536790264086
 21
5.946486949912374
 31
0.0
  0
LINE
  5
1038A
330
10340
100
AcDbEntity
  8
0
  6
CONTINUOUS
100
AcDbLine
 10
20.95379348658502
 20
5.371580575048398
 30
0.0
 11
19.90489241027246
 21
6.42048165136096
 31
0.0
  0
LINE
  5
1038B
330
10340
100
AcDbEntity
  8
0
  6
CONTINUOUS
100
AcDbLine
 10
21.15337423736015
 20
5.845519033353452
 30
0.0
 11
20.10441691790406
 21
6.894476352809547
 31
0.0
  0
LINE
  5
1038C
330
10340
100
AcDbEntity
  8
0
  6
CONTINUOUS
100
AcDbLine
 10
21.35295498813529
 20
6.319457491658505
 30
0.0
 11
20.30394142553566
 21
7.368471054258134
 31
0.0
  0
LINE
  5
1038D
330
10340
100
AcDbEntity
  8
0
  6
CONTINUOUS
100
AcDbLine
 10
21.55253573891042
 20
6.793395949963558
 30
0.0
 11
20.50346593316726
 21
7.842465755706721
 31
0.0
  0
LINE
  5
1038E
330
10340
100
AcDbEntity
  8
0
  6
CONTINUOUS
100
AcDbLine
 10
21.75211648968556
 20
7.267334408268612
 30
0.0
 11
20.70299044079886
 21
8.316460457155308
 31
0.0
  0
LINE
  5
1038F
330
10340
100
AcDbEntity
  8
0
  6
CONTINUOUS
100
AcDbLine
 10
21.95169724046069
 20
7.741272866573663
 30
0.0
 11
20.9298701070431
 21
8.763099999991256
 31
0.0
  0
LINE
  5
10390
330
10340
100
AcDbEntity
  8
0
  6
CONTINUOUS
100
AcDbLine
 10
22.15127799123582
 20
8.215211324878716
 30
0.0
 11
21.60338931612328
 21
8.763099999991256
 31
0.0
  0
LINE
  5
10391
330
10340
100
AcDbEntity
  8
0
  6
CONTINUOUS
100
AcDbLine
 10
22.35085874201096
 20
8.689149783183769
 30
0.0
 11
22.27690852520347
 21
8.763099999991255
 31
0.0
  0
ENDBLK
  5
10483
330
10340
100
AcDbEntity
  8
0
100
AcDbBlockEnd
  0
BLOCK
  5
10484
330
10392
100
AcDbEntity
  8
0
100
AcDbBlockBegin
  2
*X70
 70
     1
 10
0.0
 20
0.0
 30
0.0
  3
*X70
  1

  0
LINE
  5
10393
330
10392
100
AcDbEntity
  8
0
  6
CONTINUOUS
100
AcDbLine
 10
23.19462913593892
 20
8.169917934846424
 30
0.0
 11
23.70775465517246
 21
8.683043454079957
 31
0.0
  0
LINE
  5
10394
330
10392
100
AcDbEntity
  8
0
  6
CONTINUOUS
100
AcDbLine
 10
22.64923161835078
 20
6.951001208178088
 30
0.0
 11
23.9159364069932
 21
8.217705996820516
 31
0.0
  0
LINE
  5
10395
330
10392
100
AcDbEntity
  8
0
  6
CONTINUOUS
100
AcDbLine
 10
22.10383410076263
 20
5.732084481509751
 30
0.0
 11
24.12411815881395
 21
7.752368539561078
 31
0.0
  0
LINE
  5
10396
330
10392
100
AcDbEntity
  8
0
  6
CONTINUOUS
100
AcDbLine
 10
21.55843658317447
 20
4.513167754841414
 30
0.0
 11
24.3322999106347
 21
7.287031082301639
 31
0.0
  0
LINE
  5
10397
330
10392
100
AcDbEntity
  8
0
  6
CONTINUOUS
100
AcDbLine
 10
21.01303906558632
 20
3.294251028173077
 30
0.0
 11
24.54048166245544
 21
6.821693625042199
 31
0.0
  0
LINE
  5
10398
330
10392
100
AcDbEntity
  8
0
  6
CONTINUOUS
100
AcDbLine
 10
20.46764154799817
 20
2.075334301504738
 30
0.0
 11
23.28571549467848
 21
4.89340824818505
 31
0.0
  0
LINE
  5
10399
330
10392
100
AcDbEntity
  8
0
  6
CONTINUOUS
100
AcDbLine
 10
19.92224403041002
 20
0.8564175748364002
 30
0.0
 11
22.74075865492779
 21
3.674932199354171
 31
0.0
  0
LINE
  5
1039A
330
10392
100
AcDbEntity
  8
0
  6
CONTINUOUS
100
AcDbLine
 10
23.67305085490148
 20
5.280743608408048
 30
0.0
 11
24.74866341427619
 21
6.356356167782759
 31
0.0
  0
LINE
  5
1039B
330
10392
100
AcDbEntity
  8
0
  6
CONTINUOUS
100
AcDbLine
 10
23.88118970842314
 20
4.815363252849522
 30
0.0
 11
24.95684516609694
 21
5.89101871052332
 31
0.0
  0
LINE
  5
1039C
330
10392
100
AcDbEntity
  8
0
  6
CONTINUOUS
100
AcDbLine
 10
19.73925852647308
 20
-0.0000871381807288
 30
0.0
 11
23.4103456646501
 21
3.670999999996297
 31
0.0
  0
LINE
  5
1039D
330
10392
100
AcDbEntity
  8
0
  6
CONTINUOUS
100
AcDbLine
 10
24.0893285619448
 20
4.349982897290997
 30
0.0
 11
25.16502691791769
 21
5.42568125326388
 31
0.0
  0
LINE
  5
1039E
330
10392
100
AcDbEntity
  8
0
  6
CONTINUOUS
100
AcDbLine
 10
20.41282099582748
 20
-0.0000438779065108
 30
0.0
 11
21.64944178675636
 21
1.236576913022366
 31
0.0
  0
LINE
  5
1039F
330
10392
100
AcDbEntity
  8
0
  6
CONTINUOUS
100
AcDbLine
 10
22.78126487373161
 20
2.36839999999762
 30
0.0
 11
24.08386487373029
 21
3.670999999996297
 31
0.0
  0
LINE
  5
103A0
330
10392
100
AcDbEntity
  8
0
  6
CONTINUOUS
100
AcDbLine
 10
24.29746741546646
 20
3.884602541732471
 30
0.0
 11
25.37320866973843
 21
4.960343796004441
 31
0.0
  0
LINE
  5
103A1
330
10392
100
AcDbEntity
  8
0
  6
CONTINUOUS
100
AcDbLine
 10
21.08638346518189
 20
-0.0000006176322938
 30
0.0
 11
21.10379033335899
 21
0.0174062505448083
 31
0.0
  0
LINE
  5
103A2
330
10392
100
AcDbEntity
  8
0
  6
CONTINUOUS
100
AcDbLine
 10
23.4547840828118
 20
2.36839999999762
 30
0.0
 11
25.58139042155918
 21
4.495006338745002
 31
0.0
  0
LINE
  5
103A3
330
10392
100
AcDbEntity
  8
0
  6
CONTINUOUS
100
AcDbLine
 10
29.30199999996933
 20
8.215615917155148
 30
0.0
 11
29.84948408280543
 21
8.763099999991255
 31
0.0
  0
LINE
  5
103A4
330
10392
100
AcDbEntity
  8
0
  6
CONTINUOUS
100
AcDbLine
 10
24.12830329189199
 20
2.36839999999762
 30
0.0
 11
25.78957217337993
 21
4.029668881485562
 31
0.0
  0
LINE
  5
103A5
330
10392
100
AcDbEntity
  8
0
  6
CONTINUOUS
100
AcDbLine
 10
29.30199999996933
 20
7.54209670807496
 30
0.0
 11
30.52300329188562
 21
8.763099999991255
 31
0.0
  0
LINE
  5
103A6
330
10392
100
AcDbEntity
  8
0
  6
CONTINUOUS
100
AcDbLine
 10
24.80182250097217
 20
2.36839999999762
 30
0.0
 11
25.99775392520067
 21
3.564331424226122
 31
0.0
  0
LINE
  5
103A7
330
10392
100
AcDbEntity
  8
0
  6
CONTINUOUS
100
AcDbLine
 10
29.30199999996933
 20
6.868577498994774
 30
0.0
 11
30.74199999996926
 21
8.308577498994712
 31
0.0
  0
LINE
  5
103A8
330
10392
100
AcDbEntity
  8
0
  6
CONTINUOUS
100
AcDbLine
 10
25.13028238392013
 20
2.023340673865392
 30
0.0
 11
26.20593567702142
 21
3.098993966966683
 31
0.0
  0
LINE
  5
103A9
330
10392
100
AcDbEntity
  8
0
  6
CONTINUOUS
100
AcDbLine
 10
25.33838066033617
 20
1.557919741201244
 30
0.0
 11
26.41411742884217
 21
2.633656509707244
 31
0.0
  0
LINE
  5
103AA
330
10392
100
AcDbEntity
  8
0
  6
CONTINUOUS
100
AcDbLine
 10
25.54647893675221
 20
1.092498808537098
 30
0.0
 11
26.62229918066291
 21
2.168319052447804
 31
0.0
  0
LINE
  5
103AB
330
10392
100
AcDbEntity
  8
0
  6
CONTINUOUS
100
AcDbLine
 10
25.75457721316825
 20
0.62707787587295
 30
0.0
 11
26.83048093248366
 21
1.702981595188365
 31
0.0
  0
LINE
  5
103AC
330
10392
100
AcDbEntity
  8
0
  6
CONTINUOUS
100
AcDbLine
 10
29.30199999996933
 20
6.195058289914587
 30
0.0
 11
30.74199999996926
 21
7.635058289914522
 31
0.0
  0
LINE
  5
103AD
330
10392
100
AcDbEntity
  8
0
  6
CONTINUOUS
100
AcDbLine
 10
29.30199999996933
 20
5.521539080834401
 30
0.0
 11
30.74199999996926
 21
6.961539080834331
 31
0.0
  0
LINE
  5
103AE
330
10392
100
AcDbEntity
  8
0
  6
CONTINUOUS
100
AcDbLine
 10
29.30199999996933
 20
4.848019871754214
 30
0.0
 11
30.74199999996925
 21
6.288019871754143
 31
0.0
  0
LINE
  5
103AF
330
10392
100
AcDbEntity
  8
0
  6
CONTINUOUS
100
AcDbLine
 10
29.30199999996933
 20
4.174500662674028
 30
0.0
 11
30.74199999996925
 21
5.614500662673953
 31
0.0
  0
LINE
  5
103B0
330
10392
100
AcDbEntity
  8
0
  6
CONTINUOUS
100
AcDbLine
 10
25.96267548958429
 20
0.1616569432088024
 30
0.0
 11
27.18411854636669
 21
1.383099999991207
 31
0.0
  0
LINE
  5
103B1
330
10392
100
AcDbEntity
  8
0
  6
CONTINUOUS
100
AcDbLine
 10
29.30199999996933
 20
3.500981453593841
 30
0.0
 11
30.74199999996925
 21
4.940981453593762
 31
0.0
  0
LINE
  5
103B2
330
10392
100
AcDbEntity
  8
0
  6
CONTINUOUS
100
AcDbLine
 10
26.50763775544691
 20
0.0330999999912356
 30
0.0
 11
27.85763775544689
 21
1.383099999991223
 31
0.0
  0
LINE
  5
103B3
330
10392
100
AcDbEntity
  8
0
  6
CONTINUOUS
100
AcDbLine
 10
29.30199999996933
 20
2.827462244513656
 30
0.0
 11
30.74199999996925
 21
4.267462244513574
 31
0.0
  0
LINE
  5
103B4
330
10392
100
AcDbEntity
  8
0
  6
CONTINUOUS
100
AcDbLine
 10
27.18115696452709
 20
0.0330999999912356
 30
0.0
 11
28.55073879889363
 21
1.402681834357775
 31
0.0
  0
LINE
  5
103B5
330
10392
100
AcDbEntity
  8
0
  6
CONTINUOUS
100
AcDbLine
 10
29.28241816560272
 20
2.134361201066866
 30
0.0
 11
30.74199999996924
 21
3.593943035433383
 31
0.0
  0
LINE
  5
103B6
330
10392
100
AcDbEntity
  8
0
  6
CONTINUOUS
100
AcDbLine
 10
27.85467617360728
 20
0.0330999999912356
 30
0.0
 11
30.74199999996924
 21
2.920423826353195
 31
0.0
  0
LINE
  5
103B7
330
10392
100
AcDbEntity
  8
0
  6
CONTINUOUS
100
AcDbLine
 10
28.53897559587887
 20
0.0438802131826428
 30
0.0
 11
30.73121978677781
 21
2.236124404081585
 31
0.0
  0
LINE
  5
103B8
330
10392
100
AcDbEntity
  8
0
  6
CONTINUOUS
100
AcDbLine
 10
29.45140055588722
 20
0.2827859641107988
 30
0.0
 11
30.49231403584965
 21
1.323699444073236
 31
0.0
  0
LINE
  5
103B9
330
10392
100
AcDbEntity
  8
0
  6
CONTINUOUS
100
AcDbLine
 10
19.59027867740337
 20
-0.0000967065718083
 30
0.0
 11
19.55485265190471
 21
0.035329318926844
 31
0.0
  0
LINE
  5
103BA
330
10392
100
AcDbEntity
  8
0
  6
CONTINUOUS
100
AcDbLine
 10
20.26375463176586
 20
-0.0000534518541091
 30
0.0
 11
19.76305575737534
 21
0.5006454225364014
 31
0.0
  0
LINE
  5
103BB
330
10392
100
AcDbEntity
  8
0
  6
CONTINUOUS
100
AcDbLine
 10
20.93723058612834
 20
-0.0000101971364099
 30
0.0
 11
19.97125886284597
 21
0.965961526145958
 31
0.0
  0
LINE
  5
103BC
330
10392
100
AcDbEntity
  8
0
  6
CONTINUOUS
100
AcDbLine
 10
21.25514828313686
 20
0.355591314935257
 30
0.0
 11
20.1794619683166
 21
1.431277629755512
 31
0.0
  0
LINE
  5
103BD
330
10392
100
AcDbEntity
  8
0
  6
CONTINUOUS
100
AcDbLine
 10
21.46338838394921
 20
0.8208704232030986
 30
0.0
 11
20.38766507378723
 21
1.896593733365069
 31
0.0
  0
LINE
  5
103BE
330
10392
100
AcDbEntity
  8
0
  6
CONTINUOUS
100
AcDbLine
 10
21.67162848476155
 20
1.28614953147094
 30
0.0
 11
20.59586817925786
 21
2.361909836974626
 31
0.0
  0
LINE
  5
103BF
330
10392
100
AcDbEntity
  8
0
  6
CONTINUOUS
100
AcDbLine
 10
21.8798685855739
 20
1.751428639738782
 30
0.0
 11
20.80407128472849
 21
2.827225940584183
 31
0.0
  0
LINE
  5
103C0
330
10392
100
AcDbEntity
  8
0
  6
CONTINUOUS
100
AcDbLine
 10
22.08810868638624
 20
2.216707748006623
 30
0.0
 11
21.01227439019912
 21
3.292542044193739
 31
0.0
  0
LINE
  5
103C1
330
10392
100
AcDbEntity
  8
0
  6
CONTINUOUS
100
AcDbLine
 10
22.60993564347543
 20
2.36839999999762
 30
0.0
 11
21.22047749566975
 21
3.757858147803296
 31
0.0
  0
LINE
  5
103C2
330
10392
100
AcDbEntity
  8
0
  6
CONTINUOUS
100
AcDbLine
 10
23.28345485255561
 20
2.36839999999762
 30
0.0
 11
21.42868060114038
 21
4.223174251412853
 31
0.0
  0
LINE
  5
103C3
330
10392
100
AcDbEntity
  8
0
  6
CONTINUOUS
100
AcDbLine
 10
26.29227406164219
 20
0.0330999999912356
 30
0.0
 11
25.80009199592872
 21
0.5252820657046957
 31
0.0
  0
LINE
  5
103C4
330
10392
100
AcDbEntity
  8
0
  6
CONTINUOUS
100
AcDbLine
 10
23.9569740616358
 20
2.36839999999762
 30
0.0
 11
21.63688370661101
 21
4.688490355022409
 31
0.0
  0
LINE
  5
103C5
330
10392
100
AcDbEntity
  8
0
  6
CONTINUOUS
100
AcDbLine
 10
26.96579327072237
 20
0.0330999999912356
 30
0.0
 11
25.2554132311971
 21
1.743480039516508
 31
0.0
  0
LINE
  5
103C6
330
10392
100
AcDbEntity
  8
0
  6
CONTINUOUS
100
AcDbLine
 10
24.63049327071599
 20
2.36839999999762
 30
0.0
 11
23.32789327071731
 21
3.670999999996297
 31
0.0
  0
LINE
  5
103C7
330
10392
100
AcDbEntity
  8
0
  6
CONTINUOUS
100
AcDbLine
 10
22.92098674744635
 20
4.077906523267254
 30
0.0
 11
21.84508681208164
 21
5.153806458631966
 31
0.0
  0
LINE
  5
103C8
330
10392
100
AcDbEntity
  8
0
  6
CONTINUOUS
100
AcDbLine
 10
27.63931247980256
 20
0.0330999999912356
 30
0.0
 11
24.0014124797975
 21
3.670999999996297
 31
0.0
  0
LINE
  5
103C9
330
10392
100
AcDbEntity
  8
0
  6
CONTINUOUS
100
AcDbLine
 10
23.129125600968
 20
4.5432868788258
 30
0.0
 11
22.05328991755227
 21
5.619122562241522
 31
0.0
  0
LINE
  5
103CA
330
10392
100
AcDbEntity
  8
0
  6
CONTINUOUS
100
AcDbLine
 10
28.31283168888275
 20
0.0330999999912356
 30
0.0
 11
24.16488385994816
 21
4.181047828925828
 31
0.0
  0
LINE
  5
103CB
330
10392
100
AcDbEntity
  8
0
  6
CONTINUOUS
100
AcDbLine
 10
23.33726445448964
 20
5.008667234384345
 30
0.0
 11
22.2614930230229
 21
6.084438665851079
 31
0.0
  0
LINE
  5
103CC
330
10392
100
AcDbEntity
  8
0
  6
CONTINUOUS
100
AcDbLine
 10
28.92085740005492
 20
0.0985934978992438
 30
0.0
 11
27.63635089796295
 21
1.383099999991217
 31
0.0
  0
LINE
  5
103CD
330
10392
100
AcDbEntity
  8
0
  6
CONTINUOUS
100
AcDbLine
 10
26.43704649509776
 20
2.582404402856405
 30
0.0
 11
23.61992702019732
 21
5.399523877756844
 31
0.0
  0
LINE
  5
103CE
330
10392
100
AcDbEntity
  8
0
  6
CONTINUOUS
100
AcDbLine
 10
23.54540330801128
 20
5.47404758994289
 30
0.0
 11
22.46969612849353
 21
6.549754769460635
 31
0.0
  0
LINE
  5
103CF
330
10392
100
AcDbEntity
  8
0
  6
CONTINUOUS
100
AcDbLine
 10
29.42225615078443
 20
0.2707139562499279
 30
0.0
 11
28.30987010704312
 21
1.383099999991234
 31
0.0
  0
LINE
  5
103D0
330
10392
100
AcDbEntity
  8
0
  6
CONTINUOUS
100
AcDbLine
 10
25.89179548232307
 20
3.801174624711282
 30
0.0
 11
22.67789923396416
 21
7.015070873070191
 31
0.0
  0
LINE
  5
103D1
330
10392
100
AcDbEntity
  8
0
  6
CONTINUOUS
100
AcDbLine
 10
29.83624534690007
 20
0.5302439692144705
 30
0.0
 11
28.85811781497101
 21
1.508371501143527
 31
0.0
  0
LINE
  5
103D2
330
10392
100
AcDbEntity
  8
0
  6
CONTINUOUS
100
AcDbLine
 10
25.34654446954838
 20
5.01994484656616
 30
0.0
 11
22.88610233943479
 21
7.480386976679748
 31
0.0
  0
LINE
  5
103D3
330
10392
100
AcDbEntity
  8
0
  6
CONTINUOUS
100
AcDbLine
 10
30.17865975401872
 20
0.8613487711760022
 30
0.0
 11
29.18888744090175
 21
1.851121084292977
 31
0.0
  0
LINE
  5
103D4
330
10392
100
AcDbEntity
  8
0
  6
CONTINUOUS
100
AcDbLine
 10
24.80129345677369
 20
6.238715068421037
 30
0.0
 11
23.09430544490542
 21
7.945703080289305
 31
0.0
  0
LINE
  5
103D5
330
10392
100
AcDbEntity
  8
0
  6
CONTINUOUS
100
AcDbLine
 10
30.45496647202376
 20
1.258561262251155
 30
0.0
 11
29.30199999996933
 21
2.411527734305588
 31
0.0
  0
LINE
  5
103D6
330
10392
100
AcDbEntity
  8
0
  6
CONTINUOUS
100
AcDbLine
 10
24.256042443999
 20
7.457485290275915
 30
0.0
 11
23.30250855037605
 21
8.411019183898862
 31
0.0
  0
LINE
  5
103D7
330
10392
100
AcDbEntity
  8
0
  6
CONTINUOUS
100
AcDbLine
 10
30.64868582078271
 20
1.738361122572387
 30
0.0
 11
29.30199999996933
 21
3.085046943385775
 31
0.0
  0
LINE
  5
103D8
330
10392
100
AcDbEntity
  8
0
  6
CONTINUOUS
100
AcDbLine
 10
23.71079143122431
 20
8.676255512130794
 30
0.0
 11
23.51071165584668
 21
8.876335287508416
 31
0.0
  0
LINE
  5
103D9
330
10392
100
AcDbEntity
  8
0
  6
CONTINUOUS
100
AcDbLine
 10
30.73802122914428
 20
2.322544923291007
 30
0.0
 11
29.30199999996933
 21
3.758566152465961
 31
0.0
  0
LINE
  5
103DA
330
10392
100
AcDbEntity
  8
0
  6
CONTINUOUS
100
AcDbLine
 10
30.74199999996924
 20
2.992085361546236
 30
0.0
 11
29.30199999996933
 21
4.432085361546148
 31
0.0
  0
LINE
  5
103DB
330
10392
100
AcDbEntity
  8
0
  6
CONTINUOUS
100
AcDbLine
 10
30.74199999996924
 20
3.665604570626419
 30
0.0
 11
29.30199999996933
 21
5.105604570626333
 31
0.0
  0
LINE
  5
103DC
330
10392
100
AcDbEntity
  8
0
  6
CONTINUOUS
100
AcDbLine
 10
30.74199999996925
 20
4.339123779706602
 30
0.0
 11
29.30199999996933
 21
5.77912377970652
 31
0.0
  0
LINE
  5
103DD
330
10392
100
AcDbEntity
  8
0
  6
CONTINUOUS
100
AcDbLine
 10
30.74199999996925
 20
5.012642988786785
 30
0.0
 11
29.30199999996933
 21
6.452642988786707
 31
0.0
  0
LINE
  5
103DE
330
10392
100
AcDbEntity
  8
0
  6
CONTINUOUS
100
AcDbLine
 10
30.74199999996925
 20
5.68616219786697
 30
0.0
 11
29.30199999996933
 21
7.126162197866894
 31
0.0
  0
LINE
  5
103DF
330
10392
100
AcDbEntity
  8
0
  6
CONTINUOUS
100
AcDbLine
 10
30.74199999996925
 20
6.359681406947153
 30
0.0
 11
29.30199999996933
 21
7.799681406947081
 31
0.0
  0
LINE
  5
103E0
330
10392
100
AcDbEntity
  8
0
  6
CONTINUOUS
100
AcDbLine
 10
30.74199999996926
 20
7.033200616027337
 30
0.0
 11
29.30199999996933
 21
8.473200616027269
 31
0.0
  0
LINE
  5
103E1
330
10392
100
AcDbEntity
  8
0
  6
CONTINUOUS
100
AcDbLine
 10
30.74199999996926
 20
7.706719825107518
 30
0.0
 11
29.68561982508552
 21
8.763099999991255
 31
0.0
  0
LINE
  5
103E2
330
10392
100
AcDbEntity
  8
0
  6
CONTINUOUS
100
AcDbLine
 10
30.74199999996926
 20
8.380239034187703
 30
0.0
 11
30.35913903416571
 21
8.763099999991255
 31
0.0
  0
ENDBLK
  5
10485
330
10392
100
AcDbEntity
  8
0
100
AcDbBlockEnd
  0
BLOCK
  5
10486
330
103E3
100
AcDbEntity
  8
0
100
AcDbBlockBegin
  2
*X71
 70
     1
 10
0.0
 20
0.0
 30
0.0
  3
*X71
  1

  0
LINE
  5
103E4
330
103E3
100
AcDbEntity
  8
0
  6
CONTINUOUS
100
AcDbLine
 10
31.64199999996833
 20
8.535058289913598
 30
0.0
 11
31.87004171004599
 21
8.763099999991255
 31
0.0
  0
LINE
  5
103E5
330
103E3
100
AcDbEntity
  8
0
  6
CONTINUOUS
100
AcDbLine
 10
31.64199999996833
 20
7.861539080833412
 30
0.0
 11
32.54356091912618
 21
8.763099999991255
 31
0.0
  0
LINE
  5
103E6
330
103E3
100
AcDbEntity
  8
0
  6
CONTINUOUS
100
AcDbLine
 10
31.64199999996833
 20
7.188019871753226
 30
0.0
 11
33.08199999996839
 21
8.628019871753281
 31
0.0
  0
LINE
  5
103E7
330
103E3
100
AcDbEntity
  8
0
  6
CONTINUOUS
100
AcDbLine
 10
31.64199999996833
 20
6.51450066267304
 30
0.0
 11
33.08199999996839
 21
7.954500662673095
 31
0.0
  0
LINE
  5
103E8
330
103E3
100
AcDbEntity
  8
0
  6
CONTINUOUS
100
AcDbLine
 10
31.64199999996833
 20
5.840981453592853
 30
0.0
 11
33.08199999996839
 21
7.280981453592908
 31
0.0
  0
LINE
  5
103E9
330
103E3
100
AcDbEntity
  8
0
  6
CONTINUOUS
100
AcDbLine
 10
31.64199999996833
 20
5.167462244512667
 30
0.0
 11
33.08199999996839
 21
6.607462244512721
 31
0.0
  0
LINE
  5
103EA
330
103E3
100
AcDbEntity
  8
0
  6
CONTINUOUS
100
AcDbLine
 10
31.64199999996833
 20
4.493943035432481
 30
0.0
 11
33.08199999996839
 21
5.933943035432535
 31
0.0
  0
LINE
  5
103EB
330
103E3
100
AcDbEntity
  8
0
  6
CONTINUOUS
100
AcDbLine
 10
31.64199999996833
 20
3.820423826352293
 30
0.0
 11
33.08199999996839
 21
5.260423826352348
 31
0.0
  0
LINE
  5
103EC
330
103E3
100
AcDbEntity
  8
0
  6
CONTINUOUS
100
AcDbLine
 10
31.64199999996833
 20
3.146904617272106
 30
0.0
 11
33.08199999996839
 21
4.586904617272161
 31
0.0
  0
LINE
  5
103ED
330
103E3
100
AcDbEntity
  8
0
  6
CONTINUOUS
100
AcDbLine
 10
36.23199999996837
 20
8.410423826352325
 30
0.0
 11
36.5846761736073
 21
8.763099999991255
 31
0.0
  0
LINE
  5
103EE
330
103E3
100
AcDbEntity
  8
0
  6
CONTINUOUS
100
AcDbLine
 10
36.23199999996837
 20
7.73690461727214
 30
0.0
 11
37.25819538268748
 21
8.763099999991255
 31
0.0
  0
LINE
  5
103EF
330
103E3
100
AcDbEntity
  8
0
  6
CONTINUOUS
100
AcDbLine
 10
31.64257403601376
 20
2.473959444237348
 30
0.0
 11
33.08199999996839
 21
3.913385408191974
 31
0.0
  0
LINE
  5
103F0
330
103E3
100
AcDbEntity
  8
0
  6
CONTINUOUS
100
AcDbLine
 10
36.23199999996837
 20
7.063385408191953
 30
0.0
 11
37.67199999996831
 21
8.503385408191894
 31
0.0
  0
LINE
  5
103F1
330
103E3
100
AcDbEntity
  8
0
  6
CONTINUOUS
100
AcDbLine
 10
31.72013636841932
 20
1.87800256756272
 30
0.0
 11
33.08199999996839
 21
3.239866199111788
 31
0.0
  0
LINE
  5
103F2
330
103E3
100
AcDbEntity
  8
0
  6
CONTINUOUS
100
AcDbLine
 10
36.23199999996837
 20
6.389866199111767
 30
0.0
 11
37.67199999996831
 21
7.829866199111708
 31
0.0
  0
LINE
  5
103F3
330
103E3
100
AcDbEntity
  8
0
  6
CONTINUOUS
100
AcDbLine
 10
31.89042734314753
 20
1.374774333210744
 30
0.0
 11
33.08199999996839
 21
2.566346990031601
 31
0.0
  0
LINE
  5
103F4
330
103E3
100
AcDbEntity
  8
0
  6
CONTINUOUS
100
AcDbLine
 10
36.23199999996837
 20
5.71634699003158
 30
0.0
 11
37.67199999996831
 21
7.156346990031521
 31
0.0
  0
LINE
  5
103F5
330
103E3
100
AcDbEntity
  8
0
  6
CONTINUOUS
100
AcDbLine
 10
32.14210568064475
 20
0.952933461627778
 30
0.0
 11
33.18745552475986
 21
1.998283305742888
 31
0.0
  0
LINE
  5
103F6
330
103E3
100
AcDbEntity
  8
0
  6
CONTINUOUS
100
AcDbLine
 10
36.23199999996837
 20
5.042827780951393
 30
0.0
 11
37.67199999996831
 21
6.482827780951334
 31
0.0
  0
LINE
  5
103F7
330
103E3
100
AcDbEntity
  8
0
  6
CONTINUOUS
100
AcDbLine
 10
32.45820639400955
 20
0.5955149659123915
 30
0.0
 11
33.47242681921943
 21
1.60973539112227
 31
0.0
  0
LINE
  5
103F8
330
103E3
100
AcDbEntity
  8
0
  6
CONTINUOUS
100
AcDbLine
 10
36.23199999996837
 20
4.369308571871207
 30
0.0
 11
37.67199999996831
 21
5.809308571871147
 31
0.0
  0
LINE
  5
103F9
330
103E3
100
AcDbEntity
  8
0
  6
CONTINUOUS
100
AcDbLine
 10
32.83432456621412
 20
0.2981139290367771
 30
0.0
 11
33.89722476612215
 21
1.361014128944803
 31
0.0
  0
LINE
  5
103FA
330
103E3
100
AcDbEntity
  8
0
  6
CONTINUOUS
100
AcDbLine
 10
36.23199999996837
 20
3.69578936279102
 30
0.0
 11
37.67199999996831
 21
5.135789362790962
 31
0.0
  0
LINE
  5
103FB
330
103E3
100
AcDbEntity
  8
0
  6
CONTINUOUS
100
AcDbLine
 10
33.2711633111245
 20
0.0614334648669672
 30
0.0
 11
34.43247338014423
 21
1.222743533886696
 31
0.0
  0
LINE
  5
103FC
330
103E3
100
AcDbEntity
  8
0
  6
CONTINUOUS
100
AcDbLine
 10
36.23199999996837
 20
3.022270153710834
 30
0.0
 11
37.67199999996831
 21
4.462270153710775
 31
0.0
  0
LINE
  5
103FD
330
103E3
100
AcDbEntity
  8
0
  6
CONTINUOUS
100
AcDbLine
 10
33.76515245874577
 20
-0.1180965965919523
 30
0.0
 11
35.1587445516215
 21
1.27549549628378
 31
0.0
  0
LINE
  5
103FE
330
103E3
100
AcDbEntity
  8
0
  6
CONTINUOUS
100
AcDbLine
 10
36.21639478609585
 20
2.333145730758136
 30
0.0
 11
37.67199999996831
 21
3.788750944630588
 31
0.0
  0
LINE
  5
103FF
330
103E3
100
AcDbEntity
  8
0
  6
CONTINUOUS
100
AcDbLine
 10
34.34060583368432
 20
-0.2161624307335863
 30
0.0
 11
37.67199999996831
 21
3.115231735550401
 31
0.0
  0
LINE
  5
10400
330
103E3
100
AcDbEntity
  8
0
  6
CONTINUOUS
100
AcDbLine
 10
35.01698193613905
 20
-0.2133055373590427
 30
0.0
 11
37.66876712070525
 21
2.438479647207154
 31
0.0
  0
LINE
  5
10401
330
103E3
100
AcDbEntity
  8
0
  6
CONTINUOUS
100
AcDbLine
 10
35.90743367693304
 20
0.0036269943547609
 30
0.0
 11
37.51723902192366
 21
1.613432339345381
 31
0.0
  0
LINE
  5
10402
330
103E3
100
AcDbEntity
  8
0
  6
CONTINUOUS
100
AcDbLine
 10
32.55309425579761
 20
0.5074718966376706
 30
0.0
 11
32.27784730925847
 21
0.7827188431768102
 31
0.0
  0
LINE
  5
10403
330
103E3
100
AcDbEntity
  8
0
  6
CONTINUOUS
100
AcDbLine
 10
33.87496468909684
 20
-0.1408793275813673
 30
0.0
 11
31.67993083278052
 21
2.054154528734943
 31
0.0
  0
LINE
  5
10404
330
103E3
100
AcDbEntity
  8
0
  6
CONTINUOUS
100
AcDbLine
 10
34.64362813207632
 20
-0.2360235614806649
 30
0.0
 11
31.64199999996833
 21
2.765604570627322
 31
0.0
  0
LINE
  5
10405
330
103E3
100
AcDbEntity
  8
0
  6
CONTINUOUS
100
AcDbLine
 10
35.25801106796118
 20
-0.1768872882853429
 30
0.0
 11
31.64199999996833
 21
3.439123779707508
 31
0.0
  0
LINE
  5
10406
330
103E3
100
AcDbEntity
  8
0
  6
CONTINUOUS
100
AcDbLine
 10
35.79065650332146
 20
-0.0360135145654361
 30
0.0
 11
34.54143210838231
 21
1.213210880373721
 31
0.0
  0
LINE
  5
10407
330
103E3
100
AcDbEntity
  8
0
  6
CONTINUOUS
100
AcDbLine
 10
33.08199999996839
 20
2.67264298878764
 30
0.0
 11
31.64199999996833
 21
4.112642988787695
 31
0.0
  0
LINE
  5
10408
330
103E3
100
AcDbEntity
  8
0
  6
CONTINUOUS
100
AcDbLine
 10
36.25975597779143
 20
0.1684062200447833
 30
0.0
 11
35.15395110240023
 21
1.274211095435983
 31
0.0
  0
LINE
  5
10409
330
103E3
100
AcDbEntity
  8
0
  6
CONTINUOUS
100
AcDbLine
 10
33.08199999996839
 20
3.346162197867826
 30
0.0
 11
31.64199999996833
 21
4.786162197867881
 31
0.0
  0
LINE
  5
1040A
330
103E3
100
AcDbEntity
  8
0
  6
CONTINUOUS
100
AcDbLine
 10
36.67226329638774
 20
0.4294181105286579
 30
0.0
 11
35.63766478748767
 21
1.464016619428737
 31
0.0
  0
LINE
  5
1040B
330
103E3
100
AcDbEntity
  8
0
  6
CONTINUOUS
100
AcDbLine
 10
33.08199999996839
 20
4.019681406948012
 30
0.0
 11
31.64199999996833
 21
5.459681406948068
 31
0.0
  0
LINE
  5
1040C
330
103E3
100
AcDbEntity
  8
0
  6
CONTINUOUS
100
AcDbLine
 10
37.01677749710036
 20
0.7584231188962329
 30
0.0
 11
35.99563422741351
 21
1.779566388583076
 31
0.0
  0
LINE
  5
1040D
330
103E3
100
AcDbEntity
  8
0
  6
CONTINUOUS
100
AcDbLine
 10
33.08199999996839
 20
4.693200616028199
 30
0.0
 11
31.64199999996833
 21
6.133200616028255
 31
0.0
  0
LINE
  5
1040E
330
103E3
100
AcDbEntity
  8
0
  6
CONTINUOUS
100
AcDbLine
 10
37.29859977568887
 20
1.1501200493879
 30
0.0
 11
36.20680593341555
 21
2.241913891661226
 31
0.0
  0
LINE
  5
1040F
330
103E3
100
AcDbEntity
  8
0
  6
CONTINUOUS
100
AcDbLine
 10
33.08199999996839
 20
5.366719825108386
 30
0.0
 11
31.64199999996833
 21
6.80671982510844
 31
0.0
  0
LINE
  5
10410
330
103E3
100
AcDbEntity
  8
0
  6
CONTINUOUS
100
AcDbLine
 10
37.5148623517228
 20
1.607376682434161
 30
0.0
 11
36.23199999996837
 21
2.890239034188594
 31
0.0
  0
LINE
  5
10411
330
103E3
100
AcDbEntity
  8
0
  6
CONTINUOUS
100
AcDbLine
 10
33.08199999996839
 20
6.040239034188573
 30
0.0
 11
31.64199999996833
 21
7.480239034188627
 31
0.0
  0
LINE
  5
10412
330
103E3
100
AcDbEntity
  8
0
  6
CONTINUOUS
100
AcDbLine
 10
37.64705163358367
 20
2.148706609653477
 30
0.0
 11
36.23199999996837
 21
3.56375824326878
 31
0.0
  0
LINE
  5
10413
330
103E3
100
AcDbEntity
  8
0
  6
CONTINUOUS
100
AcDbLine
 10
33.08199999996839
 20
6.713758243268758
 30
0.0
 11
31.64199999996833
 21
8.153758243268815
 31
0.0
  0
LINE
  5
10414
330
103E3
100
AcDbEntity
  8
0
  6
CONTINUOUS
100
AcDbLine
 10
37.67199999996831
 20
2.797277452349026
 30
0.0
 11
36.23199999996837
 21
4.237277452348967
 31
0.0
  0
LINE
  5
10415
330
103E3
100
AcDbEntity
  8
0
  6
CONTINUOUS
100
AcDbLine
 10
37.67199999996831
 20
3.470796661429213
 30
0.0
 11
36.23199999996837
 21
4.910796661429154
 31
0.0
  0
LINE
  5
10416
330
103E3
100
AcDbEntity
  8
0
  6
CONTINUOUS
100
AcDbLine
 10
37.67199999996831
 20
4.144315870509399
 30
0.0
 11
36.23199999996837
 21
5.58431587050934
 31
0.0
  0
LINE
  5
10417
330
103E3
100
AcDbEntity
  8
0
  6
CONTINUOUS
100
AcDbLine
 10
33.08199999996839
 20
7.387277452348945
 30
0.0
 11
31.70617745232608
 21
8.763099999991255
 31
0.0
  0
LINE
  5
10418
330
103E3
100
AcDbEntity
  8
0
  6
CONTINUOUS
100
AcDbLine
 10
33.08199999996839
 20
8.060796661429132
 30
0.0
 11
32.37969666140626
 21
8.763099999991255
 31
0.0
  0
LINE
  5
10419
330
103E3
100
AcDbEntity
  8
0
  6
CONTINUOUS
100
AcDbLine
 10
33.08199999996839
 20
8.734315870509318
 30
0.0
 11
33.05321587048645
 21
8.763099999991255
 31
0.0
  0
LINE
  5
1041A
330
103E3
100
AcDbEntity
  8
0
  6
CONTINUOUS
100
AcDbLine
 10
37.67199999996831
 20
4.817835079589585
 30
0.0
 11
36.23199999996837
 21
6.257835079589526
 31
0.0
  0
LINE
  5
1041B
330
103E3
100
AcDbEntity
  8
0
  6
CONTINUOUS
100
AcDbLine
 10
37.67199999996831
 20
5.491354288669771
 30
0.0
 11
36.23199999996837
 21
6.931354288669713
 31
0.0
  0
LINE
  5
1041C
330
103E3
100
AcDbEntity
  8
0
  6
CONTINUOUS
100
AcDbLine
 10
37.67199999996831
 20
6.164873497749958
 30
0.0
 11
36.23199999996837
 21
7.6048734977499
 31
0.0
  0
LINE
  5
1041D
330
103E3
100
AcDbEntity
  8
0
  6
CONTINUOUS
100
AcDbLine
 10
37.67199999996831
 20
6.838392706830144
 30
0.0
 11
36.23199999996837
 21
8.278392706830086
 31
0.0
  0
LINE
  5
1041E
330
103E3
100
AcDbEntity
  8
0
  6
CONTINUOUS
100
AcDbLine
 10
37.67199999996831
 20
7.511911915910332
 30
0.0
 11
36.42081191588738
 21
8.763099999991255
 31
0.0
  0
LINE
  5
1041F
330
103E3
100
AcDbEntity
  8
0
  6
CONTINUOUS
100
AcDbLine
 10
37.67199999996831
 20
8.185431124990519
 30
0.0
 11
37.09433112496757
 21
8.763099999991255
 31
0.0
  0
ENDBLK
  5
10487
330
103E3
100
AcDbEntity
  8
0
100
AcDbBlockEnd
  0
BLOCK
  5
10488
330
10420
100
AcDbEntity
  8
0
100
AcDbBlockBegin
  2
*X72
 70
     1
 10
0.0
 20
0.0
 30
0.0
  3
*X72
  1

  0
LINE
  5
10421
330
10420
100
AcDbEntity
  8
0
  6
CONTINUOUS
100
AcDbLine
 10
38.60499999996136
 20
8.762866199104765
 30
0.0
 11
38.71672554182345
 21
8.874591740966855
 31
0.0
  0
LINE
  5
10422
330
10420
100
AcDbEntity
  8
0
  6
CONTINUOUS
100
AcDbLine
 10
38.60499999996136
 20
8.089346990024577
 30
0.0
 11
39.03418785440363
 21
8.518534844466847
 31
0.0
  0
LINE
  5
10423
330
10420
100
AcDbEntity
  8
0
  6
CONTINUOUS
100
AcDbLine
 10
38.60499999996136
 20
7.41582778094439
 30
0.0
 11
39.35165016698382
 21
8.16247794796684
 31
0.0
  0
LINE
  5
10424
330
10420
100
AcDbEntity
  8
0
  6
CONTINUOUS
100
AcDbLine
 10
38.60499999996136
 20
6.742308571864204
 30
0.0
 11
39.66911247956399
 21
7.806421051466834
 31
0.0
  0
LINE
  5
10425
330
10420
100
AcDbEntity
  8
0
  6
CONTINUOUS
100
AcDbLine
 10
38.60499999996136
 20
6.068789362784018
 30
0.0
 11
39.98657479214418
 21
7.450364154966827
 31
0.0
  0
LINE
  5
10426
330
10420
100
AcDbEntity
  8
0
  6
CONTINUOUS
100
AcDbLine
 10
38.60499999996136
 20
5.395270153703832
 30
0.0
 11
40.30403710472435
 21
7.09430725846682
 31
0.0
  0
LINE
  5
10427
330
10420
100
AcDbEntity
  8
0
  6
CONTINUOUS
100
AcDbLine
 10
38.60499999996136
 20
4.721750944623645
 30
0.0
 11
40.62149941730453
 21
6.738250361966813
 31
0.0
  0
LINE
  5
10428
330
10420
100
AcDbEntity
  8
0
  6
CONTINUOUS
100
AcDbLine
 10
38.60499999996136
 20
4.048231735543458
 30
0.0
 11
40.93896172988471
 21
6.382193465466806
 31
0.0
  0
LINE
  5
10429
330
10420
100
AcDbEntity
  8
0
  6
CONTINUOUS
100
AcDbLine
 10
38.60499999996136
 20
3.374712526463272
 30
0.0
 11
40.02599999995994
 21
4.795712526461843
 31
0.0
  0
LINE
  5
1042A
330
10420
100
AcDbEntity
  8
0
  6
CONTINUOUS
100
AcDbLine
 10
38.60499999996136
 20
2.701193317383085
 30
0.0
 11
40.02599999995994
 21
4.122193317381657
 31
0.0
  0
LINE
  5
1042B
330
10420
100
AcDbEntity
  8
0
  6
CONTINUOUS
100
AcDbLine
 10
40.28339754687704
 20
5.053110073378947
 30
0.0
 11
41.25642404246489
 21
6.026136568966799
 31
0.0
  0
LINE
  5
1042C
330
10420
100
AcDbEntity
  8
0
  6
CONTINUOUS
100
AcDbLine
 10
40.60085985945722
 20
4.697053176878939
 30
0.0
 11
41.57388635504507
 21
5.670079672466793
 31
0.0
  0
LINE
  5
1042D
330
10420
100
AcDbEntity
  8
0
  6
CONTINUOUS
100
AcDbLine
 10
43.57899999995641
 20
8.348712526458318
 30
0.0
 11
43.99338747348935
 21
8.763099999991255
 31
0.0
  0
LINE
  5
1042E
330
10420
100
AcDbEntity
  8
0
  6
CONTINUOUS
100
AcDbLine
 10
43.57899999995641
 20
7.675193317378131
 30
0.0
 11
44.66690668256953
 21
8.763099999991255
 31
0.0
  0
LINE
  5
1042F
330
10420
100
AcDbEntity
  8
0
  6
CONTINUOUS
100
AcDbLine
 10
38.60499999996136
 20
2.027674108302898
 30
0.0
 11
40.02599999995994
 21
3.44867410830147
 31
0.0
  0
LINE
  5
10430
330
10420
100
AcDbEntity
  8
0
  6
CONTINUOUS
100
AcDbLine
 10
38.60499999996136
 20
1.354154899222712
 30
0.0
 11
40.02599999995994
 21
2.775154899221284
 31
0.0
  0
LINE
  5
10431
330
10420
100
AcDbEntity
  8
0
  6
CONTINUOUS
100
AcDbLine
 10
38.60499999996136
 20
0.6806356901425255
 30
0.0
 11
40.02599999995994
 21
2.101635690141098
 31
0.0
  0
LINE
  5
10432
330
10420
100
AcDbEntity
  8
0
  6
CONTINUOUS
100
AcDbLine
 10
38.60499999996136
 20
0.0071164810623383
 30
0.0
 11
40.02599999995994
 21
1.428116481060911
 31
0.0
  0
LINE
  5
10433
330
10420
100
AcDbEntity
  8
0
  6
CONTINUOUS
100
AcDbLine
 10
40.9183221720374
 20
4.340996280378933
 30
0.0
 11
41.89134866762525
 21
5.314022775966786
 31
0.0
  0
LINE
  5
10434
330
10420
100
AcDbEntity
  8
0
  6
CONTINUOUS
100
AcDbLine
 10
41.23578448461758
 20
3.984939383878926
 30
0.0
 11
42.20881098020543
 21
4.957965879466778
 31
0.0
  0
LINE
  5
10435
330
10420
100
AcDbEntity
  8
0
  6
CONTINUOUS
100
AcDbLine
 10
41.55324679719776
 20
3.628882487378919
 30
0.0
 11
42.52627329278561
 21
4.601908982966772
 31
0.0
  0
LINE
  5
10436
330
10420
100
AcDbEntity
  8
0
  6
CONTINUOUS
100
AcDbLine
 10
41.87070910977793
 20
3.272825590878912
 30
0.0
 11
42.84373560536579
 21
4.245852086466765
 31
0.0
  0
LINE
  5
10437
330
10420
100
AcDbEntity
  8
0
  6
CONTINUOUS
100
AcDbLine
 10
43.57899999995641
 20
7.001674108297943
 30
0.0
 11
44.99999999995498
 21
8.422674108296516
 31
0.0
  0
LINE
  5
10438
330
10420
100
AcDbEntity
  8
0
  6
CONTINUOUS
100
AcDbLine
 10
43.57899999995641
 20
6.328154899217758
 30
0.0
 11
44.99999999995498
 21
7.749154899216329
 31
0.0
  0
LINE
  5
10439
330
10420
100
AcDbEntity
  8
0
  6
CONTINUOUS
100
AcDbLine
 10
43.57899999995641
 20
5.654635690137571
 30
0.0
 11
44.99999999995498
 21
7.075635690136142
 31
0.0
  0
LINE
  5
1043A
330
10420
100
AcDbEntity
  8
0
  6
CONTINUOUS
100
AcDbLine
 10
43.57899999995641
 20
4.981116481057384
 30
0.0
 11
44.99999999995498
 21
6.402116481055955
 31
0.0
  0
LINE
  5
1043B
330
10420
100
AcDbEntity
  8
0
  6
CONTINUOUS
100
AcDbLine
 10
39.27140272797921
 20
-0.0000000000000009
 30
0.0
 11
40.02599999995994
 21
0.7545972719807246
 31
0.0
  0
LINE
  5
1043C
330
10420
100
AcDbEntity
  8
0
  6
CONTINUOUS
100
AcDbLine
 10
39.9449219370594
 20
-0.0000000000000009
 30
0.0
 11
40.02599999995994
 21
0.0810780629005379
 31
0.0
  0
LINE
  5
1043D
330
10420
100
AcDbEntity
  8
0
  6
CONTINUOUS
100
AcDbLine
 10
42.18817142235812
 20
2.916768694378905
 30
0.0
 11
43.16119791794597
 21
3.889795189966758
 31
0.0
  0
LINE
  5
1043E
330
10420
100
AcDbEntity
  8
0
  6
CONTINUOUS
100
AcDbLine
 10
42.50563373493829
 20
2.560711797878898
 30
0.0
 11
43.47866023052615
 21
3.533738293466751
 31
0.0
  0
LINE
  5
1043F
330
10420
100
AcDbEntity
  8
0
  6
CONTINUOUS
100
AcDbLine
 10
43.57899999995641
 20
4.307597271977198
 30
0.0
 11
44.99999999995498
 21
5.728597271975769
 31
0.0
  0
LINE
  5
10440
330
10420
100
AcDbEntity
  8
0
  6
CONTINUOUS
100
AcDbLine
 10
43.57899999995641
 20
3.634078062897011
 30
0.0
 11
44.99999999995498
 21
5.055078062895582
 31
0.0
  0
LINE
  5
10441
330
10420
100
AcDbEntity
  8
0
  6
CONTINUOUS
100
AcDbLine
 10
42.82309604751848
 20
2.204654901378891
 30
0.0
 11
44.99999999995498
 21
4.381558853815395
 31
0.0
  0
LINE
  5
10442
330
10420
100
AcDbEntity
  8
0
  6
CONTINUOUS
100
AcDbLine
 10
43.14055836009865
 20
1.848598004878885
 30
0.0
 11
44.99999999995498
 21
3.70803964473521
 31
0.0
  0
LINE
  5
10443
330
10420
100
AcDbEntity
  8
0
  6
CONTINUOUS
100
AcDbLine
 10
43.45802067267883
 20
1.492541108378878
 30
0.0
 11
44.99999999995498
 21
3.034520435655023
 31
0.0
  0
LINE
  5
10444
330
10420
100
AcDbEntity
  8
0
  6
CONTINUOUS
100
AcDbLine
 10
43.77548298525902
 20
1.136484211878871
 30
0.0
 11
44.99999999995498
 21
2.361001226574837
 31
0.0
  0
LINE
  5
10445
330
10420
100
AcDbEntity
  8
0
  6
CONTINUOUS
100
AcDbLine
 10
44.09294529783919
 20
0.7804273153788639
 30
0.0
 11
44.99999999995498
 21
1.687482017494649
 31
0.0
  0
LINE
  5
10446
330
10420
100
AcDbEntity
  8
0
  6
CONTINUOUS
100
AcDbLine
 10
44.41040761041938
 20
0.4243704188788566
 30
0.0
 11
44.99999999995498
 21
1.013962808414463
 31
0.0
  0
LINE
  5
10447
330
10420
100
AcDbEntity
  8
0
  6
CONTINUOUS
100
AcDbLine
 10
44.72786992299955
 20
0.0683135223788494
 30
0.0
 11
44.99999999995498
 21
0.340443599334276
 31
0.0
  0
LINE
  5
10448
330
10420
100
AcDbEntity
  8
0
  6
CONTINUOUS
100
AcDbLine
 10
39.12223903415696
 20
-0.0000000000000009
 30
0.0
 11
38.60499999996136
 21
0.5172390341955961
 31
0.0
  0
LINE
  5
10449
330
10420
100
AcDbEntity
  8
0
  6
CONTINUOUS
100
AcDbLine
 10
39.79575824323715
 20
-0.0000000000000009
 30
0.0
 11
38.60499999996136
 21
1.190758243275783
 31
0.0
  0
LINE
  5
1044A
330
10420
100
AcDbEntity
  8
0
  6
CONTINUOUS
100
AcDbLine
 10
40.02599999995994
 20
0.443277452357397
 30
0.0
 11
38.60499999996136
 21
1.864277452355969
 31
0.0
  0
LINE
  5
1044B
330
10420
100
AcDbEntity
  8
0
  6
CONTINUOUS
100
AcDbLine
 10
40.02599999995994
 20
1.116796661437583
 30
0.0
 11
38.60499999996136
 21
2.537796661436155
 31
0.0
  0
LINE
  5
1044C
330
10420
100
AcDbEntity
  8
0
  6
CONTINUOUS
100
AcDbLine
 10
40.02599999995994
 20
1.79031587051777
 30
0.0
 11
38.60499999996136
 21
3.211315870516341
 31
0.0
  0
LINE
  5
1044D
330
10420
100
AcDbEntity
  8
0
  6
CONTINUOUS
100
AcDbLine
 10
40.02599999995994
 20
2.463835079597956
 30
0.0
 11
38.60499999996136
 21
3.884835079596527
 31
0.0
  0
LINE
  5
1044E
330
10420
100
AcDbEntity
  8
0
  6
CONTINUOUS
100
AcDbLine
 10
40.02599999995994
 20
3.137354288678143
 30
0.0
 11
38.60499999996136
 21
4.558354288676714
 31
0.0
  0
LINE
  5
1044F
330
10420
100
AcDbEntity
  8
0
  6
CONTINUOUS
100
AcDbLine
 10
40.02599999995994
 20
3.810873497758329
 30
0.0
 11
38.60499999996136
 21
5.2318734977569
 31
0.0
  0
LINE
  5
10450
330
10420
100
AcDbEntity
  8
0
  6
CONTINUOUS
100
AcDbLine
 10
40.02599999995994
 20
4.484392706838515
 30
0.0
 11
38.60499999996136
 21
5.905392706837086
 31
0.0
  0
LINE
  5
10451
330
10420
100
AcDbEntity
  8
0
  6
CONTINUOUS
100
AcDbLine
 10
44.99999999995498
 20
0.183911915923658
 30
0.0
 11
41.53858364506288
 21
3.64532827081576
 31
0.0
  0
LINE
  5
10452
330
10420
100
AcDbEntity
  8
0
  6
CONTINUOUS
100
AcDbLine
 10
40.02599999995994
 20
5.157911915918703
 30
0.0
 11
38.60499999996136
 21
6.578911915917274
 31
0.0
  0
LINE
  5
10453
330
10420
100
AcDbEntity
  8
0
  6
CONTINUOUS
100
AcDbLine
 10
44.99999999995498
 20
0.8574311250038447
 30
0.0
 11
38.60499999996136
 21
7.25243112499746
 31
0.0
  0
LINE
  5
10454
330
10420
100
AcDbEntity
  8
0
  6
CONTINUOUS
100
AcDbLine
 10
44.99999999995498
 20
1.530950334084031
 30
0.0
 11
38.60499999996136
 21
7.925950334077647
 31
0.0
  0
LINE
  5
10455
330
10420
100
AcDbEntity
  8
0
  6
CONTINUOUS
100
AcDbLine
 10
44.99999999995498
 20
2.204469543164218
 30
0.0
 11
43.57899999995641
 21
3.625469543162789
 31
0.0
  0
LINE
  5
10456
330
10420
100
AcDbEntity
  8
0
  6
CONTINUOUS
100
AcDbLine
 10
41.89876730984767
 20
5.305702233271528
 30
0.0
 11
38.60499999996136
 21
8.599469543157834
 31
0.0
  0
LINE
  5
10457
330
10420
100
AcDbEntity
  8
0
  6
CONTINUOUS
100
AcDbLine
 10
44.99999999995498
 20
2.877988752244405
 30
0.0
 11
43.57899999995641
 21
4.298988752242975
 31
0.0
  0
LINE
  5
10458
330
10420
100
AcDbEntity
  8
0
  6
CONTINUOUS
100
AcDbLine
 10
44.99999999995498
 20
3.551507961324591
 30
0.0
 11
43.57899999995641
 21
4.972507961323163
 31
0.0
  0
LINE
  5
10459
330
10420
100
AcDbEntity
  8
0
  6
CONTINUOUS
100
AcDbLine
 10
44.99999999995498
 20
4.225027170404777
 30
0.0
 11
43.57899999995641
 21
5.646027170403348
 31
0.0
  0
LINE
  5
1045A
330
10420
100
AcDbEntity
  8
0
  6
CONTINUOUS
100
AcDbLine
 10
44.99999999995498
 20
4.898546379484964
 30
0.0
 11
43.57899999995641
 21
6.319546379483535
 31
0.0
  0
LINE
  5
1045B
330
10420
100
AcDbEntity
  8
0
  6
CONTINUOUS
100
AcDbLine
 10
44.99999999995498
 20
5.572065588565151
 30
0.0
 11
43.57899999995641
 21
6.993065588563722
 31
0.0
  0
LINE
  5
1045C
330
10420
100
AcDbEntity
  8
0
  6
CONTINUOUS
100
AcDbLine
 10
44.99999999995498
 20
6.245584797645336
 30
0.0
 11
43.57899999995641
 21
7.666584797643908
 31
0.0
  0
LINE
  5
1045D
330
10420
100
AcDbEntity
  8
0
  6
CONTINUOUS
100
AcDbLine
 10
44.99999999995498
 20
6.919104006725522
 30
0.0
 11
43.57899999995641
 21
8.340104006724093
 31
0.0
  0
LINE
  5
1045E
330
10420
100
AcDbEntity
  8
0
  6
CONTINUOUS
100
AcDbLine
 10
44.99999999995498
 20
7.592623215805709
 30
0.0
 11
43.82952321576943
 21
8.763099999991255
 31
0.0
  0
LINE
  5
1045F
330
10420
100
AcDbEntity
  8
0
  6
CONTINUOUS
100
AcDbLine
 10
44.99999999995498
 20
8.266142424885896
 30
0.0
 11
44.50304242484962
 21
8.763099999991255
 31
0.0
  0
ENDBLK
  5
10489
330
10420
100
AcDbEntity
  8
0
100
AcDbBlockEnd
  0
BLOCK
  5
1048A
330
10460
100
AcDbEntity
  8
0
100
AcDbBlockBegin
  2
*X73
 70
     1
 10
0.0
 20
0.0
 30
0.0
  3
*X73
  1

  0
LINE
  5
10461
330
10460
100
AcDbEntity
  8
0
  6
CONTINUOUS
100
AcDbLine
 10
0.0
 20
8.548461116714023
 30
0.0
 11
0.2146388832772324
 21
8.763099999991255
 31
0.0
  0
LINE
  5
10462
330
10460
100
AcDbEntity
  8
0
  6
CONTINUOUS
100
AcDbLine
 10
-0.0000000000000002
 20
7.874941907633837
 30
0.0
 11
0.8881580923574184
 21
8.763099999991255
 31
0.0
  0
LINE
  5
10463
330
10460
100
AcDbEntity
  8
0
  6
CONTINUOUS
100
AcDbLine
 10
0.0
 20
7.20142269855365
 30
0.0
 11
1.420999999998572
 21
8.622422698552223
 31
0.0
  0
LINE
  5
10464
330
10460
100
AcDbEntity
  8
0
  6
CONTINUOUS
100
AcDbLine
 10
-0.0000000000000001
 20
6.527903489473465
 30
0.0
 11
1.420999999998571
 21
7.948903489472036
 31
0.0
  0
LINE
  5
10465
330
10460
100
AcDbEntity
  8
0
  6
CONTINUOUS
100
AcDbLine
 10
-0.0000000000000002
 20
5.854384280393278
 30
0.0
 11
1.420999999998571
 21
7.275384280391849
 31
0.0
  0
LINE
  5
10466
330
10460
100
AcDbEntity
  8
0
  6
CONTINUOUS
100
AcDbLine
 10
-0.0000000000000002
 20
5.180865071313091
 30
0.0
 11
1.420999999998571
 21
6.601865071311663
 31
0.0
  0
LINE
  5
10467
330
10460
100
AcDbEntity
  8
0
  6
CONTINUOUS
100
AcDbLine
 10
0.0
 20
4.507345862232905
 30
0.0
 11
1.420999999998571
 21
5.928345862231477
 31
0.0
  0
LINE
  5
10468
330
10460
100
AcDbEntity
  8
0
  6
CONTINUOUS
100
AcDbLine
 10
-0.0000000000000003
 20
3.833826653152718
 30
0.0
 11
1.420999999998571
 21
5.25482665315129
 31
0.0
  0
LINE
  5
10469
330
10460
100
AcDbEntity
  8
0
  6
CONTINUOUS
100
AcDbLine
 10
-0.0000000000000002
 20
3.160307444072532
 30
0.0
 11
1.420999999998571
 21
4.581307444071103
 31
0.0
  0
LINE
  5
1046A
330
10460
100
AcDbEntity
  8
0
  6
CONTINUOUS
100
AcDbLine
 10
-0.0000000000000001
 20
2.486788234992345
 30
0.0
 11
1.420999999998571
 21
3.907788234990917
 31
0.0
  0
LINE
  5
1046B
330
10460
100
AcDbEntity
  8
0
  6
CONTINUOUS
100
AcDbLine
 10
-0.0000000000000006
 20
1.813269025912159
 30
0.0
 11
1.420999999998571
 21
3.234269025910731
 31
0.0
  0
LINE
  5
1046C
330
10460
100
AcDbEntity
  8
0
  6
CONTINUOUS
100
AcDbLine
 10
0.0
 20
1.139749816831973
 30
0.0
 11
1.420999999998571
 21
2.560749816830544
 31
0.0
  0
LINE
  5
1046D
330
10460
100
AcDbEntity
  8
0
  6
CONTINUOUS
100
AcDbLine
 10
0.0000000000000002
 20
0.466230607751787
 30
0.0
 11
1.420999999998571
 21
1.887230607750358
 31
0.0
  0
LINE
  5
1046E
330
10460
100
AcDbEntity
  8
0
  6
CONTINUOUS
100
AcDbLine
 10
0.2072886013284003
 20
-0.0000000000000009
 30
0.0
 11
1.420999999998571
 21
1.213711398670171
 31
0.0
  0
LINE
  5
1046F
330
10460
100
AcDbEntity
  8
0
  6
CONTINUOUS
100
AcDbLine
 10
0.8808078104085864
 20
-0.0000000000000009
 30
0.0
 11
1.420999999998571
 21
0.5401921895899839
 31
0.0
  0
LINE
  5
10470
330
10460
100
AcDbEntity
  8
0
  6
CONTINUOUS
100
AcDbLine
 10
0.0581249075061505
 20
-0.0000000000000009
 30
0.0
 11
-0.0000000000000002
 21
0.0581249075061496
 31
0.0
  0
LINE
  5
10471
330
10460
100
AcDbEntity
  8
0
  6
CONTINUOUS
100
AcDbLine
 10
0.7316441165863372
 20
-0.0000000000000009
 30
0.0
 11
-0.0000000000000002
 21
0.7316441165863363
 31
0.0
  0
LINE
  5
10472
330
10460
100
AcDbEntity
  8
0
  6
CONTINUOUS
100
AcDbLine
 10
1.405163325666523
 20
-0.0000000000000009
 30
0.0
 11
-0.0000000000000002
 21
1.405163325666523
 31
0.0
  0
LINE
  5
10473
330
10460
100
AcDbEntity
  8
0
  6
CONTINUOUS
100
AcDbLine
 10
1.420999999998572
 20
0.6576825347481381
 30
0.0
 11
-0.0000000000000001
 21
2.07868253474671
 31
0.0
  0
LINE
  5
10474
330
10460
100
AcDbEntity
  8
0
  6
CONTINUOUS
100
AcDbLine
 10
1.420999999998571
 20
1.331201743828324
 30
0.0
 11
-0.0000000000000001
 21
2.752201743826896
 31
0.0
  0
LINE
  5
10475
330
10460
100
AcDbEntity
  8
0
  6
CONTINUOUS
100
AcDbLine
 10
1.420999999998571
 20
2.004720952908511
 30
0.0
 11
-0.0000000000000002
 21
3.425720952907082
 31
0.0
  0
LINE
  5
10476
330
10460
100
AcDbEntity
  8
0
  6
CONTINUOUS
100
AcDbLine
 10
1.420999999998571
 20
2.678240161988697
 30
0.0
 11
-0.0000000000000001
 21
4.099240161987269
 31
0.0
  0
LINE
  5
10477
330
10460
100
AcDbEntity
  8
0
  6
CONTINUOUS
100
AcDbLine
 10
1.420999999998572
 20
3.351759371068884
 30
0.0
 11
0.0
 21
4.772759371067455
 31
0.0
  0
LINE
  5
10478
330
10460
100
AcDbEntity
  8
0
  6
CONTINUOUS
100
AcDbLine
 10
1.420999999998571
 20
4.02527858014907
 30
0.0
 11
-0.0000000000000003
 21
5.446278580147642
 31
0.0
  0
LINE
  5
10479
330
10460
100
AcDbEntity
  8
0
  6
CONTINUOUS
100
AcDbLine
 10
1.420999999998571
 20
4.698797789229257
 30
0.0
 11
0.0
 21
6.119797789227828
 31
0.0
  0
LINE
  5
1047A
330
10460
100
AcDbEntity
  8
0
  6
CONTINUOUS
100
AcDbLine
 10
1.420999999998571
 20
5.372316998309444
 30
0.0
 11
-0.0000000000000001
 21
6.793316998308015
 31
0.0
  0
LINE
  5
1047B
330
10460
100
AcDbEntity
  8
0
  6
CONTINUOUS
100
AcDbLine
 10
1.420999999998572
 20
6.045836207389629
 30
0.0
 11
-0.0000000000000004
 21
7.466836207388202
 31
0.0
  0
LINE
  5
1047C
330
10460
100
AcDbEntity
  8
0
  6
CONTINUOUS
100
AcDbLine
 10
1.420999999998571
 20
6.719355416469816
 30
0.0
 11
0.0
 21
8.140355416468388
 31
0.0
  0
LINE
  5
1047D
330
10460
100
AcDbEntity
  8
0
  6
CONTINUOUS
100
AcDbLine
 10
1.420999999998571
 20
7.392874625550003
 30
0.0
 11
0.0507746255573185
 21
8.763099999991255
 31
0.0
  0
LINE
  5
1047E
330
10460
100
AcDbEntity
  8
0
  6
CONTINUOUS
100
AcDbLine
 10
1.420999999998571
 20
8.06639383463019
 30
0.0
 11
0.7242938346375052
 21
8.763099999991255
 31
0.0
  0
LINE
  5
1047F
330
10460
100
AcDbEntity
  8
0
  6
CONTINUOUS
100
AcDbLine
 10
1.420999999998571
 20
8.739913043710375
 30
0.0
 11
1.397813043717691
 21
8.763099999991255
 31
0.0
  0
ENDBLK
  5
1048B
330
10460
100
AcDbEntity
  8
0
100
AcDbBlockEnd
  0
ENDSEC
  0
SECTION
  2
ENTITIES
  0
TEXT
  5
FAFA
330
18
100
AcDbEntity
  8
1TEXT
100
AcDbText
 10
202.0441154872877
 20
178.2122994652688
 30
0.0
 40
7.0
  1
PA-59A-
 41
1.0098214
100
AcDbText
  0
TEXT
  5
FAFC
330
18
100
AcDbEntity
  8
1TEXT
100
AcDbText
 10
262.5126940137895
 20
-1.227973319068091
 30
0.0
 40
4.0
  1
PA-59A-K-
 72
     1
 11
279.8608421619376
 21
-1.227973319068091
 31
0.0
100
AcDbText
  0
LINE
  5
FAFD
330
18
100
AcDbEntity
  8
1DIM
100
AcDbLine
 10
205.084090661421
 20
18.27202668093191
 30
0.0
 11
315.084090661421
 21
18.27202668093191
 31
0.0
  0
LINE
  5
FAFE
330
18
100
AcDbEntity
  8
1DIM
100
AcDbLine
 10
205.084090661421
 20
11.27202668093191
 30
0.0
 11
315.084090661421
 21
11.27202668093191
 31
0.0
  0
LINE
  5
FAFF
330
18
100
AcDbEntity
  8
1DIM
100
AcDbLine
 10
205.084090661421
 20
-30.72797331906855
 30
0.0
 11
315.084090661421
 21
-30.72797331906855
 31
0.0
  0
TEXT
  5
FB00
330
18
100
AcDbEntity
  8
1TEXT
100
AcDbText
 10
206.6657486468945
 20
-9.63170288621182
 30
0.0
 40
4.000000000000001
  1
記入例：PA59K　L寸法　(L寸法は4桁まで)
 72
     1
 11
258.1138967950426
 21
-9.63170288621182
 31
0.0
100
AcDbText
  0
TEXT
  5
FB02
330
18
100
AcDbEntity
  8
1TEXT
100
AcDbText
 10
211.6840906614215
 20
12.77202668093236
 30
0.0
 40
4.0
  1
表面処理：
 72
     1
 11
222.4840906614215
 21
12.77202668093236
 31
0.0
100
AcDbText
  0
LINE
  5
FB03
330
18
100
AcDbEntity
  8
1DIM
100
AcDbLine
 10
205.084090661421
 20
18.27202668093191
 30
0.0
 11
205.084090661421
 21
-30.72797331906855
 31
0.0
  0
LINE
  5
FB04
330
18
100
AcDbEntity
  8
1DIM
100
AcDbLine
 10
255.084090661421
 20
11.27202668093191
 30
0.0
 11
255.084090661421
 21
-2.727973319068091
 31
0.0
  0
LINE
  5
FB05
330
18
100
AcDbEntity
  8
1DIM
100
AcDbLine
 10
315.084090661421
 20
18.27202668093191
 30
0.0
 11
315.084090661421
 21
-30.72797331906855
 31
0.0
  0
TEXT
  5
FB06
330
18
100
AcDbEntity
  8
1TEXT
100
AcDbText
 10
220.2178196254535
 20
-1.227973319067637
 30
0.0
 40
4.0
  1
ブラック
 72
     1
 11
229.2178196254535
 21
-1.227973319067637
 31
0.0
100
AcDbText
  0
TEXT
  5
FB07
330
18
100
AcDbEntity
  8
1TEXT
100
AcDbText
 10
267.0862678470775
 20
12.77202668093236
 30
0.0
 40
4.0
  1
コード
 72
     1
 11
273.9529345137441
 21
12.77202668093236
 31
0.0
100
AcDbText
  0
TEXT
  5
FB09
330
18
100
AcDbEntity
  8
1TEXT
100
AcDbText
 10
205.084090661421
 20
21.77202668093236
 30
0.0
 40
4.0
  1
材質：アルミニウム
 11
205.084090661421
 21
21.77202668093236
 31
0.0
100
AcDbText
 73
     1
  0
LINE
  5
FB0A
330
18
100
AcDbEntity
  8
1DIM
100
AcDbLine
 10
381.1039569936108
 20
18.27202668093236
 30
0.0
 11
381.1039569936104
 21
-36.32797331908301
 31
0.0
  0
LINE
  5
FB0B
330
18
100
AcDbEntity
  8
1DIM
100
AcDbLine
 10
335.084090661421
 20
18.27202668093236
 30
0.0
 11
335.0840906614196
 21
-36.32797331908301
 31
0.0
  0
LINE
  5
FB0C
330
18
100
AcDbEntity
  8
1DIM
100
AcDbLine
 10
359.8574805423148
 20
18.27202668093236
 30
0.0
 11
359.8574805423139
 21
-32.12797331908273
 31
0.0
  0
TEXT
  5
FB0D
330
18
100
AcDbEntity
  8
1TEXT
100
AcDbText
 10
338.2237529533265
 20
10.78287130399207
 30
0.0
 40
2.400000000000716
  1
070～099
100
AcDbText
  0
LINE
  5
FB0E
330
18
100
AcDbEntity
  8
1DIM
100
AcDbLine
 10
335.084090661421
 20
-32.12797331908228
 30
0.0
 11
381.1039569936099
 21
-32.12797331908228
 31
0.0
  0
LINE
  5
FB0F
330
18
100
AcDbEntity
  8
1DIM
100
AcDbLine
 10
335.084090661421
 20
-27.9279733190811
 30
0.0
 11
359.8574805423139
 21
-27.9279733190811
 31
0.0
  0
LINE
  5
FB10
330
18
100
AcDbEntity
  8
1DIM
100
AcDbLine
 10
335.084090661421
 20
-23.72797331907991
 30
0.0
 11
359.8574805423139
 21
-23.72797331907991
 31
0.0
  0
LINE
  5
FB11
330
18
100
AcDbEntity
  8
1DIM
100
AcDbLine
 10
335.084090661421
 20
-19.52797331907873
 30
0.0
 11
359.8574805423139
 21
-19.52797331907873
 31
0.0
  0
LINE
  5
FB12
330
18
100
AcDbEntity
  8
1DIM
100
AcDbLine
 10
335.084090661421
 20
-15.32797331907755
 30
0.0
 11
359.8574805423139
 21
-15.32797331907755
 31
0.0
  0
TEXT
  5
FB13
330
18
100
AcDbEntity
  8
1TEXT
100
AcDbText
 10
338.1669525541436
 20
-22.86956649656491
 30
0.0
 40
2.400000000000716
  1
450～499
100
AcDbText
  0
TEXT
  5
FB14
330
18
100
AcDbEntity
  8
1TEXT
100
AcDbText
 10
338.1669525541436
 20
-31.22448109928205
 30
0.0
 40
2.400000000000716
  1
550～599
100
AcDbText
  0
TEXT
  5
FB15
330
18
100
AcDbEntity
  8
1TEXT
100
AcDbText
 10
338.1669525541436
 20
-27.01126259740709
 30
0.0
 40
2.400000000000716
  1
500～549
100
AcDbText
  0
TEXT
  5
FB16
330
18
100
AcDbEntity
  8
1TEXT
100
AcDbText
 10
338.1669525541436
 20
-18.5968058316144
 30
0.0
 40
2.400000000000716
  1
400～449
100
AcDbText
  0
TEXT
  5
FB17
330
18
100
AcDbEntity
  8
1TEXT
100
AcDbText
 10
338.1669525541436
 20
-14.45510973077221
 30
0.0
 40
2.400000000000716
  1
350～399
100
AcDbText
  0
TEXT
  5
FB18
330
18
100
AcDbEntity
  8
1TEXT
100
AcDbText
 10
369.8023107530105
 20
-20.46868281037501
 30
0.0
 40
2.400000000000716
  1
3
100
AcDbText
  0
LINE
  5
FB19
330
18
100
AcDbEntity
  8
1DIM
100
AcDbLine
 10
335.084090661421
 20
-2.727973319073548
 30
0.0
 11
359.8574805423157
 21
-2.727973319073548
 31
0.0
  0
LINE
  5
FB1A
330
18
100
AcDbEntity
  8
1DIM
100
AcDbLine
 10
335.084090661421
 20
-6.927973319074731
 30
0.0
 11
381.1039569936108
 21
-6.927973319074731
 31
0.0
  0
LINE
  5
FB1B
330
18
100
AcDbEntity
  8
1DIM
100
AcDbLine
 10
335.084090661421
 20
1.472026680927634
 30
0.0
 11
359.8574805423139
 21
1.472026680927634
 31
0.0
  0
LINE
  5
FB1C
330
18
100
AcDbEntity
  8
1DIM
100
AcDbLine
 10
335.084090661421
 20
5.672026680928816
 30
0.0
 11
359.8574805423139
 21
5.672026680928816
 31
0.0
  0
LINE
  5
FB1D
330
18
100
AcDbEntity
  8
1DIM
100
AcDbLine
 10
335.084090661421
 20
9.872026680929999
 30
0.0
 11
359.8574805423139
 21
9.872026680929999
 31
0.0
  0
LINE
  5
FB1E
330
18
100
AcDbEntity
  8
1DIM
100
AcDbLine
 10
335.084090661421
 20
-11.12797331907637
 30
0.0
 11
359.8574805423139
 21
-11.12797331907637
 31
0.0
  0
TEXT
  5
FB1F
330
18
100
AcDbEntity
  8
1TEXT
100
AcDbText
 10
338.1669525541436
 20
-1.886405987695575
 30
0.0
 40
2.400000000000716
  1
200～249
100
AcDbText
  0
TEXT
  5
FB20
330
18
100
AcDbEntity
  8
1TEXT
100
AcDbText
 10
338.1669525541436
 20
-10.30086275348827
 30
0.0
 40
2.400000000000716
  1
300～349
100
AcDbText
  0
TEXT
  5
FB21
330
18
100
AcDbEntity
  8
1TEXT
100
AcDbText
 10
338.1669525541436
 20
-6.159166652646086
 30
0.0
 40
2.400000000000716
  1
250～299
100
AcDbText
  0
TEXT
  5
FB22
330
18
100
AcDbEntity
  8
1TEXT
100
AcDbText
 10
338.1669525541436
 20
2.255290113146607
 30
0.0
 40
2.400000000000716
  1
150～199
100
AcDbText
  0
TEXT
  5
FB23
330
18
100
AcDbEntity
  8
1TEXT
100
AcDbText
 10
338.2237529533265
 20
6.582871303990892
 30
0.0
 40
2.400000000000716
  1
100～149
100
AcDbText
  0
TEXT
  5
FB24
330
18
100
AcDbEntity
  8
1TEXT
100
AcDbText
 10
369.8023107530114
 20
3.831317189631996
 30
0.0
 40
2.400000000000716
  1
2
100
AcDbText
  0
LINE
  5
FB25
330
18
100
AcDbEntity
  8
1DIM
100
AcDbLine
 10
335.084090661421
 20
18.27202668093236
 30
0.0
 11
427.1238233257998
 21
18.27202668093282
 31
0.0
  0
TEXT
  5
FB26
330
18
100
AcDbEntity
  8
1TEXT
100
AcDbText
 10
341.3417113137009
 20
15.05011698575749
 30
0.0
 40
2.400000000000716
  1
L寸法
100
AcDbText
  0
TEXT
  5
FB27
330
18
100
AcDbEntity
  8
1TEXT
100
AcDbText
 10
361.4674067103576
 20
15.05011698575749
 30
0.0
 40
2.400000000000716
  1
穴数・付属ネジ数
 41
0.8
100
AcDbText
  0
LINE
  5
FB28
330
18
100
AcDbEntity
  8
1DIM
100
AcDbLine
 10
335.084090661421
 20
14.07202668093118
 30
0.0
 11
427.1238233257998
 21
14.07202668093164
 31
0.0
  0
LINE
  5
FB29
330
18
100
AcDbEntity
  8
1DIM
100
AcDbLine
 10
405.8773468745032
 20
18.27202668093236
 30
0.0
 11
405.8773468745028
 21
-36.32797331908346
 31
0.0
  0
TEXT
  5
FB2A
330
18
100
AcDbEntity
  8
1TEXT
100
AcDbText
 10
384.1868188863334
 20
-35.41126259740945
 30
0.0
 40
2.400000000000716
  1
1150～1199
100
AcDbText
  0
LINE
  5
FB2B
330
18
100
AcDbEntity
  8
1DIM
100
AcDbLine
 10
335.0840906614196
 20
-36.32797331908301
 30
0.0
 11
427.1238233257998
 21
-36.32797331908346
 31
0.0
  0
TEXT
  5
FB2C
330
18
100
AcDbEntity
  8
1TEXT
100
AcDbText
 10
384.2436192855164
 20
10.78287130399253
 30
0.0
 40
2.400000000000716
  1
600～649
100
AcDbText
  0
LINE
  5
FB2D
330
18
100
AcDbEntity
  8
1DIM
100
AcDbLine
 10
381.1039569936108
 20
-32.12797331908228
 30
0.0
 11
405.8773468745028
 21
-32.12797331908228
 31
0.0
  0
LINE
  5
FB2E
330
18
100
AcDbEntity
  8
1DIM
100
AcDbLine
 10
381.1039569936108
 20
-27.9279733190811
 30
0.0
 11
405.8773468745028
 21
-27.9279733190811
 31
0.0
  0
LINE
  5
FB2F
330
18
100
AcDbEntity
  8
1DIM
100
AcDbLine
 10
381.1039569936108
 20
-23.72797331907991
 30
0.0
 11
405.8773468745028
 21
-23.72797331907991
 31
0.0
  0
LINE
  5
FB30
330
18
100
AcDbEntity
  8
1DIM
100
AcDbLine
 10
381.1039569936108
 20
-19.52797331907873
 30
0.0
 11
405.8773468745028
 21
-19.52797331907873
 31
0.0
  0
LINE
  5
FB31
330
18
100
AcDbEntity
  8
1DIM
100
AcDbLine
 10
381.1039569936108
 20
-15.32797331907755
 30
0.0
 11
405.8773468745028
 21
-15.32797331907755
 31
0.0
  0
LINE
  5
FB32
330
18
100
AcDbEntity
  8
1DIM
100
AcDbLine
 10
381.1039569936108
 20
-11.12797331907591
 30
0.0
 11
405.8773468745028
 21
-11.12797331907591
 31
0.0
  0
TEXT
  5
FB33
330
18
100
AcDbEntity
  8
1TEXT
100
AcDbText
 10
384.1868188863334
 20
-22.85510973077458
 30
0.0
 40
2.400000000000716
  1
1000～1049
100
AcDbText
  0
TEXT
  5
FB34
330
18
100
AcDbEntity
  8
1TEXT
100
AcDbText
 10
384.1868188863334
 20
-26.99680583161676
 30
0.0
 40
2.400000000000716
  1
1050～1099
100
AcDbText
  0
TEXT
  5
FB35
330
18
100
AcDbEntity
  8
1TEXT
100
AcDbText
 10
384.1868188863334
 20
-31.26956649656727
 30
0.0
 40
2.400000000000716
  1
1100～1149
100
AcDbText
  0
TEXT
  5
FB36
330
18
100
AcDbEntity
  8
1TEXT
100
AcDbText
 10
384.1868188863334
 20
-14.55916665264845
 30
0.0
 40
2.400000000000716
  1
900～949
100
AcDbText
  0
TEXT
  5
FB37
330
18
100
AcDbEntity
  8
1TEXT
100
AcDbText
 10
384.1868188863334
 20
-18.70086275349063
 30
0.0
 40
2.400000000000716
  1
950～999
100
AcDbText
  0
LINE
  5
FB38
330
18
100
AcDbEntity
  8
1DIM
100
AcDbLine
 10
381.1039569936108
 20
-6.927973319074731
 30
0.0
 11
405.8773468745028
 21
-6.927973319074731
 31
0.0
  0
LINE
  5
FB39
330
18
100
AcDbEntity
  8
1DIM
100
AcDbLine
 10
381.1039569936108
 20
-2.727973319073548
 30
0.0
 11
405.8773468745028
 21
-2.727973319073548
 31
0.0
  0
LINE
  5
FB3A
330
18
100
AcDbEntity
  8
1DIM
100
AcDbLine
 10
381.1039569936108
 20
1.472026680927634
 30
0.0
 11
405.8773468745028
 21
1.472026680927634
 31
0.0
  0
LINE
  5
FB3B
330
18
100
AcDbEntity
  8
1DIM
100
AcDbLine
 10
381.1039569936108
 20
5.672026680928816
 30
0.0
 11
405.8773468745037
 21
5.672026680928816
 31
0.0
  0
LINE
  5
FB3C
330
18
100
AcDbEntity
  8
1DIM
100
AcDbLine
 10
381.1039569936108
 20
9.872026680929999
 30
0.0
 11
405.8773468745037
 21
9.872026680929999
 31
0.0
  0
TEXT
  5
FB3D
330
18
100
AcDbEntity
  8
1TEXT
100
AcDbText
 10
384.1868188863334
 20
-6.086405987696757
 30
0.0
 40
2.400000000000716
  1
800～849
100
AcDbText
  0
TEXT
  5
FB3E
330
18
100
AcDbEntity
  8
1TEXT
100
AcDbText
 10
384.1868188863334
 20
-10.28640598769794
 30
0.0
 40
2.400000000000716
  1
850～899
100
AcDbText
  0
TEXT
  5
FB3F
330
18
100
AcDbEntity
  8
1TEXT
100
AcDbText
 10
384.1868188863334
 20
-1.944709886854575
 30
0.0
 40
2.400000000000716
  1
750～799
100
AcDbText
  0
TEXT
  5
FB40
330
18
100
AcDbEntity
  8
1TEXT
100
AcDbText
 10
384.1868188863334
 20
2.255290113146607
 30
0.0
 40
2.400000000000716
  1
700～749
100
AcDbText
  0
TEXT
  5
FB41
330
18
100
AcDbEntity
  8
1TEXT
100
AcDbText
 10
384.2436192855164
 20
6.582871303990892
 30
0.0
 40
2.400000000000716
  1
650～699
100
AcDbText
  0
TEXT
  5
FB42
330
18
100
AcDbEntity
  8
1TEXT
100
AcDbText
 10
415.877346874503
 20
-9.968682810372279
 30
0.0
 40
2.400000000000716
  1
5
100
AcDbText
  0
LINE
  5
FB43
330
18
100
AcDbEntity
  8
1DIM
100
AcDbLine
 10
427.1238233257998
 20
-36.32797331908346
 30
0.0
 11
427.1238233257993
 21
18.27202668093285
 31
0.0
  0
TEXT
  5
FB44
330
18
100
AcDbEntity
  8
1TEXT
100
AcDbText
 10
387.3615776458907
 20
15.05011698575749
 30
0.0
 40
2.400000000000716
  1
L寸法
100
AcDbText
  0
LINE
  5
FB46
330
18
100
AcDbEntity
  8
01
100
AcDbLine
 10
470.9274267173694
 20
-7.815092490262522
 30
0.0
 11
468.9274406780903
 21
-5.815092490262522
 31
0.0
  0
LINE
  5
FB47
330
18
100
AcDbEntity
  8
01
100
AcDbLine
 10
470.9274267173694
 20
-7.815092490262522
 30
0.0
 11
470.9274430049343
 21
-0.8150924902625221
 31
0.0
  0
LINE
  5
FB48
330
18
100
AcDbEntity
  8
01
100
AcDbLine
 10
471.2274267173705
 20
-7.815092490262522
 30
0.0
 11
471.2274430049345
 21
-0.8150924902625221
 31
0.0
  0
LINE
  5
FB4A
330
18
100
AcDbEntity
  8
01
100
AcDbLine
 10
462.2274313709593
 20
-5.815092490262522
 30
0.0
 11
462.1274302075624
 21
-6.315092490262522
 31
0.0
  0
LINE
  5
FB4B
330
18
100
AcDbEntity
  8
01
100
AcDbLine
 10
466.9274302075626
 20
-6.315092490262522
 30
0.0
 11
466.12743951474
 21
-2.315092490262522
 31
0.0
  0
LINE
  5
FB4C
330
18
100
AcDbEntity
  8
01
100
AcDbLine
 10
467.0274313709594
 20
-5.815092490262522
 30
0.0
 11
466.9274302075626
 21
-6.315092490262522
 31
0.0
  0
LINE
  5
FB4D
330
18
100
AcDbEntity
  8
01
100
AcDbLine
 10
466.12743951474
 20
-2.315092490262522
 30
0.0
 11
466.0274383513422
 21
-2.815092490262522
 31
0.0
  0
LINE
  5
FB4E
330
18
100
AcDbEntity
  8
01
100
AcDbLine
 10
465.3274302075622
 20
-6.315092490262522
 30
0.0
 11
464.5274395147396
 21
-2.315092490262522
 31
0.0
  0
LINE
  5
FB4F
330
18
100
AcDbEntity
  8
01
100
AcDbLine
 10
463.7274302075618
 20
-6.315092490262522
 30
0.0
 11
462.9274395147393
 21
-2.315092490262522
 31
0.0
  0
LINE
  5
FB50
330
18
100
AcDbEntity
  8
01
100
AcDbLine
 10
463.8274313709596
 20
-5.815092490262522
 30
0.0
 11
463.7274302075618
 21
-6.315092490262522
 31
0.0
  0
LINE
  5
FB51
330
18
100
AcDbEntity
  8
01
100
AcDbLine
 10
462.9274395147393
 20
-2.315092490262522
 30
0.0
 11
462.8274383513424
 21
-2.815092490262522
 31
0.0
  0
LINE
  5
FB52
330
18
100
AcDbEntity
  8
01
100
AcDbLine
 10
464.5274395147396
 20
-2.315092490262522
 30
0.0
 11
464.4274383513427
 21
-2.815092490262522
 31
0.0
  0
LINE
  5
FB53
330
18
100
AcDbEntity
  8
01
100
AcDbLine
 10
465.4274313709591
 20
-5.815092490262522
 30
0.0
 11
465.3274302075622
 21
-6.315092490262522
 31
0.0
  0
LINE
  5
FB54
330
18
100
AcDbEntity
  8
01
100
AcDbLine
 10
470.9274430049343
 20
-0.8150924902625221
 30
0.0
 11
468.9274197368493
 21
-2.815092490262522
 31
0.0
  0
LINE
  5
FB55
330
18
100
AcDbEntity
  8
01
100
AcDbLine
 10
455.2274348610988
 20
-4.315092490262522
 30
0.0
 11
460.5274313709594
 21
-5.815092490262522
 31
0.0
  0
LINE
  5
FB56
330
18
100
AcDbEntity
  8
01
100
AcDbLine
 10
455.2274348610988
 20
-4.315092490262522
 30
0.0
 11
460.527438351344
 21
-2.815092490262522
 31
0.0
  0
LINE
  5
FB57
330
18
100
AcDbEntity
  8
01
100
AcDbLine
 10
461.3274395147398
 20
-2.315092490262522
 30
0.0
 11
461.2274383513429
 21
-2.815092490262522
 31
0.0
  0
LINE
  5
FB58
330
18
100
AcDbEntity
  8
01
100
AcDbLine
 10
459.7274389879374
 20
-2.541499542466717
 30
0.0
 11
459.5981682903073
 21
-3.078093277737516
 31
0.0
  0
LINE
  5
FB59
330
18
100
AcDbEntity
  8
01
100
AcDbLine
 10
460.527430207562
 20
-6.315092490262522
 30
0.0
 11
459.7274389879374
 21
-2.541499542466717
 31
0.0
  0
LINE
  5
FB5A
330
18
100
AcDbEntity
  8
01
100
AcDbLine
 10
459.0402007735227
 20
-5.394177893053929
 30
0.0
 11
458.9274312611722
 21
-5.862276348204013
 31
0.0
  0
LINE
  5
FB5B
330
18
100
AcDbEntity
  8
01
100
AcDbLine
 10
460.6274313709598
 20
-5.815092490262522
 30
0.0
 11
460.527430207562
 21
-6.315092490262522
 31
0.0
  0
LINE
  5
FB5C
330
18
100
AcDbEntity
  8
01
100
AcDbLine
 10
456.5274368807256
 20
-3.447127751279858
 30
0.0
 11
456.2156670244738
 21
-4.035404326322841
 31
0.0
  0
LINE
  5
FB5D
330
18
100
AcDbEntity
  8
01
100
AcDbLine
 10
457.4788681112175
 20
-4.952290999524429
 30
0.0
 11
457.3274323147768
 21
-5.409462840155847
 31
0.0
  0
LINE
  5
FB5E
330
18
100
AcDbEntity
  8
01
100
AcDbLine
 10
458.1274379343311
 20
-2.994313646873287
 30
0.0
 11
457.9446737917031
 21
-3.546063110676677
 31
0.0
  0
LINE
  5
FB5F
330
18
100
AcDbEntity
  8
01
100
AcDbLine
 10
457.3274323147768
 20
-5.409462840155847
 30
0.0
 11
456.5274368807256
 21
-3.447127751279858
 31
0.0
  0
LINE
  5
FB60
330
18
100
AcDbEntity
  8
01
100
AcDbLine
 10
458.9274312611722
 20
-5.862276348204013
 30
0.0
 11
458.1274379343311
 21
-2.994313646873287
 31
0.0
  0
LINE
  5
FB61
330
18
100
AcDbEntity
  8
1CENTER
100
AcDbLine
 10
453.69077824184
 20
-4.315092490262522
 30
0.0
 11
471.590941317884
 21
-4.315092490262522
 31
0.0
  0
LINE
  5
FB62
330
18
100
AcDbEntity
  8
01
100
AcDbLine
 10
460.5274313709594
 20
-5.815092490262522
 30
0.0
 11
468.9274406780903
 21
-5.815092490262522
 31
0.0
  0
LINE
  5
FB63
330
18
100
AcDbEntity
  8
01
100
AcDbLine
 10
460.527438351344
 20
-2.815092490262522
 30
0.0
 11
468.9274197368493
 21
-2.815092490262522
 31
0.0
  0
LINE
  5
FB64
330
18
100
AcDbEntity
  8
01
100
AcDbLine
 10
462.1274302075624
 20
-6.315092490262522
 30
0.0
 11
461.3274395147398
 21
-2.315092490262522
 31
0.0
  0
LINE
  5
FB66
330
18
100
AcDbEntity
  8
01
100
AcDbLine
 10
470.9274430049343
 20
-0.8150924902625221
 30
0.0
 11
471.2274430049345
 21
-0.8150924902625221
 31
0.0
  0
LINE
  5
FB67
330
18
100
AcDbEntity
  8
01
100
AcDbLine
 10
470.9274267173694
 20
-7.815092490262522
 30
0.0
 11
471.2274267173705
 21
-7.815092490262522
 31
0.0
  0
LINE
  5
FB68
330
18
100
AcDbEntity
  8
01
100
AcDbLine
 10
468.6274313709598
 20
-5.815092490262522
 30
0.0
 11
468.5274302075629
 21
-6.315092490262522
 31
0.0
  0
LINE
  5
FB69
330
18
100
AcDbEntity
  8
01
100
AcDbLine
 10
468.5274302075629
 20
-6.315092490262522
 30
0.0
 11
467.7274395147404
 21
-2.315092490262522
 31
0.0
  0
LINE
  5
FB6A
330
18
100
AcDbEntity
  8
01
100
AcDbLine
 10
467.7274395147404
 20
-2.315092490262522
 30
0.0
 11
467.6274383513426
 21
-2.815092490262522
 31
0.0
  0
TEXT
  5
FB6E
330
18
100
AcDbEntity
  8
1TEXT
100
AcDbText
 10
335.084090661421
 20
21.77202668093236
 30
0.0
 40
4.0
  1
穴数表
100
AcDbText
  0
TEXT
  5
FB6F
330
18
100
AcDbEntity
  8
1TEXT
100
AcDbText
 10
445.084090661421
 20
21.77202668093236
 30
0.0
 40
4.0
  1
付属ねじ
100
AcDbText
  0
TEXT
  5
FB70
330
18
100
AcDbEntity
  8
1TEXT
100
AcDbText
 10
407.4872730425461
 20
15.05011698575772
 30
0.0
 40
2.400000000000716
  1
穴数・付属ネジ数
 41
0.8
100
AcDbText
  0
LINE
  5
FB71
330
18
100
AcDbEntity
  8
1DIM
100
AcDbLine
 10
205.084090661421
 20
-2.727973319068091
 30
0.0
 11
315.084090661421
 21
-2.727973319068091
 31
0.0
  0
LINE
  5
FB72
330
18
100
AcDbEntity
  8
01
100
AcDbLine
 10
398.0418221846073
 20
125.0693407692241
 30
0.0
 11
399.7418221846074
 21
125.0693407692241
 31
0.0
  0
LINE
  5
FB73
330
18
100
AcDbEntity
  8
01
100
AcDbLine
 10
400.0418221846073
 20
124.7693407692241
 30
0.0
 11
400.0418221846073
 21
82.46934076922412
 31
0.0
  0
ARC
  5
FB74
330
18
100
AcDbEntity
  8
01
100
AcDbCircle
 10
399.7418221846074
 20
99.56934076922414
 30
0.0
 40
0.3
100
AcDbArc
 50
0.0
 51
90.0
  0
ARC
  5
FB75
330
18
100
AcDbEntity
  8
01
100
AcDbCircle
 10
399.7418221846074
 20
82.46934076922412
 30
0.0
 40
0.3
100
AcDbArc
 50
270.0
 51
0.0
  0
ARC
  5
FB76
330
18
100
AcDbEntity
  8
01
100
AcDbCircle
 10
399.7418221846074
 20
94.46934076922412
 30
0.0
 40
0.3
100
AcDbArc
 50
270.0
 51
0.0
  0
ARC
  5
FB77
330
18
100
AcDbEntity
  8
01
100
AcDbCircle
 10
399.7418221846074
 20
124.7693407692241
 30
0.0
 40
0.3
100
AcDbArc
 50
0.0
 51
90.0
  0
LINE
  5
FB78
330
18
100
AcDbEntity
  8
01
100
AcDbLine
 10
398.0418221846073
 20
125.0693407692241
 30
0.0
 11
398.0418221846073
 21
82.1693407692241
 31
0.0
  0
LINE
  5
FB79
330
18
100
AcDbEntity
  8
01
100
AcDbLine
 10
398.0418221846073
 20
82.1693407692241
 30
0.0
 11
399.7418221846074
 21
82.1693407692241
 31
0.0
  0
LINE
  5
FB7A
330
18
100
AcDbEntity
  8
01
100
AcDbLine
 10
398.0418221846073
 20
118.1693407692241
 30
0.0
 11
399.7418221846074
 21
118.1693407692241
 31
0.0
  0
ARC
  5
FB7B
330
18
100
AcDbEntity
  8
01
100
AcDbCircle
 10
399.7418221846074
 20
118.4693407692241
 30
0.0
 40
0.3
100
AcDbArc
 50
270.0
 51
0.0
  0
LINE
  5
FB7C
330
18
100
AcDbEntity
  8
01
100
AcDbLine
 10
398.0418221846073
 20
99.8693407692241
 30
0.0
 11
399.7418221846074
 21
99.8693407692241
 31
0.0
  0
LINE
  5
FB7D
330
18
100
AcDbEntity
  8
01
100
AcDbLine
 10
398.0418221846073
 20
94.1693407692241
 30
0.0
 11
399.7418221846074
 21
94.1693407692241
 31
0.0
  0
LINE
  5
FB7E
330
18
100
AcDbEntity
  8
01
100
AcDbLine
 10
398.0418145552128
 20
166.9503803649504
 30
0.0
 11
399.7418145552128
 21
166.9503803649504
 31
0.0
  0
LINE
  5
FB7F
330
18
100
AcDbEntity
  8
01
100
AcDbLine
 10
400.0418145552128
 20
166.6503803649502
 30
0.0
 11
400.0418145552128
 21
144.0503803649503
 31
0.0
  0
ARC
  5
FB80
330
18
100
AcDbEntity
  8
01
100
AcDbCircle
 10
399.7418145552128
 20
166.6503803649502
 30
0.0
 40
0.3
100
AcDbArc
 50
0.0
 51
90.0
  0
LINE
  5
FB81
330
18
100
AcDbEntity
  8
01
100
AcDbLine
 10
398.0418145552128
 20
166.9503803649504
 30
0.0
 11
398.0418145552128
 21
143.7503803649503
 31
0.0
  0
LINE
  5
FB82
330
18
100
AcDbEntity
  8
01
100
AcDbLine
 10
398.0418145552128
 20
143.7503803649503
 30
0.0
 11
399.7418145552128
 21
143.7503803649503
 31
0.0
  0
ARC
  5
FB83
330
18
100
AcDbEntity
  8
01
100
AcDbCircle
 10
399.7418145552128
 20
144.0503803649503
 30
0.0
 40
0.3
100
AcDbArc
 50
270.0
 51
0.0
  0
LINE
  5
FB84
330
18
100
AcDbEntity
  8
01
  6
CONTINUOUS
100
AcDbLine
 10
202.0418298140016
 20
143.9503809579474
 30
0.0
 11
202.0418298140016
 21
166.7503797719533
 31
0.0
  0
LINE
  5
FB85
330
18
100
AcDbEntity
  8
01
  6
CONTINUOUS
100
AcDbLine
 10
202.0418221846071
 20
82.2693407692241
 30
0.0
 11
202.0418221846071
 21
124.969340769224
 31
0.0
  0
CIRCLE
  5
FB86
330
18
100
AcDbEntity
  8
01
  6
BYBLOCK
100
AcDbCircle
 10
225.0418221846071
 20
88.2693183425558
 30
0.0
 40
2.499999999800991
  0
LINE
  5
FB87
330
18
100
AcDbEntity
  8
1CENTER
100
AcDbLine
 10
231.5156709625876
 20
88.2693183425558
 30
0.0
 11
218.5679734066268
 21
88.2693183425558
 31
0.0
  0
LINE
  5
FB88
330
18
100
AcDbEntity
  8
1CENTER
100
AcDbLine
 10
225.0418221846071
 20
94.74316712053607
 30
0.0
 11
225.0418221846071
 21
81.79546956457548
 31
0.0
  0
LINE
  5
FB89
330
18
100
AcDbEntity
  8
01
  6
BYBLOCK
100
AcDbLine
 10
202.0418298140016
 20
166.7503797719533
 30
0.0
 11
398.0418145552128
 21
166.7503797719533
 31
0.0
  0
LINE
  5
FB8A
330
18
100
AcDbEntity
  8
01
  6
BYBLOCK
100
AcDbLine
 10
202.0418298140016
 20
143.9503809579474
 30
0.0
 11
398.0418145552128
 21
143.9503809579474
 31
0.0
  0
LINE
  5
FB8B
330
18
100
AcDbEntity
  8
01
  6
BYBLOCK
100
AcDbLine
 10
202.0418221846071
 20
124.969340769224
 30
0.0
 11
398.0418221846073
 21
124.969340769224
 31
0.0
  0
LINE
  5
FB8C
330
18
100
AcDbEntity
  8
01
  6
BYBLOCK
100
AcDbLine
 10
202.0418221846071
 20
118.2693407692243
 30
0.0
 11
398.0418221846071
 21
118.2693407692239
 31
0.0
  0
LINE
  5
FB8D
330
18
100
AcDbEntity
  8
01
  6
BYBLOCK
100
AcDbLine
 10
202.0418221846071
 20
99.76934076922399
 30
0.0
 11
398.0418221846071
 21
99.76934076922402
 31
0.0
  0
LINE
  5
FB8E
330
18
100
AcDbEntity
  8
01
  6
BYBLOCK
100
AcDbLine
 10
202.0418221846071
 20
94.26934076922399
 30
0.0
 11
398.0418221846071
 21
94.26934076922402
 31
0.0
  0
LINE
  5
FB8F
330
18
100
AcDbEntity
  8
01
  6
BYBLOCK
100
AcDbLine
 10
202.0418221846068
 20
82.2693407692241
 30
0.0
 11
398.0418221846073
 21
82.2693407692241
 31
0.0
  0
LINE
  5
FB90
330
18
100
AcDbEntity
  8
01
  6
CONTINUOUS
100
AcDbLine
 10
398.0418145552128
 20
143.9503809579474
 30
0.0
 11
398.0418145552128
 21
166.7503797719533
 31
0.0
  0
CIRCLE
  5
FB91
330
18
100
AcDbEntity
  8
01
  6
BYBLOCK
100
AcDbCircle
 10
375.0418221846071
 20
88.2693183425558
 30
0.0
 40
2.499999999800991
  0
LINE
  5
FB92
330
18
100
AcDbEntity
  8
1CENTER
100
AcDbLine
 10
368.5679734066268
 20
88.2693183425558
 30
0.0
 11
381.5156709625874
 21
88.2693183425558
 31
0.0
  0
LINE
  5
FB93
330
18
100
AcDbEntity
  8
1CENTER
100
AcDbLine
 10
375.0418221846071
 20
94.74316712053607
 30
0.0
 11
375.0418221846071
 21
81.79546956457548
 31
0.0
  0
LINE
  5
FB94
330
18
100
AcDbEntity
  8
1CENTER
100
AcDbLine
 10
300.0418221846071
 20
94.74316712053607
 30
0.0
 11
300.0418221846071
 21
81.79546956457548
 31
0.0
  0
CIRCLE
  5
FB95
330
18
100
AcDbEntity
  8
01
  6
BYBLOCK
100
AcDbCircle
 10
300.0418221846071
 20
88.2693183425558
 30
0.0
 40
2.499999999800991
  0
LINE
  5
FB96
330
18
100
AcDbEntity
  8
1CENTER
100
AcDbLine
 10
306.5156709625874
 20
88.2693183425558
 30
0.0
 11
293.5679734066268
 21
88.2693183425558
 31
0.0
  0
LINE
  5
FB97
330
18
100
AcDbEntity
  8
01
  6
CONTINUOUS
100
AcDbLine
 10
398.0418221846073
 20
82.2693407692241
 30
0.0
 11
398.0418221846073
 21
124.969340769224
 31
0.0
  0
LINE
  5
FB98
330
18
100
AcDbEntity
  8
01
  6
CONTINUOUS
100
AcDbLine
 10
475.5907117249942
 20
82.1693407692241
 30
0.0
 11
475.5907117249942
 21
97.06934076922411
 31
0.0
  0
ARC
  5
FB99
330
18
100
AcDbEntity
  8
01
100
AcDbCircle
 10
475.3907117249942
 20
97.06934076922411
 30
0.0
 40
0.2
100
AcDbArc
 50
0.0
 51
90.0
  0
LINE
  5
FB9A
330
18
100
AcDbEntity
  8
01
  6
CONTINUOUS
100
AcDbLine
 10
475.3907117249942
 20
97.26934076922424
 30
0.0
 11
455.6907117249941
 21
97.2693407692241
 31
0.0
  0
LINE
  5
FB9B
330
18
100
AcDbEntity
  8
01
  6
CONTINUOUS
100
AcDbLine
 10
476.6907117249941
 20
82.1693407692241
 30
0.0
 11
475.5907117249942
 21
82.1693407692241
 31
0.0
  0
LINE
  5
FB9C
330
18
100
AcDbEntity
  8
01
  6
CONTINUOUS
100
AcDbLine
 10
455.6907117249941
 20
97.2693407692241
 30
0.0
 11
455.6907117249941
 21
94.1693407692241
 31
0.0
  0
LINE
  5
FB9D
330
18
100
AcDbEntity
  8
01
  6
CONTINUOUS
100
AcDbLine
 10
455.6907117249941
 20
94.1693407692241
 30
0.0
 11
455.1656023460905
 21
94.1693407692241
 31
0.0
  0
LINE
  5
FB9E
330
18
100
AcDbEntity
  8
01
  6
CONTINUOUS
100
AcDbLine
 10
477.5907117249942
 20
118.8193407692241
 30
0.0
 11
477.5907117249942
 21
88.4193407692241
 31
0.0
  0
LINE
  5
FB9F
330
18
100
AcDbEntity
  8
01
  6
CONTINUOUS
100
AcDbLine
 10
454.3907117249942
 20
119.2693407692241
 30
0.0
 11
454.3907117249942
 21
123.9693407692241
 31
0.0
  0
ARC
  5
FBA0
330
18
100
AcDbEntity
  8
01
  6
CONTINUOUS
100
AcDbCircle
 10
455.4907117249941
 20
119.2693407692241
 30
0.0
 40
1.1
100
AcDbArc
 50
180.0
 51
269.9999999997868
  0
LINE
  5
FBA1
330
18
100
AcDbEntity
  8
01
  6
CONTINUOUS
100
AcDbLine
 10
473.5907117249942
 20
123.6693407692242
 30
0.0
 11
456.9907117249941
 21
123.669340769224
 31
0.0
  0
ARC
  5
FBA2
330
18
100
AcDbEntity
  8
01
  6
CONTINUOUS
100
AcDbCircle
 10
456.9907117249941
 20
123.169340769224
 30
0.0
 40
0.5
100
AcDbArc
 50
90.0
 51
180.0
  0
LINE
  5
FBA3
330
18
100
AcDbEntity
  8
01
  6
CONTINUOUS
100
AcDbLine
 10
476.6907117249941
 20
125.0693407692242
 30
0.0
 11
455.4907117249941
 21
125.0693407692241
 31
0.0
  0
ARC
  5
FBA4
330
18
100
AcDbEntity
  8
01
  6
CONTINUOUS
100
AcDbCircle
 10
455.4907117249941
 20
123.9693407692241
 30
0.0
 40
1.1
100
AcDbArc
 50
90.0
 51
180.0
  0
ARC
  5
FBA5
330
18
100
AcDbEntity
  8
01
  6
CONTINUOUS
100
AcDbCircle
 10
460.6907117249941
 20
100.9693407692241
 30
0.0
 40
2.4
100
AcDbArc
 50
218.9448035942322
 51
285.0117564560595
  0
LINE
  5
FBA6
330
18
100
AcDbEntity
  8
01
  6
CONTINUOUS
100
AcDbLine
 10
457.2676956899427
 20
99.8693407692241
 30
0.0
 11
457.9685802072311
 21
99.8693407692241
 31
0.0
  0
ARC
  5
FBA7
330
18
100
AcDbEntity
  8
01
  6
CONTINUOUS
100
AcDbCircle
 10
457.9685802072308
 20
98.7693407692241
 30
0.0
 40
1.099999999999999
100
AcDbArc
 50
38.94480359410304
 51
89.99999999986973
  0
ARC
  5
FBA8
330
18
100
AcDbEntity
  8
01
  6
CONTINUOUS
100
AcDbCircle
 10
476.6907117249941
 20
83.2693407692241
 30
0.0
 40
1.1
100
AcDbArc
 50
270.0
 51
0.0
  0
LINE
  5
FBA9
330
18
100
AcDbEntity
  8
01
100
AcDbLine
 10
454.4466907074532
 20
97.06077289966379
 30
0.0
 11
454.5663978702928
 21
94.73845394057474
 31
0.0
  0
ARC
  5
FBAA
330
18
100
AcDbEntity
  8
01
100
AcDbCircle
 10
456.5439063727451
 20
97.16887679993658
 30
0.0
 40
2.1
100
AcDbArc
 50
120.9637565320784
 51
182.9507791090059
  0
ARC
  5
FBAB
330
18
100
AcDbEntity
  8
01
100
AcDbCircle
 10
455.1656023460905
 20
94.7693407692241
 30
0.0
 40
0.6
100
AcDbArc
 50
182.9507791090055
 51
270.0
  0
LINE
  5
FBAC
330
18
100
AcDbEntity
  8
1DIM
100
AcDbLine
 10
456.962795934583
 20
99.86921033287433
 30
0.0
 11
456.7017503589725
 21
99.71258298750797
 31
0.0
  0
LINE
  5
FBAD
330
18
100
AcDbEntity
  8
01
  6
BYBLOCK
100
AcDbLine
 10
456.7017503589725
 20
99.71258298750791
 30
0.0
 11
455.4634652863474
 21
98.96961194393296
 31
0.0
  0
ARC
  5
FBAE
330
18
100
AcDbEntity
  8
01
100
AcDbCircle
 10
457.2676956899427
 20
98.76934076922413
 30
0.0
 40
1.1
100
AcDbArc
 50
90.0
 51
120.9637565320811
  0
LINE
  5
FBAF
330
18
100
AcDbEntity
  8
01
100
AcDbLine
 10
475.4907117249941
 20
103.9082473158651
 30
0.0
 11
475.4907117249941
 21
121.7693407692241
 31
0.0
  0
ARC
  5
FBB0
330
18
100
AcDbEntity
  8
01
100
AcDbCircle
 10
473.5907117249942
 20
103.9082473158651
 30
0.0
 40
1.9
100
AcDbArc
 50
284.9999999999945
 51
0.0
  0
ARC
  5
FBB1
330
18
100
AcDbEntity
  8
01
100
AcDbCircle
 10
473.5907117249942
 20
121.7693407692241
 30
0.0
 40
1.9
100
AcDbArc
 50
0.0
 51
90.0
  0
ARC
  5
FBB2
330
18
100
AcDbEntity
  8
01
100
AcDbCircle
 10
455.4907117249943
 20
120.2693407692241
 30
0.0
 40
2.1
100
AcDbArc
 50
270.0
 51
54.76558201540782
  0
ARC
  5
FBB3
330
18
100
AcDbEntity
  8
01
100
AcDbCircle
 10
456.9907117249941
 20
122.3930168273833
 30
0.0
 40
0.5
100
AcDbArc
 50
180.0
 51
234.765582015402
  0
LINE
  5
FBB4
330
18
100
AcDbEntity
  8
01
100
AcDbLine
 10
461.3118774263116
 20
98.6511188387584
 30
0.0
 11
474.0824679106888
 21
102.0729882459159
 31
0.0
  0
ARC
  5
FBB5
330
18
100
AcDbEntity
  8
01
100
AcDbCircle
 10
540.1907117249914
 20
88.4193407692241
 30
0.0
 40
62.59999999999724
100
AcDbArc
 50
180.0
 51
184.5812200852774
  0
LINE
  5
FBB6
330
18
100
AcDbEntity
  8
01
100
AcDbLine
 10
477.790711724994
 20
83.2693407692241
 30
0.0
 11
477.790711724994
 21
83.4193407692241
 31
0.0
  0
ARC
  5
FBB7
330
18
100
AcDbEntity
  8
01
  6
CONTINUOUS
100
AcDbCircle
 10
476.6907117249941
 20
123.9693407692241
 30
0.0
 40
1.1
100
AcDbArc
 50
0.0
 51
90.0
  0
ARC
  5
FBB8
330
18
100
AcDbEntity
  8
01
100
AcDbCircle
 10
540.1907117249914
 20
118.8193407692241
 30
0.0
 40
62.59999999999724
100
AcDbArc
 50
175.4187799147225
 51
180.0
  0
LINE
  5
FBB9
330
18
100
AcDbEntity
  8
01
100
AcDbLine
 10
477.790711724994
 20
123.9693407692241
 30
0.0
 11
477.790711724994
 21
123.8193407692241
 31
0.0
  0
LINE
  5
FBBA
330
18
100
AcDbEntity
  8
01
100
AcDbLine
 10
456.4907117249941
 20
122.3930168273833
 30
0.0
 11
456.4907117249941
 21
123.169340769224
 31
0.0
  0
LINE
  5
FBBB
330
18
100
AcDbEntity
  8
01
100
AcDbLine
 10
202.0418298140016
 20
166.9503803649504
 30
0.0
 11
200.3418298140016
 21
166.9503803649504
 31
0.0
  0
LINE
  5
FBBC
330
18
100
AcDbEntity
  8
01
100
AcDbLine
 10
200.0418298140016
 20
166.6503803649502
 30
0.0
 11
200.0418298140016
 21
144.0503803649503
 31
0.0
  0
ARC
  5
FBBD
330
18
100
AcDbEntity
  8
01
100
AcDbCircle
 10
200.3418298140016
 20
166.6503803649502
 30
0.0
 40
0.3
100
AcDbArc
 50
90.0
 51
180.0
  0
LINE
  5
FBBE
330
18
100
AcDbEntity
  8
01
100
AcDbLine
 10
202.0418298140016
 20
166.9503803649504
 30
0.0
 11
202.0418298140016
 21
143.7503803649503
 31
0.0
  0
LINE
  5
FBBF
330
18
100
AcDbEntity
  8
01
100
AcDbLine
 10
202.0418298140016
 20
143.7503803649503
 30
0.0
 11
200.3418298140016
 21
143.7503803649503
 31
0.0
  0
ARC
  5
FBC0
330
18
100
AcDbEntity
  8
01
100
AcDbCircle
 10
200.3418298140016
 20
144.0503803649503
 30
0.0
 40
0.3
100
AcDbArc
 50
180.0
 51
270.0
  0
LINE
  5
FBC1
330
18
100
AcDbEntity
  8
01
100
AcDbLine
 10
202.0418221919931
 20
125.0693407692241
 30
0.0
 11
200.341822191993
 21
125.0693407692241
 31
0.0
  0
LINE
  5
FBC2
330
18
100
AcDbEntity
  8
01
100
AcDbLine
 10
200.0418221919931
 20
124.7693407692241
 30
0.0
 11
200.0418221919931
 21
82.46934076922412
 31
0.0
  0
ARC
  5
FBC3
330
18
100
AcDbEntity
  8
01
100
AcDbCircle
 10
200.341822191993
 20
99.56934076922414
 30
0.0
 40
0.3
100
AcDbArc
 50
90.0
 51
180.0
  0
ARC
  5
FBC4
330
18
100
AcDbEntity
  8
01
100
AcDbCircle
 10
200.341822191993
 20
82.46934076922412
 30
0.0
 40
0.3
100
AcDbArc
 50
180.0
 51
270.0
  0
ARC
  5
FBC5
330
18
100
AcDbEntity
  8
01
100
AcDbCircle
 10
200.341822191993
 20
94.46934076922412
 30
0.0
 40
0.3
100
AcDbArc
 50
180.0
 51
270.0
  0
ARC
  5
FBC6
330
18
100
AcDbEntity
  8
01
100
AcDbCircle
 10
200.341822191993
 20
124.7693407692241
 30
0.0
 40
0.3
100
AcDbArc
 50
90.0
 51
180.0
  0
LINE
  5
FBC7
330
18
100
AcDbEntity
  8
01
100
AcDbLine
 10
202.0418221919931
 20
125.0693407692241
 30
0.0
 11
202.0418221919931
 21
82.1693407692241
 31
0.0
  0
LINE
  5
FBC8
330
18
100
AcDbEntity
  8
01
100
AcDbLine
 10
202.0418221919931
 20
82.1693407692241
 30
0.0
 11
200.341822191993
 21
82.1693407692241
 31
0.0
  0
LINE
  5
FBC9
330
18
100
AcDbEntity
  8
01
100
AcDbLine
 10
202.0418221919931
 20
118.1693407692241
 30
0.0
 11
200.341822191993
 21
118.1693407692241
 31
0.0
  0
ARC
  5
FBCA
330
18
100
AcDbEntity
  8
01
100
AcDbCircle
 10
200.341822191993
 20
118.4693407692241
 30
0.0
 40
0.3
100
AcDbArc
 50
180.0
 51
270.0
  0
LINE
  5
FBCB
330
18
100
AcDbEntity
  8
01
100
AcDbLine
 10
202.0418221919931
 20
99.8693407692241
 30
0.0
 11
200.341822191993
 21
99.8693407692241
 31
0.0
  0
LINE
  5
FBCC
330
18
100
AcDbEntity
  8
01
100
AcDbLine
 10
202.0418221919931
 20
94.1693407692241
 30
0.0
 11
200.341822191993
 21
94.1693407692241
 31
0.0
  0
LINE
  5
FBD4
330
18
100
AcDbEntity
  8
1CENTER
 48
0.5
100
AcDbLine
 10
479.8162600546025
 20
88.26934404518835
 30
0.0
 11
473.3035715930587
 21
88.26930443062821
 31
0.0
  0
LINE
  5
FBD5
330
18
100
AcDbEntity
  8
1HIDDEN
 48
0.5
100
AcDbLine
 10
477.0905487433488
 20
92.36932807393379
 30
0.0
 11
475.5907117249944
 21
90.86952377089733
 31
0.0
  0
LINE
  5
FBD6
330
18
100
AcDbEntity
  8
1HIDDEN
 48
0.5
100
AcDbLine
 10
475.5907117249942
 20
85.66912840813114
 30
0.0
 11
477.0905545056535
 21
84.16932807381716
 31
0.0
  0
LINE
  5
FBD7
330
18
100
AcDbEntity
  8
1HIDDEN
100
AcDbLine
 10
477.4905129745116
 20
92.36932807393373
 30
0.0
 11
477.0905487433488
 21
92.36932807393379
 31
0.0
  0
LINE
  5
FBD8
330
18
100
AcDbEntity
  8
1HIDDEN
100
AcDbLine
 10
477.4800262105314
 20
84.16932807381716
 30
0.0
 11
477.0905545056535
 21
84.16932807381716
 31
0.0
  0
LINE
  5
FBD9
330
18
100
AcDbEntity
  8
1HIDDEN
 48
0.5
100
AcDbLine
 10
477.0905487433488
 20
92.36932807393379
 30
0.0
 11
477.0905545056535
 21
84.16932807381716
 31
0.0
  0
LINE
  5
FBE0
330
18
100
AcDbEntity
  8
1CENTER
100
AcDbLine
 10
225.0418221846071
 20
173.2242285499336
 30
0.0
 11
225.0418221846071
 21
160.276530993973
 31
0.0
  0
LINE
  5
FBE1
330
18
100
AcDbEntity
  8
1CENTER
100
AcDbLine
 10
375.0418221846071
 20
173.2242285499336
 30
0.0
 11
375.0418221846071
 21
160.276530993973
 31
0.0
  0
LINE
  5
FBE2
330
18
100
AcDbEntity
  8
1CENTER
100
AcDbLine
 10
300.0418221846071
 20
173.2242285499336
 30
0.0
 11
300.0418221846071
 21
160.276530993973
 31
0.0
  0
TEXT
  5
FBE3
330
18
100
AcDbEntity
  8
1TEXT
100
AcDbText
 10
260.3518025767491
 20
5.772026680931909
 30
0.0
 40
4.0
  1
PA-59A-4Q-
 72
     1
 11
279.6999507248972
 21
5.772026680931909
 31
0.0
100
AcDbText
  0
TEXT
  5
FBE4
330
18
100
AcDbEntity
  8
1TEXT
100
AcDbText
 10
219.9511529587868
 20
5.772026680932363
 30
0.0
 40
4.0
  1
ブロンズ
 72
     1
 11
229.2178196254535
 21
5.772026680932363
 31
0.0
100
AcDbText
  0
LINE
  5
FBE5
330
18
100
AcDbEntity
  8
1DIM
100
AcDbLine
 10
205.084090661421
 20
4.272026680931909
 30
0.0
 11
315.084090661421
 21
4.272026680931909
 31
0.0
  0
LINE
  5
101C7
330
18
100
AcDbEntity
  8
01
100
AcDbLine
 10
248.4108683762194
 20
-4.303609885839755
 30
0.0
 11
265.2171659487237
 21
-4.303609885839755
 31
0.0
  0
LINE
  5
101C8
330
18
100
AcDbEntity
  8
01
100
AcDbLine
 10
265.2171659487237
 20
-4.303609885839755
 30
0.0
 11
265.2171659487237
 21
-10.6701725627559
 31
0.0
  0
LINE
  5
101C9
330
18
100
AcDbEntity
  8
01
100
AcDbLine
 10
265.2171659487237
 20
-10.6701725627559
 30
0.0
 11
248.4108683762194
 21
-10.6701725627559
 31
0.0
  0
LINE
  5
101CA
330
18
100
AcDbEntity
  8
01
100
AcDbLine
 10
248.4108683762194
 20
-10.6701725627559
 30
0.0
 11
248.4108683762194
 21
-4.303609885839755
 31
0.0
  0
LINE
  5
101CB
330
18
100
AcDbEntity
  8
1DIM
100
AcDbLine
 10
200.0418221919931
 20
82.46934076922417
 30
0.0
 11
200.0418221919931
 21
56.3880981754361
 31
0.0
  0
LINE
  5
101CC
330
18
100
AcDbEntity
  8
1DIM
100
AcDbLine
 10
225.0418221846071
 20
81.79546956457548
 30
0.0
 11
225.0418221846071
 21
56.3880981754361
 31
0.0
  0
LINE
  5
101CD
330
18
100
AcDbEntity
  8
1DIM
100
AcDbLine
 10
202.0418221919931
 20
57.3880981754361
 30
0.0
 11
223.0418221846071
 21
57.3880981754361
 31
0.0
  0
LINE
  5
101D1
330
18
100
AcDbEntity
  8
1DIM
100
AcDbLine
 10
375.041822184608
 20
81.79546956457548
 30
0.0
 11
375.041822184608
 21
56.38809817543633
 31
0.0
  0
LINE
  5
101D2
330
18
100
AcDbEntity
  8
1DIM
100
AcDbLine
 10
400.041822184608
 20
81.68791145818744
 30
0.0
 11
400.041822184608
 21
56.38809817543633
 31
0.0
  0
LINE
  5
101D3
330
18
100
AcDbEntity
  8
1DIM
100
AcDbLine
 10
377.041822184608
 20
57.38809817543633
 30
0.0
 11
398.041822184608
 21
57.38809817543633
 31
0.0
  0
LINE
  5
101D7
330
18
100
AcDbEntity
  8
1DIM
100
AcDbLine
 10
200.0418221919931
 20
82.46934076922412
 30
0.0
 11
200.0418221919931
 21
46.38809817543606
 31
0.0
  0
LINE
  5
101D8
330
18
100
AcDbEntity
  8
1DIM
100
AcDbLine
 10
400.041822184608
 20
82.46934076922412
 30
0.0
 11
400.041822184608
 21
46.38809817543606
 31
0.0
  0
LINE
  5
101D9
330
18
100
AcDbEntity
  8
1DIM
100
AcDbLine
 10
202.0418221919931
 20
47.38809817543606
 30
0.0
 11
398.041822184608
 21
47.38809817543606
 31
0.0
  0
TEXT
  5
101DD
330
18
100
AcDbEntity
  8
1HIDDEN
  6
CONTINUOUS
100
AcDbText
 10
212.8325788718418
 20
-16.57514172999095
 30
0.0
 40
4.000000000000001
  1
EX.寸法  　70mm  　PA59K70
100
AcDbText
1001
ACADANNOTATIVE
1000
AnnotativeData
1002
{
1070
     1
1070
     0
1002
}
  0
TEXT
  5
101DE
330
18
100
AcDbEntity
  8
1HIDDEN
  6
CONTINUOUS
100
AcDbText
 10
212.8325788718418
 20
-23.25291950776873
 30
0.0
 40
4.000000000000001
  1
      　295mm   PA59K295
100
AcDbText
1001
ACADANNOTATIVE
1000
AnnotativeData
1002
{
1070
     1
1070
     0
1002
}
  0
TEXT
  5
101DF
330
18
100
AcDbEntity
  8
1HIDDEN
  6
CONTINUOUS
100
AcDbText
 10
212.8325788718418
 20
-29.93069728554651
 30
0.0
 40
4.000000000000001
  1
     　1050mm   PA59K1050
100
AcDbText
1001
ACADANNOTATIVE
1000
AnnotativeData
1002
{
1070
     1
1070
     0
1002
}
  0
LINE
  5
101E0
330
18
100
AcDbEntity
  8
1DIM
100
AcDbLine
 10
445.084090661421
 20
18.27202668093238
 30
0.0
 11
483.3420658295215
 21
18.27202668093238
 31
0.0
  0
LINE
  5
101E1
330
18
100
AcDbEntity
  8
1DIM
100
AcDbLine
 10
483.3420658295215
 20
18.27202668093238
 30
0.0
 11
483.3420658295215
 21
-23.28390433412782
 31
0.0
  0
LINE
  5
101E2
330
18
100
AcDbEntity
  8
1DIM
100
AcDbLine
 10
483.3420658295215
 20
-23.28390433412782
 30
0.0
 11
445.084090661421
 21
-23.28390433412782
 31
0.0
  0
LINE
  5
101E3
330
18
100
AcDbEntity
  8
1DIM
100
AcDbLine
 10
445.084090661421
 20
-23.28390433412782
 30
0.0
 11
445.084090661421
 21
18.27202668093238
 31
0.0
  0
LINE
  5
101E4
330
18
100
AcDbEntity
  8
1DIM
100
AcDbLine
 10
461.3274395147398
 20
-2.315092490262522
 30
0.0
 11
449.4825589840455
 21
-2.315092490262522
 31
0.0
1001
ACAD
1000
DSTYLE
1002
{
1070
     3
1000
φ<>
1070
    40
1040
1.0
1002
}
  0
LINE
  5
101E5
330
18
100
AcDbEntity
  8
1DIM
100
AcDbLine
 10
462.1274302075624
 20
-6.315092490262522
 30
0.0
 11
449.4825589840455
 21
-6.315092490262521
 31
0.0
1001
ACAD
1000
DSTYLE
1002
{
1070
     3
1000
φ<>
1070
    40
1040
1.0
1002
}
  0
LINE
  5
101E6
330
18
100
AcDbEntity
  8
1DIM
100
AcDbLine
 10
450.4825589840455
 20
-2.315092490262522
 30
0.0
 11
450.4825589840455
 21
9.46824084307152
 31
0.0
1001
ACAD
1000
DSTYLE
1002
{
1070
     3
1000
φ<>
1070
    40
1040
1.0
1002
}
  0
LINE
  5
101E7
330
18
100
AcDbEntity
  8
1DIM
100
AcDbLine
 10
450.4825589840455
 20
-2.315092490262522
 30
0.0
 11
450.4825589840455
 21
-6.315092490262521
 31
0.0
1001
ACAD
1000
DSTYLE
1002
{
1070
     3
1000
φ<>
1070
    40
1040
1.0
1002
}
  0
LINE
  5
101E8
330
18
100
AcDbEntity
  8
1DIM
100
AcDbLine
 10
450.4825589840455
 20
-0.3150924902625216
 30
0.0
 11
450.4825589840455
 21
1.684907509737478
 31
0.0
1001
ACAD
1000
DSTYLE
1002
{
1070
     3
1000
φ<>
1070
    40
1040
1.0
1002
}
  0
LINE
  5
101E9
330
18
100
AcDbEntity
  8
1DIM
100
AcDbLine
 10
450.4825589840455
 20
-8.315092490262522
 30
0.0
 11
450.4825589840455
 21
-10.31509249026252
 31
0.0
1001
ACAD
1000
DSTYLE
1002
{
1070
     3
1000
φ<>
1070
    40
1040
1.0
1002
}
  0
LINE
  5
101ED
330
18
100
AcDbEntity
  8
1DIM
100
AcDbLine
 10
455.2274348610988
 20
-4.315092490262522
 30
0.0
 11
455.2274348610988
 21
8.634769140968693
 31
0.0
1001
ACAD
1000
DSTYLE
1002
{
1070
    40
1040
1.0
1002
}
  0
LINE
  5
101EE
330
18
100
AcDbEntity
  8
1DIM
100
AcDbLine
 10
471.2274430049345
 20
-0.8150924902625221
 30
0.0
 11
471.2274430049345
 21
8.634769140968693
 31
0.0
1001
ACAD
1000
DSTYLE
1002
{
1070
    40
1040
1.0
1002
}
  0
LINE
  5
101EF
330
18
100
AcDbEntity
  8
1DIM
100
AcDbLine
 10
457.2274348610988
 20
7.634769140968693
 30
0.0
 11
469.2274430049345
 21
7.634769140968693
 31
0.0
1001
ACAD
1000
DSTYLE
1002
{
1070
    40
1040
1.0
1002
}
  0
LINE
  5
101F3
330
18
100
AcDbEntity
  8
1DIM
100
AcDbLine
 10
471.2274267173705
 20
-7.815092490262522
 30
0.0
 11
480.7670437704089
 21
-7.815092490262523
 31
0.0
1001
ACAD
1000
DSTYLE
1002
{
1070
     3
1000
φ<>
1070
    40
1040
1.0
1002
}
  0
LINE
  5
101F4
330
18
100
AcDbEntity
  8
1DIM
100
AcDbLine
 10
471.2274430049345
 20
-0.8150924902625221
 30
0.0
 11
480.7670437704089
 21
-0.8150924902625227
 31
0.0
1001
ACAD
1000
DSTYLE
1002
{
1070
     3
1000
φ<>
1070
    40
1040
1.0
1002
}
  0
LINE
  5
101F5
330
18
100
AcDbEntity
  8
1DIM
100
AcDbLine
 10
479.7670437704089
 20
-0.8150924902625226
 30
0.0
 11
479.7670437704089
 21
8.684907509737478
 31
0.0
1001
ACAD
1000
DSTYLE
1002
{
1070
     3
1000
φ<>
1070
    40
1040
1.0
1002
}
  0
LINE
  5
101F6
330
18
100
AcDbEntity
  8
1DIM
100
AcDbLine
 10
479.7670437704089
 20
-5.815092490262523
 30
0.0
 11
479.7670437704089
 21
-2.815092490262523
 31
0.0
1001
ACAD
1000
DSTYLE
1002
{
1070
     3
1000
φ<>
1070
    40
1040
1.0
1002
}
  0
LINE
  5
101FA
330
18
100
AcDbEntity
  8
1DIM
100
AcDbLine
 10
225.0418221846071
 20
81.79546956457548
 30
0.0
 11
225.0418221846071
 21
56.38809817543611
 31
0.0
  0
LINE
  5
101FB
330
18
100
AcDbEntity
  8
1DIM
100
AcDbLine
 10
300.0418221846071
 20
81.79546956457548
 30
0.0
 11
300.0418221846071
 21
56.38809817543611
 31
0.0
  0
LINE
  5
101FC
330
18
100
AcDbEntity
  8
1DIM
100
AcDbLine
 10
227.0418221846071
 20
57.38809817543611
 30
0.0
 11
298.0418221846071
 21
57.38809817543611
 31
0.0
  0
LINE
  5
10200
330
18
100
AcDbEntity
  8
1DIM
100
AcDbLine
 10
300.0418221846071
 20
81.79546956457548
 30
0.0
 11
300.0418221846071
 21
56.38809817543633
 31
0.0
  0
LINE
  5
10201
330
18
100
AcDbEntity
  8
1DIM
100
AcDbLine
 10
375.041822184608
 20
81.79546956457548
 30
0.0
 11
375.041822184608
 21
56.38809817543633
 31
0.0
  0
LINE
  5
10202
330
18
100
AcDbEntity
  8
1DIM
100
AcDbLine
 10
302.0418221846071
 20
57.38809817543633
 30
0.0
 11
373.041822184608
 21
57.38809817543633
 31
0.0
  0
LINE
  5
10206
330
18
100
AcDbEntity
  8
1DIM
100
AcDbLine
 10
477.790711724994
 20
123.9693407692241
 30
0.0
 11
477.790711724994
 21
132.027239275667
 31
0.0
1001
ACAD
1000
DSTYLE
1002
{
1070
    45
1040
0.5
1002
}
  0
LINE
  5
10207
330
18
100
AcDbEntity
  8
1DIM
100
AcDbLine
 10
454.3907117249942
 20
123.9693407692241
 30
0.0
 11
454.3907117249942
 21
132.027239275667
 31
0.0
1001
ACAD
1000
DSTYLE
1002
{
1070
    45
1040
0.5
1002
}
  0
LINE
  5
10208
330
18
100
AcDbEntity
  8
1DIM
100
AcDbLine
 10
475.790711724994
 20
131.027239275667
 30
0.0
 11
456.3907117249942
 21
131.027239275667
 31
0.0
1001
ACAD
1000
DSTYLE
1002
{
1070
    45
1040
0.5
1002
}
  0
LINE
  5
1020C
330
18
100
AcDbEntity
  8
1DIM
100
AcDbLine
 10
455.6907117249941
 20
94.1693407692241
 30
0.0
 11
441.6666239736951
 21
94.1693407692241
 31
0.0
1001
ACAD
1000
DSTYLE
1002
{
1070
    45
1040
0.5
1002
}
  0
LINE
  5
1020D
330
18
100
AcDbEntity
  8
1DIM
100
AcDbLine
 10
455.4907117249941
 20
125.0693407692241
 30
0.0
 11
441.6666239736951
 21
125.0693407692241
 31
0.0
1001
ACAD
1000
DSTYLE
1002
{
1070
    45
1040
0.5
1002
}
  0
LINE
  5
1020E
330
18
100
AcDbEntity
  8
1DIM
100
AcDbLine
 10
442.6666239736951
 20
96.1693407692241
 30
0.0
 11
442.6666239736951
 21
123.0693407692241
 31
0.0
1001
ACAD
1000
DSTYLE
1002
{
1070
    45
1040
0.5
1002
}
  0
LINE
  5
10212
330
18
100
AcDbEntity
  8
1DIM
100
AcDbLine
 10
455.4907117249941
 20
125.0693407692241
 30
0.0
 11
449.3375981420788
 21
125.0693407692241
 31
0.0
1001
ACAD
1000
DSTYLE
1002
{
1070
    45
1040
0.5
1002
}
  0
LINE
  5
10213
330
18
100
AcDbEntity
  8
1DIM
100
AcDbLine
 10
455.49071172499
 20
118.1693407692241
 30
0.0
 11
449.3375981420788
 21
118.1693407692241
 31
0.0
1001
ACAD
1000
DSTYLE
1002
{
1070
    45
1040
0.5
1002
}
  0
LINE
  5
10214
330
18
100
AcDbEntity
  8
1DIM
100
AcDbLine
 10
450.3375981420788
 20
123.0693407692241
 30
0.0
 11
450.3375981420788
 21
120.1693407692241
 31
0.0
1001
ACAD
1000
DSTYLE
1002
{
1070
    45
1040
0.5
1002
}
  0
LINE
  5
10218
330
18
100
AcDbEntity
  8
1DIM
100
AcDbLine
 10
455.6907117249941
 20
97.2693407692241
 30
0.0
 11
449.3375981420788
 21
97.2693407692241
 31
0.0
1001
ACAD
1000
DSTYLE
1002
{
1070
    45
1040
0.5
1002
}
  0
LINE
  5
10219
330
18
100
AcDbEntity
  8
1DIM
100
AcDbLine
 10
455.6907117249941
 20
94.1693407692241
 30
0.0
 11
449.3375981420788
 21
94.1693407692241
 31
0.0
1001
ACAD
1000
DSTYLE
1002
{
1070
    45
1040
0.5
1002
}
  0
LINE
  5
1021A
330
18
100
AcDbEntity
  8
1DIM
100
AcDbLine
 10
450.3375981420788
 20
92.1693407692241
 30
0.0
 11
450.3375981420788
 21
86.43600743589076
 31
0.0
1001
ACAD
1000
DSTYLE
1002
{
1070
    45
1040
0.5
1002
}
  0
LINE
  5
1021B
330
18
100
AcDbEntity
  8
1DIM
100
AcDbLine
 10
450.3375981420788
 20
97.2693407692241
 30
0.0
 11
450.3375981420788
 21
94.1693407692241
 31
0.0
1001
ACAD
1000
DSTYLE
1002
{
1070
    45
1040
0.5
1002
}
  0
LINE
  5
1021C
330
18
100
AcDbEntity
  8
1DIM
100
AcDbLine
 10
450.3375981420788
 20
99.2693407692241
 30
0.0
 11
450.3375981420788
 21
101.2693407692241
 31
0.0
1001
ACAD
1000
DSTYLE
1002
{
1070
    45
1040
0.5
1002
}
  0
LINE
  5
10220
330
18
100
AcDbEntity
  8
1DIM
100
AcDbLine
 10
475.5907117249942
 20
82.1693407692241
 30
0.0
 11
475.5907117249942
 21
61.24578567137491
 31
0.0
  0
LINE
  5
10221
330
18
100
AcDbEntity
  8
1DIM
100
AcDbLine
 10
455.6907117249941
 20
94.1693407692241
 30
0.0
 11
455.6907117249941
 21
61.24578567137491
 31
0.0
  0
LINE
  5
10222
330
18
100
AcDbEntity
  8
1DIM
100
AcDbLine
 10
473.5907117249942
 20
62.24578567137491
 30
0.0
 11
457.6907117249941
 21
62.24578567137491
 31
0.0
  0
LINE
  5
10226
330
18
100
AcDbEntity
  8
1DIM
100
AcDbLine
 10
454.4439063727452
 20
97.16887679993658
 30
0.0
 11
454.4439063727452
 21
51.81534234583598
 31
0.0
1001
ACAD
1000
DSTYLE
1002
{
1070
    45
1040
0.5
1002
}
  0
LINE
  5
10227
330
18
100
AcDbEntity
  8
1DIM
100
AcDbLine
 10
477.790711724994
 20
83.2693407692241
 30
0.0
 11
477.790711724994
 21
51.81534234583598
 31
0.0
1001
ACAD
1000
DSTYLE
1002
{
1070
    45
1040
0.5
1002
}
  0
LINE
  5
10228
330
18
100
AcDbEntity
  8
1DIM
100
AcDbLine
 10
456.4439063727452
 20
52.81534234583598
 30
0.0
 11
475.790711724994
 21
52.81534234583598
 31
0.0
1001
ACAD
1000
DSTYLE
1002
{
1070
    45
1040
0.5
1002
}
  0
LINE
  5
1022C
330
18
100
AcDbEntity
  8
1DIM
100
AcDbLine
 10
475.5907117249942
 20
82.1693407692241
 30
0.0
 11
475.5907117249942
 21
61.24578567137491
 31
0.0
1001
ACAD
1000
DSTYLE
1002
{
1070
    45
1040
0.5
1002
}
  0
LINE
  5
1022D
330
18
100
AcDbEntity
  8
1DIM
100
AcDbLine
 10
477.790711724994
 20
83.2693407692241
 30
0.0
 11
477.790711724994
 21
61.24578567137491
 31
0.0
1001
ACAD
1000
DSTYLE
1002
{
1070
    45
1040
0.5
1002
}
  0
LINE
  5
1022E
330
18
100
AcDbEntity
  8
1DIM
100
AcDbLine
 10
479.790711724994
 20
62.24578567137491
 30
0.0
 11
485.5240450583274
 21
62.24578567137491
 31
0.0
1001
ACAD
1000
DSTYLE
1002
{
1070
    45
1040
0.5
1002
}
  0
LINE
  5
1022F
330
18
100
AcDbEntity
  8
1DIM
100
AcDbLine
 10
475.5907117249942
 20
62.24578567137491
 30
0.0
 11
477.790711724994
 21
62.24578567137491
 31
0.0
1001
ACAD
1000
DSTYLE
1002
{
1070
    45
1040
0.5
1002
}
  0
LINE
  5
10230
330
18
100
AcDbEntity
  8
1DIM
100
AcDbLine
 10
473.5907117249942
 20
62.24578567137491
 30
0.0
 11
471.5907117249942
 21
62.24578567137491
 31
0.0
1001
ACAD
1000
DSTYLE
1002
{
1070
    45
1040
0.5
1002
}
  0
LINE
  5
10234
330
18
100
AcDbEntity
  8
1DIM
100
AcDbLine
 10
475.5907117249944
 20
90.86952377089733
 30
0.0
 11
469.1639514312419
 21
90.86952377089733
 31
0.0
1001
ACAD
1000
DSTYLE
1002
{
1070
     3
1000
φ<>
1070
    45
1040
0.5
1002
}
  0
LINE
  5
10235
330
18
100
AcDbEntity
  8
1DIM
100
AcDbLine
 10
475.5907117249942
 20
85.66912840813114
 30
0.0
 11
469.1639514312419
 21
85.66912840813114
 31
0.0
1001
ACAD
1000
DSTYLE
1002
{
1070
     3
1000
φ<>
1070
    45
1040
0.5
1002
}
  0
LINE
  5
10236
330
18
100
AcDbEntity
  8
1DIM
100
AcDbLine
 10
470.1639514312419
 20
83.66912840813114
 30
0.0
 11
470.1639514312419
 21
74.16912840813114
 31
0.0
1001
ACAD
1000
DSTYLE
1002
{
1070
     3
1000
φ<>
1070
    45
1040
0.5
1002
}
  0
LINE
  5
10237
330
18
100
AcDbEntity
  8
1DIM
100
AcDbLine
 10
470.1639514312419
 20
90.86952377089733
 30
0.0
 11
470.1639514312419
 21
85.66912840813114
 31
0.0
1001
ACAD
1000
DSTYLE
1002
{
1070
     3
1000
φ<>
1070
    45
1040
0.5
1002
}
  0
LINE
  5
10238
330
18
100
AcDbEntity
  8
1DIM
100
AcDbLine
 10
470.1639514312419
 20
92.86952377089733
 30
0.0
 11
470.1639514312419
 21
94.86952377089733
 31
0.0
1001
ACAD
1000
DSTYLE
1002
{
1070
     3
1000
φ<>
1070
    45
1040
0.5
1002
}
  0
LINE
  5
1023C
330
18
100
AcDbEntity
  8
1DIM
100
AcDbLine
 10
477.4905129745116
 20
92.36932807393373
 30
0.0
 11
489.2250280251599
 21
92.36932807393373
 31
0.0
1001
ACAD
1000
DSTYLE
1002
{
1070
     3
1000
φ<>
1070
    45
1040
0.5
1002
}
  0
LINE
  5
1023D
330
18
100
AcDbEntity
  8
1DIM
100
AcDbLine
 10
477.4905129745114
 20
84.16932807381716
 30
0.0
 11
489.2250280251599
 21
84.16932807381716
 31
0.0
1001
ACAD
1000
DSTYLE
1002
{
1070
     3
1000
φ<>
1070
    45
1040
0.5
1002
}
  0
LINE
  5
1023E
330
18
100
AcDbEntity
  8
1DIM
100
AcDbLine
 10
488.2250280251599
 20
84.16932807381716
 30
0.0
 11
488.2250280251599
 21
73.5135958417344
 31
0.0
1001
ACAD
1000
DSTYLE
1002
{
1070
     3
1000
φ<>
1070
    45
1040
0.5
1002
}
  0
LINE
  5
1023F
330
18
100
AcDbEntity
  8
1DIM
100
AcDbLine
 10
488.2250280251599
 20
90.36932807393373
 30
0.0
 11
488.2250280251599
 21
86.16932807381716
 31
0.0
1001
ACAD
1000
DSTYLE
1002
{
1070
     3
1000
φ<>
1070
    45
1040
0.5
1002
}
  0
LINE
  5
10243
330
18
100
AcDbEntity
  8
1DIM
100
AcDbLine
 10
475.3907117249942
 20
97.26934076922424
 30
0.0
 11
505.3314226782275
 21
97.26934076922424
 31
0.0
1001
ACAD
1000
DSTYLE
1002
{
1070
    45
1040
0.5
1002
}
  0
LINE
  5
10244
330
18
100
AcDbEntity
  8
1DIM
100
AcDbLine
 10
476.6907117249941
 20
82.1693407692241
 30
0.0
 11
505.3314226782275
 21
82.1693407692241
 31
0.0
1001
ACAD
1000
DSTYLE
1002
{
1070
    45
1040
0.5
1002
}
  0
LINE
  5
10245
330
18
100
AcDbEntity
  8
1DIM
100
AcDbLine
 10
504.3314226782275
 20
95.26934076922424
 30
0.0
 11
504.3314226782275
 21
84.1693407692241
 31
0.0
1001
ACAD
1000
DSTYLE
1002
{
1070
    45
1040
0.5
1002
}
  0
LINE
  5
10249
330
18
100
AcDbEntity
  8
1DIM
100
AcDbLine
 10
475.3907117249942
 20
97.26934076922424
 30
0.0
 11
495.8908169052665
 21
97.26934076922424
 31
0.0
  0
LINE
  5
1024A
330
18
100
AcDbEntity
  8
1DIM
100
AcDbLine
 10
479.8162600546025
 20
88.26934404518835
 30
0.0
 11
495.8908169052665
 21
88.26934404518835
 31
0.0
  0
LINE
  5
1024B
330
18
100
AcDbEntity
  8
1DIM
100
AcDbLine
 10
494.8908169052665
 20
95.26934076922424
 30
0.0
 11
494.8908169052665
 21
90.26934404518835
 31
0.0
  0
LINE
  5
1024F
330
18
100
AcDbEntity
  8
1DIM
100
AcDbLine
 10
475.3907117249942
 20
97.26934076922424
 30
0.0
 11
505.3314226782275
 21
97.26934076922424
 31
0.0
1001
ACAD
1000
DSTYLE
1002
{
1070
    45
1040
0.5
1002
}
  0
LINE
  5
10250
330
18
100
AcDbEntity
  8
1DIM
100
AcDbLine
 10
476.6907117249941
 20
125.0693407692241
 30
0.0
 11
505.3314226782275
 21
125.0693407692241
 31
0.0
1001
ACAD
1000
DSTYLE
1002
{
1070
    45
1040
0.5
1002
}
  0
LINE
  5
10251
330
18
100
AcDbEntity
  8
1DIM
100
AcDbLine
 10
504.3314226782275
 20
99.26934076922424
 30
0.0
 11
504.3314226782275
 21
123.0693407692241
 31
0.0
1001
ACAD
1000
DSTYLE
1002
{
1070
    45
1040
0.5
1002
}
  0
LINE
  5
10255
330
18
100
AcDbEntity
  8
1DIM
100
AcDbLine
 10
476.6907117249941
 20
82.1693407692241
 30
0.0
 11
513.8648579205731
 21
82.1693407692241
 31
0.0
1001
ACAD
1000
DSTYLE
1002
{
1070
    45
1040
0.5
1002
}
  0
LINE
  5
10256
330
18
100
AcDbEntity
  8
1DIM
100
AcDbLine
 10
476.6907117249941
 20
125.0693407692241
 30
0.0
 11
513.8648579205731
 21
125.0693407692241
 31
0.0
1001
ACAD
1000
DSTYLE
1002
{
1070
    45
1040
0.5
1002
}
  0
LINE
  5
10257
330
18
100
AcDbEntity
  8
1DIM
100
AcDbLine
 10
512.8648579205731
 20
84.1693407692241
 30
0.0
 11
512.8648579205731
 21
123.0693407692241
 31
0.0
1001
ACAD
1000
DSTYLE
1002
{
1070
    45
1040
0.5
1002
}
  0
LINE
  5
1025B
330
18
100
AcDbEntity
  8
0
  6
BYBLOCK
100
AcDbLine
 10
202.0418221919931
 20
56.8521997954361
 30
0.0
 11
200.0418221919931
 21
57.3880981754361
 31
0.0
  0
LINE
  5
1025C
330
18
100
AcDbEntity
  8
0
  6
BYBLOCK
100
AcDbLine
 10
200.0418221919931
 20
57.3880981754361
 30
0.0
 11
202.0418221919931
 21
57.9239965554361
 31
0.0
  0
LINE
  5
1025D
330
18
100
AcDbEntity
  8
0
  6
BYBLOCK
100
AcDbLine
 10
200.0418221919931
 20
57.3880981754361
 30
0.0
 11
202.0418221919931
 21
57.3880981754361
 31
0.0
  0
LINE
  5
1025E
330
18
100
AcDbEntity
  8
0
  6
BYBLOCK
100
AcDbLine
 10
223.0418221846071
 20
57.9239965554361
 30
0.0
 11
225.0418221846071
 21
57.3880981754361
 31
0.0
  0
LINE
  5
1025F
330
18
100
AcDbEntity
  8
0
  6
BYBLOCK
100
AcDbLine
 10
225.0418221846071
 20
57.3880981754361
 30
0.0
 11
223.0418221846071
 21
56.8521997954361
 31
0.0
  0
LINE
  5
10260
330
18
100
AcDbEntity
  8
0
  6
BYBLOCK
100
AcDbLine
 10
225.0418221846071
 20
57.3880981754361
 30
0.0
 11
223.0418221846071
 21
57.3880981754361
 31
0.0
  0
TEXT
  5
10261
330
18
100
AcDbEntity
  8
1DIM
  6
CONTINUOUS
100
AcDbText
 10
209.6251555179404
 20
58.08809817543611
 30
0.0
 40
3.5
  1
25
100
AcDbText
  0
LINE
  5
10262
330
18
100
AcDbEntity
  8
0
  6
BYBLOCK
100
AcDbLine
 10
377.041822184608
 20
56.85219979543633
 30
0.0
 11
375.041822184608
 21
57.38809817543633
 31
0.0
  0
LINE
  5
10263
330
18
100
AcDbEntity
  8
0
  6
BYBLOCK
100
AcDbLine
 10
375.041822184608
 20
57.38809817543633
 30
0.0
 11
377.041822184608
 21
57.92399655543633
 31
0.0
  0
LINE
  5
10264
330
18
100
AcDbEntity
  8
0
  6
BYBLOCK
100
AcDbLine
 10
375.041822184608
 20
57.38809817543633
 30
0.0
 11
377.041822184608
 21
57.38809817543633
 31
0.0
  0
LINE
  5
10265
330
18
100
AcDbEntity
  8
0
  6
BYBLOCK
100
AcDbLine
 10
398.041822184608
 20
57.92399655543633
 30
0.0
 11
400.041822184608
 21
57.38809817543633
 31
0.0
  0
LINE
  5
10266
330
18
100
AcDbEntity
  8
0
  6
BYBLOCK
100
AcDbLine
 10
400.041822184608
 20
57.38809817543633
 30
0.0
 11
398.041822184608
 21
56.85219979543633
 31
0.0
  0
LINE
  5
10267
330
18
100
AcDbEntity
  8
0
  6
BYBLOCK
100
AcDbLine
 10
400.041822184608
 20
57.38809817543633
 30
0.0
 11
398.041822184608
 21
57.38809817543633
 31
0.0
  0
TEXT
  5
10268
330
18
100
AcDbEntity
  8
1DIM
  6
CONTINUOUS
100
AcDbText
 10
384.6251555179413
 20
58.08809817543634
 30
0.0
 40
3.5
  1
25
100
AcDbText
  0
LINE
  5
10269
330
18
100
AcDbEntity
  8
0
  6
BYBLOCK
100
AcDbLine
 10
202.0418221919931
 20
46.85219979543606
 30
0.0
 11
200.0418221919931
 21
47.38809817543606
 31
0.0
  0
LINE
  5
1026A
330
18
100
AcDbEntity
  8
0
  6
BYBLOCK
100
AcDbLine
 10
200.0418221919931
 20
47.38809817543606
 30
0.0
 11
202.0418221919931
 21
47.92399655543606
 31
0.0
  0
LINE
  5
1026B
330
18
100
AcDbEntity
  8
0
  6
BYBLOCK
100
AcDbLine
 10
200.0418221919931
 20
47.38809817543606
 30
0.0
 11
202.0418221919931
 21
47.38809817543606
 31
0.0
  0
LINE
  5
1026C
330
18
100
AcDbEntity
  8
0
  6
BYBLOCK
100
AcDbLine
 10
398.041822184608
 20
47.92399655543606
 30
0.0
 11
400.041822184608
 21
47.38809817543606
 31
0.0
  0
LINE
  5
1026D
330
18
100
AcDbEntity
  8
0
  6
BYBLOCK
100
AcDbLine
 10
400.041822184608
 20
47.38809817543606
 30
0.0
 11
398.041822184608
 21
46.85219979543606
 31
0.0
  0
LINE
  5
1026E
330
18
100
AcDbEntity
  8
0
  6
BYBLOCK
100
AcDbLine
 10
400.041822184608
 20
47.38809817543606
 30
0.0
 11
398.041822184608
 21
47.38809817543606
 31
0.0
  0
TEXT
  5
1026F
330
18
100
AcDbEntity
  8
1DIM
  6
CONTINUOUS
100
AcDbText
 10
294.4418221883005
 20
48.08809817543607
 30
0.0
 40
3.5
  1
L寸法
100
AcDbText
  0
LINE
  5
10270
330
18
100
AcDbEntity
  8
0
  6
BYBLOCK
100
AcDbLine
 10
451.0184573640454
 20
-0.3150924902625216
 30
0.0
 11
450.4825589840455
 21
-2.315092490262522
 31
0.0
  0
LINE
  5
10271
330
18
100
AcDbEntity
  8
0
  6
BYBLOCK
100
AcDbLine
 10
450.4825589840455
 20
-2.315092490262522
 30
0.0
 11
449.9466606040455
 21
-0.3150924902625216
 31
0.0
  0
LINE
  5
10272
330
18
100
AcDbEntity
  8
0
  6
BYBLOCK
100
AcDbLine
 10
450.4825589840455
 20
-2.315092490262522
 30
0.0
 11
450.4825589840455
 21
-0.3150924902625216
 31
0.0
  0
LINE
  5
10273
330
18
100
AcDbEntity
  8
0
  6
BYBLOCK
100
AcDbLine
 10
449.9466606040455
 20
-8.315092490262522
 30
0.0
 11
450.4825589840455
 21
-6.315092490262521
 31
0.0
  0
LINE
  5
10274
330
18
100
AcDbEntity
  8
0
  6
BYBLOCK
100
AcDbLine
 10
450.4825589840455
 20
-6.315092490262521
 30
0.0
 11
451.0184573640454
 21
-8.315092490262522
 31
0.0
  0
LINE
  5
10275
330
18
100
AcDbEntity
  8
0
  6
BYBLOCK
100
AcDbLine
 10
450.4825589840455
 20
-6.315092490262521
 30
0.0
 11
450.4825589840455
 21
-8.315092490262522
 31
0.0
  0
TEXT
  5
10276
330
18
100
AcDbEntity
  8
1DIM
  6
CONTINUOUS
100
AcDbText
 10
449.7825589840455
 20
1.901574176404836
 30
0.0
 40
3.5
  1
φ4
 50
90.0
100
AcDbText
1001
ACAD
1000
DSTYLE
1002
{
1070
     3
1000
φ<>
1070
    40
1040
1.0
1002
}
  0
LINE
  5
10277
330
18
100
AcDbEntity
  8
0
  6
BYBLOCK
100
AcDbLine
 10
457.2274348610988
 20
7.098870760968693
 30
0.0
 11
455.2274348610988
 21
7.634769140968693
 31
0.0
  0
LINE
  5
10278
330
18
100
AcDbEntity
  8
0
  6
BYBLOCK
100
AcDbLine
 10
455.2274348610988
 20
7.634769140968693
 30
0.0
 11
457.2274348610988
 21
8.170667520968692
 31
0.0
  0
LINE
  5
10279
330
18
100
AcDbEntity
  8
0
  6
BYBLOCK
100
AcDbLine
 10
455.2274348610988
 20
7.634769140968693
 30
0.0
 11
457.2274348610988
 21
7.634769140968693
 31
0.0
  0
LINE
  5
1027A
330
18
100
AcDbEntity
  8
0
  6
BYBLOCK
100
AcDbLine
 10
469.2274430049345
 20
8.170667520968694
 30
0.0
 11
471.2274430049345
 21
7.634769140968693
 31
0.0
  0
LINE
  5
1027B
330
18
100
AcDbEntity
  8
0
  6
BYBLOCK
100
AcDbLine
 10
471.2274430049345
 20
7.634769140968693
 30
0.0
 11
469.2274430049345
 21
7.098870760968693
 31
0.0
  0
LINE
  5
1027C
330
18
100
AcDbEntity
  8
0
  6
BYBLOCK
100
AcDbLine
 10
471.2274430049345
 20
7.634769140968693
 30
0.0
 11
469.2274430049345
 21
7.634769140968693
 31
0.0
  0
TEXT
  5
1027D
330
18
100
AcDbEntity
  8
1DIM
  6
CONTINUOUS
100
AcDbText
 10
461.1964098213525
 20
8.334769140968692
 30
0.0
 40
3.5
  1
16
100
AcDbText
1001
ACAD
1000
DSTYLE
1002
{
1070
    40
1040
1.0
1002
}
  0
LINE
  5
1027E
330
18
100
AcDbEntity
  8
0
  6
BYBLOCK
100
AcDbLine
 10
480.3029421504089
 20
-5.815092490262523
 30
0.0
 11
479.7670437704089
 21
-7.815092490262523
 31
0.0
  0
LINE
  5
1027F
330
18
100
AcDbEntity
  8
0
  6
BYBLOCK
100
AcDbLine
 10
479.7670437704089
 20
-7.815092490262523
 30
0.0
 11
479.2311453904089
 21
-5.815092490262523
 31
0.0
  0
LINE
  5
10280
330
18
100
AcDbEntity
  8
0
  6
BYBLOCK
100
AcDbLine
 10
479.7670437704089
 20
-7.815092490262523
 30
0.0
 11
479.7670437704089
 21
-5.815092490262523
 31
0.0
  0
LINE
  5
10281
330
18
100
AcDbEntity
  8
0
  6
BYBLOCK
100
AcDbLine
 10
479.2311453904089
 20
-2.815092490262523
 30
0.0
 11
479.7670437704089
 21
-0.8150924902625226
 31
0.0
  0
LINE
  5
10282
330
18
100
AcDbEntity
  8
0
  6
BYBLOCK
100
AcDbLine
 10
479.7670437704089
 20
-0.8150924902625226
 30
0.0
 11
480.3029421504089
 21
-2.815092490262523
 31
0.0
  0
LINE
  5
10283
330
18
100
AcDbEntity
  8
0
  6
BYBLOCK
100
AcDbLine
 10
479.7670437704089
 20
-0.8150924902625226
 30
0.0
 11
479.7670437704089
 21
-2.815092490262523
 31
0.0
  0
TEXT
  5
10284
330
18
100
AcDbEntity
  8
1DIM
  6
CONTINUOUS
100
AcDbText
 10
479.0670437704089
 20
1.201574176404108
 30
0.0
 40
3.5
  1
φ7
 50
90.0
100
AcDbText
1001
ACAD
1000
DSTYLE
1002
{
1070
     3
1000
φ<>
1070
    40
1040
1.0
1002
}
  0
LINE
  5
10285
330
18
100
AcDbEntity
  8
0
  6
BYBLOCK
100
AcDbLine
 10
227.0418221846071
 20
56.85219979543611
 30
0.0
 11
225.0418221846071
 21
57.38809817543611
 31
0.0
  0
LINE
  5
10286
330
18
100
AcDbEntity
  8
0
  6
BYBLOCK
100
AcDbLine
 10
225.0418221846071
 20
57.38809817543611
 30
0.0
 11
227.0418221846071
 21
57.9239965554361
 31
0.0
  0
LINE
  5
10287
330
18
100
AcDbEntity
  8
0
  6
BYBLOCK
100
AcDbLine
 10
225.0418221846071
 20
57.38809817543611
 30
0.0
 11
227.0418221846071
 21
57.38809817543611
 31
0.0
  0
LINE
  5
10288
330
18
100
AcDbEntity
  8
0
  6
BYBLOCK
100
AcDbLine
 10
298.0418221846071
 20
57.9239965554361
 30
0.0
 11
300.0418221846071
 21
57.38809817543611
 31
0.0
  0
LINE
  5
10289
330
18
100
AcDbEntity
  8
0
  6
BYBLOCK
100
AcDbLine
 10
300.0418221846071
 20
57.38809817543611
 30
0.0
 11
298.0418221846071
 21
56.85219979543611
 31
0.0
  0
LINE
  5
1028A
330
18
100
AcDbEntity
  8
0
  6
BYBLOCK
100
AcDbLine
 10
300.0418221846071
 20
57.38809817543611
 30
0.0
 11
298.0418221846071
 21
57.38809817543611
 31
0.0
  0
TEXT
  5
1028B
330
18
100
AcDbEntity
  8
1DIM
  6
CONTINUOUS
100
AcDbText
 10
231.3918221846071
 20
58.14643150876943
 30
0.0
 40
3.5
  1
穴数は表による　ピッチは均等割
100
AcDbText
  0
LINE
  5
1028C
330
18
100
AcDbEntity
  8
0
  6
BYBLOCK
100
AcDbLine
 10
302.0418221846071
 20
56.85219979543633
 30
0.0
 11
300.0418221846071
 21
57.38809817543633
 31
0.0
  0
LINE
  5
1028D
330
18
100
AcDbEntity
  8
0
  6
BYBLOCK
100
AcDbLine
 10
300.0418221846071
 20
57.38809817543633
 30
0.0
 11
302.0418221846071
 21
57.92399655543633
 31
0.0
  0
LINE
  5
1028E
330
18
100
AcDbEntity
  8
0
  6
BYBLOCK
100
AcDbLine
 10
300.0418221846071
 20
57.38809817543633
 30
0.0
 11
302.0418221846071
 21
57.38809817543633
 31
0.0
  0
LINE
  5
1028F
330
18
100
AcDbEntity
  8
0
  6
BYBLOCK
100
AcDbLine
 10
373.041822184608
 20
57.92399655543633
 30
0.0
 11
375.041822184608
 21
57.38809817543633
 31
0.0
  0
LINE
  5
10290
330
18
100
AcDbEntity
  8
0
  6
BYBLOCK
100
AcDbLine
 10
375.041822184608
 20
57.38809817543633
 30
0.0
 11
373.041822184608
 21
56.85219979543633
 31
0.0
  0
LINE
  5
10291
330
18
100
AcDbEntity
  8
0
  6
BYBLOCK
100
AcDbLine
 10
375.041822184608
 20
57.38809817543633
 30
0.0
 11
373.041822184608
 21
57.38809817543633
 31
0.0
  0
TEXT
  5
10292
330
18
100
AcDbEntity
  8
1DIM
  6
CONTINUOUS
100
AcDbText
 10
306.3918221846075
 20
58.14643150876966
 30
0.0
 40
3.5
  1
穴数は表による　ピッチは均等割
100
AcDbText
  0
LINE
  5
10293
330
18
100
AcDbEntity
  8
0
  6
BYBLOCK
100
AcDbLine
 10
475.790711724994
 20
131.563137655667
 30
0.0
 11
477.790711724994
 21
131.027239275667
 31
0.0
  0
LINE
  5
10294
330
18
100
AcDbEntity
  8
0
  6
BYBLOCK
100
AcDbLine
 10
477.790711724994
 20
131.027239275667
 30
0.0
 11
475.790711724994
 21
130.491340895667
 31
0.0
  0
LINE
  5
10295
330
18
100
AcDbEntity
  8
0
  6
BYBLOCK
100
AcDbLine
 10
477.790711724994
 20
131.027239275667
 30
0.0
 11
475.790711724994
 21
131.027239275667
 31
0.0
  0
LINE
  5
10296
330
18
100
AcDbEntity
  8
0
  6
BYBLOCK
100
AcDbLine
 10
456.3907117249942
 20
130.491340895667
 30
0.0
 11
454.3907117249942
 21
131.027239275667
 31
0.0
  0
LINE
  5
10297
330
18
100
AcDbEntity
  8
0
  6
BYBLOCK
100
AcDbLine
 10
454.3907117249942
 20
131.027239275667
 30
0.0
 11
456.3907117249942
 21
131.563137655667
 31
0.0
  0
LINE
  5
10298
330
18
100
AcDbEntity
  8
0
  6
BYBLOCK
100
AcDbLine
 10
454.3907117249942
 20
131.027239275667
 30
0.0
 11
456.3907117249942
 21
131.027239275667
 31
0.0
  0
TEXT
  5
10299
330
18
100
AcDbEntity
  8
1DIM
  6
CONTINUOUS
100
AcDbText
 10
460.8407117249941
 20
131.727239275667
 30
0.0
 40
3.5
  1
23.5
100
AcDbText
1001
ACAD
1000
DSTYLE
1002
{
1070
    45
1040
0.5
1002
}
  0
LINE
  5
1029A
330
18
100
AcDbEntity
  8
0
  6
BYBLOCK
100
AcDbLine
 10
443.2025223536951
 20
96.1693407692241
 30
0.0
 11
442.6666239736951
 21
94.1693407692241
 31
0.0
  0
LINE
  5
1029B
330
18
100
AcDbEntity
  8
0
  6
BYBLOCK
100
AcDbLine
 10
442.6666239736951
 20
94.1693407692241
 30
0.0
 11
442.1307255936951
 21
96.1693407692241
 31
0.0
  0
LINE
  5
1029C
330
18
100
AcDbEntity
  8
0
  6
BYBLOCK
100
AcDbLine
 10
442.6666239736951
 20
94.1693407692241
 30
0.0
 11
442.6666239736951
 21
96.1693407692241
 31
0.0
  0
LINE
  5
1029D
330
18
100
AcDbEntity
  8
0
  6
BYBLOCK
100
AcDbLine
 10
442.1307255936951
 20
123.0693407692241
 30
0.0
 11
442.6666239736951
 21
125.0693407692241
 31
0.0
  0
LINE
  5
1029E
330
18
100
AcDbEntity
  8
0
  6
BYBLOCK
100
AcDbLine
 10
442.6666239736951
 20
125.0693407692241
 30
0.0
 11
443.2025223536951
 21
123.0693407692241
 31
0.0
  0
LINE
  5
1029F
330
18
100
AcDbEntity
  8
0
  6
BYBLOCK
100
AcDbLine
 10
442.6666239736951
 20
125.0693407692241
 30
0.0
 11
442.6666239736951
 21
123.0693407692241
 31
0.0
  0
TEXT
  5
102A0
330
18
100
AcDbEntity
  8
1DIM
  6
CONTINUOUS
100
AcDbText
 10
441.9666239736952
 20
107.2860074358908
 30
0.0
 40
3.5
  1
31
 50
90.0
100
AcDbText
1001
ACAD
1000
DSTYLE
1002
{
1070
    45
1040
0.5
1002
}
  0
LINE
  5
102A1
330
18
100
AcDbEntity
  8
0
  6
BYBLOCK
100
AcDbLine
 10
449.8016997620788
 20
123.0693407692241
 30
0.0
 11
450.3375981420788
 21
125.0693407692241
 31
0.0
  0
LINE
  5
102A2
330
18
100
AcDbEntity
  8
0
  6
BYBLOCK
100
AcDbLine
 10
450.3375981420788
 20
125.0693407692241
 30
0.0
 11
450.8734965220788
 21
123.0693407692241
 31
0.0
  0
LINE
  5
102A3
330
18
100
AcDbEntity
  8
0
  6
BYBLOCK
100
AcDbLine
 10
450.3375981420788
 20
125.0693407692241
 30
0.0
 11
450.3375981420788
 21
123.0693407692241
 31
0.0
  0
LINE
  5
102A4
330
18
100
AcDbEntity
  8
0
  6
BYBLOCK
100
AcDbLine
 10
450.8734965220788
 20
120.1693407692241
 30
0.0
 11
450.3375981420788
 21
118.1693407692241
 31
0.0
  0
LINE
  5
102A5
330
18
100
AcDbEntity
  8
0
  6
BYBLOCK
100
AcDbLine
 10
450.3375981420788
 20
118.1693407692241
 30
0.0
 11
449.8016997620788
 21
120.1693407692241
 31
0.0
  0
LINE
  5
102A6
330
18
100
AcDbEntity
  8
0
  6
BYBLOCK
100
AcDbLine
 10
450.3375981420788
 20
118.1693407692241
 30
0.0
 11
450.3375981420788
 21
120.1693407692241
 31
0.0
  0
TEXT
  5
102A7
330
18
100
AcDbEntity
  8
1DIM
  6
CONTINUOUS
100
AcDbText
 10
449.6375981420789
 20
120.4526741025574
 30
0.0
 40
3.5
  1
7
 50
90.0
100
AcDbText
1001
ACAD
1000
DSTYLE
1002
{
1070
    45
1040
0.5
1002
}
  0
LINE
  5
102A8
330
18
100
AcDbEntity
  8
0
  6
BYBLOCK
100
AcDbLine
 10
450.8734965220788
 20
99.2693407692241
 30
0.0
 11
450.3375981420788
 21
97.2693407692241
 31
0.0
  0
LINE
  5
102A9
330
18
100
AcDbEntity
  8
0
  6
BYBLOCK
100
AcDbLine
 10
450.3375981420788
 20
97.2693407692241
 30
0.0
 11
449.8016997620788
 21
99.2693407692241
 31
0.0
  0
LINE
  5
102AA
330
18
100
AcDbEntity
  8
0
  6
BYBLOCK
100
AcDbLine
 10
450.3375981420788
 20
97.2693407692241
 30
0.0
 11
450.3375981420788
 21
99.2693407692241
 31
0.0
  0
LINE
  5
102AB
330
18
100
AcDbEntity
  8
0
  6
BYBLOCK
100
AcDbLine
 10
449.8016997620788
 20
92.1693407692241
 30
0.0
 11
450.3375981420788
 21
94.1693407692241
 31
0.0
  0
LINE
  5
102AC
330
18
100
AcDbEntity
  8
0
  6
BYBLOCK
100
AcDbLine
 10
450.3375981420788
 20
94.1693407692241
 30
0.0
 11
450.8734965220788
 21
92.1693407692241
 31
0.0
  0
LINE
  5
102AD
330
18
100
AcDbEntity
  8
0
  6
BYBLOCK
100
AcDbLine
 10
450.3375981420788
 20
94.1693407692241
 30
0.0
 11
450.3375981420788
 21
92.1693407692241
 31
0.0
  0
TEXT
  5
102AE
330
18
100
AcDbEntity
  8
1DIM
  6
CONTINUOUS
100
AcDbText
 10
449.6375981420788
 20
87.13600743589075
 30
0.0
 40
3.5
  1
3
 50
90.0
100
AcDbText
1001
ACAD
1000
DSTYLE
1002
{
1070
    45
1040
0.5
1002
}
  0
LINE
  5
102AF
330
18
100
AcDbEntity
  8
0
  6
BYBLOCK
100
AcDbLine
 10
473.5907117249942
 20
62.78168405137491
 30
0.0
 11
475.5907117249942
 21
62.24578567137491
 31
0.0
  0
LINE
  5
102B0
330
18
100
AcDbEntity
  8
0
  6
BYBLOCK
100
AcDbLine
 10
475.5907117249942
 20
62.24578567137491
 30
0.0
 11
473.5907117249942
 21
61.70988729137491
 31
0.0
  0
LINE
  5
102B1
330
18
100
AcDbEntity
  8
0
  6
BYBLOCK
100
AcDbLine
 10
475.5907117249942
 20
62.24578567137491
 30
0.0
 11
473.5907117249942
 21
62.24578567137491
 31
0.0
  0
LINE
  5
102B2
330
18
100
AcDbEntity
  8
0
  6
BYBLOCK
100
AcDbLine
 10
457.6907117249941
 20
61.70988729137491
 30
0.0
 11
455.6907117249941
 21
62.24578567137491
 31
0.0
  0
LINE
  5
102B3
330
18
100
AcDbEntity
  8
0
  6
BYBLOCK
100
AcDbLine
 10
455.6907117249941
 20
62.24578567137491
 30
0.0
 11
457.6907117249941
 21
62.78168405137491
 31
0.0
  0
LINE
  5
102B4
330
18
100
AcDbEntity
  8
0
  6
BYBLOCK
100
AcDbLine
 10
455.6907117249941
 20
62.24578567137491
 30
0.0
 11
457.6907117249941
 21
62.24578567137491
 31
0.0
  0
TEXT
  5
102B5
330
18
100
AcDbEntity
  8
1DIM
  6
CONTINUOUS
100
AcDbText
 10
460.9732348731423
 20
62.94578567137491
 30
0.0
 40
3.5
  1
19.8
100
AcDbText
  0
LINE
  5
102B6
330
18
100
AcDbEntity
  8
0
  6
BYBLOCK
100
AcDbLine
 10
456.4439063727452
 20
52.27944396583598
 30
0.0
 11
454.4439063727452
 21
52.81534234583598
 31
0.0
  0
LINE
  5
102B7
330
18
100
AcDbEntity
  8
0
  6
BYBLOCK
100
AcDbLine
 10
454.4439063727452
 20
52.81534234583598
 30
0.0
 11
456.4439063727452
 21
53.35124072583598
 31
0.0
  0
LINE
  5
102B8
330
18
100
AcDbEntity
  8
0
  6
BYBLOCK
100
AcDbLine
 10
454.4439063727452
 20
52.81534234583598
 30
0.0
 11
456.4439063727452
 21
52.81534234583598
 31
0.0
  0
LINE
  5
102B9
330
18
100
AcDbEntity
  8
0
  6
BYBLOCK
100
AcDbLine
 10
475.790711724994
 20
53.35124072583598
 30
0.0
 11
477.790711724994
 21
52.81534234583598
 31
0.0
  0
LINE
  5
102BA
330
18
100
AcDbEntity
  8
0
  6
BYBLOCK
100
AcDbLine
 10
477.790711724994
 20
52.81534234583598
 30
0.0
 11
475.790711724994
 21
52.27944396583598
 31
0.0
  0
LINE
  5
102BB
330
18
100
AcDbEntity
  8
0
  6
BYBLOCK
100
AcDbLine
 10
477.790711724994
 20
52.81534234583598
 30
0.0
 11
475.790711724994
 21
52.81534234583598
 31
0.0
  0
TEXT
  5
102BC
330
18
100
AcDbEntity
  8
1DIM
  6
CONTINUOUS
100
AcDbText
 10
460.8673090488696
 20
53.51534234583598
 30
0.0
 40
3.5
  1
23.5
100
AcDbText
1001
ACAD
1000
DSTYLE
1002
{
1070
    45
1040
0.5
1002
}
  0
LINE
  5
102BD
330
18
100
AcDbEntity
  8
0
  6
BYBLOCK
100
AcDbLine
 10
473.5907117249942
 20
62.78168405137491
 30
0.0
 11
475.5907117249942
 21
62.24578567137491
 31
0.0
  0
LINE
  5
102BE
330
18
100
AcDbEntity
  8
0
  6
BYBLOCK
100
AcDbLine
 10
475.5907117249942
 20
62.24578567137491
 30
0.0
 11
473.5907117249942
 21
61.70988729137491
 31
0.0
  0
LINE
  5
102BF
330
18
100
AcDbEntity
  8
0
  6
BYBLOCK
100
AcDbLine
 10
475.5907117249942
 20
62.24578567137491
 30
0.0
 11
473.5907117249942
 21
62.24578567137491
 31
0.0
  0
LINE
  5
102C0
330
18
100
AcDbEntity
  8
0
  6
BYBLOCK
100
AcDbLine
 10
479.790711724994
 20
61.70988729137491
 30
0.0
 11
477.790711724994
 21
62.24578567137491
 31
0.0
  0
LINE
  5
102C1
330
18
100
AcDbEntity
  8
0
  6
BYBLOCK
100
AcDbLine
 10
477.790711724994
 20
62.24578567137491
 30
0.0
 11
479.790711724994
 21
62.78168405137491
 31
0.0
  0
LINE
  5
102C2
330
18
100
AcDbEntity
  8
0
  6
BYBLOCK
100
AcDbLine
 10
477.790711724994
 20
62.24578567137491
 30
0.0
 11
479.790711724994
 21
62.24578567137491
 31
0.0
  0
TEXT
  5
102C3
330
18
100
AcDbEntity
  8
1DIM
  6
CONTINUOUS
100
AcDbText
 10
482.490711724994
 20
62.94578567137491
 30
0.0
 40
3.5
  1
2
100
AcDbText
1001
ACAD
1000
DSTYLE
1002
{
1070
    45
1040
0.5
1002
}
  0
LINE
  5
102C4
330
18
100
AcDbEntity
  8
0
  6
BYBLOCK
100
AcDbLine
 10
470.6998498112419
 20
92.86952377089733
 30
0.0
 11
470.1639514312419
 21
90.86952377089733
 31
0.0
  0
LINE
  5
102C5
330
18
100
AcDbEntity
  8
0
  6
BYBLOCK
100
AcDbLine
 10
470.1639514312419
 20
90.86952377089733
 30
0.0
 11
469.6280530512419
 21
92.86952377089733
 31
0.0
  0
LINE
  5
102C6
330
18
100
AcDbEntity
  8
0
  6
BYBLOCK
100
AcDbLine
 10
470.1639514312419
 20
90.86952377089733
 30
0.0
 11
470.1639514312419
 21
92.86952377089733
 31
0.0
  0
LINE
  5
102C7
330
18
100
AcDbEntity
  8
0
  6
BYBLOCK
100
AcDbLine
 10
469.6280530512419
 20
83.66912840813114
 30
0.0
 11
470.1639514312419
 21
85.66912840813114
 31
0.0
  0
LINE
  5
102C8
330
18
100
AcDbEntity
  8
0
  6
BYBLOCK
100
AcDbLine
 10
470.1639514312419
 20
85.66912840813114
 30
0.0
 11
470.6998498112419
 21
83.66912840813114
 31
0.0
  0
LINE
  5
102C9
330
18
100
AcDbEntity
  8
0
  6
BYBLOCK
100
AcDbLine
 10
470.1639514312419
 20
85.66912840813114
 30
0.0
 11
470.1639514312419
 21
83.66912840813114
 31
0.0
  0
TEXT
  5
102CA
330
18
100
AcDbEntity
  8
1DIM
  6
CONTINUOUS
100
AcDbText
 10
469.4639514312419
 20
74.1857950747978
 30
0.0
 40
3.5
  1
φ5
 50
90.0
100
AcDbText
1001
ACAD
1000
DSTYLE
1002
{
1070
     3
1000
φ<>
1070
    45
1040
0.5
1002
}
  0
LINE
  5
102CB
330
18
100
AcDbEntity
  8
0
  6
BYBLOCK
100
AcDbLine
 10
487.6891296451599
 20
90.36932807393373
 30
0.0
 11
488.2250280251599
 21
92.36932807393373
 31
0.0
  0
LINE
  5
102CC
330
18
100
AcDbEntity
  8
0
  6
BYBLOCK
100
AcDbLine
 10
488.2250280251599
 20
92.36932807393373
 30
0.0
 11
488.7609264051599
 21
90.36932807393373
 31
0.0
  0
LINE
  5
102CD
330
18
100
AcDbEntity
  8
0
  6
BYBLOCK
100
AcDbLine
 10
488.2250280251599
 20
92.36932807393373
 30
0.0
 11
488.2250280251599
 21
90.36932807393373
 31
0.0
  0
LINE
  5
102CE
330
18
100
AcDbEntity
  8
0
  6
BYBLOCK
100
AcDbLine
 10
488.7609264051599
 20
86.16932807381716
 30
0.0
 11
488.2250280251599
 21
84.16932807381716
 31
0.0
  0
LINE
  5
102CF
330
18
100
AcDbEntity
  8
0
  6
BYBLOCK
100
AcDbLine
 10
488.2250280251599
 20
84.16932807381716
 30
0.0
 11
487.6891296451599
 21
86.16932807381716
 31
0.0
  0
LINE
  5
102D0
330
18
100
AcDbEntity
  8
0
  6
BYBLOCK
100
AcDbLine
 10
488.2250280251599
 20
84.16932807381716
 30
0.0
 11
488.2250280251599
 21
86.16932807381716
 31
0.0
  0
TEXT
  5
102D1
330
18
100
AcDbEntity
  8
1DIM
  6
CONTINUOUS
100
AcDbText
 10
487.5250280251599
 20
73.53026250840105
 30
0.0
 40
3.5
  1
φ8
 50
90.0
100
AcDbText
1001
ACAD
1000
DSTYLE
1002
{
1070
     3
1000
φ<>
1070
    45
1040
0.5
1002
}
  0
LINE
  5
102D2
330
18
100
AcDbEntity
  8
0
  6
BYBLOCK
100
AcDbLine
 10
503.7955242982275
 20
95.26934076922424
 30
0.0
 11
504.3314226782275
 21
97.26934076922424
 31
0.0
  0
LINE
  5
102D3
330
18
100
AcDbEntity
  8
0
  6
BYBLOCK
100
AcDbLine
 10
504.3314226782275
 20
97.26934076922424
 30
0.0
 11
504.8673210582274
 21
95.26934076922424
 31
0.0
  0
LINE
  5
102D4
330
18
100
AcDbEntity
  8
0
  6
BYBLOCK
100
AcDbLine
 10
504.3314226782275
 20
97.26934076922424
 30
0.0
 11
504.3314226782275
 21
95.26934076922424
 31
0.0
  0
LINE
  5
102D5
330
18
100
AcDbEntity
  8
0
  6
BYBLOCK
100
AcDbLine
 10
504.8673210582274
 20
84.1693407692241
 30
0.0
 11
504.3314226782275
 21
82.1693407692241
 31
0.0
  0
LINE
  5
102D6
330
18
100
AcDbEntity
  8
0
  6
BYBLOCK
100
AcDbLine
 10
504.3314226782275
 20
82.1693407692241
 30
0.0
 11
503.7955242982275
 21
84.1693407692241
 31
0.0
  0
LINE
  5
102D7
330
18
100
AcDbEntity
  8
0
  6
BYBLOCK
100
AcDbLine
 10
504.3314226782275
 20
82.1693407692241
 30
0.0
 11
504.3314226782275
 21
84.1693407692241
 31
0.0
  0
TEXT
  5
102D8
330
18
100
AcDbEntity
  8
1DIM
  6
CONTINUOUS
100
AcDbText
 10
503.6314226782275
 20
87.38600743589086
 30
0.0
 40
3.5
  1
15
 50
90.0
100
AcDbText
1001
ACAD
1000
DSTYLE
1002
{
1070
    45
1040
0.5
1002
}
  0
LINE
  5
102D9
330
18
100
AcDbEntity
  8
0
  6
BYBLOCK
100
AcDbLine
 10
494.3549185252666
 20
95.26934076922424
 30
0.0
 11
494.8908169052665
 21
97.26934076922424
 31
0.0
  0
LINE
  5
102DA
330
18
100
AcDbEntity
  8
0
  6
BYBLOCK
100
AcDbLine
 10
494.8908169052665
 20
97.26934076922424
 30
0.0
 11
495.4267152852665
 21
95.26934076922424
 31
0.0
  0
LINE
  5
102DB
330
18
100
AcDbEntity
  8
0
  6
BYBLOCK
100
AcDbLine
 10
494.8908169052665
 20
97.26934076922424
 30
0.0
 11
494.8908169052665
 21
95.26934076922424
 31
0.0
  0
LINE
  5
102DC
330
18
100
AcDbEntity
  8
0
  6
BYBLOCK
100
AcDbLine
 10
495.4267152852665
 20
90.26934404518835
 30
0.0
 11
494.8908169052665
 21
88.26934404518835
 31
0.0
  0
LINE
  5
102DD
330
18
100
AcDbEntity
  8
0
  6
BYBLOCK
100
AcDbLine
 10
494.8908169052665
 20
88.26934404518835
 30
0.0
 11
494.3549185252666
 21
90.26934404518835
 31
0.0
  0
LINE
  5
102DE
330
18
100
AcDbEntity
  8
0
  6
BYBLOCK
100
AcDbLine
 10
494.8908169052665
 20
88.26934404518835
 30
0.0
 11
494.8908169052665
 21
90.26934404518835
 31
0.0
  0
TEXT
  5
102DF
330
18
100
AcDbEntity
  8
1DIM
  6
CONTINUOUS
100
AcDbText
 10
494.1908169052665
 20
91.60105537016926
 30
0.0
 40
3.5
  1
9
 50
90.0
100
AcDbText
  0
LINE
  5
102E0
330
18
100
AcDbEntity
  8
0
  6
BYBLOCK
100
AcDbLine
 10
504.8673210582274
 20
99.26934076922424
 30
0.0
 11
504.3314226782275
 21
97.26934076922424
 31
0.0
  0
LINE
  5
102E1
330
18
100
AcDbEntity
  8
0
  6
BYBLOCK
100
AcDbLine
 10
504.3314226782275
 20
97.26934076922424
 30
0.0
 11
503.7955242982275
 21
99.26934076922424
 31
0.0
  0
LINE
  5
102E2
330
18
100
AcDbEntity
  8
0
  6
BYBLOCK
100
AcDbLine
 10
504.3314226782275
 20
97.26934076922424
 30
0.0
 11
504.3314226782275
 21
99.26934076922424
 31
0.0
  0
LINE
  5
102E3
330
18
100
AcDbEntity
  8
0
  6
BYBLOCK
100
AcDbLine
 10
503.7955242982275
 20
123.0693407692241
 30
0.0
 11
504.3314226782275
 21
125.0693407692241
 31
0.0
  0
LINE
  5
102E4
330
18
100
AcDbEntity
  8
0
  6
BYBLOCK
100
AcDbLine
 10
504.3314226782275
 20
125.0693407692241
 30
0.0
 11
504.8673210582274
 21
123.0693407692241
 31
0.0
  0
LINE
  5
102E5
330
18
100
AcDbEntity
  8
0
  6
BYBLOCK
100
AcDbLine
 10
504.3314226782275
 20
125.0693407692241
 30
0.0
 11
504.3314226782275
 21
123.0693407692241
 31
0.0
  0
TEXT
  5
102E6
330
18
100
AcDbEntity
  8
1DIM
  6
CONTINUOUS
100
AcDbText
 10
503.6314226782275
 20
108.2526741025575
 30
0.0
 40
3.5
  1
28
 50
90.0
100
AcDbText
1001
ACAD
1000
DSTYLE
1002
{
1070
    45
1040
0.5
1002
}
  0
LINE
  5
102E7
330
18
100
AcDbEntity
  8
0
  6
BYBLOCK
100
AcDbLine
 10
513.4007563005731
 20
84.1693407692241
 30
0.0
 11
512.8648579205731
 21
82.1693407692241
 31
0.0
  0
LINE
  5
102E8
330
18
100
AcDbEntity
  8
0
  6
BYBLOCK
100
AcDbLine
 10
512.8648579205731
 20
82.1693407692241
 30
0.0
 11
512.328959540573
 21
84.1693407692241
 31
0.0
  0
LINE
  5
102E9
330
18
100
AcDbEntity
  8
0
  6
BYBLOCK
100
AcDbLine
 10
512.8648579205731
 20
82.1693407692241
 30
0.0
 11
512.8648579205731
 21
84.1693407692241
 31
0.0
  0
LINE
  5
102EA
330
18
100
AcDbEntity
  8
0
  6
BYBLOCK
100
AcDbLine
 10
512.328959540573
 20
123.0693407692241
 30
0.0
 11
512.8648579205731
 21
125.0693407692241
 31
0.0
  0
LINE
  5
102EB
330
18
100
AcDbEntity
  8
0
  6
BYBLOCK
100
AcDbLine
 10
512.8648579205731
 20
125.0693407692241
 30
0.0
 11
513.4007563005731
 21
123.0693407692241
 31
0.0
  0
LINE
  5
102EC
330
18
100
AcDbEntity
  8
0
  6
BYBLOCK
100
AcDbLine
 10
512.8648579205731
 20
125.0693407692241
 30
0.0
 11
512.8648579205731
 21
123.0693407692241
 31
0.0
  0
TEXT
  5
102ED
330
18
100
AcDbEntity
  8
1DIM
  6
CONTINUOUS
100
AcDbText
 10
512.1648579205731
 20
100.7026741025574
 30
0.0
 40
3.5
  1
43
 50
90.0
100
AcDbText
1001
ACAD
1000
DSTYLE
1002
{
1070
    45
1040
0.5
1002
}
  0
VIEWPORT
  5
57
330
15
100
AcDbEntity
 67
     1
  8
0
100
AcDbViewport
 68
     1
 10
0.0
 20
0.0
 30
0.0
 40
600.1703601108032
 41
297.0
 68
     1
 69
     1
1001
ACAD
1000
MVIEW
1002
{
1070
    16
1010
0.0
1020
0.0
1030
0.0
1010
0.0
1020
0.0
1030
1.0
1040
0.0
1040
297.0
1040
-4.171999999925333
1040
12.83903210976956
1040
50.0
1040
0.0
1040
0.0
1070
    16
1070
   100
1070
     0
1070
     1
1070
     0
1070
     0
1070
     0
1070
     0
1040
0.0
1040
0.0
1040
0.0
1040
10.0
1040
10.0
1040
10.0
1040
10.0
1070
     0
1002
{
1002
}
1002
}
  0
ENDSEC
  0
SECTION
  2
OBJECTS
  0
DICTIONARY
  5
C
330
0
100
AcDbDictionary
  3
ACAD_COLOR
350
18D
  3
ACAD_GROUP
350
D
  3
ACAD_LAYOUT
350
18E
  3
ACAD_MATERIAL
350
18C
  3
ACAD_MLEADERSTYLE
350
D09D
  3
ACAD_MLINESTYLE
350
1B
  3
ACAD_PLOTSETTINGS
350
18F
  3
ACAD_SCALELIST
350
D07B
  3
ACAD_VISUALSTYLE
350
D06A
  3
ACDBHEADERROUNDTRIPXREC
350
102EE
  3
ACDBVARIABLEDICTIONARY
350
37
  3
CONTENTDICTIONARY
350
D8
  3
DRAWINGVARIABLESDICT
350
20
  3
DWGPROPS
350
102F1
1001
ACAD
1000
TREAT_AS_HARD
1070
     0
  0
DICTIONARY
  5
D16C
330
2
100
AcDbDictionary
  3
ACAD_LAYERSTATES
360
D16D
1001
ACAD
1000
TREAT_AS_HARD
1070
     1
  0
DICTIONARY
  5
D0B5
330
E
100
AcDbDictionary
  3
ADSK_XREC_LAYER_RECONCILED
360
D0B6
1001
ACAD
1000
TREAT_AS_HARD
1070
     1
  0
DICTIONARY
  5
D0B7
330
29
100
AcDbDictionary
  3
ADSK_XREC_LAYER_RECONCILED
360
D0B8
1001
ACAD
1000
TREAT_AS_HARD
1070
     1
  0
DICTIONARY
  5
D0B9
330
31
100
AcDbDictionary
  3
ADSK_XREC_LAYER_RECONCILED
360
D0BA
1001
ACAD
1000
TREAT_AS_HARD
1070
     1
  0
DICTIONARY
  5
D0BF
330
243
100
AcDbDictionary
  3
ADSK_XREC_LAYER_RECONCILED
360
D0C0
1001
ACAD
1000
TREAT_AS_HARD
1070
     1
  0
DICTIONARY
  5
D0C5
330
24E
100
AcDbDictionary
  3
ADSK_XREC_LAYER_RECONCILED
360
D0C6
1001
ACAD
1000
TREAT_AS_HARD
1070
     1
  0
DICTIONARY
  5
D0D3
330
2C05
100
AcDbDictionary
  3
ADSK_XREC_LAYER_RECONCILED
360
D0D4
1001
ACAD
1000
TREAT_AS_HARD
1070
     1
  0
DICTIONARY
  5
88F
330
18
100
AcDbDictionary
  3
ACAD_SORTENTS
360
890
1001
ACAD
1000
TREAT_AS_HARD
1070
     1
  0
DICTIONARY
  5
18D
102
{ACAD_REACTORS
330
C
102
}
330
C
100
AcDbDictionary
1001
ACAD
1000
TREAT_AS_HARD
1070
     0
  0
DICTIONARY
  5
D
102
{ACAD_REACTORS
330
C
102
}
330
C
100
AcDbDictionary
  3
*A1
350
EDA3
  3
*A10
350
ED9C
  3
*A11
350
EDA2
  3
*A12
350
ED9D
  3
*A13
350
ED9E
  3
*A14
350
ED9F
  3
*A15
350
EDA0
  3
*A16
350
EDA1
  3
*A2
350
EDA9
  3
*A3
350
EDA4
  3
*A4
350
EDA5
  3
*A5
350
EDA6
  3
*A6
350
EDA7
  3
*A7
350
EDA8
  3
*A8
350
ED9A
  3
*A9
350
ED9B
1001
ACAD
1000
TREAT_AS_HARD
1070
     0
  0
DICTIONARY
  5
18E
102
{ACAD_REACTORS
330
C
102
}
330
C
100
AcDbDictionary
1001
ACAD
1000
TREAT_AS_HARD
1070
     0
  0
DICTIONARY
  5
18C
102
{ACAD_REACTORS
330
C
102
}
330
C
100
AcDbDictionary
  3
BYBLOCK
350
D05A
  3
BYLAYER
350
D052
  3
GLOBAL
350
D062
1001
ACAD
1000
TREAT_AS_HARD
1070
     0
  0
DICTIONARY
  5
D09D
102
{ACAD_REACTORS
330
C
102
}
330
C
100
AcDbDictionary
  3
STANDARD
350
D09E
1001
ACAD
1000
TREAT_AS_HARD
1070
     0
  0
DICTIONARY
  5
1B
102
{ACAD_REACTORS
330
C
102
}
330
C
100
AcDbDictionary
  3
STANDARD
350
1C
1001
ACAD
1000
TREAT_AS_HARD
1070
     0
  0
DICTIONARY
  5
18F
102
{ACAD_REACTORS
330
C
102
}
330
C
100
AcDbDictionary
1001
ACAD
1000
TREAT_AS_HARD
1070
     0
  0
DICTIONARY
  5
D07B
102
{ACAD_REACTORS
330
C
102
}
330
C
100
AcDbDictionary
  3
A0
350
D07C
  3
A1
350
D07D
  3
A2
350
D07E
  3
A3
350
D07F
  3
A4
350
D080
  3
A5
350
D081
  3
A6
350
D082
  3
A7
350
D083
  3
A8
350
D084
  3
A9
350
D085
  3
B0
350
D086
  3
B1
350
D087
  3
B2
350
D088
  3
B3
350
D089
  3
B4
350
D08A
  3
B5
350
D08B
  3
B6
350
D08C
  3
B7
350
D08D
  3
B8
350
D08E
  3
B9
350
D08F
  3
C0
350
D090
  3
C1
350
D091
  3
C2
350
D092
  3
C3
350
D093
  3
C4
350
D094
  3
C5
350
D095
  3
C6
350
D096
  3
C7
350
D097
  3
C8
350
D098
  3
C9
350
D099
  3
D0
350
D09A
  3
D1
350
D09B
  3
D2
350
D09C
1001
ACAD
1000
TREAT_AS_HARD
1070
     0
  0
DICTIONARY
  5
D06A
102
{ACAD_REACTORS
330
C
102
}
330
C
100
AcDbDictionary
  3
2DWIREFRAME
350
D070
  3
3D_HIDDEN
350
D072
  3
3DWIREFRAME
350
D071
  3
BASIC
350
D06F
  3
BRIGHTEN
350
D076
  3
COLORCHANGE
350
D07A
  3
CONCEPTUAL
350
D073
  3
DIM
350
D075
  3
EDGECOLOROFF
350
D29F
  3
FACEPATTERN
350
D079
  3
FLAT
350
D06B
  3
FLATWITHEDGES
350
D06C
  3
GOURAUD
350
D06D
  3
GOURAUDWITHEDGES
350
D06E
  3
HIDDEN
350
EFDA
  3
JITTEROFF
350
D29D
  3
LINEPATTERN
350
D078
  3
MODELING
350
EFE0
  3
OVERHANGOFF
350
D29E
  3
REALISTIC
350
D074
  3
SHADED
350
EFDF
  3
SHADED_WITH_EDGES
350
EFDE
  3
SHADES_OF_GRAY
350
EFDB
  3
SKETCHY
350
EFDC
  3
THICKEN
350
D077
  3
WIREFRAME
350
EFD9
  3
X-RAY
350
EFDD
1001
ACAD
1000
TREAT_AS_HARD
1070
     0
  0
DICTIONARY
  5
102EE
102
{ACAD_REACTORS
330
C
102
}
330
C
100
AcDbDictionary
  3
COLORDICT
350
102EF
  3
MATERIALDICT
350
102F0
1001
ACAD
1000
TREAT_AS_HARD
1070
     0
  0
DICTIONARY
  5
37
102
{ACAD_REACTORS
330
C
102
}
330
C
100
AcDbDictionary
  3
CANNOSCALE
350
F7D9
  3
CMLEADERSTYLE
350
D117
  3
CTABLESTYLE
350
29E
  3
DIMADEC
350
38
  3
DIMASSOC
350
1CE
  3
HIDETEXT
350
704E
  3
INDEXCTL
350
D11A
  3
INTERSECTIONCOLOR
350
7052
  3
INTERSECTIONDISPLAY
350
7051
  3
MSLTSCALE
350
F829
  3
OBSCOLOR
350
704F
  3
OBSLTYPE
350
7050
  3
PROJECTNAME
350
1CF
  3
SORTENTS
350
D119
  3
XCLIPFRAME
350
EFD8
1001
ACAD
1000
TREAT_AS_HARD
1070
     0
  0
DICTIONARY
  5
D8
102
{ACAD_REACTORS
330
C
102
}
330
C
100
AcDbDictionary
1001
ACAD
1000
TREAT_AS_HARD
1070
     0
  0
DICTIONARY
  5
20
102
{ACAD_REACTORS
330
C
102
}
330
C
100
AcDbDictionary
1001
DRAWINGVARIABLESXDATA
1000
POLARANG
1000
0.261799387799149410000000
1000
POLARMODE
1000
1
1000
POLARSTYLE
1000
1
1001
ACAD
1000
TREAT_AS_HARD
1070
     0
  0
XRECORD
  5
102F1
102
{ACAD_REACTORS
330
C
102
}
330
C
100
AcDbXrecord
  1
DWGPROPS COOKIE
  2

  3

  4

  6

  7

  8
619
  9

300
=
301
=
302
=
303
=
304
=
305
=
306
=
307
=
308
=
309
=
 40
0.0
 41
2451318.246352917
 42
2458101.016167002
  1

 90
        0
  0
DICTIONARY
  5
D16D
102
{ACAD_REACTORS
330
D16C
102
}
330
D16C
100
AcDbDictionary
1001
ACAD
1000
TREAT_AS_HARD
1070
     0
  0
ACAD_PROXY_OBJECT
  5
D0B6
102
{ACAD_REACTORS
330
D0B5
102
}
330
D0B5
100
AcDbZombieObject
 90
      499
 91
      514
 93
       34
310
40C8804040
  0
ACAD_PROXY_OBJECT
  5
D0B8
102
{ACAD_REACTORS
330
D0B7
102
}
330
D0B7
100
AcDbZombieObject
 90
      499
 91
      514
 93
       34
310
40C8804040
  0
ACAD_PROXY_OBJECT
  5
D0BA
102
{ACAD_REACTORS
330
D0B9
102
}
330
D0B9
100
AcDbZombieObject
 90
      499
 91
      514
 93
       34
310
40C8804040
  0
ACAD_PROXY_OBJECT
  5
D0C0
102
{ACAD_REACTORS
330
D0BF
102
}
330
D0BF
100
AcDbZombieObject
 90
      499
 91
      514
 93
       34
310
40C8804040
  0
ACAD_PROXY_OBJECT
  5
D0C6
102
{ACAD_REACTORS
330
D0C5
102
}
330
D0C5
100
AcDbZombieObject
 90
      499
 91
      514
 93
       34
310
40C8804040
  0
ACAD_PROXY_OBJECT
  5
D0D4
102
{ACAD_REACTORS
330
D0D3
102
}
330
D0D3
100
AcDbZombieObject
 90
      499
 91
      514
 93
       34
310
40C8804040
  0
SORTENTSTABLE
  5
890
102
{ACAD_REACTORS
330
88F
102
}
330
88F
100
AcDbSortentsTable
330
18
331
0
  5
C618
331
0
  5
E84E
331
0
  5
E84F
331
0
  5
E854
331
0
  5
E855
331
0
  5
E862
331
0
  5
E863
331
0
  5
E868
331
0
  5
E869
331
0
  5
E86F
331
0
  5
E870
331
0
  5
E871
331
0
  5
E872
331
0
  5
E873
331
0
  5
E874
331
0
  5
E875
331
0
  5
E876
331
0
  5
E87B
331
0
  5
E87C
331
0
  5
E87D
331
0
  5
E87E
331
0
  5
E87F
331
0
  5
E881
331
0
  5
E882
331
0
  5
E883
331
0
  5
E884
331
0
  5
E885
331
0
  5
E886
331
0
  5
E887
331
0
  5
E888
331
0
  5
E89B
331
0
  5
E89C
331
0
  5
E89D
331
0
  5
E89E
331
0
  5
E89F
331
0
  5
E8A0
331
0
  5
E8A1
331
0
  5
E8A2
331
0
  5
E8A3
331
0
  5
E8A4
331
0
  5
E8A5
331
0
  5
E8A6
331
0
  5
E8A7
331
0
  5
E8A8
331
0
  5
E8A9
331
0
  5
E8AA
331
0
  5
E8AB
331
0
  5
E8AC
331
0
  5
E8AE
331
0
  5
E8B1
331
0
  5
E8B2
331
0
  5
E8B3
331
0
  5
E8B8
331
0
  5
E8B9
331
0
  5
E8C3
331
0
  5
E8FE
331
0
  5
E8FF
331
0
  5
E900
331
0
  5
E93B
331
0
  5
E93C
331
0
  5
E943
331
0
  5
ECA9
331
0
  5
ECAA
331
0
  5
ECB1
331
0
  5
ECB2
331
0
  5
ECB6
331
FAFA
  5
FB1A
331
FAFC
  5
FB25
331
FAFD
  5
FB26
331
FAFE
  5
FB27
331
FAFF
  5
FB28
331
FB00
  5
FB29
331
FB02
  5
FB2D
331
FB03
  5
FB2E
331
FB04
  5
FB2F
331
FB05
  5
FB30
331
FB06
  5
FB31
331
FB07
  5
FB32
331
FB09
  5
FB37
331
FB0A
  5
FB38
331
FB0B
  5
FB39
331
FB0C
  5
FB3A
331
FB0D
  5
FB3B
331
FB0E
  5
FB3C
331
FB0F
  5
FB3D
331
FB10
  5
FB3E
331
FB11
  5
FB3F
331
FB12
  5
FB40
331
FB13
  5
FB41
331
FB14
  5
FB42
331
FB15
  5
FB43
331
FB16
  5
FB44
331
FB17
  5
FB45
331
FB18
  5
FB46
331
FB19
  5
FB47
331
FB1A
  5
FB48
331
FB1B
  5
FB4A
331
FB1C
  5
FB4B
331
FB1D
  5
FB4C
331
FB1E
  5
FB4E
331
FB1F
  5
FB4F
331
FB20
  5
FB50
331
FB21
  5
FB51
331
FB22
  5
FB52
331
FB23
  5
FB53
331
FB24
  5
FB54
331
FB25
  5
FB55
331
FB26
  5
FB56
331
FB27
  5
FB57
331
FB28
  5
FB58
331
FB29
  5
FB59
331
FB2A
  5
FB5A
331
FB2B
  5
FB5B
331
FB2C
  5
FB5C
331
FB2D
  5
FB5D
331
FB2E
  5
FB5E
331
FB2F
  5
FB5F
331
FB30
  5
FB60
331
FB31
  5
FB61
331
FB32
  5
FB62
331
FB33
  5
FB63
331
FB34
  5
FB64
331
FB35
  5
FB65
331
FB36
  5
FB66
331
FB37
  5
FB67
331
FB38
  5
FB68
331
FB39
  5
FB6A
331
FB3A
  5
FB6B
331
FB3B
  5
FB6C
331
FB3C
  5
FB6D
331
FB3D
  5
FB74
331
FB3E
  5
FB75
331
FB3F
  5
FB76
331
FB40
  5
FB77
331
FB41
  5
FB78
331
FB42
  5
FB79
331
FB43
  5
FB7A
331
FB44
  5
FB7B
331
0
  5
FB49
331
FB46
  5
FB80
331
FB47
  5
FB81
331
FB48
  5
FB82
331
0
  5
FB4D
331
FB4A
  5
FB90
331
FB4B
  5
FB91
331
FB4C
  5
FB95
331
FB4D
  5
FB96
331
FB4E
  5
FB97
331
FB4F
  5
FB98
331
FB50
  5
FB99
331
FB51
  5
FB9A
331
FB52
  5
FB9B
331
FB53
  5
FB9C
331
FB54
  5
FB9D
331
FB55
  5
FBA1
331
FB56
  5
FBA2
331
FB57
  5
FBA3
331
FB58
  5
FBA7
331
FB59
  5
FBA8
331
FB5A
  5
FBA9
331
FB5B
  5
FBAD
331
FB5C
  5
FBAE
331
FB5D
  5
FBAF
331
FB5E
  5
FBB0
331
FB5F
  5
FBB1
331
FB60
  5
FBB2
331
FB61
  5
FBB3
331
FB62
  5
FBB4
331
FB63
  5
FBB5
331
FB64
  5
FBB6
331
0
  5
FB69
331
FB66
  5
FBC1
331
FB67
  5
FBC2
331
FB68
  5
FBC3
331
FB69
  5
FBC4
331
FB6A
  5
FBC5
331
0
  5
FB6F
331
0
  5
FB70
331
0
  5
FB71
331
FB6E
  5
101D3
331
FB6F
  5
101D4
331
FB70
  5
101D5
331
FB71
  5
101D6
331
FB72
  5
101D7
331
FB73
  5
101D8
331
FB74
  5
101D9
331
FB75
  5
101DA
331
FB76
  5
101DB
331
FB77
  5
101DC
331
FB78
  5
101DD
331
FB79
  5
101DE
331
FB7A
  5
101DF
331
FB7B
  5
101E0
331
FB7C
  5
101E1
331
FB7D
  5
101E2
331
FB7E
  5
101E3
331
FB7F
  5
101E4
331
FB80
  5
101E5
331
FB81
  5
101E6
331
FB82
  5
101E7
331
FB83
  5
101E8
331
FB84
  5
101E9
331
FB85
  5
101EA
331
FB86
  5
101EB
331
FB87
  5
101EC
331
FB88
  5
101ED
331
FB89
  5
101EE
331
FB8A
  5
101EF
331
FB8B
  5
101F0
331
FB8C
  5
101F1
331
FB8D
  5
101F2
331
FB8E
  5
101F3
331
FB8F
  5
101F4
331
FB90
  5
101F5
331
FB91
  5
101F6
331
FB92
  5
101F7
331
FB93
  5
101F8
331
FB94
  5
101F9
331
FB95
  5
101FA
331
FB96
  5
101FB
331
FB97
  5
101FC
331
FB98
  5
10200
331
FB99
  5
10201
331
FB9A
  5
10202
331
FB9B
  5
10206
331
FB9C
  5
10207
331
FB9D
  5
10208
331
FB9E
  5
1020C
331
FB9F
  5
1020D
331
FBA0
  5
1020E
331
FBA1
  5
1020F
331
FBA2
  5
10210
331
FBA3
  5
10214
331
FBA4
  5
10215
331
FBA5
  5
10216
331
FBA6
  5
1021A
331
FBA7
  5
1021B
331
FBA8
  5
1021C
331
FBA9
  5
10220
331
FBAA
  5
10221
331
FBAB
  5
10222
331
FBAC
  5
10223
331
FBAD
  5
10224
331
FBAE
  5
10228
331
FBAF
  5
10229
331
FBB0
  5
1022A
331
FBB1
  5
1022B
331
FBB2
  5
1022C
331
FBB3
  5
1022D
331
FBB4
  5
1022E
331
FBB5
  5
1022F
331
FBB6
  5
10230
331
FBB7
  5
10231
331
FBB8
  5
10232
331
FBB9
  5
10236
331
FBBA
  5
10237
331
FBBB
  5
10238
331
FBBC
  5
10239
331
FBBD
  5
1023D
331
FBBE
  5
1023E
331
FBBF
  5
1023F
331
FBC0
  5
10243
331
FBC1
  5
10244
331
FBC2
  5
10245
331
FBC3
  5
10249
331
FBC4
  5
1024A
331
FBC5
  5
1024B
331
FBC6
  5
1024F
331
FBC7
  5
10250
331
FBC8
  5
10251
331
FBC9
  5
10255
331
FBCA
  5
10256
331
FBCB
  5
10257
331
FBCC
  5
10258
331
0
  5
FBD1
331
0
  5
FBD2
331
0
  5
FBD3
331
0
  5
FBD4
331
0
  5
FBD5
331
0
  5
FBD6
331
0
  5
FBD7
331
FBD4
  5
102A3
331
FBD5
  5
102A4
331
FBD6
  5
102A5
331
FBD7
  5
102A6
331
FBD8
  5
102A7
331
FBD9
  5
102A8
331
0
  5
FBDE
331
0
  5
FBDF
331
0
  5
FBE0
331
0
  5
FBE1
331
0
  5
FBE2
331
0
  5
FBE3
331
FBE0
  5
102E8
331
FBE1
  5
102E9
331
FBE2
  5
102EA
331
FBE3
  5
102EB
331
FBE4
  5
102EC
331
FBE5
  5
102ED
331
101C7
  5
FB33
331
101C8
  5
FB34
331
101C9
  5
FB35
331
101CA
  5
FB36
331
101CB
  5
FAFA
331
101CC
  5
FAFC
331
101CD
  5
FAFD
331
0
  5
FAFE
331
0
  5
FAFF
331
0
  5
FB00
331
101D1
  5
FB10
331
101D2
  5
FB11
331
101D3
  5
FB12
331
0
  5
FB05
331
0
  5
FB06
331
0
  5
FB07
331
101D7
  5
FB1B
331
101D8
  5
FB1C
331
101D9
  5
FB1D
331
0
  5
FB0D
331
0
  5
FB0E
331
0
  5
FB0F
331
101DD
  5
FB2A
331
101DE
  5
FB2B
331
101DF
  5
FB2C
331
101E0
  5
FB7C
331
101E1
  5
FB7D
331
101E2
  5
FB7E
331
101E3
  5
FB7F
331
101E4
  5
FB83
331
101E5
  5
FB84
331
101E6
  5
FB85
331
101E7
  5
FB86
331
101E8
  5
FB87
331
101E9
  5
FB88
331
0
  5
FB6E
331
0
  5
FB72
331
0
  5
FB73
331
101ED
  5
FBB7
331
101EE
  5
FBB8
331
101EF
  5
FBB9
331
0
  5
FB92
331
0
  5
FB93
331
0
  5
FB94
331
101F3
  5
FBC6
331
101F4
  5
FBC7
331
101F5
  5
FBC8
331
101F6
  5
FBC9
331
0
  5
FB9E
331
0
  5
FB9F
331
0
  5
FBA0
331
101FA
  5
FBD8
331
101FB
  5
FBD9
331
101FC
  5
FBDA
331
0
  5
FBA4
331
0
  5
FBA5
331
0
  5
FBA6
331
10200
  5
101C9
331
10201
  5
101CA
331
10202
  5
101CB
331
0
  5
FBAA
331
0
  5
FBAB
331
0
  5
FBAC
331
10206
  5
10259
331
10207
  5
1025A
331
10208
  5
1025B
331
0
  5
101FD
331
0
  5
101FE
331
0
  5
101FF
331
1020C
  5
10263
331
1020D
  5
10264
331
1020E
  5
10265
331
0
  5
10203
331
0
  5
10204
331
0
  5
10205
331
10212
  5
1026D
331
10213
  5
1026E
331
10214
  5
1026F
331
0
  5
10209
331
0
  5
1020A
331
0
  5
1020B
331
10218
  5
10277
331
10219
  5
10278
331
1021A
  5
10279
331
1021B
  5
1027A
331
1021C
  5
1027B
331
0
  5
10211
331
0
  5
10212
331
0
  5
10213
331
10220
  5
10283
331
10221
  5
10284
331
10222
  5
10285
331
0
  5
10217
331
0
  5
10218
331
0
  5
10219
331
10226
  5
1028D
331
10227
  5
1028E
331
10228
  5
1028F
331
0
  5
1021D
331
0
  5
1021E
331
0
  5
1021F
331
1022C
  5
10297
331
1022D
  5
10298
331
1022E
  5
10299
331
1022F
  5
1029A
331
10230
  5
1029B
331
0
  5
10225
331
0
  5
10226
331
0
  5
10227
331
10234
  5
102A9
331
10235
  5
102AA
331
10236
  5
102AB
331
10237
  5
102AC
331
10238
  5
102AD
331
0
  5
10233
331
0
  5
10234
331
0
  5
10235
331
1023C
  5
102B5
331
1023D
  5
102B6
331
1023E
  5
102B7
331
1023F
  5
102B8
331
0
  5
1023A
331
0
  5
1023B
331
0
  5
1023C
331
10243
  5
102C0
331
10244
  5
102C1
331
10245
  5
102C2
331
0
  5
10240
331
0
  5
10241
331
0
  5
10242
331
10249
  5
102CA
331
1024A
  5
102CB
331
1024B
  5
102CC
331
0
  5
10246
331
0
  5
10247
331
0
  5
10248
331
1024F
  5
102D4
331
10250
  5
102D5
331
10251
  5
102D6
331
0
  5
1024C
331
0
  5
1024D
331
0
  5
1024E
331
10255
  5
102DE
331
10256
  5
102DF
331
10257
  5
102E0
331
0
  5
10252
331
0
  5
10253
331
0
  5
10254
331
1025B
  5
FB02
331
1025C
  5
FB03
331
1025D
  5
FB04
331
1025E
  5
FB09
331
1025F
  5
FB0A
331
10260
  5
FB0B
331
10261
  5
FB0C
331
10262
  5
FB13
331
10263
  5
FB14
331
10264
  5
FB15
331
10265
  5
FB16
331
10266
  5
FB17
331
10267
  5
FB18
331
10268
  5
FB19
331
10269
  5
FB1E
331
1026A
  5
FB1F
331
1026B
  5
FB20
331
1026C
  5
FB21
331
1026D
  5
FB22
331
1026E
  5
FB23
331
1026F
  5
FB24
331
10270
  5
FB89
331
10271
  5
FB8A
331
10272
  5
FB8B
331
10273
  5
FB8C
331
10274
  5
FB8D
331
10275
  5
FB8E
331
10276
  5
FB8F
331
10277
  5
FBBA
331
10278
  5
FBBB
331
10279
  5
FBBC
331
1027A
  5
FBBD
331
1027B
  5
FBBE
331
1027C
  5
FBBF
331
1027D
  5
FBC0
331
1027E
  5
FBCA
331
1027F
  5
FBCB
331
10280
  5
FBCC
331
10281
  5
FBCD
331
10282
  5
FBCE
331
10283
  5
FBCF
331
10284
  5
FBD0
331
10285
  5
FBDB
331
10286
  5
FBDC
331
10287
  5
FBDD
331
10288
  5
FBE4
331
10289
  5
FBE5
331
1028A
  5
101C7
331
1028B
  5
101C8
331
1028C
  5
101CC
331
1028D
  5
101CD
331
1028E
  5
101CE
331
1028F
  5
101CF
331
10290
  5
101D0
331
10291
  5
101D1
331
10292
  5
101D2
331
10293
  5
1025C
331
10294
  5
1025D
331
10295
  5
1025E
331
10296
  5
1025F
331
10297
  5
10260
331
10298
  5
10261
331
10299
  5
10262
331
1029A
  5
10266
331
1029B
  5
10267
331
1029C
  5
10268
331
1029D
  5
10269
331
1029E
  5
1026A
331
1029F
  5
1026B
331
102A0
  5
1026C
331
102A1
  5
10270
331
102A2
  5
10271
331
102A3
  5
10272
331
102A4
  5
10273
331
102A5
  5
10274
331
102A6
  5
10275
331
102A7
  5
10276
331
102A8
  5
1027C
331
102A9
  5
1027D
331
102AA
  5
1027E
331
102AB
  5
1027F
331
102AC
  5
10280
331
102AD
  5
10281
331
102AE
  5
10282
331
102AF
  5
10286
331
102B0
  5
10287
331
102B1
  5
10288
331
102B2
  5
10289
331
102B3
  5
1028A
331
102B4
  5
1028B
331
102B5
  5
1028C
331
102B6
  5
10290
331
102B7
  5
10291
331
102B8
  5
10292
331
102B9
  5
10293
331
102BA
  5
10294
331
102BB
  5
10295
331
102BC
  5
10296
331
102BD
  5
1029C
331
102BE
  5
1029D
331
102BF
  5
1029E
331
102C0
  5
1029F
331
102C1
  5
102A0
331
102C2
  5
102A1
331
102C3
  5
102A2
331
102C4
  5
102AE
331
102C5
  5
102AF
331
102C6
  5
102B0
331
102C7
  5
102B1
331
102C8
  5
102B2
331
102C9
  5
102B3
331
102CA
  5
102B4
331
102CB
  5
102B9
331
102CC
  5
102BA
331
102CD
  5
102BB
331
102CE
  5
102BC
331
102CF
  5
102BD
331
102D0
  5
102BE
331
102D1
  5
102BF
331
102D2
  5
102C3
331
102D3
  5
102C4
331
102D4
  5
102C5
331
102D5
  5
102C6
331
102D6
  5
102C7
331
102D7
  5
102C8
331
102D8
  5
102C9
331
102D9
  5
102CD
331
102DA
  5
102CE
331
102DB
  5
102CF
331
102DC
  5
102D0
331
102DD
  5
102D1
331
102DE
  5
102D2
331
102DF
  5
102D3
331
102E0
  5
102D7
331
102E1
  5
102D8
331
102E2
  5
102D9
331
102E3
  5
102DA
331
102E4
  5
102DB
331
102E5
  5
102DC
331
102E6
  5
102DD
331
102E7
  5
102E1
331
102E8
  5
102E2
331
102E9
  5
102E3
331
102EA
  5
102E4
331
102EB
  5
102E5
331
102EC
  5
102E6
331
102ED
  5
102E7
  0
GROUP
  5
EDA3
102
{ACAD_REACTORS
330
D
102
}
330
D
100
AcDbGroup
300

 70
     1
 71
     1
  0
GROUP
  5
ED9C
102
{ACAD_REACTORS
330
D
102
}
330
D
100
AcDbGroup
300

 70
     1
 71
     1
  0
GROUP
  5
EDA2
102
{ACAD_REACTORS
330
D
102
}
330
D
100
AcDbGroup
300

 70
     1
 71
     1
  0
GROUP
  5
ED9D
102
{ACAD_REACTORS
330
D
102
}
330
D
100
AcDbGroup
300

 70
     1
 71
     1
  0
GROUP
  5
ED9E
102
{ACAD_REACTORS
330
D
102
}
330
D
100
AcDbGroup
300

 70
     1
 71
     1
  0
GROUP
  5
ED9F
102
{ACAD_REACTORS
330
D
102
}
330
D
100
AcDbGroup
300

 70
     1
 71
     1
  0
GROUP
  5
EDA0
102
{ACAD_REACTORS
330
D
102
}
330
D
100
AcDbGroup
300

 70
     1
 71
     1
  0
GROUP
  5
EDA1
102
{ACAD_REACTORS
330
D
102
}
330
D
100
AcDbGroup
300

 70
     1
 71
     1
  0
GROUP
  5
EDA9
102
{ACAD_REACTORS
330
D
102
}
330
D
100
AcDbGroup
300

 70
     1
 71
     1
  0
GROUP
  5
EDA4
102
{ACAD_REACTORS
330
D
102
}
330
D
100
AcDbGroup
300

 70
     1
 71
     1
  0
GROUP
  5
EDA5
102
{ACAD_REACTORS
330
D
102
}
330
D
100
AcDbGroup
300

 70
     1
 71
     1
  0
GROUP
  5
EDA6
102
{ACAD_REACTORS
330
D
102
}
330
D
100
AcDbGroup
300

 70
     1
 71
     1
  0
GROUP
  5
EDA7
102
{ACAD_REACTORS
330
D
102
}
330
D
100
AcDbGroup
300

 70
     1
 71
     1
  0
GROUP
  5
EDA8
102
{ACAD_REACTORS
330
D
102
}
330
D
100
AcDbGroup
300

 70
     1
 71
     1
  0
GROUP
  5
ED9A
102
{ACAD_REACTORS
330
D
102
}
330
D
100
AcDbGroup
300

 70
     1
 71
     1
  0
GROUP
  5
ED9B
102
{ACAD_REACTORS
330
D
102
}
330
D
100
AcDbGroup
300

 70
     1
 71
     1
  0
MATERIAL
  5
D05A
102
{ACAD_REACTORS
330
18C
102
}
102
{ACAD_XDICTIONARY
360
1048C
102
}
330
18C
100
AcDbMaterial
  1
BYBLOCK
 72
     0
 73
     2
 43
0.0208333333333333
 43
0.0
 43
0.0
 43
0.0
 43
0.0
 43
0.0208333333333333
 43
0.0
 43
0.0
 43
0.0
 43
0.0
 43
1.0
 43
0.0
 43
0.0
 43
0.0
 43
0.0
 43
1.0
 77
     0
 78
     2
 47
0.0208333333333333
 47
0.0
 47
0.0
 47
0.0
 47
0.0
 47
0.0208333333333333
 47
0.0
 47
0.0
 47
0.0
 47
0.0
 47
1.0
 47
0.0
 47
0.0
 47
0.0
 47
0.0
 47
1.0
171
     0
172
     2
 49
0.0208333333333333
 49
0.0
 49
0.0
 49
0.0
 49
0.0
 49
0.0208333333333333
 49
0.0
 49
0.0
 49
0.0
 49
0.0
 49
1.0
 49
0.0
 49
0.0
 49
0.0
 49
0.0
 49
1.0
175
     0
176
     2
142
0.0208333333333333
142
0.0
142
0.0
142
0.0
142
0.0
142
0.0208333333333333
142
0.0
142
0.0
142
0.0
142
0.0
142
1.0
142
0.0
142
0.0
142
0.0
142
0.0
142
1.0
179
     0
270
     2
144
0.0208333333333333
144
0.0
144
0.0
144
0.0
144
0.0
144
0.0208333333333333
144
0.0
144
0.0
144
0.0
144
0.0
144
1.0
144
0.0
144
0.0
144
0.0
144
0.0
144
1.0
274
     2
147
0.0208333333333333
147
0.0
147
0.0
147
0.0
147
0.0
147
0.0208333333333333
147
0.0
147
0.0
147
0.0
147
0.0
147
1.0
147
0.0
147
0.0
147
0.0
147
0.0
147
1.0
  0
MATERIAL
  5
D052
102
{ACAD_REACTORS
330
18C
102
}
102
{ACAD_XDICTIONARY
360
1048E
102
}
330
18C
100
AcDbMaterial
  1
BYLAYER
 72
     0
 73
     2
 43
0.0208333333333333
 43
0.0
 43
0.0
 43
0.0
 43
0.0
 43
0.0208333333333333
 43
0.0
 43
0.0
 43
0.0
 43
0.0
 43
1.0
 43
0.0
 43
0.0
 43
0.0
 43
0.0
 43
1.0
 77
     0
 78
     2
 47
0.0208333333333333
 47
0.0
 47
0.0
 47
0.0
 47
0.0
 47
0.0208333333333333
 47
0.0
 47
0.0
 47
0.0
 47
0.0
 47
1.0
 47
0.0
 47
0.0
 47
0.0
 47
0.0
 47
1.0
171
     0
172
     2
 49
0.0208333333333333
 49
0.0
 49
0.0
 49
0.0
 49
0.0
 49
0.0208333333333333
 49
0.0
 49
0.0
 49
0.0
 49
0.0
 49
1.0
 49
0.0
 49
0.0
 49
0.0
 49
0.0
 49
1.0
175
     0
176
     2
142
0.0208333333333333
142
0.0
142
0.0
142
0.0
142
0.0
142
0.0208333333333333
142
0.0
142
0.0
142
0.0
142
0.0
142
1.0
142
0.0
142
0.0
142
0.0
142
0.0
142
1.0
179
     0
270
     2
144
0.0208333333333333
144
0.0
144
0.0
144
0.0
144
0.0
144
0.0208333333333333
144
0.0
144
0.0
144
0.0
144
0.0
144
1.0
144
0.0
144
0.0
144
0.0
144
0.0
144
1.0
274
     2
147
0.0208333333333333
147
0.0
147
0.0
147
0.0
147
0.0
147
0.0208333333333333
147
0.0
147
0.0
147
0.0
147
0.0
147
1.0
147
0.0
147
0.0
147
0.0
147
0.0
147
1.0
  0
MATERIAL
  5
D062
102
{ACAD_REACTORS
330
18C
102
}
102
{ACAD_XDICTIONARY
360
10490
102
}
330
18C
100
AcDbMaterial
  1
GLOBAL
 72
     0
 73
     2
 43
0.0208333333333333
 43
0.0
 43
0.0
 43
0.0
 43
0.0
 43
0.0208333333333333
 43
0.0
 43
0.0
 43
0.0
 43
0.0
 43
1.0
 43
0.0
 43
0.0
 43
0.0
 43
0.0
 43
1.0
 77
     0
 78
     2
 47
0.0208333333333333
 47
0.0
 47
0.0
 47
0.0
 47
0.0
 47
0.0208333333333333
 47
0.0
 47
0.0
 47
0.0
 47
0.0
 47
1.0
 47
0.0
 47
0.0
 47
0.0
 47
0.0
 47
1.0
171
     0
172
     2
 49
0.0208333333333333
 49
0.0
 49
0.0
 49
0.0
 49
0.0
 49
0.0208333333333333
 49
0.0
 49
0.0
 49
0.0
 49
0.0
 49
1.0
 49
0.0
 49
0.0
 49
0.0
 49
0.0
 49
1.0
175
     0
176
     2
142
0.0208333333333333
142
0.0
142
0.0
142
0.0
142
0.0
142
0.0208333333333333
142
0.0
142
0.0
142
0.0
142
0.0
142
1.0
142
0.0
142
0.0
142
0.0
142
0.0
142
1.0
179
     0
270
     2
144
0.0208333333333333
144
0.0
144
0.0
144
0.0
144
0.0
144
0.0208333333333333
144
0.0
144
0.0
144
0.0
144
0.0
144
1.0
144
0.0
144
0.0
144
0.0
144
0.0
144
1.0
274
     2
147
0.0208333333333333
147
0.0
147
0.0
147
0.0
147
0.0
147
0.0208333333333333
147
0.0
147
0.0
147
0.0
147
0.0
147
1.0
147
0.0
147
0.0
147
0.0
147
0.0
147
1.0
  0
ACAD_PROXY_OBJECT
  5
D09E
102
{ACAD_REACTORS
330
D09D
102
}
330
D09D
100
AcDbZombieObject
 90
      499
 91
      511
 93
      610
310
40901902A4063FBFFFFFE000000000000002040AD7A3703D0AD73F4214DD185B99185C990000000000000104090141901A00000000000004100000000000000041025764000000000000300FC0
340
12
340
0
340
F
340
0
 94
        0
1001
ACAD_MLEADERVER
1070
     2
  0
MLINESTYLE
  5
1C
102
{ACAD_REACTORS
330
1B
102
}
330
1B
100
AcDbMlineStyle
  2
STANDARD
 70
     0
  3

 62
   256
 51
90.0
 52
90.0
 71
     2
 49
0.5
 62
   256
  6
BYLAYER
 49
-0.5
 62
   256
  6
BYLAYER
  0
ACAD_PROXY_OBJECT
  5
D07C
102
{ACAD_REACTORS
330
D07B
102
}
330
D07B
100
AcDbZombieObject
 90
      499
 91
      510
 93
       41
310
903313A31580
  0
ACAD_PROXY_OBJECT
  5
D07D
102
{ACAD_REACTORS
330
D07B
102
}
330
D07B
100
AcDbZombieObject
 90
      499
 91
      510
 93
      105
310
903313A324000000000000004000
  0
ACAD_PROXY_OBJECT
  5
D07E
102
{ACAD_REACTORS
330
D07B
102
}
330
D07B
100
AcDbZombieObject
 90
      499
 91
      510
 93
      105
310
903313A344000000000000104000
  0
ACAD_PROXY_OBJECT
  5
D07F
102
{ACAD_REACTORS
330
D07B
102
}
330
D07B
100
AcDbZombieObject
 90
      499
 91
      510
 93
      105
310
903313A354000000000000144000
  0
ACAD_PROXY_OBJECT
  5
D080
102
{ACAD_REACTORS
330
D07B
102
}
330
D07B
100
AcDbZombieObject
 90
      499
 91
      510
 93
      105
310
903313A384000000000000204000
  0
ACAD_PROXY_OBJECT
  5
D081
102
{ACAD_REACTORS
330
D07B
102
}
330
D07B
100
AcDbZombieObject
 90
      499
 91
      510
 93
      113
310
904313A31304000000000000244000
  0
ACAD_PROXY_OBJECT
  5
D082
102
{ACAD_REACTORS
330
D07B
102
}
330
D07B
100
AcDbZombieObject
 90
      499
 91
      510
 93
      113
310
904313A31364000000000000304000
  0
ACAD_PROXY_OBJECT
  5
D083
102
{ACAD_REACTORS
330
D07B
102
}
330
D07B
100
AcDbZombieObject
 90
      499
 91
      510
 93
      113
310
904313A32304000000000000344000
  0
ACAD_PROXY_OBJECT
  5
D084
102
{ACAD_REACTORS
330
D07B
102
}
330
D07B
100
AcDbZombieObject
 90
      499
 91
      510
 93
      113
310
904313A333040000000000003E4000
  0
ACAD_PROXY_OBJECT
  5
D085
102
{ACAD_REACTORS
330
D07B
102
}
330
D07B
100
AcDbZombieObject
 90
      499
 91
      510
 93
      113
310
904313A34304000000000000444000
  0
ACAD_PROXY_OBJECT
  5
D086
102
{ACAD_REACTORS
330
D07B
102
}
330
D07B
100
AcDbZombieObject
 90
      499
 91
      510
 93
      113
310
904313A35304000000000000494000
  0
ACAD_PROXY_OBJECT
  5
D087
102
{ACAD_REACTORS
330
D07B
102
}
330
D07B
100
AcDbZombieObject
 90
      499
 91
      510
 93
      121
310
905313A3130304000000000000594000
  0
ACAD_PROXY_OBJECT
  5
D088
102
{ACAD_REACTORS
330
D07B
102
}
330
D07B
100
AcDbZombieObject
 90
      499
 91
      510
 93
      105
310
903323A310000000000000010100
  0
ACAD_PROXY_OBJECT
  5
D089
102
{ACAD_REACTORS
330
D07B
102
}
330
D07B
100
AcDbZombieObject
 90
      499
 91
      510
 93
      105
310
903343A310000000000000410100
  0
ACAD_PROXY_OBJECT
  5
D08A
102
{ACAD_REACTORS
330
D07B
102
}
330
D07B
100
AcDbZombieObject
 90
      499
 91
      510
 93
      105
310
903383A310000000000000810100
  0
ACAD_PROXY_OBJECT
  5
D08B
102
{ACAD_REACTORS
330
D07B
102
}
330
D07B
100
AcDbZombieObject
 90
      499
 91
      510
 93
      113
310
90431303A310000000000000910100
  0
ACAD_PROXY_OBJECT
  5
D08C
102
{ACAD_REACTORS
330
D07B
102
}
330
D07B
100
AcDbZombieObject
 90
      499
 91
      510
 93
      121
310
9053130303A310000000000001650100
  0
ACAD_PROXY_OBJECT
  5
D08D
102
{ACAD_REACTORS
330
D07B
102
}
330
D07B
100
AcDbZombieObject
 90
      499
 91
      510
 93
      257
310
90E312F31323822203D2031272D3022000000000000200FC000000000000284000
  0
ACAD_PROXY_OBJECT
  5
D08E
102
{ACAD_REACTORS
330
D07B
102
}
330
D07B
100
AcDbZombieObject
 90
      499
 91
      510
 93
      249
310
90D312F363422203D2031272D3022000000000000240FC000000000000284000
  0
ACAD_PROXY_OBJECT
  5
D08F
102
{ACAD_REACTORS
330
D07B
102
}
330
D07B
100
AcDbZombieObject
 90
      499
 91
      510
 93
      249
310
90D312F333222203D2031272D3022000000000000280FC000000000000284000
  0
ACAD_PROXY_OBJECT
  5
D090
102
{ACAD_REACTORS
330
D07B
102
}
330
D07B
100
AcDbZombieObject
 90
      499
 91
      510
 93
      249
310
90D312F313622203D2031272D30220000000000002C0FC000000000000284000
  0
ACAD_PROXY_OBJECT
  5
D091
102
{ACAD_REACTORS
330
D07B
102
}
330
D07B
100
AcDbZombieObject
 90
      499
 91
      510
 93
      249
310
90D332F333222203D2031272D30220000000000002E0FC000000000000284000
  0
ACAD_PROXY_OBJECT
  5
D092
102
{ACAD_REACTORS
330
D07B
102
}
330
D07B
100
AcDbZombieObject
 90
      499
 91
      510
 93
      241
310
90C312F3822203D2031272D3022000000000000300FC000000000000284000
  0
ACAD_PROXY_OBJECT
  5
D093
102
{ACAD_REACTORS
330
D07B
102
}
330
D07B
100
AcDbZombieObject
 90
      499
 91
      510
 93
      249
310
90D332F313622203D2031272D3022000000000000320FC000000000000284000
  0
ACAD_PROXY_OBJECT
  5
D094
102
{ACAD_REACTORS
330
D07B
102
}
330
D07B
100
AcDbZombieObject
 90
      499
 91
      510
 93
      241
310
90C312F3422203D2031272D3022000000000000340FC000000000000284000
  0
ACAD_PROXY_OBJECT
  5
D095
102
{ACAD_REACTORS
330
D07B
102
}
330
D07B
100
AcDbZombieObject
 90
      499
 91
      510
 93
      241
310
90C332F3822203D2031272D3022000000000000360FC000000000000284000
  0
ACAD_PROXY_OBJECT
  5
D096
102
{ACAD_REACTORS
330
D07B
102
}
330
D07B
100
AcDbZombieObject
 90
      499
 91
      510
 93
      241
310
90C312F3222203D2031272D3022000000000000380FC000000000000284000
  0
ACAD_PROXY_OBJECT
  5
D097
102
{ACAD_REACTORS
330
D07B
102
}
330
D07B
100
AcDbZombieObject
 90
      499
 91
      510
 93
      241
310
90C332F3422203D2031272D30220000000000003A0FC000000000000284000
  0
ACAD_PROXY_OBJECT
  5
D098
102
{ACAD_REACTORS
330
D07B
102
}
330
D07B
100
AcDbZombieObject
 90
      499
 91
      510
 93
      161
310
90A3122203D2031272D30224000000000000284000
  0
ACAD_PROXY_OBJECT
  5
D099
102
{ACAD_REACTORS
330
D07B
102
}
330
D07B
100
AcDbZombieObject
 90
      499
 91
      510
 93
      257
310
90E312D312F3222203D2031272D30220000000000003E0FC000000000000284000
  0
ACAD_PROXY_OBJECT
  5
D09A
102
{ACAD_REACTORS
330
D07B
102
}
330
D07B
100
AcDbZombieObject
 90
      499
 91
      510
 93
      225
310
90A3322203D2031272D302200000000000002100000000000000284000
  0
ACAD_PROXY_OBJECT
  5
D09B
102
{ACAD_REACTORS
330
D07B
102
}
330
D07B
100
AcDbZombieObject
 90
      499
 91
      510
 93
      225
310
90A3622203D2031272D302200000000000006100000000000000284000
  0
ACAD_PROXY_OBJECT
  5
D09C
102
{ACAD_REACTORS
330
D07B
102
}
330
D07B
100
AcDbZombieObject
 90
      499
 91
      510
 93
      249
310
90D31272D3022203D2031272D30220000000000000A100000000000000284000
  0
ACAD_PROXY_OBJECT
  5
D070
102
{ACAD_REACTORS
330
D06A
102
}
330
D06A
100
AcDbZombieObject
 90
      499
 91
      509
 93
      436
310
42CC9915DA5C99599C985B595049028333333333333E3BF0000000000000FB0107901411070040501600405405064090741402480A0340
1001
ACAD
1000
AcDbSavedByObjectVersion
1070
     0
  0
ACAD_PROXY_OBJECT
  5
D072
102
{ACAD_REACTORS
330
D06A
102
}
330
D06A
100
AcDbZombieObject
 90
      499
 91
      509
 93
      500
310
424CD108121A5919195B90640502408333333333333E3BF0000000000000FB01079024090700405020000000000001110200405405064090740C02480A0340
1001
ACAD
1000
AcDbSavedByObjectVersion
1070
     0
  0
ACAD_PROXY_OBJECT
  5
D071
102
{ACAD_REACTORS
330
D06A
102
}
330
D06A
100
AcDbZombieObject
 90
      499
 91
      509
 93
      436
310
42CCD915DA5C99599C985B595059028333333333333E3BF0000000000000FB0107901411070040501600405405064090741402480A0340
1001
ACAD
1000
AcDbSavedByObjectVersion
1070
     0
  0
ACAD_PROXY_OBJECT
  5
D06F
102
{ACAD_REACTORS
330
D06A
102
}
330
D06A
100
AcDbZombieObject
 90
      499
 91
      509
 93
      388
310
4150985CDA58D07406404333333333333E3BF0000000000000FB0107A41107004050150841D405064090741402480A0350
1001
ACAD
1000
AcDbSavedByObjectVersion
1070
     0
  0
ACAD_PROXY_OBJECT
  5
D076
102
{ACAD_REACTORS
330
D06A
102
}
330
D06A
100
AcDbZombieObject
 90
      499
 91
      509
 93
      428
310
42109C9A59DA1D195B90C409028333333333333E3BF0000000000000FB010790141107004050150841D405064090741402480A029950
1001
ACAD
1000
AcDbSavedByObjectVersion
1070
     0
  0
ACAD_PROXY_OBJECT
  5
D07A
102
{ACAD_REACTORS
330
D06A
102
}
330
D06A
100
AcDbZombieObject
 90
      499
 91
      509
 93
      452
310
42D0DBDB1BDC90DA185B99D95104090240C333333333333E3BF0000000000000FB0108901411070040501508421405064090741402480A0350
1001
ACAD
1000
AcDbSavedByObjectVersion
1070
     0
  0
ACAD_PROXY_OBJECT
  5
D073
102
{ACAD_REACTORS
330
D06A
102
}
330
D06A
100
AcDbZombieObject
 90
      499
 91
      509
 93
      500
310
4290DBDB98D95C1D1D585B10940D028333333333333E3BF0000000000000FB0107902409070040501000000000000111010841D405064090740C02480A0340
1001
ACAD
1000
AcDbSavedByObjectVersion
1070
     0
  0
ACAD_PROXY_OBJECT
  5
D075
102
{ACAD_REACTORS
330
D06A
102
}
330
D06A
100
AcDbZombieObject
 90
      499
 91
      509
 93
      412
310
40D11A5B50B409028333333333333E3BF0000000000000FB010790141107004050150841D405064090741402480A02677FFFFFD0
1001
ACAD
1000
AcDbSavedByObjectVersion
1070
     0
  0
ACAD_PROXY_OBJECT
  5
D29F
102
{ACAD_REACTORS
330
D06A
102
}
330
D06A
100
AcDbZombieObject
 90
      499
 91
      509
 93
      452
310
43115919D950DBDB1BDC93D999916409028333333333333E3BF0000000000000FB010790141107004050150841D405064090741402480A0350
1001
ACAD
1000
AcDbSavedByObjectVersion
1070
     0
  0
ACAD_PROXY_OBJECT
  5
D079
102
{ACAD_REACTORS
330
D06A
102
}
330
D06A
100
AcDbZombieObject
 90
      499
 91
      509
 93
      444
310
42D19858D95C185D1D195C9B90F409028333333333333E3BF0000000000000FB010790141107004050150841D405064090741402480A0350
1001
ACAD
1000
AcDbSavedByObjectVersion
1070
     0
  0
ACAD_PROXY_OBJECT
  5
D06B
102
{ACAD_REACTORS
330
D06A
102
}
330
D06A
100
AcDbZombieObject
 90
      499
 91
      509
 93
      388
310
41119B185D240901404333333333333E3BF0000000000000F9010740A41107004050150841D405064090741402480A1B50
1001
ACAD
1000
AcDbSavedByObjectVersion
1070
     0
  0
ACAD_PROXY_OBJECT
  5
D06C
102
{ACAD_REACTORS
330
D06A
102
}
330
D06A
100
AcDbZombieObject
 90
      499
 91
      509
 93
      476
310
43519B185D15DA5D1A115919D95CD0140901404333333333333E3BF0000000000000F9010740901411070040501600405405064090741402480A1B50
1001
ACAD
1000
AcDbSavedByObjectVersion
1070
     0
  0
ACAD_PROXY_OBJECT
  5
D06D
102
{ACAD_REACTORS
330
D06A
102
}
330
D06A
100
AcDbZombieObject
 90
      499
 91
      509
 93
      412
310
41D1DBDD5C985D5910240902404333333333333E3BF0000000000000F9010740A411070040501641D405064090741402480A1B50
1001
ACAD
1000
AcDbSavedByObjectVersion
1070
     0
  0
ACAD_PROXY_OBJECT
  5
D06E
102
{ACAD_REACTORS
330
D06A
102
}
330
D06A
100
AcDbZombieObject
 90
      499
 91
      509
 93
      500
310
4411DBDD5C985D5915DA5D1A115919D95CD0340902404333333333333E3BF0000000000000F9010740901411070040501600405405064090741402480A1B50
1001
ACAD
1000
AcDbSavedByObjectVersion
1070
     0
  0
ACAD_PROXY_OBJECT
  5
EFDA
102
{ACAD_REACTORS
330
D06A
102
}
330
D06A
100
AcDbZombieObject
 90
      499
 91
      509
 93
      476
310
41921A5919195B90640502408333333333333E33F0000000000000F901079024090700405020000000000001110200405405064090740C02480A0340
1001
ACAD
1000
AcDbSavedByObjectVersion
1070
     0
  0
ACAD_PROXY_OBJECT
  5
D29D
102
{ACAD_REACTORS
330
D06A
102
}
330
D06A
100
AcDbZombieObject
 90
      499
 91
      509
 93
      428
310
42529A5D1D195C93D999914409028333333333333E3BF0000000000000FB010790141107004050150A41D405064090741402480A0350
1001
ACAD
1000
AcDbSavedByObjectVersion
1070
     0
  0
ACAD_PROXY_OBJECT
  5
D078
102
{ACAD_REACTORS
330
D06A
102
}
330
D06A
100
AcDbZombieObject
 90
      499
 91
      509
 93
      444
310
42D31A5B995C185D1D195C9B90E409028333333333333E3BF0000000000000FB010790141107004050750841D405064090741402483A0350
1001
ACAD
1000
AcDbSavedByObjectVersion
1070
     0
  0
ACAD_PROXY_OBJECT
  5
EFE0
102
{ACAD_REACTORS
330
D06A
102
}
330
D06A
100
AcDbZombieObject
 90
      499
 91
      509
 93
      484
310
42135BD9195B1A5B99D0A409038333333333333E33F0000000000000F901074090290700405010000000000201990108421405064090741402480A1B40
1001
ACAD
1000
AcDbSavedByObjectVersion
1070
     0
  0
ACAD_PROXY_OBJECT
  5
D29E
102
{ACAD_REACTORS
330
D06A
102
}
330
D06A
100
AcDbZombieObject
 90
      499
 91
      509
 93
      444
310
42D3DD995C9A185B99D3D999915409028333333333333E3BF0000000000000FB010790141107004050150941D405064090741402480A0350
1001
ACAD
1000
AcDbSavedByObjectVersion
1070
     0
  0
ACAD_PROXY_OBJECT
  5
D074
102
{ACAD_REACTORS
330
D06A
102
}
330
D06A
100
AcDbZombieObject
 90
      499
 91
      509
 93
      420
310
425499585B1A5CDD1A58D08409028333333333333E3BF0000000000000FB01079019070040501508421405064090741402480A1B40
1001
ACAD
1000
AcDbSavedByObjectVersion
1070
     0
  0
ACAD_PROXY_OBJECT
  5
EFDF
102
{ACAD_REACTORS
330
D06A
102
}
330
D06A
100
AcDbZombieObject
 90
      499
 91
      509
 93
      420
310
4194DA1859195911B40902404333333333333E33F0000000000000F9010740A41107004050150800405405064090840C02480A0B40
1001
ACAD
1000
AcDbSavedByObjectVersion
1070
     0
  0
ACAD_PROXY_OBJECT
  5
EFDE
102
{ACAD_REACTORS
330
D06A
102
}
330
D06A
100
AcDbZombieObject
 90
      499
 91
      509
 93
      516
310
4454DA18591959081DDA5D1A08195919D95CD1A40902404333333333333E33F0000000000000F901074090142907004050250800405405064090740C02480A0B40
1001
ACAD
1000
AcDbSavedByObjectVersion
1070
     0
  0
ACAD_PROXY_OBJECT
  5
EFDB
102
{ACAD_REACTORS
330
D06A
102
}
330
D06A
100
AcDbZombieObject
 90
      499
 91
      509
 93
      532
310
4394DA1859195CC81BD98811DC985E5174090240C333333333333E33F0000000000000F901079024090741D01000000000000111010841D405064090740C02480A0340
1001
ACAD
1000
AcDbSavedByObjectVersion
1070
     0
  0
ACAD_PROXY_OBJECT
  5
EFDC
102
{ACAD_REACTORS
330
D06A
102
}
330
D06A
100
AcDbZombieObject
 90
      499
 91
      509
 93
      476
310
41D4DAD95D18DA1E51840502408333333333333E33F0000000000000F901079024090741D01000000000000111010B41D405064090741802480A0340
1001
ACAD
1000
AcDbSavedByObjectVersion
1070
     0
  0
ACAD_PROXY_OBJECT
  5
D077
102
{ACAD_REACTORS
330
D06A
102
}
330
D06A
100
AcDbZombieObject
 90
      499
 91
      509
 93
      412
310
41D51A1A58DAD95B90D409028333333333333E3BF0000000000000FB010790141107004050150C41D405064090741402480A0350
1001
ACAD
1000
AcDbSavedByObjectVersion
1070
     0
  0
ACAD_PROXY_OBJECT
  5
EFD9
102
{ACAD_REACTORS
330
D06A
102
}
330
D06A
100
AcDbZombieObject
 90
      499
 91
      509
 93
      420
310
4255DA5C99599C985B595059028333333333333E33F0000000000000F90107901411070040501600405405064090740C02480A0340
1001
ACAD
1000
AcDbSavedByObjectVersion
1070
     0
  0
ACAD_PROXY_OBJECT
  5
EFDD
102
{ACAD_REACTORS
330
D06A
102
}
330
D06A
100
AcDbZombieObject
 90
      499
 91
      509
 93
      404
310
41560B54985E51940902404000000000000E03F0000000000000F9010740501907004050150841D405064090740C02480A1B40
1001
ACAD
1000
AcDbSavedByObjectVersion
1070
     0
  0
XRECORD
  5
102EF
102
{ACAD_REACTORS
330
102EE
102
}
330
102EE
100
AcDbXrecord
340
18D
  0
XRECORD
  5
102F0
102
{ACAD_REACTORS
330
102EE
102
}
330
102EE
100
AcDbXrecord
340
18C
  0
DICTIONARYVAR
  5
F7D9
102
{ACAD_REACTORS
330
37
102
}
330
37
100
DictionaryVariables
280
     0
  1
1:1
  0
DICTIONARYVAR
  5
D117
102
{ACAD_REACTORS
330
37
102
}
330
37
100
DictionaryVariables
280
     0
  1
Standard
  0
DICTIONARYVAR
  5
29E
102
{ACAD_REACTORS
330
37
102
}
330
37
100
DictionaryVariables
280
     0
  1
Standard
  0
DICTIONARYVAR
  5
38
102
{ACAD_REACTORS
330
37
102
}
330
37
100
DictionaryVariables
280
     0
  1
-1
  0
DICTIONARYVAR
  5
1CE
102
{ACAD_REACTORS
330
37
102
}
330
37
100
DictionaryVariables
280
     0
  1
2
  0
DICTIONARYVAR
  5
704E
102
{ACAD_REACTORS
330
37
102
}
330
37
100
DictionaryVariables
280
     0
  1
1
  0
DICTIONARYVAR
  5
D11A
102
{ACAD_REACTORS
330
37
102
}
330
37
100
DictionaryVariables
280
     0
  1
0
  0
DICTIONARYVAR
  5
7052
102
{ACAD_REACTORS
330
37
102
}
330
37
100
DictionaryVariables
280
     0
  1
8
  0
DICTIONARYVAR
  5
7051
102
{ACAD_REACTORS
330
37
102
}
330
37
100
DictionaryVariables
280
     0
  1
1
  0
DICTIONARYVAR
  5
F829
102
{ACAD_REACTORS
330
37
102
}
330
37
100
DictionaryVariables
280
     0
  1
0
  0
DICTIONARYVAR
  5
704F
102
{ACAD_REACTORS
330
37
102
}
330
37
100
DictionaryVariables
280
     0
  1
8
  0
DICTIONARYVAR
  5
7050
102
{ACAD_REACTORS
330
37
102
}
330
37
100
DictionaryVariables
280
     0
  1
2
  0
DICTIONARYVAR
  5
1CF
102
{ACAD_REACTORS
330
37
102
}
330
37
100
DictionaryVariables
280
     0
  1

  0
DICTIONARYVAR
  5
D119
102
{ACAD_REACTORS
330
37
102
}
330
37
100
DictionaryVariables
280
     0
  1
127
  0
DICTIONARYVAR
  5
EFD8
102
{ACAD_REACTORS
330
37
102
}
330
37
100
DictionaryVariables
280
     0
  1
2
  0
DICTIONARY
  5
1048C
330
D05A
100
AcDbDictionary
  3
ACAD_XREC_ROUNDTRIP
360
1048D
1001
ACAD
1000
TREAT_AS_HARD
1070
     1
  0
DICTIONARY
  5
1048E
330
D052
100
AcDbDictionary
  3
ACAD_XREC_ROUNDTRIP
360
1048F
1001
ACAD
1000
TREAT_AS_HARD
1070
     1
  0
DICTIONARY
  5
10490
330
D062
100
AcDbDictionary
  3
ACAD_XREC_ROUNDTRIP
360
10491
1001
ACAD
1000
TREAT_AS_HARD
1070
     1
  0
XRECORD
  5
1048D
102
{ACAD_REACTORS
330
1048C
102
}
330
1048C
100
AcDbXrecord
102
MATERIAL
148
0.0
149
0.0
149
0.0
 93
        0
 94
      127
282
     0
 72
     0
 77
     0
171
     0
175
     0
179
     0
273
     0
  0
XRECORD
  5
1048F
102
{ACAD_REACTORS
330
1048E
102
}
330
1048E
100
AcDbXrecord
102
MATERIAL
148
0.0
149
0.0
149
0.0
 93
        0
 94
      127
282
     0
 72
     0
 77
     0
171
     0
175
     0
179
     0
273
     0
  0
XRECORD
  5
10491
102
{ACAD_REACTORS
330
10490
102
}
330
10490
100
AcDbXrecord
102
MATERIAL
148
0.0
149
0.0
149
0.0
 93
        0
 94
      127
282
     0
 72
     0
 77
     0
171
     0
175
     0
179
     0
273
     0
  0
ENDSEC
  0
EOF
