  0
SECTION
  2
HEADER
  9
$ACADVER
  1
AC1012
  9
$DWGCODEPAGE
  3
ansi_932
  9
$INSBASE
 10
0.0
 20
0.0
 30
0.0
  9
$EXTMIN
 10
185.8019001102324
 20
-60.93391747912393
 30
0.0
  9
$EXTMAX
 10
483.3398118651352
 20
188.3755990258646
 30
0.0
  9
$LIMMIN
 10
0.0
 20
0.0
  9
$LIMMAX
 10
420.0
 20
297.0
  9
$ORTHOMODE
 70
     0
  9
$REGENMODE
 70
     1
  9
$FILLMODE
 70
     1
  9
$QTEXTMODE
 70
     0
  9
$MIRRTEXT
 70
     0
  9
$DRAGMODE
 70
     2
  9
$LTSCALE
 40
0.5
  9
$OSMODE
 70
  2351
  9
$ATTMODE
 70
     1
  9
$TEXTSIZE
 40
4.0
  9
$TRACEWID
 40
1.0
  9
$TEXTSTYLE
  7
STANDARD
  9
$CLAYER
  8
1TEXT
  9
$CELTYPE
  6
BYLAYER
  9
$CECOLOR
 62
   256
  9
$CELTSCALE
 40
1.0
  9
$DELOBJ
 70
     1
  9
$DISPSILH
 70
     0
  9
$DIMSCALE
 40
1.0
  9
$DIMASZ
 40
2.0
  9
$DIMEXO
 40
0.0
  9
$DIMDLI
 40
7.0
  9
$DIMRND
 40
0.0
  9
$DIMDLE
 40
0.0
  9
$DIMEXE
 40
1.0
  9
$DIMTP
 40
0.0
  9
$DIMTM
 40
0.0
  9
$DIMTXT
 40
3.5
  9
$DIMCEN
 40
0.0
  9
$DIMTSZ
 40
0.0
  9
$DIMTOL
 70
     0
  9
$DIMLIM
 70
     0
  9
$DIMTIH
 70
     0
  9
$DIMTOH
 70
     0
  9
$DIMSE1
 70
     0
  9
$DIMSE2
 70
     0
  9
$DIMTAD
 70
     1
  9
$DIMZIN
 70
     8
  9
$DIMBLK
  1

  9
$DIMASO
 70
     1
  9
$DIMSHO
 70
     1
  9
$DIMPOST
  1
 
  9
$DIMAPOST
  1

  9
$DIMALT
 70
     0
  9
$DIMALTD
 70
     2
  9
$DIMALTF
 40
25.4
  9
$DIMLFAC
 40
1.0
  9
$DIMTOFL
 70
     1
  9
$DIMTVP
 40
0.0
  9
$DIMTIX
 70
     0
  9
$DIMSOXD
 70
     0
  9
$DIMSAH
 70
     1
  9
$DIMBLK1
  1
OPEN30
  9
$DIMBLK2
  1
OPEN30
  9
$DIMSTYLE
  2
NEWX10
  9
$DIMCLRD
 70
   256
  9
$DIMCLRE
 70
   256
  9
$DIMCLRT
 70
   201
  9
$DIMTFAC
 40
0.7
  9
$DIMGAP
 40
0.7
  9
$DIMJUST
 70
     0
  9
$DIMSD1
 70
     0
  9
$DIMSD2
 70
     0
  9
$DIMTOLJ
 70
     1
  9
$DIMTZIN
 70
     8
  9
$DIMALTZ
 70
     0
  9
$DIMALTTZ
 70
     0
  9
$DIMFIT
 70
     2
  9
$DIMUPT
 70
     0
  9
$DIMUNIT
 70
     2
  9
$DIMDEC
 70
     2
  9
$DIMTDEC
 70
     4
  9
$DIMALTU
 70
     2
  9
$DIMALTTD
 70
     2
  9
$DIMTXSTY
  7
STANDARD
  9
$DIMAUNIT
 70
     0
  9
$LUNITS
 70
     2
  9
$LUPREC
 70
     4
  9
$SKETCHINC
 40
1.0
  9
$FILLETRAD
 40
0.0
  9
$AUNITS
 70
     0
  9
$AUPREC
 70
     2
  9
$MENU
  1
acad
  9
$ELEVATION
 40
0.0
  9
$PELEVATION
 40
0.0
  9
$THICKNESS
 40
0.0
  9
$LIMCHECK
 70
     0
  9
$CHAMFERA
 40
10.0
  9
$CHAMFERB
 40
10.0
  9
$CHAMFERC
 40
20.0
  9
$CHAMFERD
 40
0.0
  9
$SKPOLY
 70
     0
  9
$TDCREATE
 40
2451318.621352917
  9
$TDUPDATE
 40
2458072.500525069
  9
$TDINDWG
 40
0.6652889236
  9
$TDUSRTIMER
 40
0.6652889236
  9
$USRTIMER
 70
     1
  9
$ANGBASE
 50
0.0
  9
$ANGDIR
 70
     0
  9
$PDMODE
 70
     0
  9
$PDSIZE
 40
0.0
  9
$PLINEWID
 40
0.0
  9
$COORDS
 70
     3
  9
$SPLFRAME
 70
     0
  9
$SPLINETYPE
 70
     6
  9
$SPLINESEGS
 70
     8
  9
$ATTDIA
 70
     0
  9
$ATTREQ
 70
     1
  9
$HANDLING
 70
     1
  9
$HANDSEED
  5
10290
  9
$SURFTAB1
 70
     6
  9
$SURFTAB2
 70
     6
  9
$SURFTYPE
 70
     6
  9
$SURFU
 70
     6
  9
$SURFV
 70
     6
  9
$UCSNAME
  2

  9
$UCSORG
 10
0.0
 20
0.0
 30
0.0
  9
$UCSXDIR
 10
1.0
 20
0.0
 30
0.0
  9
$UCSYDIR
 10
0.0
 20
1.0
 30
0.0
  9
$PUCSNAME
  2

  9
$PUCSORG
 10
0.0
 20
0.0
 30
0.0
  9
$PUCSXDIR
 10
1.0
 20
0.0
 30
0.0
  9
$PUCSYDIR
 10
0.0
 20
1.0
 30
0.0
  9
$USERI1
 70
     0
  9
$USERI2
 70
     0
  9
$USERI3
 70
     0
  9
$USERI4
 70
     0
  9
$USERI5
 70
     0
  9
$USERR1
 40
0.0
  9
$USERR2
 40
0.0
  9
$USERR3
 40
0.0
  9
$USERR4
 40
0.0
  9
$USERR5
 40
0.0
  9
$WORLDVIEW
 70
     1
  9
$SHADEDGE
 70
     3
  9
$SHADEDIF
 70
    70
  9
$TILEMODE
 70
     1
  9
$MAXACTVP
 70
    48
  9
$PINSBASE
 10
0.0
 20
0.0
 30
0.0
  9
$PLIMCHECK
 70
     0
  9
$PEXTMIN
 10
1.000000000000000E+20
 20
1.000000000000000E+20
 30
1.000000000000000E+20
  9
$PEXTMAX
 10
-1.000000000000000E+20
 20
-1.000000000000000E+20
 30
-1.000000000000000E+20
  9
$PLIMMIN
 10
0.0
 20
0.0
  9
$PLIMMAX
 10
420.0
 20
297.0
  9
$UNITMODE
 70
     0
  9
$VISRETAIN
 70
     1
  9
$PLINEGEN
 70
     0
  9
$PSLTSCALE
 70
     1
  9
$TREEDEPTH
 70
  3020
  9
$PICKSTYLE
 70
     1
  9
$CMLSTYLE
  2
STANDARD
  9
$CMLJUST
 70
     0
  9
$CMLSCALE
 40
20.0
  9
$SAVEIMAGES
 70
     1
  0
ENDSEC
  0
SECTION
  2
CLASSES
  0
CLASS
  1
DICTIONARYVAR
  2
AcDbDictionaryVar
  3
ObjectDBX Classes
 90
        0
280
     0
281
     0
  0
CLASS
  1
IDBUFFER
  2
AcDbIdBuffer
  3
ObjectDBX Classes
 90
    32768
280
     0
281
     0
  0
CLASS
  1
LWPOLYLINE
  2
AcDbPolyline
  3
ObjectDBX Classes
 90
    32768
280
     0
281
     1
  0
CLASS
  1
ACDBDICTIONARYWDFLT
  2
AcDbDictionaryWithDefault
  3
ObjectDBX Classes
 90
    32768
280
     0
281
     0
  0
CLASS
  1
ACDBPLACEHOLDER
  2
AcDbPlaceHolder
  3
ObjectDBX Classes
 90
        0
280
     0
281
     0
  0
CLASS
  1
LAYOUT
  2
AcDbLayout
  3
ObjectDBX Classes
 90
        0
280
     0
281
     0
  0
CLASS
  1
TABLESTYLE
  2
AcDbTableStyle
  3
ObjectDBX Classes
 90
     4095
280
     0
281
     0
  0
CLASS
  1
SORTENTSTABLE
  2
AcDbSortentsTable
  3
ObjectDBX Classes
 90
    32768
280
     0
281
     0
  0
CLASS
  1
MATERIAL
  2
AcDbMaterial
  3
ObjectDBX Classes
 90
     1153
280
     0
281
     0
  0
CLASS
  1
VISUALSTYLE
  2
AcDbVisualStyle
  3
ObjectDBX Classes
 90
     4095
280
     0
281
     0
  0
CLASS
  1
SCALE
  2
AcDbScale
  3
ObjectDBX Classes
 90
     1153
280
     0
281
     0
  0
CLASS
  1
MLEADERSTYLE
  2
AcDbMLeaderStyle
  3
ACDB_MLEADERSTYLE_CLASS
 90
     4095
280
     0
281
     0
  0
CLASS
  1
CELLSTYLEMAP
  2
AcDbCellStyleMap
  3
ObjectDBX Classes
 90
     1152
280
     0
281
     0
  0
CLASS
  1
SUN
  2
AcDbSun
  3
SCENEOE
 90
     1153
280
     0
281
     0
  0
CLASS
  1
DIMASSOC
  2
AcDbDimAssoc
  3
"AcDbDimAssoc|Product Desc:     AcDim ARX App For Dimension|Company:          Autodesk, Inc.|WEB Address:      www.autodesk.com"
 90
        0
280
     0
281
     0
  0
CLASS
  1
XRECORD
  2
AcDbXrecord
  3
ObjectDBX Classes
 90
    32768
280
     0
281
     0
  0
CLASS
  1
HATCH
  2
AcDbHatch
  3
ObjectDBX Classes
 90
    32768
280
     0
281
     1
  0
ENDSEC
  0
SECTION
  2
TABLES
  0
TABLE
  2
VPORT
  5
8
330
0
100
AcDbSymbolTable
 70
     1
  0
VPORT
  5
CFAB
330
8
100
AcDbSymbolTableRecord
100
AcDbViewportTableRecord
  2
*ACTIVE
 70
     0
 10
0.0
 20
0.0
 11
1.0
 21
1.0
 12
334.5708559876838
 22
63.72084077337033
 13
0.0
 23
0.0
 14
10.0
 24
10.0
 15
10.0
 25
10.0
 16
0.0
 26
0.0
 36
1.0
 17
0.0
 27
0.0
 37
0.0
 40
267.6796914053561
 41
2.122931442080378
 42
50.0
 43
0.0
 44
0.0
 50
0.0
 51
0.0
 71
    16
 72
   100
 73
     1
 74
     1
 75
     0
 76
     0
 77
     0
 78
     0
  0
ENDTAB
  0
TABLE
  2
LTYPE
  5
5
330
0
100
AcDbSymbolTable
 70
     3
  0
LTYPE
  5
12
330
5
100
AcDbSymbolTableRecord
100
AcDbLinetypeTableRecord
  2
BYBLOCK
 70
     0
  3

 72
    65
 73
     0
 40
0.0
  0
LTYPE
  5
13
330
5
100
AcDbSymbolTableRecord
100
AcDbLinetypeTableRecord
  2
BYLAYER
 70
     0
  3

 72
    65
 73
     0
 40
0.0
  0
LTYPE
  5
14
330
5
100
AcDbSymbolTableRecord
100
AcDbLinetypeTableRecord
  2
CONTINUOUS
 70
     0
  3
Solid line
 72
    65
 73
     0
 40
0.0
  0
LTYPE
  5
2C03
330
5
100
AcDbSymbolTableRecord
100
AcDbLinetypeTableRecord
  2
HIDDEN
 70
     0
  3
Hidden __ __ __ __ __ __ __ __ __ __ __ __ __ _
 72
    65
 73
     2
 40
9.524999999999999
 49
6.35
 74
     0
 49
-3.175
 74
     0
  0
LTYPE
  5
A61B
330
5
100
AcDbSymbolTableRecord
100
AcDbLinetypeTableRecord
  2
CENTER2
 70
     0
  3
Center (.5x) ___ _ ___ _ ___ _ ___ _ ___ _ ___
 72
    65
 73
     4
 40
28.575
 49
19.05
 74
     0
 49
-3.175
 74
     0
 49
3.175
 74
     0
 49
-3.175
 74
     0
  0
ENDTAB
  0
TABLE
  2
LAYER
  5
2
102
{ACAD_XDICTIONARY
360
D16C
102
}
330
0
100
AcDbSymbolTable
 70
     6
  0
LAYER
  5
E
102
{ACAD_XDICTIONARY
360
D0B5
102
}
330
2
100
AcDbSymbolTableRecord
100
AcDbLayerTableRecord
  2
0
 70
     0
 62
     7
  6
CONTINUOUS
  0
LAYER
  5
29
102
{ACAD_XDICTIONARY
360
D0B7
102
}
330
2
100
AcDbSymbolTableRecord
100
AcDbLayerTableRecord
  2
1CENTER
 70
     0
 62
     7
  6
CENTER2
  0
LAYER
  5
31
102
{ACAD_XDICTIONARY
360
D0B9
102
}
330
2
100
AcDbSymbolTableRecord
100
AcDbLayerTableRecord
  2
1TEXT
 70
     0
 62
     7
  6
CONTINUOUS
  0
LAYER
  5
243
102
{ACAD_XDICTIONARY
360
D0BF
102
}
330
2
100
AcDbSymbolTableRecord
100
AcDbLayerTableRecord
  2
01
 70
     0
 62
     1
  6
CONTINUOUS
  0
LAYER
  5
24E
102
{ACAD_XDICTIONARY
360
D0C5
102
}
330
2
100
AcDbSymbolTableRecord
100
AcDbLayerTableRecord
  2
1DIM
 70
     0
 62
     7
  6
CONTINUOUS
  0
LAYER
  5
2C05
102
{ACAD_XDICTIONARY
360
D0D3
102
}
330
2
100
AcDbSymbolTableRecord
100
AcDbLayerTableRecord
  2
1HIDDEN
 70
     0
 62
     7
  6
HIDDEN
  0
ENDTAB
  0
TABLE
  2
STYLE
  5
3
330
0
100
AcDbSymbolTable
 70
     1
  0
STYLE
  5
F
330
3
100
AcDbSymbolTableRecord
100
AcDbTextStyleTableRecord
  2
STANDARD
 70
     0
 40
0.0
 41
1.0
 50
0.0
 71
     0
 42
4.0
  3
txt.shx
  4
extfont.shx
  0
ENDTAB
  0
TABLE
  2
VIEW
  5
6
330
0
100
AcDbSymbolTable
 70
     0
  0
ENDTAB
  0
TABLE
  2
UCS
  5
7
330
0
100
AcDbSymbolTable
 70
     0
  0
ENDTAB
  0
TABLE
  2
APPID
  5
9
330
0
100
AcDbSymbolTable
 70
    13
  0
APPID
  5
10
330
9
100
AcDbSymbolTableRecord
100
AcDbRegAppTableRecord
  2
ACAD
 70
     0
  0
APPID
  5
21
330
9
100
AcDbSymbolTableRecord
100
AcDbRegAppTableRecord
  2
DRAWINGVARIABLESXDATA
 70
     0
  0
APPID
  5
64
330
9
100
AcDbSymbolTableRecord
100
AcDbRegAppTableRecord
  2
CONTENTTABDATA
 70
     0
  0
APPID
  5
65
330
9
100
AcDbSymbolTableRecord
100
AcDbRegAppTableRecord
  2
CONTENTCURRENTTAB
 70
     0
  0
APPID
  5
66
330
9
100
AcDbSymbolTableRecord
100
AcDbRegAppTableRecord
  2
CONTENTBLOCKDESCRIPTION
 70
     0
  0
APPID
  5
67
330
9
100
AcDbSymbolTableRecord
100
AcDbRegAppTableRecord
  2
CONTENTBLOCKICON
 70
     0
  0
APPID
  5
68
330
9
100
AcDbSymbolTableRecord
100
AcDbRegAppTableRecord
  2
CONTENTLONGBLOCKNAME
 70
     0
  0
APPID
  5
2AE
330
9
100
AcDbSymbolTableRecord
100
AcDbRegAppTableRecord
  2
ACAD_PSEXT
 70
     0
  0
APPID
  5
D09F
330
9
100
AcDbSymbolTableRecord
100
AcDbRegAppTableRecord
  2
ACAD_MLEADERVER
 70
     0
  0
APPID
  5
D7D9
330
9
100
AcDbSymbolTableRecord
100
AcDbRegAppTableRecord
  2
ACAD_EXEMPT_FROM_CAD_STAND
 70
     0
  0
APPID
  5
DB3E
330
9
100
AcDbSymbolTableRecord
100
AcDbRegAppTableRecord
  2
ACAECLAYERSTANDARD
 70
     0
  0
APPID
  5
F056
330
9
100
AcDbSymbolTableRecord
100
AcDbRegAppTableRecord
  2
ACADANNOTATIVE
 70
     0
  0
APPID
  5
F057
330
9
100
AcDbSymbolTableRecord
100
AcDbRegAppTableRecord
  2
ACDBBLOCKREPETAG
 70
     0
  0
ENDTAB
  0
TABLE
  2
DIMSTYLE
  5
A
330
0
100
AcDbSymbolTable
 70
     1
  0
DIMSTYLE
105
48
330
A
100
AcDbSymbolTableRecord
100
AcDbDimStyleTableRecord
  2
NEWX10
 70
     0
  3
 
  4

  5

  6
OPEN30
  7
OPEN30
 40
1.0
 41
2.0
 42
0.0
 43
7.0
 44
1.0
 45
0.0
 46
0.0
 47
0.0
 48
0.0
140
3.5
141
0.0
142
0.0
143
25.4
144
1.0
145
0.0
146
0.7
147
0.7
 71
     0
 72
     0
 73
     0
 74
     0
 75
     0
 76
     0
 77
     1
 78
     8
170
     0
171
     2
172
     1
173
     1
174
     0
175
     0
176
   256
177
   256
178
   201
179
     2
270
     2
271
     2
272
     4
273
     2
274
     2
340
F
275
     0
280
     0
281
     0
282
     0
283
     1
284
     8
285
     0
286
     0
287
     2
288
     0
  0
ENDTAB
  0
TABLE
  2
BLOCK_RECORD
  5
1
330
0
100
AcDbSymbolTable
 70
     8
  0
BLOCK_RECORD
  5
18
102
{ACAD_XDICTIONARY
360
88F
102
}
330
1
100
AcDbSymbolTableRecord
100
AcDbBlockTableRecord
  2
*MODEL_SPACE
  0
BLOCK_RECORD
  5
15
330
1
100
AcDbSymbolTableRecord
100
AcDbBlockTableRecord
  2
*PAPER_SPACE
  0
BLOCK_RECORD
  5
42
330
1
100
AcDbSymbolTableRecord
100
AcDbBlockTableRecord
  2
_OPEN30
  0
BLOCK_RECORD
  5
F0A6
330
1
100
AcDbSymbolTableRecord
100
AcDbBlockTableRecord
  2
A3WAKUKAWAJUN2017_HYOUDAI_
  0
BLOCK_RECORD
  5
100F0
330
1
100
AcDbSymbolTableRecord
100
AcDbBlockTableRecord
  2
*X68
  0
BLOCK_RECORD
  5
1013E
330
1
100
AcDbSymbolTableRecord
100
AcDbBlockTableRecord
  2
*X69
  0
BLOCK_RECORD
  5
10190
330
1
100
AcDbSymbolTableRecord
100
AcDbBlockTableRecord
  2
*X70
  0
BLOCK_RECORD
  5
101E1
330
1
100
AcDbSymbolTableRecord
100
AcDbBlockTableRecord
  2
*X71
  0
BLOCK_RECORD
  5
1021E
330
1
100
AcDbSymbolTableRecord
100
AcDbBlockTableRecord
  2
*X72
  0
BLOCK_RECORD
  5
1025E
330
1
100
AcDbSymbolTableRecord
100
AcDbBlockTableRecord
  2
*X73
  0
ENDTAB
  0
ENDSEC
  0
SECTION
  2
BLOCKS
  0
BLOCK
  5
19
330
18
100
AcDbEntity
  8
0
100
AcDbBlockBegin
  2
*MODEL_SPACE
 70
     0
 10
0.0
 20
0.0
 30
0.0
  3
*MODEL_SPACE
  1

  0
ENDBLK
  5
1A
330
18
100
AcDbEntity
  8
0
100
AcDbBlockEnd
  0
BLOCK
  5
16
330
15
100
AcDbEntity
 67
     1
  8
0
100
AcDbBlockBegin
  2
*PAPER_SPACE
 70
     0
 10
0.0
 20
0.0
 30
0.0
  3
*PAPER_SPACE
  1

  0
ENDBLK
  5
17
330
15
100
AcDbEntity
 67
     1
  8
0
100
AcDbBlockEnd
  0
BLOCK
  5
43
330
42
100
AcDbEntity
  8
0
100
AcDbBlockBegin
  2
_OPEN30
 70
     0
 10
0.0
 20
0.0
 30
0.0
  3
_OPEN30
  1

  0
LINE
  5
44
330
42
100
AcDbEntity
  8
0
  6
BYBLOCK
 62
     0
100
AcDbLine
 10
-1.0
 20
0.26794919
 30
0.0
 11
0.0
 21
0.0
 31
0.0
  0
LINE
  5
45
330
42
100
AcDbEntity
  8
0
  6
BYBLOCK
 62
     0
100
AcDbLine
 10
0.0
 20
0.0
 30
0.0
 11
-1.0
 21
-0.26794919
 31
0.0
  0
LINE
  5
46
330
42
100
AcDbEntity
  8
0
  6
BYBLOCK
 62
     0
100
AcDbLine
 10
0.0
 20
0.0
 30
0.0
 11
-1.0
 21
0.0
 31
0.0
  0
ENDBLK
  5
47
330
42
100
AcDbEntity
  8
0
100
AcDbBlockEnd
  0
BLOCK
  5
F7A5
330
F0A6
100
AcDbEntity
  8
0
100
AcDbBlockBegin
  2
A3WAKUKAWAJUN2017_HYOUDAI_
 70
     0
 10
0.0
 20
0.0
 30
0.0
  3
A3WAKUKAWAJUN2017_HYOUDAI_
  1

  0
LINE
  5
F0A8
330
F0A6
100
AcDbEntity
  8
0
100
AcDbLine
 10
13.26299999998673
 20
-0.0001000000000317
 30
0.0
 11
9.236999999990758
 21
8.999899999990987
 31
0.0
1001
ACAD
1000
ASC_BOUNDS
1002
{
1070
    19
1005
F0E9
1002
}
  0
LINE
  5
F0A9
330
F0A6
100
AcDbEntity
  8
0
100
AcDbLine
 10
5.657999999994331
 20
0.9999999999989768
 30
0.0
 11
9.236999999990758
 21
8.999999999991019
 31
0.0
1001
ACAD
1000
ASC_BOUNDS
1002
{
1070
    19
1005
F0E9
1002
}
  0
LINE
  5
F0AA
330
F0A6
100
AcDbEntity
  8
0
100
AcDbLine
 10
18.59199999998134
 20
-0.2368999999997641
 30
0.0
 11
16.46099999998353
 21
5.432899999994561
 31
0.0
1001
ACAD
1000
ASC_BOUNDS
1002
{
1070
    19
1005
F0EA
1002
}
  0
LINE
  5
F0AB
330
F0A6
100
AcDbEntity
  8
0
100
AcDbLine
 10
18.59199999998134
 20
-0.2368999999997641
 30
0.0
 11
22.38199999997767
 21
8.763099999991255
 31
0.0
1001
ACAD
1000
ASC_BOUNDS
1002
{
1070
    19
1005
F0EA
1002
}
  0
LINE
  5
F0AC
330
F0A6
100
AcDbEntity
  8
0
100
AcDbLine
 10
14.32899999998563
 20
-0.2368999999997641
 30
0.0
 11
16.46099999998353
 21
5.432899999994561
 31
0.0
1001
ACAD
1000
ASC_BOUNDS
1002
{
1070
    19
1005
F0EA
1002
}
  0
LINE
  5
F0AD
330
F0A6
100
AcDbEntity
  8
0
100
AcDbLine
 10
14.32899999998563
 20
-0.2368999999997641
 30
0.0
 11
10.53899999998941
 21
8.763099999991255
 31
0.0
1001
ACAD
1000
ASC_BOUNDS
1002
{
1070
    19
1005
F0EA
1002
}
  0
LINE
  5
F0AE
330
F0A6
100
AcDbEntity
  8
0
100
AcDbLine
 10
19.53899999998043
 20
-0.0001000000000317
 30
0.0
 11
23.56599999997638
 21
8.999899999990987
 31
0.0
1001
ACAD
1000
ASC_BOUNDS
1002
{
1070
    19
1005
F0EB
1002
}
  0
LINE
  5
F0AF
330
F0A6
100
AcDbEntity
  8
0
100
AcDbLine
 10
26.97358892824991
 20
1.383099999991202
 30
0.0
 11
23.56599999997638
 21
8.999899999990987
 31
0.0
1001
ACAD
1000
ASC_BOUNDS
1002
{
1070
    19
1005
F0EB
1002
}
  0
LINE
  5
F0B0
330
F0A6
100
AcDbEntity
  8
0
100
AcDbLine
 10
5.657999999994331
 20
0.9999999999989768
 30
0.0
 11
3.181999999996833
 21
4.668599999995308
 31
0.0
1001
ACAD
1000
ASC_BOUNDS
1002
{
1070
    19
1005
F0E9
1002
}
  0
LINE
  5
F0B1
330
F0A6
100
AcDbEntity
  8
0
100
AcDbLine
 10
4.617999999995391
 20
-0.0001000000000317
 30
0.0
 11
1.420999999998571
 21
4.736799999995242
 31
0.0
1001
ACAD
1000
ASC_BOUNDS
1002
{
1070
    19
1005
F0E9
1002
}
  0
LINE
  5
F0B2
330
F0A6
100
AcDbEntity
  8
0
100
AcDbLine
 10
1.420999999998571
 20
8.763099999991255
 30
0.0
 11
1.420999999998571
 21
0.0
 31
0.0
1001
ACAD
1000
ASC_BOUNDS
1002
{
1070
    19
1005
F0EE
1002
}
  0
LINE
  5
F0B3
330
F0A6
100
AcDbEntity
  8
0
100
AcDbLine
 10
0.0
 20
8.763099999991255
 30
0.0
 11
0.0
 21
0.0
 31
0.0
1001
ACAD
1000
ASC_BOUNDS
1002
{
1070
    19
1005
F0EE
1002
}
  0
LINE
  5
F0B4
330
F0A6
100
AcDbEntity
  8
0
100
AcDbLine
 10
6.766999999993232
 20
-0.0001000000000317
 30
0.0
 11
7.826999999992154
 21
2.368399999997621
 31
0.0
1001
ACAD
1000
ASC_BOUNDS
1002
{
1070
    19
1005
F0E9
1002
}
  0
LINE
  5
F0B5
330
F0A6
100
AcDbEntity
  8
0
100
AcDbLine
 10
0.0
 20
0.0
 30
0.0
 11
1.420999999998571
 21
0.0
 31
0.0
1001
ACAD
1000
ASC_BOUNDS
1002
{
1070
    19
1005
F0EE
1002
}
  0
LINE
  5
F0B6
330
F0A6
100
AcDbEntity
  8
0
100
AcDbLine
 10
4.617999999995391
 20
0.0
 30
0.0
 11
6.766999999993232
 21
0.0
 31
0.0
1001
ACAD
1000
ASC_BOUNDS
1002
{
1070
    19
1005
F0E9
1002
}
  0
LINE
  5
F0B7
330
F0A6
100
AcDbEntity
  8
0
100
AcDbLine
 10
11.70599999998831
 20
-0.0001000000000317
 30
0.0
 11
10.64699999998936
 21
2.368399999997621
 31
0.0
1001
ACAD
1000
ASC_BOUNDS
1002
{
1070
    19
1005
F0E9
1002
}
  0
LINE
  5
F0B8
330
F0A6
100
AcDbEntity
  8
0
100
AcDbLine
 10
7.826999999992154
 20
2.368399999997621
 30
0.0
 11
10.64699999998936
 21
2.368399999997621
 31
0.0
1001
ACAD
1000
ASC_BOUNDS
1002
{
1070
    19
1005
F0E9
1002
}
  0
LINE
  5
F0B9
330
F0A6
100
AcDbEntity
  8
0
100
AcDbLine
 10
11.70599999998831
 20
0.0
 30
0.0
 11
13.26299999998673
 21
0.0
 31
0.0
1001
ACAD
1000
ASC_BOUNDS
1002
{
1070
    19
1005
F0E9
1002
}
  0
LINE
  5
F0BA
330
F0A6
100
AcDbEntity
  8
0
100
AcDbLine
 10
22.15599999997789
 20
2.368399999997621
 30
0.0
 11
24.97599999997499
 21
2.368399999997621
 31
0.0
1001
ACAD
1000
ASC_BOUNDS
1002
{
1070
    19
1005
F0EB
1002
}
  0
LINE
  5
F0BB
330
F0A6
100
AcDbEntity
  8
0
100
AcDbLine
 10
19.53899999998043
 20
0.0
 30
0.0
 11
21.09599999997886
 21
0.0
 31
0.0
1001
ACAD
1000
ASC_BOUNDS
1002
{
1070
    19
1005
F0EB
1002
}
  0
LINE
  5
F0BC
330
F0A6
100
AcDbEntity
  8
0
100
AcDbLine
 10
21.09599999997886
 20
-0.0001000000000317
 30
0.0
 11
22.15599999997789
 21
2.368399999997621
 31
0.0
1001
ACAD
1000
ASC_BOUNDS
1002
{
1070
    19
1005
F0EB
1002
}
  0
LINE
  5
F0BD
330
F0A6
100
AcDbEntity
  8
0
100
AcDbLine
 10
26.02015566812236
 20
0.0330999999912365
 30
0.0
 11
24.97599999997499
 21
2.368399999997621
 31
0.0
1001
ACAD
1000
ASC_BOUNDS
1002
{
1070
    19
1005
F0EB
1002
}
  0
LINE
  5
F0BE
330
F0A6
100
AcDbEntity
  8
0
100
AcDbLine
 10
14.32399999998563
 20
3.315799999996671
 30
0.0
 11
16.46099999998353
 21
8.999899999990987
 31
0.0
1001
ACAD
1000
ASC_BOUNDS
1002
{
1070
    19
1005
F0EA
1002
}
  0
LINE
  5
F0BF
330
F0A6
100
AcDbEntity
  8
0
100
AcDbLine
 10
6.432999999993513
 20
8.763099999991255
 30
0.0
 11
3.181999999996833
 21
4.668599999995308
 31
0.0
1001
ACAD
1000
ASC_BOUNDS
1002
{
1070
    19
1005
F0E9
1002
}
  0
LINE
  5
F0C0
330
F0A6
100
AcDbEntity
  8
0
100
AcDbLine
 10
4.617999999995391
 20
8.763099999991255
 30
0.0
 11
1.420999999998571
 21
4.736799999995242
 31
0.0
1001
ACAD
1000
ASC_BOUNDS
1002
{
1070
    19
1005
F0E9
1002
}
  0
LINE
  5
F0C1
330
F0A6
100
AcDbEntity
  8
0
100
AcDbLine
 10
0.0
 20
8.763099999991255
 30
0.0
 11
1.420999999998571
 21
8.763099999991255
 31
0.0
1001
ACAD
1000
ASC_BOUNDS
1002
{
1070
    19
1005
F0EE
1002
}
  0
LINE
  5
F0C2
330
F0A6
100
AcDbEntity
  8
0
100
AcDbLine
 10
4.617999999995391
 20
8.763099999991255
 30
0.0
 11
6.432999999993513
 21
8.763099999991255
 31
0.0
1001
ACAD
1000
ASC_BOUNDS
1002
{
1070
    19
1005
F0E9
1002
}
  0
LINE
  5
F0C3
330
F0A6
100
AcDbEntity
  8
0
100
AcDbLine
 10
14.32399999998563
 20
3.315799999996671
 30
0.0
 11
12.02999999998792
 21
8.763099999991255
 31
0.0
1001
ACAD
1000
ASC_BOUNDS
1002
{
1070
    19
1005
F0EA
1002
}
  0
LINE
  5
F0C4
330
F0A6
100
AcDbEntity
  8
0
100
AcDbLine
 10
10.06399999998996
 20
3.670999999996297
 30
0.0
 11
9.236999999990758
 21
5.5200999999945
 31
0.0
1001
ACAD
1000
ASC_BOUNDS
1002
{
1070
    19
1005
F0E9
1002
}
  0
LINE
  5
F0C5
330
F0A6
100
AcDbEntity
  8
0
100
AcDbLine
 10
8.409999999991555
 20
3.670999999996297
 30
0.0
 11
9.236999999990758
 21
5.5200999999945
 31
0.0
1001
ACAD
1000
ASC_BOUNDS
1002
{
1070
    19
1005
F0E9
1002
}
  0
LINE
  5
F0C6
330
F0A6
100
AcDbEntity
  8
0
100
AcDbLine
 10
8.409999999991555
 20
3.670999999996297
 30
0.0
 11
10.06399999998996
 21
3.670999999996297
 31
0.0
1001
ACAD
1000
ASC_BOUNDS
1002
{
1070
    19
1005
F0E9
1002
}
  0
LINE
  5
F0C7
330
F0A6
100
AcDbEntity
  8
0
100
AcDbLine
 10
10.53899999998941
 20
8.763099999991255
 30
0.0
 11
12.02999999998792
 21
8.763099999991255
 31
0.0
1001
ACAD
1000
ASC_BOUNDS
1002
{
1070
    19
1005
F0EA
1002
}
  0
LINE
  5
F0C8
330
F0A6
100
AcDbEntity
  8
0
100
AcDbLine
 10
22.7389999999773
 20
3.670999999996297
 30
0.0
 11
23.56599999997638
 21
5.5200999999945
 31
0.0
1001
ACAD
1000
ASC_BOUNDS
1002
{
1070
    19
1005
F0EB
1002
}
  0
LINE
  5
F0C9
330
F0A6
100
AcDbEntity
  8
0
100
AcDbLine
 10
22.7389999999773
 20
3.670999999996297
 30
0.0
 11
24.39299999997559
 21
3.670999999996297
 31
0.0
1001
ACAD
1000
ASC_BOUNDS
1002
{
1070
    19
1005
F0EB
1002
}
  0
LINE
  5
F0CA
330
F0A6
100
AcDbEntity
  8
0
100
AcDbLine
 10
18.59799999998143
 20
3.315799999996671
 30
0.0
 11
20.89099999997916
 21
8.763099999991255
 31
0.0
1001
ACAD
1000
ASC_BOUNDS
1002
{
1070
    19
1005
F0EA
1002
}
  0
LINE
  5
F0CB
330
F0A6
100
AcDbEntity
  8
0
100
AcDbLine
 10
18.59799999998143
 20
3.315799999996671
 30
0.0
 11
16.46099999998353
 21
8.999899999990987
 31
0.0
1001
ACAD
1000
ASC_BOUNDS
1002
{
1070
    19
1005
F0EA
1002
}
  0
LINE
  5
F0CC
330
F0A6
100
AcDbEntity
  8
0
100
AcDbLine
 10
20.89099999997916
 20
8.763099999991255
 30
0.0
 11
22.38199999997767
 21
8.763099999991255
 31
0.0
1001
ACAD
1000
ASC_BOUNDS
1002
{
1070
    19
1005
F0EA
1002
}
  0
LINE
  5
F0CD
330
F0A6
100
AcDbEntity
  8
0
100
AcDbLine
 10
24.39299999997559
 20
3.670999999996297
 30
0.0
 11
23.56599999997638
 21
5.5200999999945
 31
0.0
1001
ACAD
1000
ASC_BOUNDS
1002
{
1070
    19
1005
F0EB
1002
}
  0
LINE
  5
F0CE
330
F0A6
100
AcDbEntity
  8
0
100
AcDbLine
 10
44.99999999995498
 20
-0.2368999999997641
 30
0.0
 11
40.02599999995994
 21
5.341799999994635
 31
0.0
1001
ACAD
1000
ASC_BOUNDS
1002
{
1070
    19
1005
F0ED
1002
}
  0
LINE
  5
F0CF
330
F0A6
100
AcDbEntity
  8
0
100
AcDbLine
 10
40.02599999995994
 20
5.341799999994635
 30
0.0
 11
40.02599999995994
 21
0.0
 31
0.0
1001
ACAD
1000
ASC_BOUNDS
1002
{
1070
    19
1005
F0ED
1002
}
  0
LINE
  5
F0D0
330
F0A6
100
AcDbEntity
  8
0
100
AcDbLine
 10
38.60499999996136
 20
8.999999999991019
 30
0.0
 11
38.60499999996136
 21
0.0
 31
0.0
1001
ACAD
1000
ASC_BOUNDS
1002
{
1070
    19
1005
F0ED
1002
}
  0
LINE
  5
F0D1
330
F0A6
100
AcDbEntity
  8
0
100
AcDbLine
 10
44.99999999995498
 20
8.763099999991255
 30
0.0
 11
44.99999999995498
 21
-0.2368999999997641
 31
0.0
1001
ACAD
1000
ASC_BOUNDS
1002
{
1070
    19
1005
F0ED
1002
}
  0
LINE
  5
F0D2
330
F0A6
100
AcDbEntity
  8
0
100
AcDbLine
 10
38.60499999996136
 20
0.0
 30
0.0
 11
40.02599999995994
 21
0.0
 31
0.0
1001
ACAD
1000
ASC_BOUNDS
1002
{
1070
    19
1005
F0ED
1002
}
  0
LINE
  5
F0D3
330
F0A6
100
AcDbEntity
  8
0
100
AcDbLine
 10
43.57899999995641
 20
3.421199999996588
 30
0.0
 11
38.60499999996136
 21
8.999899999990987
 31
0.0
1001
ACAD
1000
ASC_BOUNDS
1002
{
1070
    19
1005
F0ED
1002
}
  0
LINE
  5
F0D4
330
F0A6
100
AcDbEntity
  8
0
100
AcDbLine
 10
43.57899999995641
 20
8.763099999991255
 30
0.0
 11
43.57899999995641
 21
3.421199999996588
 31
0.0
1001
ACAD
1000
ASC_BOUNDS
1002
{
1070
    19
1005
F0ED
1002
}
  0
LINE
  5
F0D5
330
F0A6
100
AcDbEntity
  8
0
100
AcDbLine
 10
43.57899999995641
 20
8.763099999991255
 30
0.0
 11
44.99999999995498
 21
8.763099999991255
 31
0.0
1001
ACAD
1000
ASC_BOUNDS
1002
{
1070
    19
1005
F0ED
1002
}
  0
LINE
  5
F0D6
330
F0A6
100
AcDbEntity
  8
0
100
AcDbLine
 10
37.67199999996831
 20
8.763099999991255
 30
0.0
 11
36.23199999996837
 21
8.763099999991255
 31
0.0
  0
LINE
  5
F0D7
330
F0A6
100
AcDbEntity
  8
0
100
AcDbLine
 10
31.64199999996833
 20
8.763099999991255
 30
0.0
 11
31.64199999996833
 21
2.481619422925121
 31
0.0
  0
LINE
  5
F0D8
330
F0A6
100
AcDbEntity
  8
0
100
AcDbLine
 10
37.67199999996831
 20
8.763099999991255
 30
0.0
 11
37.67199999996831
 21
2.481619422925121
 31
0.0
  0
LINE
  5
F0D9
330
F0A6
100
AcDbEntity
  8
0
100
AcDbLine
 10
36.23199999996837
 20
8.763099999991255
 30
0.0
 11
36.23199999996837
 21
2.481619422925064
 31
0.0
  0
LINE
  5
F0DA
330
F0A6
100
AcDbEntity
  8
0
100
AcDbLine
 10
33.08199999996839
 20
8.763099999991255
 30
0.0
 11
33.08199999996839
 21
2.481619422925121
 31
0.0
  0
ARC
  5
F0DB
330
F0A6
100
AcDbEntity
  8
0
100
AcDbCircle
 10
34.65699999996832
 20
3.183099999991214
 30
0.0
 40
3.420000000000007
100
AcDbArc
 50
240.0000000000255
 51
299.9999999999766
  0
ARC
  5
F0DC
330
F0A6
100
AcDbEntity
  8
0
100
AcDbCircle
 10
34.65699999996832
 20
3.183099999991214
 30
0.0
 40
1.97999999999999
100
AcDbArc
 50
240.000000000026
 51
299.9999999999703
  0
LINE
  5
F0DD
330
F0A6
100
AcDbEntity
  8
0
100
AcDbLine
 10
33.08199999996828
 20
8.763099999991255
 30
0.0
 11
31.64199999996833
 21
8.763099999991255
 31
0.0
  0
ARC
  5
F0DE
330
F0A6
100
AcDbEntity
  8
0
100
AcDbCircle
 10
35.06199999996829
 20
2.481619422925064
 30
0.0
 40
1.17
100
AcDbArc
 50
299.9999999999699
 51
0.0
  0
ARC
  5
F0DF
330
F0A6
100
AcDbEntity
  8
0
100
AcDbCircle
 10
34.25199999996835
 20
2.481619422925121
 30
0.0
 40
1.17
100
AcDbArc
 50
180.0
 51
240.0000000000238
  0
ARC
  5
F0E0
330
F0A6
100
AcDbEntity
  8
0
100
AcDbCircle
 10
35.06199999996841
 20
2.481619422925121
 30
0.0
 40
2.61
100
AcDbArc
 50
299.9999999999756
 51
0.0
  0
ARC
  5
F0E1
330
F0A6
100
AcDbEntity
  8
0
100
AcDbCircle
 10
34.25199999996835
 20
2.481619422925121
 30
0.0
 40
2.61
100
AcDbArc
 50
180.0
 51
240.0000000000244
  0
LINE
  5
F0E2
330
F0A6
100
AcDbEntity
  8
0
100
AcDbLine
 10
29.30199999996933
 20
8.763099999991255
 30
0.0
 11
30.74199999996927
 21
8.763099999991255
 31
0.0
1001
ACAD
1000
ASC_BOUNDS
1002
{
1070
    19
1005
F0EB
1002
}
  0
LINE
  5
F0E3
330
F0A6
100
AcDbEntity
  8
0
100
AcDbLine
 10
30.74199999996927
 20
8.763099999991255
 30
0.0
 11
30.74199999996927
 21
2.373099999991211
 31
0.0
1001
ACAD
1000
ASC_BOUNDS
1002
{
1070
    19
1005
F0EB
1002
}
  0
LINE
  5
F0E4
330
F0A6
100
AcDbEntity
  8
0
100
AcDbLine
 10
26.02015566812236
 20
0.0330999999912365
 30
0.0
 11
28.40199999996923
 21
0.0330999999912365
 31
0.0
1001
ACAD
1000
ASC_BOUNDS
1002
{
1070
    19
1005
F0EB
1002
}
  0
LINE
  5
F0E5
330
F0A6
100
AcDbEntity
  8
0
100
AcDbLine
 10
29.30199999996933
 20
8.763099999991255
 30
0.0
 11
29.30199999996933
 21
2.283099999991236
 31
0.0
1001
ACAD
1000
ASC_BOUNDS
1002
{
1070
    19
1005
F0EB
1002
}
  0
LINE
  5
F0E6
330
F0A6
100
AcDbEntity
  8
0
100
AcDbLine
 10
26.97358892824991
 20
1.383099999991202
 30
0.0
 11
28.40199999996923
 21
1.383099999991202
 31
0.0
1001
ACAD
1000
ASC_BOUNDS
1002
{
1070
    19
1005
F0EB
1002
}
  0
ARC
  5
F0E7
330
F0A6
100
AcDbEntity
  8
0
100
AcDbCircle
 10
28.40199999996923
 20
2.283099999991236
 30
0.0
 40
0.9
100
AcDbArc
 50
270.0
 51
0.0
1001
ACAD
1000
ASC_BOUNDS
1002
{
1070
    19
1005
F0EB
1002
}
  0
ARC
  5
F0E8
330
F0A6
100
AcDbEntity
  8
0
100
AcDbCircle
 10
28.40199999996923
 20
2.373099999991211
 30
0.0
 40
2.34
100
AcDbArc
 50
270.0
 51
0.0
1001
ACAD
1000
ASC_BOUNDS
1002
{
1070
    19
1005
F0EB
1002
}
  0
INSERT
  5
F0E9
330
F0A6
100
AcDbEntity
  8
0
100
AcDbBlockReference
  2
*X68
 10
0.0
 20
0.0
 30
0.0
1001
ACAD
1000
HATCH
1002
{
1070
    19
1000
ANSI37
1040
0.15
1040
0.0
1000
ASC_BOUNDS
1070
     2
1070
     2
1070
    12
1005
F0A8
1005
F0A9
1005
F0B0
1005
F0BF
1005
F0C2
1005
F0C0
1005
F0B1
1005
F0B6
1005
F0B4
1005
F0B8
1005
F0B7
1005
F0B9
1070
     2
1070
     3
1005
F0C4
1005
F0C6
1005
F0C5
1000
ASC_SEEDPOINT
1011
3.614004224891801
1021
2.996669441146025
1031
0.0
1000
R14_HATCH_DATA
1000
F0E9
1011
1.0
1021
0.0
1031
0.0
1011
0.0
1021
1.0
1031
0.0
1011
0.0
1021
0.0
1031
1.0
1040
0.0
1010
0.0
1020
0.0
1030
1.0
1000
ANSI37
1070
     0
1070
     1
1071
        2
1071
        7
1070
     0
1070
     1
1071
       17
1040
13.26299999998673
1040
-0.0001000000000317
1040
9.236999999990758
1040
8.999899999990987
1040
9.236999999990758
1040
8.999999999991019
1040
5.657999999994331
1040
0.9999999999989768
1040
3.181999999996833
1040
4.668599999995308
1040
6.432999999993513
1040
8.763099999991255
1040
4.617999999995391
1040
8.763099999991255
1040
1.420999999998571
1040
4.736799999995242
1040
4.617999999995391
1040
-0.0001000000000317
1040
4.617999999995391
1040
0.0
1040
6.766999999993232
1040
0.0
1040
6.766999999993232
1040
-0.0001000000000317
1040
7.826999999992154
1040
2.368399999997621
1040
10.64699999998936
1040
2.368399999997621
1040
11.70599999998831
1040
-0.0001000000000317
1040
11.70599999998831
1040
0.0
1040
13.26299999998673
1040
0.0
1071
       12
1005
F0A8
1005
F0A9
1005
F0B0
1005
F0BF
1005
F0C2
1005
F0C0
1005
F0B1
1005
F0B6
1005
F0B4
1005
F0B8
1005
F0B7
1005
F0B9
1071
       22
1070
     0
1070
     1
1071
        3
1040
9.236999999990758
1040
5.5200999999945
1040
10.06399999998996
1040
3.670999999996297
1040
8.409999999991555
1040
3.670999999996297
1071
        3
1005
F0C4
1005
F0C6
1005
F0C5
1070
     0
1070
     1
1040
0.0
1040
0.15
1070
     0
1070
     2
1040
0.7853981633974483
1040
49.29960901727088
1040
-10.17736998311392
1040
-0.3367596045400932
1040
0.3367596045400932
1070
     0
1040
2.356194490192345
1040
49.29960901727088
1040
-10.17736998311392
1040
-0.3367596045400932
1040
-0.3367596045400932
1070
     0
1040
0.0110235143455945
1071
        2
1040
3.614004224891801
1040
2.996669441146025
1040
0.0
1040
3.614004224891801
1040
2.996669441146025
1040
0.0
1002
}
  0
INSERT
  5
F0EA
330
F0A6
100
AcDbEntity
  8
0
100
AcDbBlockReference
  2
*X69
 10
0.0
 20
0.0
 30
0.0
1001
ACAD
1000
HATCH
1002
{
1070
    19
1000
ANSI37
1040
0.15
1040
0.0
1000
ASC_BOUNDS
1070
     1
1070
     2
1070
    10
1005
F0AA
1005
F0AB
1005
F0CC
1005
F0CA
1005
F0CB
1005
F0BE
1005
F0C3
1005
F0C7
1005
F0AD
1005
F0AC
1000
ASC_SEEDPOINT
1011
14.73245321214324
1021
2.798246178283421
1031
0.0
1000
R14_HATCH_DATA
1000
F0EA
1011
1.0
1021
0.0
1031
0.0
1011
0.0
1021
1.0
1031
0.0
1011
0.0
1021
0.0
1031
1.0
1040
0.0
1010
0.0
1020
0.0
1030
1.0
1000
ANSI37
1070
     0
1070
     1
1071
        1
1071
        7
1070
     0
1070
     1
1071
       10
1040
16.46099999998353
1040
5.432899999994561
1040
18.59199999998134
1040
-0.2368999999997641
1040
22.38199999997767
1040
8.763099999991255
1040
20.89099999997916
1040
8.763099999991255
1040
18.59799999998143
1040
3.315799999996671
1040
16.46099999998353
1040
8.999899999990987
1040
14.32399999998563
1040
3.315799999996671
1040
12.02999999998792
1040
8.763099999991255
1040
10.53899999998941
1040
8.763099999991255
1040
14.32899999998563
1040
-0.2368999999997641
1071
       10
1005
F0AA
1005
F0AB
1005
F0CC
1005
F0CA
1005
F0CB
1005
F0BE
1005
F0C3
1005
F0C7
1005
F0AD
1005
F0AC
1070
     0
1070
     1
1040
0.0
1040
0.15
1070
     0
1070
     2
1040
0.7853981633974483
1040
49.29960901727088
1040
-10.17736998311392
1040
-0.3367596045400932
1040
0.3367596045400932
1070
     0
1040
2.356194490192345
1040
49.29960901727088
1040
-10.17736998311392
1040
-0.3367596045400932
1040
-0.3367596045400932
1070
     0
1040
0.0110235143455945
1071
        1
1040
14.73245321214324
1040
2.798246178283421
1040
0.0
1002
}
  0
INSERT
  5
F0EB
330
F0A6
100
AcDbEntity
  8
0
100
AcDbBlockReference
  2
*X70
 10
0.0
 20
0.0
 30
0.0
1001
ACAD
1000
HATCH
1002
{
1070
    19
1000
ANSI37
1040
0.15
1040
0.0
1000
ASC_BOUNDS
1070
     2
1070
     2
1070
    13
1005
F0AE
1005
F0BB
1005
F0BC
1005
F0BA
1005
F0BD
1005
F0E4
1005
F0E8
1005
F0E3
1005
F0E2
1005
F0E5
1005
F0E7
1005
F0E6
1005
F0AF
1070
     2
1070
     3
1005
F0C8
1005
F0CD
1005
F0C9
1000
ASC_SEEDPOINT
1011
21.97929957367762
1021
3.294304244259308
1031
0.0
1000
R14_HATCH_DATA
1000
F0EB
1011
1.0
1021
0.0
1031
0.0
1011
0.0
1021
1.0
1031
0.0
1011
0.0
1021
0.0
1031
1.0
1040
0.0
1010
0.0
1020
0.0
1030
1.0
1000
ANSI37
1070
     0
1070
     1
1071
        2
1071
        7
1070
     1
1070
     1
1071
       15
1040
23.56599999997638
1040
8.999899999990987
1040
0.0
1040
19.53899999998043
1040
-0.0001000000000317
1040
0.0
1040
19.53899999998043
1040
0.0
1040
0.0
1040
21.09599999997886
1040
0.0
1040
0.0
1040
21.09599999997886
1040
-0.0001000000000317
1040
0.0
1040
22.15599999997789
1040
2.368399999997621
1040
0.0
1040
24.97599999997499
1040
2.368399999997621
1040
0.0
1040
26.02015566812236
1040
0.0330999999912365
1040
0.0
1040
28.40199999996923
1040
0.0330999999912365
1040
0.414213562373095
1040
30.74199999996923
1040
2.373099999991211
1040
0.0
1040
30.74199999996927
1040
8.763099999991255
1040
0.0
1040
29.30199999996933
1040
8.763099999991255
1040
0.0
1040
29.30199999996933
1040
2.283099999991236
1040
-0.414213562373095
1040
28.40199999996923
1040
1.383099999991237
1040
0.0
1040
26.97358892824991
1040
1.383099999991202
1040
0.0
1071
       13
1005
F0AE
1005
F0BB
1005
F0BC
1005
F0BA
1005
F0BD
1005
F0E4
1005
F0E8
1005
F0E3
1005
F0E2
1005
F0E5
1005
F0E7
1005
F0E6
1005
F0AF
1071
       22
1070
     0
1070
     1
1071
        3
1040
22.7389999999773
1040
3.670999999996297
1040
23.56599999997638
1040
5.5200999999945
1040
24.39299999997559
1040
3.670999999996297
1071
        3
1005
F0C8
1005
F0CD
1005
F0C9
1070
     0
1070
     1
1040
0.0
1040
0.15
1070
     0
1070
     2
1040
0.7853981633974483
1040
49.29960901727088
1040
-10.17736998311392
1040
-0.3367596045400932
1040
0.3367596045400932
1070
     0
1040
2.356194490192345
1040
49.29960901727088
1040
-10.17736998311392
1040
-0.3367596045400932
1040
-0.3367596045400932
1070
     0
1040
0.0110235143455945
1071
        2
1040
21.97929957367762
1040
3.294304244259308
1040
0.0
1040
21.97929957367762
1040
3.294304244259308
1040
0.0
1002
}
  0
INSERT
  5
F0EC
330
F0A6
100
AcDbEntity
  8
0
100
AcDbBlockReference
  2
*X71
 10
0.0
 20
0.0
 30
0.0
1001
ACAD
1000
HATCH
1002
{
1070
    19
1000
ANSI37
1040
0.15
1040
0.0
1000
R14_HATCH_DATA
1000
F0EC
1011
1.0
1021
0.0
1031
0.0
1011
0.0
1021
1.0
1031
0.0
1011
0.0
1021
0.0
1031
1.0
1040
0.0
1010
0.0
1020
0.0
1030
1.0
1000
ANSI37
1070
     0
1070
     1
1071
        1
1071
        7
1070
     1
1070
     1
1071
       12
1040
31.64199999996833
1040
2.481619422925121
1040
0.2679491924310942
1040
32.94699999997067
1040
0.2212931190493919
1040
0.2679491924301353
1040
36.36699999995983
1040
0.2212931190459813
1040
0.2679491924321411
1040
37.67199999996831
1040
2.481619422928361
1040
0.0
1040
37.67199999996831
1040
8.763099999991255
1040
0.0
1040
36.23199999996837
1040
8.763099999991255
1040
0.0
1040
36.23199999996837
1040
2.481619422925064
1040
-0.2679491924310291
1040
35.64699999996708
1040
1.468369700498386
1040
-0.267949192430519
1040
33.66699999997093
1040
1.468369700497703
1040
-0.267949192431809
1040
33.08199999996839
1040
2.481619422926997
1040
0.0
1040
33.08199999996839
1040
8.763099999991255
1040
0.0
1040
31.64199999996833
1040
8.763099999991255
1040
0.0
1071
        0
1070
     0
1070
     1
1040
0.0
1040
0.15
1070
     0
1070
     2
1040
0.7853981633974483
1040
49.29960901727088
1040
-10.17736998311392
1040
-0.3367596045400932
1040
0.3367596045400932
1070
     0
1040
2.356194490192345
1040
49.29960901727088
1040
-10.17736998311392
1040
-0.3367596045400932
1040
-0.3367596045400932
1070
     0
1040
0.0110235143455945
1071
        1
1040
32.30357378967278
1040
3.988785755459219
1040
0.0
1002
}
  0
INSERT
  5
F0ED
330
F0A6
100
AcDbEntity
  8
0
100
AcDbBlockReference
  2
*X72
 10
0.0
 20
0.0
 30
0.0
1001
ACAD
1000
HATCH
1002
{
1070
    19
1000
ANSI37
1040
0.15
1040
0.0
1000
ASC_BOUNDS
1070
     1
1070
     2
1070
     8
1005
F0CE
1005
F0D1
1005
F0D5
1005
F0D4
1005
F0D3
1005
F0D0
1005
F0D2
1005
F0CF
1000
ASC_SEEDPOINT
1011
39.74896370716704
1021
4.484843821435049
1031
0.0
1000
R14_HATCH_DATA
1000
F0ED
1011
1.0
1021
0.0
1031
0.0
1011
0.0
1021
1.0
1031
0.0
1011
0.0
1021
0.0
1031
1.0
1040
0.0
1010
0.0
1020
0.0
1030
1.0
1000
ANSI37
1070
     0
1070
     1
1071
        1
1071
        7
1070
     0
1070
     1
1071
        9
1040
40.02599999995994
1040
5.341799999994635
1040
44.99999999995498
1040
-0.2368999999997641
1040
44.99999999995498
1040
8.763099999991255
1040
43.57899999995641
1040
8.763099999991255
1040
43.57899999995641
1040
3.421199999996588
1040
38.60499999996136
1040
8.999899999990987
1040
38.60499999996136
1040
8.999999999991019
1040
38.60499999996136
1040
0.0
1040
40.02599999995994
1040
0.0
1071
        8
1005
F0CE
1005
F0D1
1005
F0D5
1005
F0D4
1005
F0D3
1005
F0D0
1005
F0D2
1005
F0CF
1070
     0
1070
     1
1040
0.0
1040
0.15
1070
     0
1070
     2
1040
0.7853981633974483
1040
49.29960901727088
1040
-10.17736998311392
1040
-0.3367596045400932
1040
0.3367596045400932
1070
     0
1040
2.356194490192345
1040
49.29960901727088
1040
-10.17736998311392
1040
-0.3367596045400932
1040
-0.3367596045400932
1070
     0
1040
0.0110235143455945
1071
        1
1040
39.74896370716704
1040
4.484843821435049
1040
0.0
1002
}
  0
INSERT
  5
F0EE
330
F0A6
100
AcDbEntity
  8
0
100
AcDbBlockReference
  2
*X73
 10
0.0
 20
0.0
 30
0.0
1001
ACAD
1000
HATCH
1002
{
1070
    19
1000
ANSI37
1040
0.15
1040
0.0
1000
ASC_BOUNDS
1070
     1
1070
     2
1070
     4
1005
F0B2
1005
F0C1
1005
F0B3
1005
F0B5
1000
ASC_SEEDPOINT
1011
1.079051535452663
1021
4.148538732891836
1031
0.0
1000
R14_HATCH_DATA
1000
F0EE
1011
1.0
1021
0.0
1031
0.0
1011
0.0
1021
1.0
1031
0.0
1011
0.0
1021
0.0
1031
1.0
1040
0.0
1010
0.0
1020
0.0
1030
1.0
1000
ANSI37
1070
     0
1070
     1
1071
        1
1071
        7
1070
     0
1070
     1
1071
        4
1040
1.420999999998571
1040
0.0
1040
1.420999999998571
1040
8.763099999991255
1040
0.0
1040
8.763099999991255
1040
0.0
1040
0.0
1071
        4
1005
F0B2
1005
F0C1
1005
F0B3
1005
F0B5
1070
     0
1070
     1
1040
0.0
1040
0.15
1070
     0
1070
     2
1040
0.7853981633974483
1040
49.29960901727088
1040
-10.17736998311392
1040
-0.3367596045400932
1040
0.3367596045400932
1070
     0
1040
2.356194490192345
1040
49.29960901727088
1040
-10.17736998311392
1040
-0.3367596045400932
1040
-0.3367596045400932
1070
     0
1040
0.0053004257112761
1071
        1
1040
1.079051535452663
1040
4.148538732891836
1040
0.0
1002
}
  0
ENDBLK
  5
F7A6
330
F0A6
100
AcDbEntity
  8
0
100
AcDbBlockEnd
  0
BLOCK
  5
1027E
330
100F0
100
AcDbEntity
  8
0
100
AcDbBlockBegin
  2
*X68
 70
     1
 10
0.0
 20
0.0
 30
0.0
  3
*X68
  1

  0
LINE
  5
100F1
330
100F0
100
AcDbEntity
  8
0
  6
CONTINUOUS
100
AcDbLine
 10
3.418023043697893
 20
7.251849696850613
 30
0.0
 11
4.929273346838536
 21
8.763099999991255
 31
0.0
  0
LINE
  5
100F2
330
100F0
100
AcDbEntity
  8
0
  6
CONTINUOUS
100
AcDbLine
 10
1.483656411257782
 20
4.643963855330318
 30
0.0
 11
5.60279255591872
 21
8.763099999991255
 31
0.0
  0
LINE
  5
100F3
330
100F0
100
AcDbEntity
  8
0
  6
CONTINUOUS
100
AcDbLine
 10
1.755053947328235
 20
4.241842182320584
 30
0.0
 11
6.276311764998907
 21
8.763099999991255
 31
0.0
  0
LINE
  5
100F4
330
100F0
100
AcDbEntity
  8
0
  6
CONTINUOUS
100
AcDbLine
 10
2.026451483398688
 20
3.839720509310849
 30
0.0
 11
4.441040904851878
 21
6.254309930764039
 31
0.0
  0
LINE
  5
100F5
330
100F0
100
AcDbEntity
  8
0
  6
CONTINUOUS
100
AcDbLine
 10
2.297849019469139
 20
3.437598836301114
 30
0.0
 11
3.321765168359338
 21
4.461514985191313
 31
0.0
  0
LINE
  5
100F6
330
100F0
100
AcDbEntity
  8
0
  6
CONTINUOUS
100
AcDbLine
 10
2.569246555539591
 20
3.03547716329138
 30
0.0
 11
3.593163397972743
 21
4.059394005724531
 31
0.0
  0
LINE
  5
100F7
330
100F0
100
AcDbEntity
  8
0
  6
CONTINUOUS
100
AcDbLine
 10
2.840644091610043
 20
2.633355490281646
 30
0.0
 11
3.864561627586149
 21
3.657273026257751
 31
0.0
  0
LINE
  5
100F8
330
100F0
100
AcDbEntity
  8
0
  6
CONTINUOUS
100
AcDbLine
 10
3.112041627680496
 20
2.231233817271911
 30
0.0
 11
4.135959857199554
 21
3.25515204679097
 31
0.0
  0
LINE
  5
100F9
330
100F0
100
AcDbEntity
  8
0
  6
CONTINUOUS
100
AcDbLine
 10
3.383439163750948
 20
1.829112144262177
 30
0.0
 11
4.40735808681296
 21
2.853031067324189
 31
0.0
  0
LINE
  5
100FA
330
100F0
100
AcDbEntity
  8
0
  6
CONTINUOUS
100
AcDbLine
 10
3.654836699821399
 20
1.426990471252442
 30
0.0
 11
4.678756316426365
 21
2.450910087857407
 31
0.0
  0
LINE
  5
100FB
330
100F0
100
AcDbEntity
  8
0
  6
CONTINUOUS
100
AcDbLine
 10
3.926234235891853
 20
1.024868798242709
 30
0.0
 11
4.95015454603977
 21
2.048789108390626
 31
0.0
  0
LINE
  5
100FC
330
100F0
100
AcDbEntity
  8
0
  6
CONTINUOUS
100
AcDbLine
 10
4.197631771962304
 20
0.6227471252329737
 30
0.0
 11
5.221552775653176
 21
1.646668128923846
 31
0.0
  0
LINE
  5
100FD
330
100F0
100
AcDbEntity
  8
0
  6
CONTINUOUS
100
AcDbLine
 10
8.715877546767851
 20
7.835069736359266
 30
0.0
 11
9.435953450375058
 21
8.555145639966472
 31
0.0
  0
LINE
  5
100FE
330
100F0
100
AcDbEntity
  8
0
  6
CONTINUOUS
100
AcDbLine
 10
8.170620868422267
 20
6.616293848933497
 30
0.0
 11
9.644120833743461
 21
8.08979381425469
 31
0.0
  0
LINE
  5
100FF
330
100F0
100
AcDbEntity
  8
0
  6
CONTINUOUS
100
AcDbLine
 10
7.625364190076684
 20
5.397517961507727
 30
0.0
 11
9.852288217111864
 21
7.624441988542907
 31
0.0
  0
LINE
  5
10100
330
100F0
100
AcDbEntity
  8
0
  6
CONTINUOUS
100
AcDbLine
 10
7.080107511731101
 20
4.178742074081957
 30
0.0
 11
10.06045560048027
 21
7.159090162831124
 31
0.0
  0
LINE
  5
10101
330
100F0
100
AcDbEntity
  8
0
  6
CONTINUOUS
100
AcDbLine
 10
6.534850833385518
 20
2.959966186656187
 30
0.0
 11
10.26862298384867
 21
6.693738337119342
 31
0.0
  0
LINE
  5
10102
330
100F0
100
AcDbEntity
  8
0
  6
CONTINUOUS
100
AcDbLine
 10
4.469029308032756
 20
0.2206254522232385
 30
0.0
 11
5.492951005266582
 21
1.244547149457064
 31
0.0
  0
LINE
  5
10103
330
100F0
100
AcDbEntity
  8
0
  6
CONTINUOUS
100
AcDbLine
 10
5.989594155039935
 20
1.741190299230417
 30
0.0
 11
8.806950407233131
 21
4.558546551423613
 31
0.0
  0
LINE
  5
10104
330
100F0
100
AcDbEntity
  8
0
  6
CONTINUOUS
100
AcDbLine
 10
9.401251593263643
 20
5.152847737454126
 30
0.0
 11
10.47679036721708
 21
6.228386511407559
 31
0.0
  0
LINE
  5
10105
330
100F0
100
AcDbEntity
  8
0
  6
CONTINUOUS
100
AcDbLine
 10
4.921837203428691
 20
-0.0000858614610131
 30
0.0
 11
8.592923064886001
 21
3.670999999996297
 31
0.0
  0
LINE
  5
10106
330
100F0
100
AcDbEntity
  8
0
  6
CONTINUOUS
100
AcDbLine
 10
9.609390446785305
 20
4.6874673818956
 30
0.0
 11
10.68495775058548
 21
5.763034685695775
 31
0.0
  0
LINE
  5
10107
330
100F0
100
AcDbEntity
  8
0
  6
CONTINUOUS
100
AcDbLine
 10
5.595387755019432
 20
-0.0000545189504582
 30
0.0
 11
7.716137258923768
 21
2.120694984953879
 31
0.0
  0
LINE
  5
10108
330
100F0
100
AcDbEntity
  8
0
  6
CONTINUOUS
100
AcDbLine
 10
6.268938306610172
 20
-0.000023176439905
 30
0.0
 11
7.170485805526503
 21
0.9015243224764267
 31
0.0
  0
LINE
  5
10109
330
100F0
100
AcDbEntity
  8
0
  6
CONTINUOUS
100
AcDbLine
 10
7.963842273967511
 20
2.368399999997621
 30
0.0
 11
9.266442273966188
 21
3.670999999996297
 31
0.0
  0
LINE
  5
1010A
330
100F0
100
AcDbEntity
  8
0
  6
CONTINUOUS
100
AcDbLine
 10
8.637361483047696
 20
2.368399999997621
 30
0.0
 11
9.939961483046375
 21
3.670999999996297
 31
0.0
  0
LINE
  5
1010B
330
100F0
100
AcDbEntity
  8
0
  6
CONTINUOUS
100
AcDbLine
 10
9.817529300306965
 20
4.222087026337075
 30
0.0
 11
10.89312513395388
 21
5.297682859983993
 31
0.0
  0
LINE
  5
1010C
330
100F0
100
AcDbEntity
  8
0
  6
CONTINUOUS
100
AcDbLine
 10
10.02566815382863
 20
3.756706670778549
 30
0.0
 11
11.10129251732229
 21
4.832331034272211
 31
0.0
  0
LINE
  5
1010D
330
100F0
100
AcDbEntity
  8
0
  6
CONTINUOUS
100
AcDbLine
 10
9.310880692127883
 20
2.368399999997621
 30
0.0
 11
11.30945990069069
 21
4.366979208560428
 31
0.0
  0
LINE
  5
1010E
330
100F0
100
AcDbEntity
  8
0
  6
CONTINUOUS
100
AcDbLine
 10
9.98439990120807
 20
2.36839999999762
 30
0.0
 11
11.5176272840591
 21
3.901627382848645
 31
0.0
  0
LINE
  5
1010F
330
100F0
100
AcDbEntity
  8
0
  6
CONTINUOUS
100
AcDbLine
 10
10.65037369446246
 20
2.36085458417182
 30
0.0
 11
11.7257946674275
 21
3.436275557136862
 31
0.0
  0
LINE
  5
10110
330
100F0
100
AcDbEntity
  8
0
  6
CONTINUOUS
100
AcDbLine
 10
10.85847197087848
 20
1.895433651507656
 30
0.0
 11
11.9339620507959
 21
2.97092373142508
 31
0.0
  0
LINE
  5
10111
330
100F0
100
AcDbEntity
  8
0
  6
CONTINUOUS
100
AcDbLine
 10
11.0665702472945
 20
1.430012718843491
 30
0.0
 11
12.14212943416431
 21
2.505571905713296
 31
0.0
  0
LINE
  5
10112
330
100F0
100
AcDbEntity
  8
0
  6
CONTINUOUS
100
AcDbLine
 10
11.27466852371052
 20
0.9645917861793256
 30
0.0
 11
12.35029681753271
 21
2.040220080001513
 31
0.0
  0
LINE
  5
10113
330
100F0
100
AcDbEntity
  8
0
  6
CONTINUOUS
100
AcDbLine
 10
11.48276680012654
 20
0.4991708535151611
 30
0.0
 11
12.55846420090111
 21
1.57486825428973
 31
0.0
  0
LINE
  5
10114
330
100F0
100
AcDbEntity
  8
0
  6
CONTINUOUS
100
AcDbLine
 10
11.69086507654257
 20
0.0337499208509957
 30
0.0
 11
12.76663158426952
 21
1.109516428577947
 31
0.0
  0
LINE
  5
10115
330
100F0
100
AcDbEntity
  8
0
  6
CONTINUOUS
100
AcDbLine
 10
12.33057447873954
 20
-0.0000598860322123
 30
0.0
 11
12.97479896763792
 21
0.6441646028661663
 31
0.0
  0
LINE
  5
10116
330
100F0
100
AcDbEntity
  8
0
  6
CONTINUOUS
100
AcDbLine
 10
13.00413694809395
 20
-0.0000166257579952
 30
0.0
 11
13.18296635100632
 21
0.1788127771543824
 31
0.0
  0
LINE
  5
10117
330
100F0
100
AcDbEntity
  8
0
  6
CONTINUOUS
100
AcDbLine
 10
4.772852165289667
 20
-0.000092794222212
 30
0.0
 11
4.296495091028902
 21
0.4762642800385528
 31
0.0
  0
LINE
  5
10118
330
100F0
100
AcDbEntity
  8
0
  6
CONTINUOUS
100
AcDbLine
 10
5.446340034776103
 20
-0.0000614546284616
 30
0.0
 11
2.898195908335625
 21
2.548082671812017
 31
0.0
  0
LINE
  5
10119
330
100F0
100
AcDbEntity
  8
0
  6
CONTINUOUS
100
AcDbLine
 10
6.119827904262539
 20
-0.0000301150347113
 30
0.0
 11
1.499896725642348
 21
4.61990106358548
 31
0.0
  0
LINE
  5
1011A
330
100F0
100
AcDbEntity
  8
0
  6
CONTINUOUS
100
AcDbLine
 10
6.775136745476159
 20
0.0181802528318542
 30
0.0
 11
5.699826040202669
 21
1.093490958105344
 31
0.0
  0
LINE
  5
1011B
330
100F0
100
AcDbEntity
  8
0
  6
CONTINUOUS
100
AcDbLine
 10
6.983376846288489
 20
0.4834593610997118
 30
0.0
 11
5.908008617934405
 21
1.558827589453796
 31
0.0
  0
LINE
  5
1011C
330
100F0
100
AcDbEntity
  8
0
  6
CONTINUOUS
100
AcDbLine
 10
5.377063484962296
 20
1.416253513345719
 30
0.0
 11
1.702276957014131
 21
5.091040041293883
 31
0.0
  0
LINE
  5
1011D
330
100F0
100
AcDbEntity
  8
0
  6
CONTINUOUS
100
AcDbLine
 10
3.978745891735324
 20
3.488090315652877
 30
0.0
 11
2.000373521109399
 21
5.466462686278803
 31
0.0
  0
LINE
  5
1011E
330
100F0
100
AcDbEntity
  8
0
  6
CONTINUOUS
100
AcDbLine
 10
7.191616947100819
 20
0.948738469367568
 30
0.0
 11
6.11619119566614
 21
2.024164220802247
 31
0.0
  0
LINE
  5
1011F
330
100F0
100
AcDbEntity
  8
0
  6
CONTINUOUS
100
AcDbLine
 10
7.399857047913149
 20
1.414017577635424
 30
0.0
 11
6.324373773397875
 21
2.489500852150698
 31
0.0
  0
LINE
  5
10120
330
100F0
100
AcDbEntity
  8
0
  6
CONTINUOUS
100
AcDbLine
 10
7.608097148725479
 20
1.879296685903281
 30
0.0
 11
6.53255635112961
 21
2.95483748349915
 31
0.0
  0
LINE
  5
10121
330
100F0
100
AcDbEntity
  8
0
  6
CONTINUOUS
100
AcDbLine
 10
7.816337249537808
 20
2.344575794171138
 30
0.0
 11
6.740738928861345
 21
3.420174114847601
 31
0.0
  0
LINE
  5
10122
330
100F0
100
AcDbEntity
  8
0
  6
CONTINUOUS
100
AcDbLine
 10
3.310241080789734
 20
4.830114335678653
 30
0.0
 11
2.298470085204666
 21
5.84188533126372
 31
0.0
  0
LINE
  5
10123
330
100F0
100
AcDbEntity
  8
0
  6
CONTINUOUS
100
AcDbLine
 10
3.60832983563551
 20
5.205544789913063
 30
0.0
 11
2.596566649299935
 21
6.217307976248638
 31
0.0
  0
LINE
  5
10124
330
100F0
100
AcDbEntity
  8
0
  6
CONTINUOUS
100
AcDbLine
 10
3.906418590481286
 20
5.580975244147473
 30
0.0
 11
2.894663213395203
 21
6.592730621233557
 31
0.0
  0
LINE
  5
10125
330
100F0
100
AcDbEntity
  8
0
  6
CONTINUOUS
100
AcDbLine
 10
4.204507345327062
 20
5.956405698381884
 30
0.0
 11
3.192759777490472
 21
6.968153266218474
 31
0.0
  0
LINE
  5
10126
330
100F0
100
AcDbEntity
  8
0
  6
CONTINUOUS
100
AcDbLine
 10
8.466032252791512
 20
2.368399999997621
 30
0.0
 11
6.948921506593081
 21
3.885510746196053
 31
0.0
  0
LINE
  5
10127
330
100F0
100
AcDbEntity
  8
0
  6
CONTINUOUS
100
AcDbLine
 10
9.139551461871699
 20
2.36839999999762
 30
0.0
 11
7.157104084324816
 21
4.350847377544504
 31
0.0
  0
LINE
  5
10128
330
100F0
100
AcDbEntity
  8
0
  6
CONTINUOUS
100
AcDbLine
 10
4.502596100172839
 20
6.331836152616295
 30
0.0
 11
3.49085634158574
 21
7.343575911203393
 31
0.0
  0
LINE
  5
10129
330
100F0
100
AcDbEntity
  8
0
  6
CONTINUOUS
100
AcDbLine
 10
4.800684855018615
 20
6.707266606850705
 30
0.0
 11
3.788952905681008
 21
7.718998556188312
 31
0.0
  0
LINE
  5
1012A
330
100F0
100
AcDbEntity
  8
0
  6
CONTINUOUS
100
AcDbLine
 10
12.18154012887317
 20
-0.0000694579236642
 30
0.0
 11
11.32140332908496
 21
0.8600673418645499
 31
0.0
  0
LINE
  5
1012B
330
100F0
100
AcDbEntity
  8
0
  6
CONTINUOUS
100
AcDbLine
 10
12.85501608323566
 20
-0.0000262032059659
 30
0.0
 11
10.77672456435345
 21
2.078265315676246
 31
0.0
  0
LINE
  5
1012C
330
100F0
100
AcDbEntity
  8
0
  6
CONTINUOUS
100
AcDbLine
 10
9.813070670951886
 20
2.36839999999762
 30
0.0
 11
8.51047067095321
 21
3.670999999996297
 31
0.0
  0
LINE
  5
1012D
330
100F0
100
AcDbEntity
  8
0
  6
CONTINUOUS
100
AcDbLine
 10
10.48658988003207
 20
2.36839999999762
 30
0.0
 11
9.183989880033396
 21
3.670999999996297
 31
0.0
  0
LINE
  5
1012E
330
100F0
100
AcDbEntity
  8
0
  6
CONTINUOUS
100
AcDbLine
 10
8.441048632286794
 20
3.740422038662712
 30
0.0
 11
7.365286662056551
 21
4.816184008892956
 31
0.0
  0
LINE
  5
1012F
330
100F0
100
AcDbEntity
  8
0
  6
CONTINUOUS
100
AcDbLine
 10
8.649187485808454
 20
4.205802394221237
 30
0.0
 11
7.573469239788285
 21
5.281520640241407
 31
0.0
  0
LINE
  5
10130
330
100F0
100
AcDbEntity
  8
0
  6
CONTINUOUS
100
AcDbLine
 10
5.098773609864391
 20
7.082697061085115
 30
0.0
 11
4.087049469776277
 21
8.09442120117323
 31
0.0
  0
LINE
  5
10131
330
100F0
100
AcDbEntity
  8
0
  6
CONTINUOUS
100
AcDbLine
 10
5.396862364710167
 20
7.458127515319526
 30
0.0
 11
4.385146033871544
 21
8.469843846158149
 31
0.0
  0
LINE
  5
10132
330
100F0
100
AcDbEntity
  8
0
  6
CONTINUOUS
100
AcDbLine
 10
13.04801363231285
 20
0.4804954567970334
 30
0.0
 11
9.85750908911358
 21
3.670999999996297
 31
0.0
  0
LINE
  5
10133
330
100F0
100
AcDbEntity
  8
0
  6
CONTINUOUS
100
AcDbLine
 10
8.857326339330116
 20
4.671182749779763
 30
0.0
 11
7.781651817520021
 21
5.746857271589858
 31
0.0
  0
LINE
  5
10134
330
100F0
100
AcDbEntity
  8
0
  6
CONTINUOUS
100
AcDbLine
 10
5.694951119555943
 20
7.833557969553937
 30
0.0
 11
4.765409089118624
 21
8.763099999991255
 31
0.0
  0
LINE
  5
10135
330
100F0
100
AcDbEntity
  8
0
  6
CONTINUOUS
100
AcDbLine
 10
12.50286117236978
 20
1.699167125820288
 30
0.0
 11
9.68611877250287
 21
4.515909525687196
 31
0.0
  0
LINE
  5
10136
330
100F0
100
AcDbEntity
  8
0
  6
CONTINUOUS
100
AcDbLine
 10
9.065465192851777
 20
5.136563105338288
 30
0.0
 11
7.989834395251757
 21
6.21219390293831
 31
0.0
  0
LINE
  5
10137
330
100F0
100
AcDbEntity
  8
0
  6
CONTINUOUS
100
AcDbLine
 10
5.993039874401719
 20
8.208988423788346
 30
0.0
 11
5.43892829819881
 21
8.763099999991255
 31
0.0
  0
LINE
  5
10138
330
100F0
100
AcDbEntity
  8
0
  6
CONTINUOUS
100
AcDbLine
 10
11.95770871242671
 20
2.917838794843543
 30
0.0
 11
8.19801697298349
 21
6.677530534286761
 31
0.0
  0
LINE
  5
10139
330
100F0
100
AcDbEntity
  8
0
  6
CONTINUOUS
100
AcDbLine
 10
6.291128629247495
 20
8.584418878022756
 30
0.0
 11
6.112447507278997
 21
8.763099999991255
 31
0.0
  0
LINE
  5
1013A
330
100F0
100
AcDbEntity
  8
0
  6
CONTINUOUS
100
AcDbLine
 10
11.41255625248364
 20
4.136510463866797
 30
0.0
 11
8.406199550715227
 21
7.142867165635211
 31
0.0
  0
LINE
  5
1013B
330
100F0
100
AcDbEntity
  8
0
  6
CONTINUOUS
100
AcDbLine
 10
10.86740379254057
 20
5.355182132890051
 30
0.0
 11
8.614382128446962
 21
7.608203796983664
 31
0.0
  0
LINE
  5
1013C
330
100F0
100
AcDbEntity
  8
0
  6
CONTINUOUS
100
AcDbLine
 10
10.3222513325975
 20
6.573853801913305
 30
0.0
 11
8.822564706178696
 21
8.073540428332114
 31
0.0
  0
LINE
  5
1013D
330
100F0
100
AcDbEntity
  8
0
  6
CONTINUOUS
100
AcDbLine
 10
9.777098872654436
 20
7.792525470936562
 30
0.0
 11
9.030747283910433
 21
8.538877059680566
 31
0.0
  0
ENDBLK
  5
1027F
330
100F0
100
AcDbEntity
  8
0
100
AcDbBlockEnd
  0
BLOCK
  5
10280
330
1013E
100
AcDbEntity
  8
0
100
AcDbBlockBegin
  2
*X69
 70
     1
 10
0.0
 20
0.0
 30
0.0
  3
*X69
  1

  0
LINE
  5
1013F
330
1013E
100
AcDbEntity
  8
0
  6
CONTINUOUS
100
AcDbLine
 10
10.67292308101235
 20
8.445076852443387
 30
0.0
 11
10.99094622856022
 21
8.763099999991255
 31
0.0
  0
LINE
  5
10140
330
1013E
100
AcDbEntity
  8
0
  6
CONTINUOUS
100
AcDbLine
 10
10.87250383178748
 20
7.971138394138331
 30
0.0
 11
11.6644654376404
 21
8.763099999991255
 31
0.0
  0
LINE
  5
10141
330
1013E
100
AcDbEntity
  8
0
  6
CONTINUOUS
100
AcDbLine
 10
11.07208458256261
 20
7.497199935833273
 30
0.0
 11
12.12126590876355
 21
8.546381262034211
 31
0.0
  0
LINE
  5
10142
330
1013E
100
AcDbEntity
  8
0
  6
CONTINUOUS
100
AcDbLine
 10
11.27166533333774
 20
7.023261477528216
 30
0.0
 11
12.32085164573666
 21
8.072447789927136
 31
0.0
  0
LINE
  5
10143
330
1013E
100
AcDbEntity
  8
0
  6
CONTINUOUS
100
AcDbLine
 10
11.47124608411287
 20
6.549323019223158
 30
0.0
 11
12.52043738270977
 21
7.59851431782006
 31
0.0
  0
LINE
  5
10144
330
1013E
100
AcDbEntity
  8
0
  6
CONTINUOUS
100
AcDbLine
 10
11.670826834888
 20
6.075384560918101
 30
0.0
 11
12.72002311968288
 21
7.124580845712984
 31
0.0
  0
LINE
  5
10145
330
1013E
100
AcDbEntity
  8
0
  6
CONTINUOUS
100
AcDbLine
 10
11.87040758566313
 20
5.601446102613043
 30
0.0
 11
12.91960885665599
 21
6.650647373605907
 31
0.0
  0
LINE
  5
10146
330
1013E
100
AcDbEntity
  8
0
  6
CONTINUOUS
100
AcDbLine
 10
12.06998833643825
 20
5.127507644307986
 30
0.0
 11
13.1191945936291
 21
6.176713901498832
 31
0.0
  0
LINE
  5
10147
330
1013E
100
AcDbEntity
  8
0
  6
CONTINUOUS
100
AcDbLine
 10
12.26956908721338
 20
4.65356918600293
 30
0.0
 11
13.31878033060221
 21
5.702780429391757
 31
0.0
  0
LINE
  5
10148
330
1013E
100
AcDbEntity
  8
0
  6
CONTINUOUS
100
AcDbLine
 10
12.46914983798851
 20
4.179630727697873
 30
0.0
 11
13.51836606757532
 21
5.228846957284683
 31
0.0
  0
LINE
  5
10149
330
1013E
100
AcDbEntity
  8
0
  6
CONTINUOUS
100
AcDbLine
 10
12.66873058876364
 20
3.705692269392816
 30
0.0
 11
13.71795180454843
 21
4.754913485177607
 31
0.0
  0
LINE
  5
1014A
330
1013E
100
AcDbEntity
  8
0
  6
CONTINUOUS
100
AcDbLine
 10
12.86831133953877
 20
3.231753811087759
 30
0.0
 11
13.91753754152154
 21
4.280980013070531
 31
0.0
  0
LINE
  5
1014B
330
1013E
100
AcDbEntity
  8
0
  6
CONTINUOUS
100
AcDbLine
 10
13.0678920903139
 20
2.757815352782702
 30
0.0
 11
14.11712327849465
 21
3.807046540963456
 31
0.0
  0
LINE
  5
1014C
330
1013E
100
AcDbEntity
  8
0
  6
CONTINUOUS
100
AcDbLine
 10
13.26747284108903
 20
2.283876894477644
 30
0.0
 11
14.31670901546777
 21
3.333113068856379
 31
0.0
  0
LINE
  5
1014D
330
1013E
100
AcDbEntity
  8
0
  6
CONTINUOUS
100
AcDbLine
 10
16.36767838827179
 20
8.751678487061342
 30
0.0
 11
16.50332410898388
 21
8.887324207773432
 31
0.0
  0
LINE
  5
1014E
330
1013E
100
AcDbEntity
  8
0
  6
CONTINUOUS
100
AcDbLine
 10
15.96190732182191
 20
7.67238821153127
 30
0.0
 11
16.68735328004734
 21
8.397834169756699
 31
0.0
  0
LINE
  5
1014F
330
1013E
100
AcDbEntity
  8
0
  6
CONTINUOUS
100
AcDbLine
 10
15.55613625537202
 20
6.593097936001196
 30
0.0
 11
16.87138245111079
 21
7.908344131739965
 31
0.0
  0
LINE
  5
10150
330
1013E
100
AcDbEntity
  8
0
  6
CONTINUOUS
100
AcDbLine
 10
15.15036518892213
 20
5.513807660471122
 30
0.0
 11
17.05541162217424
 21
7.418854093723231
 31
0.0
  0
LINE
  5
10151
330
1013E
100
AcDbEntity
  8
0
  6
CONTINUOUS
100
AcDbLine
 10
14.74459412247225
 20
4.434517384941048
 30
0.0
 11
17.2394407932377
 21
6.929364055706499
 31
0.0
  0
LINE
  5
10152
330
1013E
100
AcDbEntity
  8
0
  6
CONTINUOUS
100
AcDbLine
 10
14.33882305602236
 20
3.355227109410975
 30
0.0
 11
17.42346996430115
 21
6.439874017689766
 31
0.0
  0
LINE
  5
10153
330
1013E
100
AcDbEntity
  8
0
  6
CONTINUOUS
100
AcDbLine
 10
13.46705359186416
 20
1.809938436172586
 30
0.0
 11
16.0819338255367
 21
4.424818669845129
 31
0.0
  0
LINE
  5
10154
330
1013E
100
AcDbEntity
  8
0
  6
CONTINUOUS
100
AcDbLine
 10
16.63283254238972
 20
4.975717386698149
 30
0.0
 11
17.60749913536461
 21
5.950383979673033
 31
0.0
  0
LINE
  5
10155
330
1013E
100
AcDbEntity
  8
0
  6
CONTINUOUS
100
AcDbLine
 10
13.66663434263929
 20
1.335999977867529
 30
0.0
 11
15.67604797733754
 21
3.345413612565779
 31
0.0
  0
LINE
  5
10156
330
1013E
100
AcDbEntity
  8
0
  6
CONTINUOUS
100
AcDbLine
 10
13.86621509341442
 20
0.8620615195624723
 30
0.0
 11
15.27016212913838
 21
2.26600855528643
 31
0.0
  0
LINE
  5
10157
330
1013E
100
AcDbEntity
  8
0
  6
CONTINUOUS
100
AcDbLine
 10
16.81682257348267
 20
4.486188208710908
 30
0.0
 11
17.79152830642806
 21
5.460893941656299
 31
0.0
  0
LINE
  5
10158
330
1013E
100
AcDbEntity
  8
0
  6
CONTINUOUS
100
AcDbLine
 10
17.00081260457561
 20
3.996659030723667
 30
0.0
 11
17.97555747749151
 21
4.971403903639565
 31
0.0
  0
LINE
  5
10159
330
1013E
100
AcDbEntity
  8
0
  6
CONTINUOUS
100
AcDbLine
 10
20.74362343514722
 20
8.412989070375462
 30
0.0
 11
21.09373436476302
 21
8.763099999991256
 31
0.0
  0
LINE
  5
1015A
330
1013E
100
AcDbEntity
  8
0
  6
CONTINUOUS
100
AcDbLine
 10
20.25401257174777
 20
7.249858997895826
 30
0.0
 11
21.7672535738432
 21
8.763099999991255
 31
0.0
  0
LINE
  5
1015B
330
1013E
100
AcDbEntity
  8
0
  6
CONTINUOUS
100
AcDbLine
 10
14.06579584418955
 20
0.3881230612574149
 30
0.0
 11
14.86427628093921
 21
1.186603498007082
 31
0.0
  0
LINE
  5
1015C
330
1013E
100
AcDbEntity
  8
0
  6
CONTINUOUS
100
AcDbLine
 10
14.26537659496467
 20
-0.0858153970476412
 30
0.0
 11
14.45839043274005
 21
0.1071984407277329
 31
0.0
  0
LINE
  5
1015D
330
1013E
100
AcDbEntity
  8
0
  6
CONTINUOUS
100
AcDbLine
 10
17.18480263566856
 20
3.507129852736426
 30
0.0
 11
18.15958664855496
 21
4.481913865622833
 31
0.0
  0
LINE
  5
1015E
330
1013E
100
AcDbEntity
  8
0
  6
CONTINUOUS
100
AcDbLine
 10
17.3687926667615
 20
3.017600674749186
 30
0.0
 11
18.34361581961842
 21
3.9924238276061
 31
0.0
  0
LINE
  5
1015F
330
1013E
100
AcDbEntity
  8
0
  6
CONTINUOUS
100
AcDbLine
 10
19.76440170834832
 20
6.086728925416191
 30
0.0
 11
22.33924590259489
 21
8.661573119662755
 31
0.0
  0
LINE
  5
10160
330
1013E
100
AcDbEntity
  8
0
  6
CONTINUOUS
100
AcDbLine
 10
19.27479084494887
 20
4.923598852936555
 30
0.0
 11
21.84929622842713
 21
7.498104236414807
 31
0.0
  0
LINE
  5
10161
330
1013E
100
AcDbEntity
  8
0
  6
CONTINUOUS
100
AcDbLine
 10
17.55278269785445
 20
2.528071496761945
 30
0.0
 11
18.52764499068187
 21
3.502933789589366
 31
0.0
  0
LINE
  5
10162
330
1013E
100
AcDbEntity
  8
0
  6
CONTINUOUS
100
AcDbLine
 10
18.78517998154942
 20
3.760468780456919
 30
0.0
 11
21.35934655425936
 21
6.33463535316686
 31
0.0
  0
LINE
  5
10163
330
1013E
100
AcDbEntity
  8
0
  6
CONTINUOUS
100
AcDbLine
 10
17.73677272894739
 20
2.038542318774704
 30
0.0
 11
20.8693968800916
 21
5.171166469918914
 31
0.0
  0
LINE
  5
10164
330
1013E
100
AcDbEntity
  8
0
  6
CONTINUOUS
100
AcDbLine
 10
17.92076276004034
 20
1.549013140787464
 30
0.0
 11
20.37944720592384
 21
4.007697586670968
 31
0.0
  0
LINE
  5
10165
330
1013E
100
AcDbEntity
  8
0
  6
CONTINUOUS
100
AcDbLine
 10
18.10475279113329
 20
1.059483962800223
 30
0.0
 11
19.88949753175608
 21
2.84422870342302
 31
0.0
  0
LINE
  5
10166
330
1013E
100
AcDbEntity
  8
0
  6
CONTINUOUS
100
AcDbLine
 10
18.28874282222623
 20
0.5699547848129822
 30
0.0
 11
19.39954785758832
 21
1.680759820175074
 31
0.0
  0
LINE
  5
10167
330
1013E
100
AcDbEntity
  8
0
  6
CONTINUOUS
100
AcDbLine
 10
18.47273285331918
 20
0.0804256068257416
 30
0.0
 11
18.90959818342056
 21
0.517290936927127
 31
0.0
  0
LINE
  5
10168
330
1013E
100
AcDbEntity
  8
0
  6
CONTINUOUS
100
AcDbLine
 10
14.3590401358224
 20
-0.1570118376323384
 30
0.0
 11
14.24903296539946
 21
-0.0470046672093929
 31
0.0
  0
LINE
  5
10169
330
1013E
100
AcDbEntity
  8
0
  6
CONTINUOUS
100
AcDbLine
 10
14.54309291258661
 20
0.332454594683643
 30
0.0
 11
13.75908329123172
 21
1.116464216038529
 31
0.0
  0
LINE
  5
1016A
330
1013E
100
AcDbEntity
  8
0
  6
CONTINUOUS
100
AcDbLine
 10
14.72714568935081
 20
0.8219210269996244
 30
0.0
 11
13.26913361706399
 21
2.27993309928645
 31
0.0
  0
LINE
  5
1016B
330
1013E
100
AcDbEntity
  8
0
  6
CONTINUOUS
100
AcDbLine
 10
14.91119846611502
 20
1.311387459315606
 30
0.0
 11
12.77918394289625
 21
3.443401982534371
 31
0.0
  0
LINE
  5
1016C
330
1013E
100
AcDbEntity
  8
0
  6
CONTINUOUS
100
AcDbLine
 10
15.09525124287922
 20
1.800853891631587
 30
0.0
 11
12.28923426872852
 21
4.606870865782293
 31
0.0
  0
LINE
  5
1016D
330
1013E
100
AcDbEntity
  8
0
  6
CONTINUOUS
100
AcDbLine
 10
15.27930401964343
 20
2.290320323947569
 30
0.0
 11
11.79928459456078
 21
5.770339749030213
 31
0.0
  0
LINE
  5
1016E
330
1013E
100
AcDbEntity
  8
0
  6
CONTINUOUS
100
AcDbLine
 10
15.46335679640763
 20
2.77978675626355
 30
0.0
 11
14.48885470994921
 21
3.754288842721972
 31
0.0
  0
LINE
  5
1016F
330
1013E
100
AcDbEntity
  8
0
  6
CONTINUOUS
100
AcDbLine
 10
13.88507249233704
 20
4.358071060334137
 30
0.0
 11
11.30933492039305
 21
6.933808632278135
 31
0.0
  0
LINE
  5
10170
330
1013E
100
AcDbEntity
  8
0
  6
CONTINUOUS
100
AcDbLine
 10
18.75840522805855
 20
0.1582575336928151
 30
0.0
 11
18.25383727664818
 21
0.6628254851031863
 31
0.0
  0
LINE
  5
10171
330
1013E
100
AcDbEntity
  8
0
  6
CONTINUOUS
100
AcDbLine
 10
15.64740957317184
 20
3.269253188579531
 30
0.0
 11
14.67288388101266
 21
4.243778880738705
 31
0.0
  0
LINE
  5
10172
330
1013E
100
AcDbEntity
  8
0
  6
CONTINUOUS
100
AcDbLine
 10
13.39509276772158
 20
5.521569994029786
 30
0.0
 11
10.81938524622531
 21
8.097277515526056
 31
0.0
  0
LINE
  5
10173
330
1013E
100
AcDbEntity
  8
0
  6
CONTINUOUS
100
AcDbLine
 10
18.95798597883369
 20
0.6321959919978686
 30
0.0
 11
17.84825644852853
 21
1.741925522303024
 31
0.0
  0
LINE
  5
10174
330
1013E
100
AcDbEntity
  8
0
  6
CONTINUOUS
100
AcDbLine
 10
19.15756672960882
 20
1.106134450302922
 30
0.0
 11
17.44267562040888
 21
2.821025559502861
 31
0.0
  0
LINE
  5
10175
330
1013E
100
AcDbEntity
  8
0
  6
CONTINUOUS
100
AcDbLine
 10
15.83146234993604
 20
3.758719620895513
 30
0.0
 11
14.85691305207612
 21
4.733268918755439
 31
0.0
  0
LINE
  5
10176
330
1013E
100
AcDbEntity
  8
0
  6
CONTINUOUS
100
AcDbLine
 10
16.01551512670025
 20
4.248186053211494
 30
0.0
 11
15.04094222313957
 21
5.222758956772172
 31
0.0
  0
LINE
  5
10177
330
1013E
100
AcDbEntity
  8
0
  6
CONTINUOUS
100
AcDbLine
 10
12.90511304310612
 20
6.685068927725435
 30
0.0
 11
10.8270819708403
 21
8.763099999991255
 31
0.0
  0
LINE
  5
10178
330
1013E
100
AcDbEntity
  8
0
  6
CONTINUOUS
100
AcDbLine
 10
12.41513331849066
 20
7.848567861421083
 30
0.0
 11
11.50060117992049
 21
8.763099999991255
 31
0.0
  0
LINE
  5
10179
330
1013E
100
AcDbEntity
  8
0
  6
CONTINUOUS
100
AcDbLine
 10
19.35714748038395
 20
1.580072908607975
 30
0.0
 11
17.03709479228923
 21
3.900125596702697
 31
0.0
  0
LINE
  5
1017A
330
1013E
100
AcDbEntity
  8
0
  6
CONTINUOUS
100
AcDbLine
 10
19.55672823115909
 20
2.054011366913028
 30
0.0
 11
16.63151396416958
 21
4.979225633902534
 31
0.0
  0
LINE
  5
1017B
330
1013E
100
AcDbEntity
  8
0
  6
CONTINUOUS
100
AcDbLine
 10
16.19956790346445
 20
4.737652485527476
 30
0.0
 11
15.22497139420302
 21
5.712248994788904
 31
0.0
  0
LINE
  5
1017C
330
1013E
100
AcDbEntity
  8
0
  6
CONTINUOUS
100
AcDbLine
 10
16.38362068022866
 20
5.227118917843457
 30
0.0
 11
15.40900056526648
 21
6.201739032805637
 31
0.0
  0
LINE
  5
1017D
330
1013E
100
AcDbEntity
  8
0
  6
CONTINUOUS
100
AcDbLine
 10
19.75630898193422
 20
2.527949825218081
 30
0.0
 11
18.70774536448286
 21
3.576513442669441
 31
0.0
  0
LINE
  5
1017E
330
1013E
100
AcDbEntity
  8
0
  6
CONTINUOUS
100
AcDbLine
 10
19.95588973270936
 20
3.001888283523134
 30
0.0
 11
18.90726987211446
 21
4.050508144118028
 31
0.0
  0
LINE
  5
1017F
330
1013E
100
AcDbEntity
  8
0
  6
CONTINUOUS
100
AcDbLine
 10
20.15547048348449
 20
3.475826741828186
 30
0.0
 11
19.10679437974606
 21
4.524502845566614
 31
0.0
  0
LINE
  5
10180
330
1013E
100
AcDbEntity
  8
0
  6
CONTINUOUS
100
AcDbLine
 10
20.35505123425962
 20
3.94976520013324
 30
0.0
 11
19.30631888737766
 21
4.998497547015201
 31
0.0
  0
LINE
  5
10181
330
1013E
100
AcDbEntity
  8
0
  6
CONTINUOUS
100
AcDbLine
 10
20.55463198503475
 20
4.423703658438292
 30
0.0
 11
19.50584339500926
 21
5.472492248463787
 31
0.0
  0
LINE
  5
10182
330
1013E
100
AcDbEntity
  8
0
  6
CONTINUOUS
100
AcDbLine
 10
18.37481191085755
 20
3.909446896294752
 30
0.0
 11
15.59302973632993
 21
6.691229070822371
 31
0.0
  0
LINE
  5
10183
330
1013E
100
AcDbEntity
  8
0
  6
CONTINUOUS
100
AcDbLine
 10
17.96904084440766
 20
4.988737171824825
 30
0.0
 11
15.77705890739338
 21
7.180719108839104
 31
0.0
  0
LINE
  5
10184
330
1013E
100
AcDbEntity
  8
0
  6
CONTINUOUS
100
AcDbLine
 10
17.56326977795777
 20
6.068027447354899
 30
0.0
 11
15.96108807845684
 21
7.670209146855838
 31
0.0
  0
LINE
  5
10185
330
1013E
100
AcDbEntity
  8
0
  6
CONTINUOUS
100
AcDbLine
 10
17.15749871150789
 20
7.147317722884972
 30
0.0
 11
16.14511724952029
 21
8.15969918487257
 31
0.0
  0
LINE
  5
10186
330
1013E
100
AcDbEntity
  8
0
  6
CONTINUOUS
100
AcDbLine
 10
16.751727645058
 20
8.226607998415046
 30
0.0
 11
16.32914642058374
 21
8.649189222889303
 31
0.0
  0
LINE
  5
10187
330
1013E
100
AcDbEntity
  8
0
  6
CONTINUOUS
100
AcDbLine
 10
20.75421273580989
 20
4.897642116743345
 30
0.0
 11
19.70536790264086
 21
5.946486949912374
 31
0.0
  0
LINE
  5
10188
330
1013E
100
AcDbEntity
  8
0
  6
CONTINUOUS
100
AcDbLine
 10
20.95379348658502
 20
5.371580575048398
 30
0.0
 11
19.90489241027246
 21
6.42048165136096
 31
0.0
  0
LINE
  5
10189
330
1013E
100
AcDbEntity
  8
0
  6
CONTINUOUS
100
AcDbLine
 10
21.15337423736015
 20
5.845519033353452
 30
0.0
 11
20.10441691790406
 21
6.894476352809547
 31
0.0
  0
LINE
  5
1018A
330
1013E
100
AcDbEntity
  8
0
  6
CONTINUOUS
100
AcDbLine
 10
21.35295498813529
 20
6.319457491658505
 30
0.0
 11
20.30394142553566
 21
7.368471054258134
 31
0.0
  0
LINE
  5
1018B
330
1013E
100
AcDbEntity
  8
0
  6
CONTINUOUS
100
AcDbLine
 10
21.55253573891042
 20
6.793395949963558
 30
0.0
 11
20.50346593316726
 21
7.842465755706721
 31
0.0
  0
LINE
  5
1018C
330
1013E
100
AcDbEntity
  8
0
  6
CONTINUOUS
100
AcDbLine
 10
21.75211648968556
 20
7.267334408268612
 30
0.0
 11
20.70299044079886
 21
8.316460457155308
 31
0.0
  0
LINE
  5
1018D
330
1013E
100
AcDbEntity
  8
0
  6
CONTINUOUS
100
AcDbLine
 10
21.95169724046069
 20
7.741272866573663
 30
0.0
 11
20.9298701070431
 21
8.763099999991256
 31
0.0
  0
LINE
  5
1018E
330
1013E
100
AcDbEntity
  8
0
  6
CONTINUOUS
100
AcDbLine
 10
22.15127799123582
 20
8.215211324878716
 30
0.0
 11
21.60338931612328
 21
8.763099999991256
 31
0.0
  0
LINE
  5
1018F
330
1013E
100
AcDbEntity
  8
0
  6
CONTINUOUS
100
AcDbLine
 10
22.35085874201096
 20
8.689149783183769
 30
0.0
 11
22.27690852520347
 21
8.763099999991255
 31
0.0
  0
ENDBLK
  5
10281
330
1013E
100
AcDbEntity
  8
0
100
AcDbBlockEnd
  0
BLOCK
  5
10282
330
10190
100
AcDbEntity
  8
0
100
AcDbBlockBegin
  2
*X70
 70
     1
 10
0.0
 20
0.0
 30
0.0
  3
*X70
  1

  0
LINE
  5
10191
330
10190
100
AcDbEntity
  8
0
  6
CONTINUOUS
100
AcDbLine
 10
23.19462913593892
 20
8.169917934846424
 30
0.0
 11
23.70775465517246
 21
8.683043454079957
 31
0.0
  0
LINE
  5
10192
330
10190
100
AcDbEntity
  8
0
  6
CONTINUOUS
100
AcDbLine
 10
22.64923161835078
 20
6.951001208178088
 30
0.0
 11
23.9159364069932
 21
8.217705996820516
 31
0.0
  0
LINE
  5
10193
330
10190
100
AcDbEntity
  8
0
  6
CONTINUOUS
100
AcDbLine
 10
22.10383410076263
 20
5.732084481509751
 30
0.0
 11
24.12411815881395
 21
7.752368539561078
 31
0.0
  0
LINE
  5
10194
330
10190
100
AcDbEntity
  8
0
  6
CONTINUOUS
100
AcDbLine
 10
21.55843658317447
 20
4.513167754841414
 30
0.0
 11
24.3322999106347
 21
7.287031082301639
 31
0.0
  0
LINE
  5
10195
330
10190
100
AcDbEntity
  8
0
  6
CONTINUOUS
100
AcDbLine
 10
21.01303906558632
 20
3.294251028173077
 30
0.0
 11
24.54048166245544
 21
6.821693625042199
 31
0.0
  0
LINE
  5
10196
330
10190
100
AcDbEntity
  8
0
  6
CONTINUOUS
100
AcDbLine
 10
20.46764154799817
 20
2.075334301504738
 30
0.0
 11
23.28571549467848
 21
4.89340824818505
 31
0.0
  0
LINE
  5
10197
330
10190
100
AcDbEntity
  8
0
  6
CONTINUOUS
100
AcDbLine
 10
19.92224403041002
 20
0.8564175748364002
 30
0.0
 11
22.74075865492779
 21
3.674932199354171
 31
0.0
  0
LINE
  5
10198
330
10190
100
AcDbEntity
  8
0
  6
CONTINUOUS
100
AcDbLine
 10
23.67305085490148
 20
5.280743608408048
 30
0.0
 11
24.74866341427619
 21
6.356356167782759
 31
0.0
  0
LINE
  5
10199
330
10190
100
AcDbEntity
  8
0
  6
CONTINUOUS
100
AcDbLine
 10
23.88118970842314
 20
4.815363252849522
 30
0.0
 11
24.95684516609694
 21
5.89101871052332
 31
0.0
  0
LINE
  5
1019A
330
10190
100
AcDbEntity
  8
0
  6
CONTINUOUS
100
AcDbLine
 10
19.73925852647308
 20
-0.0000871381807288
 30
0.0
 11
23.4103456646501
 21
3.670999999996297
 31
0.0
  0
LINE
  5
1019B
330
10190
100
AcDbEntity
  8
0
  6
CONTINUOUS
100
AcDbLine
 10
24.0893285619448
 20
4.349982897290997
 30
0.0
 11
25.16502691791769
 21
5.42568125326388
 31
0.0
  0
LINE
  5
1019C
330
10190
100
AcDbEntity
  8
0
  6
CONTINUOUS
100
AcDbLine
 10
20.41282099582748
 20
-0.0000438779065108
 30
0.0
 11
21.64944178675636
 21
1.236576913022366
 31
0.0
  0
LINE
  5
1019D
330
10190
100
AcDbEntity
  8
0
  6
CONTINUOUS
100
AcDbLine
 10
22.78126487373161
 20
2.36839999999762
 30
0.0
 11
24.08386487373029
 21
3.670999999996297
 31
0.0
  0
LINE
  5
1019E
330
10190
100
AcDbEntity
  8
0
  6
CONTINUOUS
100
AcDbLine
 10
24.29746741546646
 20
3.884602541732471
 30
0.0
 11
25.37320866973843
 21
4.960343796004441
 31
0.0
  0
LINE
  5
1019F
330
10190
100
AcDbEntity
  8
0
  6
CONTINUOUS
100
AcDbLine
 10
21.08638346518189
 20
-0.0000006176322938
 30
0.0
 11
21.10379033335899
 21
0.0174062505448083
 31
0.0
  0
LINE
  5
101A0
330
10190
100
AcDbEntity
  8
0
  6
CONTINUOUS
100
AcDbLine
 10
23.4547840828118
 20
2.36839999999762
 30
0.0
 11
25.58139042155918
 21
4.495006338745002
 31
0.0
  0
LINE
  5
101A1
330
10190
100
AcDbEntity
  8
0
  6
CONTINUOUS
100
AcDbLine
 10
29.30199999996933
 20
8.215615917155148
 30
0.0
 11
29.84948408280543
 21
8.763099999991255
 31
0.0
  0
LINE
  5
101A2
330
10190
100
AcDbEntity
  8
0
  6
CONTINUOUS
100
AcDbLine
 10
24.12830329189199
 20
2.36839999999762
 30
0.0
 11
25.78957217337993
 21
4.029668881485562
 31
0.0
  0
LINE
  5
101A3
330
10190
100
AcDbEntity
  8
0
  6
CONTINUOUS
100
AcDbLine
 10
29.30199999996933
 20
7.54209670807496
 30
0.0
 11
30.52300329188562
 21
8.763099999991255
 31
0.0
  0
LINE
  5
101A4
330
10190
100
AcDbEntity
  8
0
  6
CONTINUOUS
100
AcDbLine
 10
24.80182250097217
 20
2.36839999999762
 30
0.0
 11
25.99775392520067
 21
3.564331424226122
 31
0.0
  0
LINE
  5
101A5
330
10190
100
AcDbEntity
  8
0
  6
CONTINUOUS
100
AcDbLine
 10
29.30199999996933
 20
6.868577498994774
 30
0.0
 11
30.74199999996926
 21
8.308577498994712
 31
0.0
  0
LINE
  5
101A6
330
10190
100
AcDbEntity
  8
0
  6
CONTINUOUS
100
AcDbLine
 10
25.13028238392013
 20
2.023340673865392
 30
0.0
 11
26.20593567702142
 21
3.098993966966683
 31
0.0
  0
LINE
  5
101A7
330
10190
100
AcDbEntity
  8
0
  6
CONTINUOUS
100
AcDbLine
 10
25.33838066033617
 20
1.557919741201244
 30
0.0
 11
26.41411742884217
 21
2.633656509707244
 31
0.0
  0
LINE
  5
101A8
330
10190
100
AcDbEntity
  8
0
  6
CONTINUOUS
100
AcDbLine
 10
25.54647893675221
 20
1.092498808537098
 30
0.0
 11
26.62229918066291
 21
2.168319052447804
 31
0.0
  0
LINE
  5
101A9
330
10190
100
AcDbEntity
  8
0
  6
CONTINUOUS
100
AcDbLine
 10
25.75457721316825
 20
0.62707787587295
 30
0.0
 11
26.83048093248366
 21
1.702981595188365
 31
0.0
  0
LINE
  5
101AA
330
10190
100
AcDbEntity
  8
0
  6
CONTINUOUS
100
AcDbLine
 10
29.30199999996933
 20
6.195058289914587
 30
0.0
 11
30.74199999996926
 21
7.635058289914522
 31
0.0
  0
LINE
  5
101AB
330
10190
100
AcDbEntity
  8
0
  6
CONTINUOUS
100
AcDbLine
 10
29.30199999996933
 20
5.521539080834401
 30
0.0
 11
30.74199999996926
 21
6.961539080834331
 31
0.0
  0
LINE
  5
101AC
330
10190
100
AcDbEntity
  8
0
  6
CONTINUOUS
100
AcDbLine
 10
29.30199999996933
 20
4.848019871754214
 30
0.0
 11
30.74199999996925
 21
6.288019871754143
 31
0.0
  0
LINE
  5
101AD
330
10190
100
AcDbEntity
  8
0
  6
CONTINUOUS
100
AcDbLine
 10
29.30199999996933
 20
4.174500662674028
 30
0.0
 11
30.74199999996925
 21
5.614500662673953
 31
0.0
  0
LINE
  5
101AE
330
10190
100
AcDbEntity
  8
0
  6
CONTINUOUS
100
AcDbLine
 10
25.96267548958429
 20
0.1616569432088024
 30
0.0
 11
27.18411854636669
 21
1.383099999991207
 31
0.0
  0
LINE
  5
101AF
330
10190
100
AcDbEntity
  8
0
  6
CONTINUOUS
100
AcDbLine
 10
29.30199999996933
 20
3.500981453593841
 30
0.0
 11
30.74199999996925
 21
4.940981453593762
 31
0.0
  0
LINE
  5
101B0
330
10190
100
AcDbEntity
  8
0
  6
CONTINUOUS
100
AcDbLine
 10
26.50763775544691
 20
0.0330999999912356
 30
0.0
 11
27.85763775544689
 21
1.383099999991223
 31
0.0
  0
LINE
  5
101B1
330
10190
100
AcDbEntity
  8
0
  6
CONTINUOUS
100
AcDbLine
 10
29.30199999996933
 20
2.827462244513656
 30
0.0
 11
30.74199999996925
 21
4.267462244513574
 31
0.0
  0
LINE
  5
101B2
330
10190
100
AcDbEntity
  8
0
  6
CONTINUOUS
100
AcDbLine
 10
27.18115696452709
 20
0.0330999999912356
 30
0.0
 11
28.57843169463094
 21
1.430374730095086
 31
0.0
  0
LINE
  5
101B3
330
10190
100
AcDbEntity
  8
0
  6
CONTINUOUS
100
AcDbLine
 10
29.2547252698654
 20
2.106668305329547
 30
0.0
 11
30.74199999996924
 21
3.593943035433384
 31
0.0
  0
LINE
  5
101B4
330
10190
100
AcDbEntity
  8
0
  6
CONTINUOUS
100
AcDbLine
 10
27.85467617360728
 20
0.0330999999912356
 30
0.0
 11
30.74199999996924
 21
2.920423826353195
 31
0.0
  0
LINE
  5
101B5
330
10190
100
AcDbEntity
  8
0
  6
CONTINUOUS
100
AcDbLine
 10
28.55194421293851
 20
0.0568488302422763
 30
0.0
 11
30.71825116971818
 21
2.223155787021951
 31
0.0
  0
LINE
  5
101B6
330
10190
100
AcDbEntity
  8
0
  6
CONTINUOUS
100
AcDbLine
 10
29.51480923620385
 20
0.346194644427432
 30
0.0
 11
30.42890535553301
 21
1.260290763756593
 31
0.0
  0
LINE
  5
101B7
330
10190
100
AcDbEntity
  8
0
  6
CONTINUOUS
100
AcDbLine
 10
19.59027867740337
 20
-0.0000967065718083
 30
0.0
 11
19.55485265190471
 21
0.035329318926844
 31
0.0
  0
LINE
  5
101B8
330
10190
100
AcDbEntity
  8
0
  6
CONTINUOUS
100
AcDbLine
 10
20.26375463176586
 20
-0.0000534518541091
 30
0.0
 11
19.76305575737534
 21
0.5006454225364014
 31
0.0
  0
LINE
  5
101B9
330
10190
100
AcDbEntity
  8
0
  6
CONTINUOUS
100
AcDbLine
 10
20.93723058612834
 20
-0.0000101971364099
 30
0.0
 11
19.97125886284597
 21
0.965961526145958
 31
0.0
  0
LINE
  5
101BA
330
10190
100
AcDbEntity
  8
0
  6
CONTINUOUS
100
AcDbLine
 10
21.25514828313686
 20
0.355591314935257
 30
0.0
 11
20.1794619683166
 21
1.431277629755512
 31
0.0
  0
LINE
  5
101BB
330
10190
100
AcDbEntity
  8
0
  6
CONTINUOUS
100
AcDbLine
 10
21.46338838394921
 20
0.8208704232030986
 30
0.0
 11
20.38766507378723
 21
1.896593733365069
 31
0.0
  0
LINE
  5
101BC
330
10190
100
AcDbEntity
  8
0
  6
CONTINUOUS
100
AcDbLine
 10
21.67162848476155
 20
1.28614953147094
 30
0.0
 11
20.59586817925786
 21
2.361909836974626
 31
0.0
  0
LINE
  5
101BD
330
10190
100
AcDbEntity
  8
0
  6
CONTINUOUS
100
AcDbLine
 10
21.8798685855739
 20
1.751428639738782
 30
0.0
 11
20.80407128472849
 21
2.827225940584183
 31
0.0
  0
LINE
  5
101BE
330
10190
100
AcDbEntity
  8
0
  6
CONTINUOUS
100
AcDbLine
 10
22.08810868638624
 20
2.216707748006623
 30
0.0
 11
21.01227439019912
 21
3.292542044193739
 31
0.0
  0
LINE
  5
101BF
330
10190
100
AcDbEntity
  8
0
  6
CONTINUOUS
100
AcDbLine
 10
22.60993564347543
 20
2.36839999999762
 30
0.0
 11
21.22047749566975
 21
3.757858147803296
 31
0.0
  0
LINE
  5
101C0
330
10190
100
AcDbEntity
  8
0
  6
CONTINUOUS
100
AcDbLine
 10
23.28345485255561
 20
2.36839999999762
 30
0.0
 11
21.42868060114038
 21
4.223174251412853
 31
0.0
  0
LINE
  5
101C1
330
10190
100
AcDbEntity
  8
0
  6
CONTINUOUS
100
AcDbLine
 10
26.29227406164219
 20
0.0330999999912356
 30
0.0
 11
25.80009199592872
 21
0.5252820657046957
 31
0.0
  0
LINE
  5
101C2
330
10190
100
AcDbEntity
  8
0
  6
CONTINUOUS
100
AcDbLine
 10
23.9569740616358
 20
2.36839999999762
 30
0.0
 11
21.63688370661101
 21
4.688490355022409
 31
0.0
  0
LINE
  5
101C3
330
10190
100
AcDbEntity
  8
0
  6
CONTINUOUS
100
AcDbLine
 10
26.96579327072237
 20
0.0330999999912356
 30
0.0
 11
25.2554132311971
 21
1.743480039516508
 31
0.0
  0
LINE
  5
101C4
330
10190
100
AcDbEntity
  8
0
  6
CONTINUOUS
100
AcDbLine
 10
24.63049327071599
 20
2.36839999999762
 30
0.0
 11
23.32789327071731
 21
3.670999999996297
 31
0.0
  0
LINE
  5
101C5
330
10190
100
AcDbEntity
  8
0
  6
CONTINUOUS
100
AcDbLine
 10
22.92098674744635
 20
4.077906523267254
 30
0.0
 11
21.84508681208164
 21
5.153806458631966
 31
0.0
  0
LINE
  5
101C6
330
10190
100
AcDbEntity
  8
0
  6
CONTINUOUS
100
AcDbLine
 10
27.63931247980256
 20
0.0330999999912356
 30
0.0
 11
24.0014124797975
 21
3.670999999996297
 31
0.0
  0
LINE
  5
101C7
330
10190
100
AcDbEntity
  8
0
  6
CONTINUOUS
100
AcDbLine
 10
23.129125600968
 20
4.5432868788258
 30
0.0
 11
22.05328991755227
 21
5.619122562241522
 31
0.0
  0
LINE
  5
101C8
330
10190
100
AcDbEntity
  8
0
  6
CONTINUOUS
100
AcDbLine
 10
28.31283168888275
 20
0.0330999999912356
 30
0.0
 11
24.16488385994816
 21
4.181047828925828
 31
0.0
  0
LINE
  5
101C9
330
10190
100
AcDbEntity
  8
0
  6
CONTINUOUS
100
AcDbLine
 10
23.33726445448964
 20
5.008667234384345
 30
0.0
 11
22.2614930230229
 21
6.084438665851079
 31
0.0
  0
LINE
  5
101CA
330
10190
100
AcDbEntity
  8
0
  6
CONTINUOUS
100
AcDbLine
 10
28.90645333830136
 20
0.1129975596528112
 30
0.0
 11
27.63635089796295
 21
1.383099999991217
 31
0.0
  0
LINE
  5
101CB
330
10190
100
AcDbEntity
  8
0
  6
CONTINUOUS
100
AcDbLine
 10
26.43704649509776
 20
2.582404402856405
 30
0.0
 11
23.61992702019732
 21
5.399523877756844
 31
0.0
  0
LINE
  5
101CC
330
10190
100
AcDbEntity
  8
0
  6
CONTINUOUS
100
AcDbLine
 10
23.54540330801128
 20
5.47404758994289
 30
0.0
 11
22.46969612849353
 21
6.549754769460635
 31
0.0
  0
LINE
  5
101CD
330
10190
100
AcDbEntity
  8
0
  6
CONTINUOUS
100
AcDbLine
 10
29.40349360806839
 20
0.2894764989659606
 30
0.0
 11
28.30987010704312
 21
1.383099999991234
 31
0.0
  0
LINE
  5
101CE
330
10190
100
AcDbEntity
  8
0
  6
CONTINUOUS
100
AcDbLine
 10
25.89179548232307
 20
3.801174624711282
 30
0.0
 11
22.67789923396416
 21
7.015070873070191
 31
0.0
  0
LINE
  5
101CF
330
10190
100
AcDbEntity
  8
0
  6
CONTINUOUS
100
AcDbLine
 10
29.83195328664716
 20
0.5345360294673855
 30
0.0
 11
28.85740608974929
 21
1.50908322636525
 31
0.0
  0
LINE
  5
101D0
330
10190
100
AcDbEntity
  8
0
  6
CONTINUOUS
100
AcDbLine
 10
25.34654446954838
 20
5.01994484656616
 30
0.0
 11
22.88610233943479
 21
7.480386976679748
 31
0.0
  0
LINE
  5
101D1
330
10190
100
AcDbEntity
  8
0
  6
CONTINUOUS
100
AcDbLine
 10
30.16871289118725
 20
0.8712956340074771
 30
0.0
 11
29.18680861743091
 21
1.853199907763824
 31
0.0
  0
LINE
  5
101D2
330
10190
100
AcDbEntity
  8
0
  6
CONTINUOUS
100
AcDbLine
 10
24.80129345677369
 20
6.238715068421037
 30
0.0
 11
23.09430544490542
 21
7.945703080289305
 31
0.0
  0
LINE
  5
101D3
330
10190
100
AcDbEntity
  8
0
  6
CONTINUOUS
100
AcDbLine
 10
30.43711825255073
 20
1.276409481724182
 30
0.0
 11
29.30199999996933
 21
2.411527734305588
 31
0.0
  0
LINE
  5
101D4
330
10190
100
AcDbEntity
  8
0
  6
CONTINUOUS
100
AcDbLine
 10
24.256042443999
 20
7.457485290275915
 30
0.0
 11
23.30250855037605
 21
8.411019183898862
 31
0.0
  0
LINE
  5
101D5
330
10190
100
AcDbEntity
  8
0
  6
CONTINUOUS
100
AcDbLine
 10
30.6424542258006
 20
1.744592717554502
 30
0.0
 11
29.30199999996933
 21
3.085046943385775
 31
0.0
  0
LINE
  5
101D6
330
10190
100
AcDbEntity
  8
0
  6
CONTINUOUS
100
AcDbLine
 10
23.71079143122431
 20
8.676255512130794
 30
0.0
 11
23.51071165584668
 21
8.876335287508416
 31
0.0
  0
LINE
  5
101D7
330
10190
100
AcDbEntity
  8
0
  6
CONTINUOUS
100
AcDbLine
 10
30.73454365592805
 20
2.326022496507238
 30
0.0
 11
29.30199999996933
 21
3.758566152465961
 31
0.0
  0
LINE
  5
101D8
330
10190
100
AcDbEntity
  8
0
  6
CONTINUOUS
100
AcDbLine
 10
30.74199999996924
 20
2.992085361546236
 30
0.0
 11
29.30199999996933
 21
4.432085361546148
 31
0.0
  0
LINE
  5
101D9
330
10190
100
AcDbEntity
  8
0
  6
CONTINUOUS
100
AcDbLine
 10
30.74199999996924
 20
3.665604570626419
 30
0.0
 11
29.30199999996933
 21
5.105604570626333
 31
0.0
  0
LINE
  5
101DA
330
10190
100
AcDbEntity
  8
0
  6
CONTINUOUS
100
AcDbLine
 10
30.74199999996925
 20
4.339123779706602
 30
0.0
 11
29.30199999996933
 21
5.77912377970652
 31
0.0
  0
LINE
  5
101DB
330
10190
100
AcDbEntity
  8
0
  6
CONTINUOUS
100
AcDbLine
 10
30.74199999996925
 20
5.012642988786785
 30
0.0
 11
29.30199999996933
 21
6.452642988786707
 31
0.0
  0
LINE
  5
101DC
330
10190
100
AcDbEntity
  8
0
  6
CONTINUOUS
100
AcDbLine
 10
30.74199999996925
 20
5.68616219786697
 30
0.0
 11
29.30199999996933
 21
7.126162197866894
 31
0.0
  0
LINE
  5
101DD
330
10190
100
AcDbEntity
  8
0
  6
CONTINUOUS
100
AcDbLine
 10
30.74199999996925
 20
6.359681406947153
 30
0.0
 11
29.30199999996933
 21
7.799681406947081
 31
0.0
  0
LINE
  5
101DE
330
10190
100
AcDbEntity
  8
0
  6
CONTINUOUS
100
AcDbLine
 10
30.74199999996926
 20
7.033200616027337
 30
0.0
 11
29.30199999996933
 21
8.473200616027269
 31
0.0
  0
LINE
  5
101DF
330
10190
100
AcDbEntity
  8
0
  6
CONTINUOUS
100
AcDbLine
 10
30.74199999996926
 20
7.706719825107518
 30
0.0
 11
29.68561982508552
 21
8.763099999991255
 31
0.0
  0
LINE
  5
101E0
330
10190
100
AcDbEntity
  8
0
  6
CONTINUOUS
100
AcDbLine
 10
30.74199999996926
 20
8.380239034187703
 30
0.0
 11
30.35913903416571
 21
8.763099999991255
 31
0.0
  0
ENDBLK
  5
10283
330
10190
100
AcDbEntity
  8
0
100
AcDbBlockEnd
  0
BLOCK
  5
10284
330
101E1
100
AcDbEntity
  8
0
100
AcDbBlockBegin
  2
*X71
 70
     1
 10
0.0
 20
0.0
 30
0.0
  3
*X71
  1

  0
LINE
  5
101E2
330
101E1
100
AcDbEntity
  8
0
  6
CONTINUOUS
100
AcDbLine
 10
31.64199999996833
 20
8.5350582899136
 30
0.0
 11
31.87004171004599
 21
8.763099999991255
 31
0.0
  0
LINE
  5
101E3
330
101E1
100
AcDbEntity
  8
0
  6
CONTINUOUS
100
AcDbLine
 10
31.64199999996833
 20
7.861539080833413
 30
0.0
 11
32.54356091912618
 21
8.763099999991255
 31
0.0
  0
LINE
  5
101E4
330
101E1
100
AcDbEntity
  8
0
  6
CONTINUOUS
100
AcDbLine
 10
31.64199999996833
 20
7.188019871753227
 30
0.0
 11
33.08199999996839
 21
8.628019871753281
 31
0.0
  0
LINE
  5
101E5
330
101E1
100
AcDbEntity
  8
0
  6
CONTINUOUS
100
AcDbLine
 10
31.64199999996833
 20
6.514500662673041
 30
0.0
 11
33.08199999996839
 21
7.954500662673095
 31
0.0
  0
LINE
  5
101E6
330
101E1
100
AcDbEntity
  8
0
  6
CONTINUOUS
100
AcDbLine
 10
31.64199999996833
 20
5.840981453592855
 30
0.0
 11
33.08199999996839
 21
7.28098145359291
 31
0.0
  0
LINE
  5
101E7
330
101E1
100
AcDbEntity
  8
0
  6
CONTINUOUS
100
AcDbLine
 10
31.64199999996833
 20
5.167462244512668
 30
0.0
 11
33.08199999996839
 21
6.607462244512723
 31
0.0
  0
LINE
  5
101E8
330
101E1
100
AcDbEntity
  8
0
  6
CONTINUOUS
100
AcDbLine
 10
31.64199999996833
 20
4.493943035432482
 30
0.0
 11
33.08199999996839
 21
5.933943035432536
 31
0.0
  0
LINE
  5
101E9
330
101E1
100
AcDbEntity
  8
0
  6
CONTINUOUS
100
AcDbLine
 10
31.64199999996833
 20
3.820423826352294
 30
0.0
 11
33.08199999996839
 21
5.260423826352349
 31
0.0
  0
LINE
  5
101EA
330
101E1
100
AcDbEntity
  8
0
  6
CONTINUOUS
100
AcDbLine
 10
31.64199999996833
 20
3.146904617272108
 30
0.0
 11
33.08199999996839
 21
4.586904617272163
 31
0.0
  0
LINE
  5
101EB
330
101E1
100
AcDbEntity
  8
0
  6
CONTINUOUS
100
AcDbLine
 10
36.23199999996837
 20
8.410423826352327
 30
0.0
 11
36.58467617360729
 21
8.763099999991255
 31
0.0
  0
LINE
  5
101EC
330
101E1
100
AcDbEntity
  8
0
  6
CONTINUOUS
100
AcDbLine
 10
36.23199999996837
 20
7.73690461727214
 30
0.0
 11
37.25819538268748
 21
8.763099999991255
 31
0.0
  0
LINE
  5
101ED
330
101E1
100
AcDbEntity
  8
0
  6
CONTINUOUS
100
AcDbLine
 10
31.64295791647285
 20
2.474343324696431
 30
0.0
 11
33.08199999996839
 21
3.913385408191976
 31
0.0
  0
LINE
  5
101EE
330
101E1
100
AcDbEntity
  8
0
  6
CONTINUOUS
100
AcDbLine
 10
31.72131278798881
 20
1.879178987132208
 30
0.0
 11
33.08199999996839
 21
3.239866199111789
 31
0.0
  0
LINE
  5
101EF
330
101E1
100
AcDbEntity
  8
0
  6
CONTINUOUS
100
AcDbLine
 10
36.23199999996837
 20
7.063385408191953
 30
0.0
 11
37.67199999996831
 21
8.503385408191894
 31
0.0
  0
LINE
  5
101F0
330
101E1
100
AcDbEntity
  8
0
  6
CONTINUOUS
100
AcDbLine
 10
36.23199999996837
 20
6.389866199111767
 30
0.0
 11
37.67199999996831
 21
7.829866199111708
 31
0.0
  0
LINE
  5
101F1
330
101E1
100
AcDbEntity
  8
0
  6
CONTINUOUS
100
AcDbLine
 10
31.90398109638795
 20
1.388328086451165
 30
0.0
 11
33.08199999996839
 21
2.566346990031603
 31
0.0
  0
LINE
  5
101F2
330
101E1
100
AcDbEntity
  8
0
  6
CONTINUOUS
100
AcDbLine
 10
36.23199999996837
 20
5.71634699003158
 30
0.0
 11
37.67199999996831
 21
7.156346990031522
 31
0.0
  0
LINE
  5
101F3
330
101E1
100
AcDbEntity
  8
0
  6
CONTINUOUS
100
AcDbLine
 10
32.15410588803598
 20
0.9649336690190076
 30
0.0
 11
33.19577568229511
 21
2.006603463278144
 31
0.0
  0
LINE
  5
101F4
330
101E1
100
AcDbEntity
  8
0
  6
CONTINUOUS
100
AcDbLine
 10
36.23199999996837
 20
5.042827780951393
 30
0.0
 11
37.67199999996831
 21
6.482827780951334
 31
0.0
  0
LINE
  5
101F5
330
101E1
100
AcDbEntity
  8
0
  6
CONTINUOUS
100
AcDbLine
 10
32.45868320364774
 20
0.5959917755505852
 30
0.0
 11
33.48433514284099
 21
1.621643714743831
 31
0.0
  0
LINE
  5
101F6
330
101E1
100
AcDbEntity
  8
0
  6
CONTINUOUS
100
AcDbLine
 10
36.23199999996837
 20
4.369308571871207
 30
0.0
 11
37.67199999996831
 21
5.809308571871148
 31
0.0
  0
LINE
  5
101F7
330
101E1
100
AcDbEntity
  8
0
  6
CONTINUOUS
100
AcDbLine
 10
32.83977805121244
 20
0.3035674140350983
 30
0.0
 11
33.9144983171802
 21
1.378287680002859
 31
0.0
  0
LINE
  5
101F8
330
101E1
100
AcDbEntity
  8
0
  6
CONTINUOUS
100
AcDbLine
 10
36.23199999996837
 20
3.695789362791021
 30
0.0
 11
37.67199999996831
 21
5.135789362790963
 31
0.0
  0
LINE
  5
101F9
330
101E1
100
AcDbEntity
  8
0
  6
CONTINUOUS
100
AcDbLine
 10
33.28925592101007
 20
0.0795260747525335
 30
0.0
 11
34.4429104952855
 21
1.233180649027971
 31
0.0
  0
LINE
  5
101FA
330
101E1
100
AcDbEntity
  8
0
  6
CONTINUOUS
100
AcDbLine
 10
36.23199999996837
 20
3.022270153710834
 30
0.0
 11
37.67199999996831
 21
4.462270153710776
 31
0.0
  0
LINE
  5
101FB
330
101E1
100
AcDbEntity
  8
0
  6
CONTINUOUS
100
AcDbLine
 10
33.76550592101022
 20
-0.1177431343275011
 30
0.0
 11
35.18258581678813
 21
1.299336761450407
 31
0.0
  0
LINE
  5
101FC
330
101E1
100
AcDbEntity
  8
0
  6
CONTINUOUS
100
AcDbLine
 10
36.20355631289775
 20
2.320307257560033
 30
0.0
 11
37.67199999996831
 21
3.788750944630589
 31
0.0
  0
LINE
  5
101FD
330
101E1
100
AcDbEntity
  8
0
  6
CONTINUOUS
100
AcDbLine
 10
34.35908899259119
 20
-0.1976792718267175
 30
0.0
 11
37.67199999996831
 21
3.115231735550402
 31
0.0
  0
LINE
  5
101FE
330
101E1
100
AcDbEntity
  8
0
  6
CONTINUOUS
100
AcDbLine
 10
35.04438808203069
 20
-0.1858993914674008
 30
0.0
 11
37.66594960818956
 21
2.435662134691464
 31
0.0
  0
LINE
  5
101FF
330
101E1
100
AcDbEntity
  8
0
  6
CONTINUOUS
100
AcDbLine
 10
35.95405053101277
 20
0.0502438484344916
 30
0.0
 11
37.49337557446166
 21
1.589568891883381
 31
0.0
  0
LINE
  5
10200
330
101E1
100
AcDbEntity
  8
0
  6
CONTINUOUS
100
AcDbLine
 10
32.48400274193772
 20
0.5765634104975641
 30
0.0
 11
32.34694398754057
 21
0.7136221648947103
 31
0.0
  0
LINE
  5
10201
330
101E1
100
AcDbEntity
  8
0
  6
CONTINUOUS
100
AcDbLine
 10
33.86697683926317
 20
-0.1328914777477044
 30
0.0
 11
31.70105830546678
 21
2.033027056048692
 31
0.0
  0
LINE
  5
10202
330
101E1
100
AcDbEntity
  8
0
  6
CONTINUOUS
100
AcDbLine
 10
34.64261010498837
 20
-0.2350055343927187
 30
0.0
 11
31.64199999996833
 21
2.765604570627322
 31
0.0
  0
LINE
  5
10203
330
101E1
100
AcDbEntity
  8
0
  6
CONTINUOUS
100
AcDbLine
 10
35.24112258276081
 20
-0.1599988030849646
 30
0.0
 11
31.64199999996833
 21
3.439123779707508
 31
0.0
  0
LINE
  5
10204
330
101E1
100
AcDbEntity
  8
0
  6
CONTINUOUS
100
AcDbLine
 10
35.777520339722
 20
-0.0228773509659694
 30
0.0
 11
34.52146233972803
 21
1.233180649027998
 31
0.0
  0
LINE
  5
10205
330
101E1
100
AcDbEntity
  8
0
  6
CONTINUOUS
100
AcDbLine
 10
33.08199999996839
 20
2.672642988787641
 30
0.0
 11
31.64199999996833
 21
4.112642988787695
 31
0.0
  0
LINE
  5
10206
330
101E1
100
AcDbEntity
  8
0
  6
CONTINUOUS
100
AcDbLine
 10
36.25377033972294
 20
0.1743918581132773
 30
0.0
 11
35.14317118804349
 21
1.284991009792725
 31
0.0
  0
LINE
  5
10207
330
101E1
100
AcDbEntity
  8
0
  6
CONTINUOUS
100
AcDbLine
 10
33.08199999996839
 20
3.346162197867827
 30
0.0
 11
31.64199999996833
 21
4.786162197867881
 31
0.0
  0
LINE
  5
10208
330
101E1
100
AcDbEntity
  8
0
  6
CONTINUOUS
100
AcDbLine
 10
36.65748856908375
 20
0.4441928378326456
 30
0.0
 11
35.63696437513804
 21
1.464717031778358
 31
0.0
  0
LINE
  5
10209
330
101E1
100
AcDbEntity
  8
0
  6
CONTINUOUS
100
AcDbLine
 10
33.08199999996839
 20
4.019681406948013
 30
0.0
 11
31.64199999996833
 21
5.459681406948068
 31
0.0
  0
LINE
  5
1020A
330
101E1
100
AcDbEntity
  8
0
  6
CONTINUOUS
100
AcDbLine
 10
37.00809517418186
 20
0.7671054418147287
 30
0.0
 11
35.99025189342645
 21
1.784948722570141
 31
0.0
  0
LINE
  5
1020B
330
101E1
100
AcDbEntity
  8
0
  6
CONTINUOUS
100
AcDbLine
 10
33.08199999996839
 20
4.6932006160282
 30
0.0
 11
31.64199999996833
 21
6.133200616028255
 31
0.0
  0
LINE
  5
1020C
330
101E1
100
AcDbEntity
  8
0
  6
CONTINUOUS
100
AcDbLine
 10
37.30051953569851
 20
1.148200289378269
 30
0.0
 11
36.19229254868971
 21
2.256427276387067
 31
0.0
  0
LINE
  5
1020D
330
101E1
100
AcDbEntity
  8
0
  6
CONTINUOUS
100
AcDbLine
 10
33.08199999996839
 20
5.366719825108387
 30
0.0
 11
31.64199999996833
 21
6.806719825108441
 31
0.0
  0
LINE
  5
1020E
330
101E1
100
AcDbEntity
  8
0
  6
CONTINUOUS
100
AcDbLine
 10
37.50488468691001
 20
1.617354347246954
 30
0.0
 11
36.23199999996837
 21
2.890239034188595
 31
0.0
  0
LINE
  5
1020F
330
101E1
100
AcDbEntity
  8
0
  6
CONTINUOUS
100
AcDbLine
 10
33.08199999996839
 20
6.040239034188573
 30
0.0
 11
31.64199999996833
 21
7.480239034188628
 31
0.0
  0
LINE
  5
10210
330
101E1
100
AcDbEntity
  8
0
  6
CONTINUOUS
100
AcDbLine
 10
37.63036768068979
 20
2.165390562547355
 30
0.0
 11
36.23199999996837
 21
3.563758243268782
 31
0.0
  0
LINE
  5
10211
330
101E1
100
AcDbEntity
  8
0
  6
CONTINUOUS
100
AcDbLine
 10
33.08199999996839
 20
6.713758243268759
 30
0.0
 11
31.64199999996833
 21
8.153758243268815
 31
0.0
  0
LINE
  5
10212
330
101E1
100
AcDbEntity
  8
0
  6
CONTINUOUS
100
AcDbLine
 10
37.67199999996831
 20
2.797277452349027
 30
0.0
 11
36.23199999996837
 21
4.237277452348969
 31
0.0
  0
LINE
  5
10213
330
101E1
100
AcDbEntity
  8
0
  6
CONTINUOUS
100
AcDbLine
 10
37.67199999996831
 20
3.470796661429214
 30
0.0
 11
36.23199999996837
 21
4.910796661429155
 31
0.0
  0
LINE
  5
10214
330
101E1
100
AcDbEntity
  8
0
  6
CONTINUOUS
100
AcDbLine
 10
37.67199999996831
 20
4.1443158705094
 30
0.0
 11
36.23199999996837
 21
5.584315870509341
 31
0.0
  0
LINE
  5
10215
330
101E1
100
AcDbEntity
  8
0
  6
CONTINUOUS
100
AcDbLine
 10
33.08199999996839
 20
7.387277452348947
 30
0.0
 11
31.70617745232608
 21
8.763099999991255
 31
0.0
  0
LINE
  5
10216
330
101E1
100
AcDbEntity
  8
0
  6
CONTINUOUS
100
AcDbLine
 10
33.08199999996839
 20
8.060796661429134
 30
0.0
 11
32.37969666140626
 21
8.763099999991255
 31
0.0
  0
LINE
  5
10217
330
101E1
100
AcDbEntity
  8
0
  6
CONTINUOUS
100
AcDbLine
 10
33.08199999996839
 20
8.73431587050932
 30
0.0
 11
33.05321587048645
 21
8.763099999991255
 31
0.0
  0
LINE
  5
10218
330
101E1
100
AcDbEntity
  8
0
  6
CONTINUOUS
100
AcDbLine
 10
37.67199999996831
 20
4.817835079589587
 30
0.0
 11
36.23199999996837
 21
6.257835079589528
 31
0.0
  0
LINE
  5
10219
330
101E1
100
AcDbEntity
  8
0
  6
CONTINUOUS
100
AcDbLine
 10
37.67199999996831
 20
5.491354288669773
 30
0.0
 11
36.23199999996837
 21
6.931354288669715
 31
0.0
  0
LINE
  5
1021A
330
101E1
100
AcDbEntity
  8
0
  6
CONTINUOUS
100
AcDbLine
 10
37.67199999996831
 20
6.164873497749959
 30
0.0
 11
36.23199999996837
 21
7.6048734977499
 31
0.0
  0
LINE
  5
1021B
330
101E1
100
AcDbEntity
  8
0
  6
CONTINUOUS
100
AcDbLine
 10
37.67199999996831
 20
6.838392706830145
 30
0.0
 11
36.23199999996837
 21
8.278392706830086
 31
0.0
  0
LINE
  5
1021C
330
101E1
100
AcDbEntity
  8
0
  6
CONTINUOUS
100
AcDbLine
 10
37.67199999996831
 20
7.511911915910333
 30
0.0
 11
36.42081191588738
 21
8.763099999991255
 31
0.0
  0
LINE
  5
1021D
330
101E1
100
AcDbEntity
  8
0
  6
CONTINUOUS
100
AcDbLine
 10
37.67199999996831
 20
8.18543112499052
 30
0.0
 11
37.09433112496757
 21
8.763099999991255
 31
0.0
  0
ENDBLK
  5
10285
330
101E1
100
AcDbEntity
  8
0
100
AcDbBlockEnd
  0
BLOCK
  5
10286
330
1021E
100
AcDbEntity
  8
0
100
AcDbBlockBegin
  2
*X72
 70
     1
 10
0.0
 20
0.0
 30
0.0
  3
*X72
  1

  0
LINE
  5
1021F
330
1021E
100
AcDbEntity
  8
0
  6
CONTINUOUS
100
AcDbLine
 10
38.60499999996136
 20
8.762866199104765
 30
0.0
 11
38.71672554182345
 21
8.874591740966855
 31
0.0
  0
LINE
  5
10220
330
1021E
100
AcDbEntity
  8
0
  6
CONTINUOUS
100
AcDbLine
 10
38.60499999996136
 20
8.089346990024577
 30
0.0
 11
39.03418785440363
 21
8.518534844466847
 31
0.0
  0
LINE
  5
10221
330
1021E
100
AcDbEntity
  8
0
  6
CONTINUOUS
100
AcDbLine
 10
38.60499999996136
 20
7.41582778094439
 30
0.0
 11
39.35165016698382
 21
8.16247794796684
 31
0.0
  0
LINE
  5
10222
330
1021E
100
AcDbEntity
  8
0
  6
CONTINUOUS
100
AcDbLine
 10
38.60499999996136
 20
6.742308571864204
 30
0.0
 11
39.66911247956399
 21
7.806421051466834
 31
0.0
  0
LINE
  5
10223
330
1021E
100
AcDbEntity
  8
0
  6
CONTINUOUS
100
AcDbLine
 10
38.60499999996136
 20
6.068789362784018
 30
0.0
 11
39.98657479214418
 21
7.450364154966827
 31
0.0
  0
LINE
  5
10224
330
1021E
100
AcDbEntity
  8
0
  6
CONTINUOUS
100
AcDbLine
 10
38.60499999996136
 20
5.395270153703832
 30
0.0
 11
40.30403710472435
 21
7.09430725846682
 31
0.0
  0
LINE
  5
10225
330
1021E
100
AcDbEntity
  8
0
  6
CONTINUOUS
100
AcDbLine
 10
38.60499999996136
 20
4.721750944623645
 30
0.0
 11
40.62149941730453
 21
6.738250361966813
 31
0.0
  0
LINE
  5
10226
330
1021E
100
AcDbEntity
  8
0
  6
CONTINUOUS
100
AcDbLine
 10
38.60499999996136
 20
4.048231735543458
 30
0.0
 11
40.93896172988471
 21
6.382193465466806
 31
0.0
  0
LINE
  5
10227
330
1021E
100
AcDbEntity
  8
0
  6
CONTINUOUS
100
AcDbLine
 10
38.60499999996136
 20
3.374712526463272
 30
0.0
 11
40.02599999995994
 21
4.795712526461843
 31
0.0
  0
LINE
  5
10228
330
1021E
100
AcDbEntity
  8
0
  6
CONTINUOUS
100
AcDbLine
 10
38.60499999996136
 20
2.701193317383085
 30
0.0
 11
40.02599999995994
 21
4.122193317381657
 31
0.0
  0
LINE
  5
10229
330
1021E
100
AcDbEntity
  8
0
  6
CONTINUOUS
100
AcDbLine
 10
40.28339754687704
 20
5.053110073378947
 30
0.0
 11
41.25642404246489
 21
6.026136568966799
 31
0.0
  0
LINE
  5
1022A
330
1021E
100
AcDbEntity
  8
0
  6
CONTINUOUS
100
AcDbLine
 10
40.60085985945722
 20
4.697053176878939
 30
0.0
 11
41.57388635504507
 21
5.670079672466793
 31
0.0
  0
LINE
  5
1022B
330
1021E
100
AcDbEntity
  8
0
  6
CONTINUOUS
100
AcDbLine
 10
43.57899999995641
 20
8.348712526458318
 30
0.0
 11
43.99338747348935
 21
8.763099999991255
 31
0.0
  0
LINE
  5
1022C
330
1021E
100
AcDbEntity
  8
0
  6
CONTINUOUS
100
AcDbLine
 10
43.57899999995641
 20
7.675193317378131
 30
0.0
 11
44.66690668256953
 21
8.763099999991255
 31
0.0
  0
LINE
  5
1022D
330
1021E
100
AcDbEntity
  8
0
  6
CONTINUOUS
100
AcDbLine
 10
38.60499999996136
 20
2.027674108302898
 30
0.0
 11
40.02599999995994
 21
3.44867410830147
 31
0.0
  0
LINE
  5
1022E
330
1021E
100
AcDbEntity
  8
0
  6
CONTINUOUS
100
AcDbLine
 10
38.60499999996136
 20
1.354154899222712
 30
0.0
 11
40.02599999995994
 21
2.775154899221284
 31
0.0
  0
LINE
  5
1022F
330
1021E
100
AcDbEntity
  8
0
  6
CONTINUOUS
100
AcDbLine
 10
38.60499999996136
 20
0.6806356901425255
 30
0.0
 11
40.02599999995994
 21
2.101635690141098
 31
0.0
  0
LINE
  5
10230
330
1021E
100
AcDbEntity
  8
0
  6
CONTINUOUS
100
AcDbLine
 10
38.60499999996136
 20
0.0071164810623383
 30
0.0
 11
40.02599999995994
 21
1.428116481060911
 31
0.0
  0
LINE
  5
10231
330
1021E
100
AcDbEntity
  8
0
  6
CONTINUOUS
100
AcDbLine
 10
40.9183221720374
 20
4.340996280378933
 30
0.0
 11
41.89134866762525
 21
5.314022775966786
 31
0.0
  0
LINE
  5
10232
330
1021E
100
AcDbEntity
  8
0
  6
CONTINUOUS
100
AcDbLine
 10
41.23578448461758
 20
3.984939383878926
 30
0.0
 11
42.20881098020543
 21
4.957965879466778
 31
0.0
  0
LINE
  5
10233
330
1021E
100
AcDbEntity
  8
0
  6
CONTINUOUS
100
AcDbLine
 10
41.55324679719776
 20
3.628882487378919
 30
0.0
 11
42.52627329278561
 21
4.601908982966772
 31
0.0
  0
LINE
  5
10234
330
1021E
100
AcDbEntity
  8
0
  6
CONTINUOUS
100
AcDbLine
 10
41.87070910977793
 20
3.272825590878912
 30
0.0
 11
42.84373560536579
 21
4.245852086466765
 31
0.0
  0
LINE
  5
10235
330
1021E
100
AcDbEntity
  8
0
  6
CONTINUOUS
100
AcDbLine
 10
43.57899999995641
 20
7.001674108297943
 30
0.0
 11
44.99999999995498
 21
8.422674108296516
 31
0.0
  0
LINE
  5
10236
330
1021E
100
AcDbEntity
  8
0
  6
CONTINUOUS
100
AcDbLine
 10
43.57899999995641
 20
6.328154899217758
 30
0.0
 11
44.99999999995498
 21
7.749154899216329
 31
0.0
  0
LINE
  5
10237
330
1021E
100
AcDbEntity
  8
0
  6
CONTINUOUS
100
AcDbLine
 10
43.57899999995641
 20
5.654635690137571
 30
0.0
 11
44.99999999995498
 21
7.075635690136142
 31
0.0
  0
LINE
  5
10238
330
1021E
100
AcDbEntity
  8
0
  6
CONTINUOUS
100
AcDbLine
 10
43.57899999995641
 20
4.981116481057384
 30
0.0
 11
44.99999999995498
 21
6.402116481055955
 31
0.0
  0
LINE
  5
10239
330
1021E
100
AcDbEntity
  8
0
  6
CONTINUOUS
100
AcDbLine
 10
39.27140272797921
 20
-0.0000000000000009
 30
0.0
 11
40.02599999995994
 21
0.7545972719807246
 31
0.0
  0
LINE
  5
1023A
330
1021E
100
AcDbEntity
  8
0
  6
CONTINUOUS
100
AcDbLine
 10
39.9449219370594
 20
-0.0000000000000009
 30
0.0
 11
40.02599999995994
 21
0.0810780629005379
 31
0.0
  0
LINE
  5
1023B
330
1021E
100
AcDbEntity
  8
0
  6
CONTINUOUS
100
AcDbLine
 10
42.18817142235812
 20
2.916768694378905
 30
0.0
 11
43.16119791794597
 21
3.889795189966758
 31
0.0
  0
LINE
  5
1023C
330
1021E
100
AcDbEntity
  8
0
  6
CONTINUOUS
100
AcDbLine
 10
42.50563373493829
 20
2.560711797878898
 30
0.0
 11
43.47866023052615
 21
3.533738293466751
 31
0.0
  0
LINE
  5
1023D
330
1021E
100
AcDbEntity
  8
0
  6
CONTINUOUS
100
AcDbLine
 10
43.57899999995641
 20
4.307597271977198
 30
0.0
 11
44.99999999995498
 21
5.728597271975769
 31
0.0
  0
LINE
  5
1023E
330
1021E
100
AcDbEntity
  8
0
  6
CONTINUOUS
100
AcDbLine
 10
43.57899999995641
 20
3.634078062897011
 30
0.0
 11
44.99999999995498
 21
5.055078062895582
 31
0.0
  0
LINE
  5
1023F
330
1021E
100
AcDbEntity
  8
0
  6
CONTINUOUS
100
AcDbLine
 10
42.82309604751848
 20
2.204654901378891
 30
0.0
 11
44.99999999995498
 21
4.381558853815395
 31
0.0
  0
LINE
  5
10240
330
1021E
100
AcDbEntity
  8
0
  6
CONTINUOUS
100
AcDbLine
 10
43.14055836009865
 20
1.848598004878885
 30
0.0
 11
44.99999999995498
 21
3.70803964473521
 31
0.0
  0
LINE
  5
10241
330
1021E
100
AcDbEntity
  8
0
  6
CONTINUOUS
100
AcDbLine
 10
43.45802067267883
 20
1.492541108378878
 30
0.0
 11
44.99999999995498
 21
3.034520435655023
 31
0.0
  0
LINE
  5
10242
330
1021E
100
AcDbEntity
  8
0
  6
CONTINUOUS
100
AcDbLine
 10
43.77548298525902
 20
1.136484211878871
 30
0.0
 11
44.99999999995498
 21
2.361001226574837
 31
0.0
  0
LINE
  5
10243
330
1021E
100
AcDbEntity
  8
0
  6
CONTINUOUS
100
AcDbLine
 10
44.09294529783919
 20
0.7804273153788639
 30
0.0
 11
44.99999999995498
 21
1.687482017494649
 31
0.0
  0
LINE
  5
10244
330
1021E
100
AcDbEntity
  8
0
  6
CONTINUOUS
100
AcDbLine
 10
44.41040761041938
 20
0.4243704188788566
 30
0.0
 11
44.99999999995498
 21
1.013962808414463
 31
0.0
  0
LINE
  5
10245
330
1021E
100
AcDbEntity
  8
0
  6
CONTINUOUS
100
AcDbLine
 10
44.72786992299955
 20
0.0683135223788494
 30
0.0
 11
44.99999999995498
 21
0.340443599334276
 31
0.0
  0
LINE
  5
10246
330
1021E
100
AcDbEntity
  8
0
  6
CONTINUOUS
100
AcDbLine
 10
39.12223903415696
 20
-0.0000000000000009
 30
0.0
 11
38.60499999996136
 21
0.5172390341955961
 31
0.0
  0
LINE
  5
10247
330
1021E
100
AcDbEntity
  8
0
  6
CONTINUOUS
100
AcDbLine
 10
39.79575824323715
 20
-0.0000000000000009
 30
0.0
 11
38.60499999996136
 21
1.190758243275783
 31
0.0
  0
LINE
  5
10248
330
1021E
100
AcDbEntity
  8
0
  6
CONTINUOUS
100
AcDbLine
 10
40.02599999995994
 20
0.443277452357397
 30
0.0
 11
38.60499999996136
 21
1.864277452355969
 31
0.0
  0
LINE
  5
10249
330
1021E
100
AcDbEntity
  8
0
  6
CONTINUOUS
100
AcDbLine
 10
40.02599999995994
 20
1.116796661437583
 30
0.0
 11
38.60499999996136
 21
2.537796661436155
 31
0.0
  0
LINE
  5
1024A
330
1021E
100
AcDbEntity
  8
0
  6
CONTINUOUS
100
AcDbLine
 10
40.02599999995994
 20
1.79031587051777
 30
0.0
 11
38.60499999996136
 21
3.211315870516341
 31
0.0
  0
LINE
  5
1024B
330
1021E
100
AcDbEntity
  8
0
  6
CONTINUOUS
100
AcDbLine
 10
40.02599999995994
 20
2.463835079597956
 30
0.0
 11
38.60499999996136
 21
3.884835079596527
 31
0.0
  0
LINE
  5
1024C
330
1021E
100
AcDbEntity
  8
0
  6
CONTINUOUS
100
AcDbLine
 10
40.02599999995994
 20
3.137354288678143
 30
0.0
 11
38.60499999996136
 21
4.558354288676714
 31
0.0
  0
LINE
  5
1024D
330
1021E
100
AcDbEntity
  8
0
  6
CONTINUOUS
100
AcDbLine
 10
40.02599999995994
 20
3.810873497758329
 30
0.0
 11
38.60499999996136
 21
5.2318734977569
 31
0.0
  0
LINE
  5
1024E
330
1021E
100
AcDbEntity
  8
0
  6
CONTINUOUS
100
AcDbLine
 10
40.02599999995994
 20
4.484392706838515
 30
0.0
 11
38.60499999996136
 21
5.905392706837086
 31
0.0
  0
LINE
  5
1024F
330
1021E
100
AcDbEntity
  8
0
  6
CONTINUOUS
100
AcDbLine
 10
44.99999999995498
 20
0.183911915923658
 30
0.0
 11
41.53858364506288
 21
3.64532827081576
 31
0.0
  0
LINE
  5
10250
330
1021E
100
AcDbEntity
  8
0
  6
CONTINUOUS
100
AcDbLine
 10
40.02599999995994
 20
5.157911915918703
 30
0.0
 11
38.60499999996136
 21
6.578911915917274
 31
0.0
  0
LINE
  5
10251
330
1021E
100
AcDbEntity
  8
0
  6
CONTINUOUS
100
AcDbLine
 10
44.99999999995498
 20
0.8574311250038447
 30
0.0
 11
38.60499999996136
 21
7.25243112499746
 31
0.0
  0
LINE
  5
10252
330
1021E
100
AcDbEntity
  8
0
  6
CONTINUOUS
100
AcDbLine
 10
44.99999999995498
 20
1.530950334084031
 30
0.0
 11
38.60499999996136
 21
7.925950334077647
 31
0.0
  0
LINE
  5
10253
330
1021E
100
AcDbEntity
  8
0
  6
CONTINUOUS
100
AcDbLine
 10
44.99999999995498
 20
2.204469543164218
 30
0.0
 11
43.57899999995641
 21
3.625469543162789
 31
0.0
  0
LINE
  5
10254
330
1021E
100
AcDbEntity
  8
0
  6
CONTINUOUS
100
AcDbLine
 10
41.89876730984767
 20
5.305702233271528
 30
0.0
 11
38.60499999996136
 21
8.599469543157834
 31
0.0
  0
LINE
  5
10255
330
1021E
100
AcDbEntity
  8
0
  6
CONTINUOUS
100
AcDbLine
 10
44.99999999995498
 20
2.877988752244405
 30
0.0
 11
43.57899999995641
 21
4.298988752242975
 31
0.0
  0
LINE
  5
10256
330
1021E
100
AcDbEntity
  8
0
  6
CONTINUOUS
100
AcDbLine
 10
44.99999999995498
 20
3.551507961324591
 30
0.0
 11
43.57899999995641
 21
4.972507961323163
 31
0.0
  0
LINE
  5
10257
330
1021E
100
AcDbEntity
  8
0
  6
CONTINUOUS
100
AcDbLine
 10
44.99999999995498
 20
4.225027170404777
 30
0.0
 11
43.57899999995641
 21
5.646027170403348
 31
0.0
  0
LINE
  5
10258
330
1021E
100
AcDbEntity
  8
0
  6
CONTINUOUS
100
AcDbLine
 10
44.99999999995498
 20
4.898546379484964
 30
0.0
 11
43.57899999995641
 21
6.319546379483535
 31
0.0
  0
LINE
  5
10259
330
1021E
100
AcDbEntity
  8
0
  6
CONTINUOUS
100
AcDbLine
 10
44.99999999995498
 20
5.572065588565151
 30
0.0
 11
43.57899999995641
 21
6.993065588563722
 31
0.0
  0
LINE
  5
1025A
330
1021E
100
AcDbEntity
  8
0
  6
CONTINUOUS
100
AcDbLine
 10
44.99999999995498
 20
6.245584797645336
 30
0.0
 11
43.57899999995641
 21
7.666584797643908
 31
0.0
  0
LINE
  5
1025B
330
1021E
100
AcDbEntity
  8
0
  6
CONTINUOUS
100
AcDbLine
 10
44.99999999995498
 20
6.919104006725522
 30
0.0
 11
43.57899999995641
 21
8.340104006724093
 31
0.0
  0
LINE
  5
1025C
330
1021E
100
AcDbEntity
  8
0
  6
CONTINUOUS
100
AcDbLine
 10
44.99999999995498
 20
7.592623215805709
 30
0.0
 11
43.82952321576943
 21
8.763099999991255
 31
0.0
  0
LINE
  5
1025D
330
1021E
100
AcDbEntity
  8
0
  6
CONTINUOUS
100
AcDbLine
 10
44.99999999995498
 20
8.266142424885896
 30
0.0
 11
44.50304242484962
 21
8.763099999991255
 31
0.0
  0
ENDBLK
  5
10287
330
1021E
100
AcDbEntity
  8
0
100
AcDbBlockEnd
  0
BLOCK
  5
10288
330
1025E
100
AcDbEntity
  8
0
100
AcDbBlockBegin
  2
*X73
 70
     1
 10
0.0
 20
0.0
 30
0.0
  3
*X73
  1

  0
LINE
  5
1025F
330
1025E
100
AcDbEntity
  8
0
  6
CONTINUOUS
100
AcDbLine
 10
0.0
 20
8.548461116714023
 30
0.0
 11
0.2146388832772324
 21
8.763099999991255
 31
0.0
  0
LINE
  5
10260
330
1025E
100
AcDbEntity
  8
0
  6
CONTINUOUS
100
AcDbLine
 10
-0.0000000000000002
 20
7.874941907633837
 30
0.0
 11
0.8881580923574184
 21
8.763099999991255
 31
0.0
  0
LINE
  5
10261
330
1025E
100
AcDbEntity
  8
0
  6
CONTINUOUS
100
AcDbLine
 10
0.0
 20
7.20142269855365
 30
0.0
 11
1.420999999998572
 21
8.622422698552223
 31
0.0
  0
LINE
  5
10262
330
1025E
100
AcDbEntity
  8
0
  6
CONTINUOUS
100
AcDbLine
 10
-0.0000000000000001
 20
6.527903489473465
 30
0.0
 11
1.420999999998571
 21
7.948903489472036
 31
0.0
  0
LINE
  5
10263
330
1025E
100
AcDbEntity
  8
0
  6
CONTINUOUS
100
AcDbLine
 10
-0.0000000000000002
 20
5.854384280393278
 30
0.0
 11
1.420999999998571
 21
7.275384280391849
 31
0.0
  0
LINE
  5
10264
330
1025E
100
AcDbEntity
  8
0
  6
CONTINUOUS
100
AcDbLine
 10
-0.0000000000000002
 20
5.180865071313091
 30
0.0
 11
1.420999999998571
 21
6.601865071311663
 31
0.0
  0
LINE
  5
10265
330
1025E
100
AcDbEntity
  8
0
  6
CONTINUOUS
100
AcDbLine
 10
0.0
 20
4.507345862232905
 30
0.0
 11
1.420999999998571
 21
5.928345862231477
 31
0.0
  0
LINE
  5
10266
330
1025E
100
AcDbEntity
  8
0
  6
CONTINUOUS
100
AcDbLine
 10
-0.0000000000000003
 20
3.833826653152718
 30
0.0
 11
1.420999999998571
 21
5.25482665315129
 31
0.0
  0
LINE
  5
10267
330
1025E
100
AcDbEntity
  8
0
  6
CONTINUOUS
100
AcDbLine
 10
-0.0000000000000002
 20
3.160307444072532
 30
0.0
 11
1.420999999998571
 21
4.581307444071103
 31
0.0
  0
LINE
  5
10268
330
1025E
100
AcDbEntity
  8
0
  6
CONTINUOUS
100
AcDbLine
 10
-0.0000000000000001
 20
2.486788234992345
 30
0.0
 11
1.420999999998571
 21
3.907788234990917
 31
0.0
  0
LINE
  5
10269
330
1025E
100
AcDbEntity
  8
0
  6
CONTINUOUS
100
AcDbLine
 10
-0.0000000000000006
 20
1.813269025912159
 30
0.0
 11
1.420999999998571
 21
3.234269025910731
 31
0.0
  0
LINE
  5
1026A
330
1025E
100
AcDbEntity
  8
0
  6
CONTINUOUS
100
AcDbLine
 10
0.0
 20
1.139749816831973
 30
0.0
 11
1.420999999998571
 21
2.560749816830544
 31
0.0
  0
LINE
  5
1026B
330
1025E
100
AcDbEntity
  8
0
  6
CONTINUOUS
100
AcDbLine
 10
0.0000000000000002
 20
0.466230607751787
 30
0.0
 11
1.420999999998571
 21
1.887230607750358
 31
0.0
  0
LINE
  5
1026C
330
1025E
100
AcDbEntity
  8
0
  6
CONTINUOUS
100
AcDbLine
 10
0.2072886013284003
 20
-0.0000000000000009
 30
0.0
 11
1.420999999998571
 21
1.213711398670171
 31
0.0
  0
LINE
  5
1026D
330
1025E
100
AcDbEntity
  8
0
  6
CONTINUOUS
100
AcDbLine
 10
0.8808078104085864
 20
-0.0000000000000009
 30
0.0
 11
1.420999999998571
 21
0.5401921895899839
 31
0.0
  0
LINE
  5
1026E
330
1025E
100
AcDbEntity
  8
0
  6
CONTINUOUS
100
AcDbLine
 10
0.0581249075061505
 20
-0.0000000000000009
 30
0.0
 11
-0.0000000000000002
 21
0.0581249075061496
 31
0.0
  0
LINE
  5
1026F
330
1025E
100
AcDbEntity
  8
0
  6
CONTINUOUS
100
AcDbLine
 10
0.7316441165863372
 20
-0.0000000000000009
 30
0.0
 11
-0.0000000000000002
 21
0.7316441165863363
 31
0.0
  0
LINE
  5
10270
330
1025E
100
AcDbEntity
  8
0
  6
CONTINUOUS
100
AcDbLine
 10
1.405163325666523
 20
-0.0000000000000009
 30
0.0
 11
-0.0000000000000002
 21
1.405163325666523
 31
0.0
  0
LINE
  5
10271
330
1025E
100
AcDbEntity
  8
0
  6
CONTINUOUS
100
AcDbLine
 10
1.420999999998572
 20
0.6576825347481381
 30
0.0
 11
-0.0000000000000001
 21
2.07868253474671
 31
0.0
  0
LINE
  5
10272
330
1025E
100
AcDbEntity
  8
0
  6
CONTINUOUS
100
AcDbLine
 10
1.420999999998571
 20
1.331201743828324
 30
0.0
 11
-0.0000000000000001
 21
2.752201743826896
 31
0.0
  0
LINE
  5
10273
330
1025E
100
AcDbEntity
  8
0
  6
CONTINUOUS
100
AcDbLine
 10
1.420999999998571
 20
2.004720952908511
 30
0.0
 11
-0.0000000000000002
 21
3.425720952907082
 31
0.0
  0
LINE
  5
10274
330
1025E
100
AcDbEntity
  8
0
  6
CONTINUOUS
100
AcDbLine
 10
1.420999999998571
 20
2.678240161988697
 30
0.0
 11
-0.0000000000000001
 21
4.099240161987269
 31
0.0
  0
LINE
  5
10275
330
1025E
100
AcDbEntity
  8
0
  6
CONTINUOUS
100
AcDbLine
 10
1.420999999998572
 20
3.351759371068884
 30
0.0
 11
0.0
 21
4.772759371067455
 31
0.0
  0
LINE
  5
10276
330
1025E
100
AcDbEntity
  8
0
  6
CONTINUOUS
100
AcDbLine
 10
1.420999999998571
 20
4.02527858014907
 30
0.0
 11
-0.0000000000000003
 21
5.446278580147642
 31
0.0
  0
LINE
  5
10277
330
1025E
100
AcDbEntity
  8
0
  6
CONTINUOUS
100
AcDbLine
 10
1.420999999998571
 20
4.698797789229257
 30
0.0
 11
0.0
 21
6.119797789227828
 31
0.0
  0
LINE
  5
10278
330
1025E
100
AcDbEntity
  8
0
  6
CONTINUOUS
100
AcDbLine
 10
1.420999999998571
 20
5.372316998309444
 30
0.0
 11
-0.0000000000000001
 21
6.793316998308015
 31
0.0
  0
LINE
  5
10279
330
1025E
100
AcDbEntity
  8
0
  6
CONTINUOUS
100
AcDbLine
 10
1.420999999998572
 20
6.045836207389629
 30
0.0
 11
-0.0000000000000004
 21
7.466836207388202
 31
0.0
  0
LINE
  5
1027A
330
1025E
100
AcDbEntity
  8
0
  6
CONTINUOUS
100
AcDbLine
 10
1.420999999998571
 20
6.719355416469816
 30
0.0
 11
0.0
 21
8.140355416468388
 31
0.0
  0
LINE
  5
1027B
330
1025E
100
AcDbEntity
  8
0
  6
CONTINUOUS
100
AcDbLine
 10
1.420999999998571
 20
7.392874625550003
 30
0.0
 11
0.0507746255573185
 21
8.763099999991255
 31
0.0
  0
LINE
  5
1027C
330
1025E
100
AcDbEntity
  8
0
  6
CONTINUOUS
100
AcDbLine
 10
1.420999999998571
 20
8.06639383463019
 30
0.0
 11
0.7242938346375052
 21
8.763099999991255
 31
0.0
  0
LINE
  5
1027D
330
1025E
100
AcDbEntity
  8
0
  6
CONTINUOUS
100
AcDbLine
 10
1.420999999998571
 20
8.739913043710375
 30
0.0
 11
1.397813043717691
 21
8.763099999991255
 31
0.0
  0
ENDBLK
  5
10289
330
1025E
100
AcDbEntity
  8
0
100
AcDbBlockEnd
  0
ENDSEC
  0
SECTION
  2
ENTITIES
  0
LINE
  5
FAEE
330
18
100
AcDbEntity
  8
01
100
AcDbLine
 10
190.2933636975134
 20
96.16589580364268
 30
0.0
 11
190.2933636975134
 21
54.96589580364277
 31
0.0
  0
LINE
  5
FAEF
330
18
100
AcDbEntity
  8
01
100
AcDbLine
 10
390.2933636975134
 20
96.16589580364271
 30
0.0
 11
390.2933636975134
 21
54.96589580364283
 31
0.0
  0
ARC
  5
FAF0
330
18
100
AcDbEntity
  8
01
100
AcDbCircle
 10
389.7933636975137
 20
70.96589580364432
 30
0.0
 40
0.5
100
AcDbArc
 50
0.0
 51
90.0
  0
ARC
  5
FAF1
330
18
100
AcDbEntity
  8
01
100
AcDbCircle
 10
389.2933636975134
 20
90.96589580364275
 30
0.0
 40
1.0
100
AcDbArc
 50
270.0
 51
0.0
  0
ARC
  5
FAF2
330
18
100
AcDbEntity
  8
01
100
AcDbCircle
 10
389.2933636975134
 20
66.96589580364272
 30
0.0
 40
1.0
100
AcDbArc
 50
270.0
 51
0.0
  0
ARC
  5
FAF3
330
18
100
AcDbEntity
  8
01
100
AcDbCircle
 10
389.2933636975134
 20
54.96589580364283
 30
0.0
 40
1.0
100
AcDbArc
 50
270.0
 51
0.0
  0
LINE
  5
FAF4
330
18
100
AcDbEntity
  8
01
100
AcDbLine
 10
191.2933636975134
 20
65.96589580364275
 30
0.0
 11
389.2933636975134
 21
65.96589580364275
 31
0.0
  0
ARC
  5
FAF5
330
18
100
AcDbEntity
  8
01
100
AcDbCircle
 10
191.2933636975134
 20
66.96589580364275
 30
0.0
 40
1.0
100
AcDbArc
 50
180.0
 51
270.0
  0
LINE
  5
FAF6
330
18
100
AcDbEntity
  8
01
100
AcDbLine
 10
190.7933636975134
 20
71.46589580364281
 30
0.0
 11
389.7933636975152
 21
71.46589580364432
 31
0.0
  0
ARC
  5
FAF7
330
18
100
AcDbEntity
  8
01
100
AcDbCircle
 10
190.7933636975134
 20
70.96589580364281
 30
0.0
 40
0.5
100
AcDbArc
 50
90.0
 51
180.0
  0
LINE
  5
FAF8
330
18
100
AcDbEntity
  8
01
100
AcDbLine
 10
191.2933636975132
 20
53.96589580364277
 30
0.0
 11
389.2933636975134
 21
53.96589580364283
 31
0.0
  0
ARC
  5
FAF9
330
18
100
AcDbEntity
  8
01
100
AcDbCircle
 10
191.2933636975132
 20
54.96589580364277
 30
0.0
 40
1.0
100
AcDbArc
 50
180.0
 51
270.0
  0
LINE
  5
FAFA
330
18
100
AcDbEntity
  8
1CENTER
100
AcDbLine
 10
215.2933636975134
 20
62.55851224942321
 30
0.0
 11
215.2933636975134
 21
55.37325502716671
 31
0.0
  0
LINE
  5
FAFB
330
18
100
AcDbEntity
  8
1CENTER
100
AcDbLine
 10
211.3305834118195
 20
58.96588363829496
 30
0.0
 11
219.2561439832056
 21
58.96588363829496
 31
0.0
  0
LINE
  5
FAFC
330
18
100
AcDbEntity
  8
1CENTER
100
AcDbLine
 10
365.2933636975143
 20
62.55851224942321
 30
0.0
 11
365.2933636975143
 21
55.37325502716671
 31
0.0
  0
LINE
  5
FAFD
330
18
100
AcDbEntity
  8
1CENTER
100
AcDbLine
 10
369.2561439832083
 20
58.96588363829496
 30
0.0
 11
361.3305834118213
 21
58.96588363829496
 31
0.0
  0
CIRCLE
  5
FAFE
330
18
100
AcDbEntity
  8
01
100
AcDbCircle
 10
365.2933636975143
 20
58.96588363829496
 30
0.0
 40
2.5
  0
LINE
  5
FAFF
330
18
100
AcDbEntity
  8
01
100
AcDbLine
 10
190.7933636975134
 20
96.66589580364268
 30
0.0
 11
389.7933636975134
 21
96.66589580364271
 31
0.0
  0
ARC
  5
FB00
330
18
100
AcDbEntity
  8
01
100
AcDbCircle
 10
190.7933636975134
 20
96.16589580364268
 30
0.0
 40
0.5
100
AcDbArc
 50
90.0
 51
180.0
  0
LINE
  5
FB01
330
18
100
AcDbEntity
  8
01
100
AcDbLine
 10
389.2933636975134
 20
89.96589580364275
 30
0.0
 11
191.2933636975132
 21
89.96589580364275
 31
0.0
  0
ARC
  5
FB02
330
18
100
AcDbEntity
  8
01
100
AcDbCircle
 10
191.2933636975132
 20
90.96589580364275
 30
0.0
 40
1.0
100
AcDbArc
 50
180.0
 51
270.0
  0
ARC
  5
FB03
330
18
100
AcDbEntity
  8
01
100
AcDbCircle
 10
389.7933636975134
 20
96.16589580364271
 30
0.0
 40
0.5
100
AcDbArc
 50
0.0
 51
90.0
  0
CIRCLE
  5
FB04
330
18
100
AcDbEntity
  8
01
100
AcDbCircle
 10
215.2933636975134
 20
58.96588363829496
 30
0.0
 40
2.399999999999999
  0
LINE
  5
FB07
330
18
100
AcDbEntity
  8
01
100
AcDbLine
 10
389.7933636975134
 20
138.3658768036423
 30
0.0
 11
190.7933636975134
 21
138.3658768036423
 31
0.0
  0
LINE
  5
FB08
330
18
100
AcDbEntity
  8
01
100
AcDbLine
 10
389.7933636975134
 20
161.3658768036423
 30
0.0
 11
190.7933636975134
 21
161.3658768036424
 31
0.0
  0
ARC
  5
FB09
330
18
100
AcDbEntity
  8
01
100
AcDbCircle
 10
190.7933636975134
 20
160.8658768036424
 30
0.0
 40
0.5
100
AcDbArc
 50
90.0
 51
180.0
  0
LINE
  5
FB0A
330
18
100
AcDbEntity
  8
1HIDDEN
100
AcDbLine
 10
390.2933636975134
 20
159.3658768036423
 30
0.0
 11
190.2933636975134
 21
159.3658768036423
 31
0.0
  0
LINE
  5
FB0B
330
18
100
AcDbEntity
  8
1HIDDEN
100
AcDbLine
 10
390.2933636975134
 20
139.5658768036423
 30
0.0
 11
190.2933636975134
 21
139.5658768036423
 31
0.0
  0
LINE
  5
FB0C
330
18
100
AcDbEntity
  8
01
100
AcDbLine
 10
390.2933636975134
 20
160.8658768036423
 30
0.0
 11
390.2933636975134
 21
138.8658768036423
 31
0.0
  0
ARC
  5
FB0D
330
18
100
AcDbEntity
  8
01
100
AcDbCircle
 10
389.7933636975134
 20
160.8658768036423
 30
0.0
 40
0.5
100
AcDbArc
 50
0.0
 51
90.0
  0
ARC
  5
FB0E
330
18
100
AcDbEntity
  8
01
100
AcDbCircle
 10
389.7933636975134
 20
138.8658768036423
 30
0.0
 40
0.5
100
AcDbArc
 50
270.0
 51
0.0
  0
LINE
  5
FB0F
330
18
100
AcDbEntity
  8
01
100
AcDbLine
 10
190.2933636975134
 20
138.8658768036423
 30
0.0
 11
190.2933636975134
 21
160.8658768036424
 31
0.0
  0
ARC
  5
FB10
330
18
100
AcDbEntity
  8
01
100
AcDbCircle
 10
190.7933636975134
 20
138.8658768036423
 30
0.0
 40
0.5
100
AcDbArc
 50
180.0
 51
270.0
  0
LINE
  5
FB11
330
18
100
AcDbEntity
  8
1CENTER
100
AcDbLine
 10
215.2933636975134
 20
163.3658768036423
 30
0.0
 11
215.2933636975134
 21
157.3658768036424
 31
0.0
  0
LINE
  5
FB12
330
18
100
AcDbEntity
  8
1CENTER
100
AcDbLine
 10
365.2933636975143
 20
163.3658768036423
 30
0.0
 11
365.2933636975143
 21
157.3658768036424
 31
0.0
  0
TEXT
  5
FB13
330
18
100
AcDbEntity
  8
1TEXT
100
AcDbText
 10
190.2000663038733
 20
181.3658768036423
 30
0.0
 40
7.0
  1
PA59-
 41
1.0098214
100
AcDbText
  0
TEXT
  5
FB15
330
18
100
AcDbEntity
  8
1TEXT
100
AcDbText
 10
243.3225958144083
 20
-18.83391747910856
 30
0.0
 40
4.0
  1
PA59S-
 72
     1
 11
254.6707439625565
 21
-18.83391747910856
 31
0.0
100
AcDbText
  0
LINE
  5
FB16
330
18
100
AcDbEntity
  8
1DIM
100
AcDbLine
 10
185.8019001102324
 20
-6.333917479108557
 30
0.0
 11
295.8019001102324
 21
-6.333917479108557
 31
0.0
  0
LINE
  5
FB17
330
18
100
AcDbEntity
  8
1DIM
100
AcDbLine
 10
185.8019001102324
 20
-13.33391747910856
 30
0.0
 11
295.8019001102324
 21
-13.33391747910856
 31
0.0
  0
LINE
  5
FB18
330
18
100
AcDbEntity
  8
1DIM
100
AcDbLine
 10
185.8019001102324
 20
-55.33391747910901
 30
0.0
 11
295.8019001102324
 21
-55.33391747910901
 31
0.0
  0
TEXT
  5
FB19
330
18
100
AcDbEntity
  8
1TEXT
100
AcDbText
 10
187.3835580957059
 20
-34.23764704625228
 30
0.0
 40
4.000000000000001
  1
記入例：PA59S　L寸法　(L寸法は4桁まで)
 72
     1
 11
238.831706243854
 21
-34.23764704625228
 31
0.0
100
AcDbText
  0
TEXT
  5
FB1B
330
18
100
AcDbEntity
  8
1TEXT
100
AcDbText
 10
192.4019001102329
 20
-11.8339174791081
 30
0.0
 40
4.0
  1
表面処理：
 72
     1
 11
203.2019001102329
 21
-11.8339174791081
 31
0.0
100
AcDbText
  0
LINE
  5
FB1C
330
18
100
AcDbEntity
  8
1DIM
100
AcDbLine
 10
185.8019001102324
 20
-6.333917479108557
 30
0.0
 11
185.8019001102324
 21
-55.33391747910901
 31
0.0
  0
LINE
  5
FB1D
330
18
100
AcDbEntity
  8
1DIM
100
AcDbLine
 10
235.8019001102324
 20
-6.333917479108557
 30
0.0
 11
235.8019001102324
 21
-27.33391747910856
 31
0.0
  0
LINE
  5
FB1E
330
18
100
AcDbEntity
  8
1DIM
100
AcDbLine
 10
295.8019001102324
 20
-6.333917479108557
 30
0.0
 11
295.8019001102324
 21
-55.33391747910901
 31
0.0
  0
TEXT
  5
FB1F
330
18
100
AcDbEntity
  8
1TEXT
100
AcDbText
 10
200.735629074265
 20
-18.8339174791081
 30
0.0
 40
4.0
  1
シルバー
 72
     1
 11
209.935629074265
 21
-18.8339174791081
 31
0.0
100
AcDbText
  0
TEXT
  5
FB20
330
18
100
AcDbEntity
  8
1TEXT
100
AcDbText
 10
247.8040772958889
 20
-11.8339174791081
 30
0.0
 40
4.0
  1
コード
 72
     1
 11
254.6707439625555
 21
-11.8339174791081
 31
0.0
100
AcDbText
  0
LINE
  5
FB22
330
18
100
AcDbEntity
  8
1CENTER
100
AcDbLine
 10
290.2933636975134
 20
62.55851224942321
 30
0.0
 11
290.2933636975134
 21
55.37325502716671
 31
0.0
  0
LINE
  5
FB23
330
18
100
AcDbEntity
  8
1CENTER
100
AcDbLine
 10
286.3305834118195
 20
58.96588363829496
 30
0.0
 11
294.2561439832056
 21
58.96588363829496
 31
0.0
  0
CIRCLE
  5
FB24
330
18
100
AcDbEntity
  8
01
100
AcDbCircle
 10
290.2933636975134
 20
58.96588363829496
 30
0.0
 40
2.399999999999999
  0
TEXT
  5
FB25
330
18
100
AcDbEntity
  8
1TEXT
100
AcDbText
 10
185.8019001102324
 20
-2.833917479108102
 30
0.0
 40
4.0
  1
材質：アルミニウム
 11
185.8019001102324
 21
-2.833917479108102
 31
0.0
100
AcDbText
 73
     1
  0
LINE
  5
FB26
330
18
100
AcDbEntity
  8
1DIM
100
AcDbLine
 10
361.8217664424222
 20
-6.333917479108102
 30
0.0
 11
361.8217664424218
 21
-60.93391747912347
 31
0.0
  0
LINE
  5
FB27
330
18
100
AcDbEntity
  8
1DIM
100
AcDbLine
 10
315.8019001102324
 20
-6.333917479108102
 30
0.0
 11
315.801900110231
 21
-60.93391747912347
 31
0.0
  0
LINE
  5
FB28
330
18
100
AcDbEntity
  8
1DIM
100
AcDbLine
 10
340.5752899911262
 20
-6.333917479108102
 30
0.0
 11
340.5752899911253
 21
-56.7339174791232
 31
0.0
  0
TEXT
  5
FB29
330
18
100
AcDbEntity
  8
1TEXT
100
AcDbText
 10
318.9415624021379
 20
-13.82307285604839
 30
0.0
 40
2.400000000000716
  1
070～099
100
AcDbText
  0
LINE
  5
FB2A
330
18
100
AcDbEntity
  8
1DIM
100
AcDbLine
 10
315.8019001102324
 20
-56.73391747912274
 30
0.0
 11
361.8217664424213
 21
-56.73391747912274
 31
0.0
  0
LINE
  5
FB2B
330
18
100
AcDbEntity
  8
1DIM
100
AcDbLine
 10
315.8019001102324
 20
-52.53391747912156
 30
0.0
 11
340.5752899911253
 21
-52.53391747912156
 31
0.0
  0
LINE
  5
FB2C
330
18
100
AcDbEntity
  8
1DIM
100
AcDbLine
 10
315.8019001102324
 20
-48.33391747912038
 30
0.0
 11
340.5752899911253
 21
-48.33391747912038
 31
0.0
  0
LINE
  5
FB2D
330
18
100
AcDbEntity
  8
1DIM
100
AcDbLine
 10
315.8019001102324
 20
-44.1339174791192
 30
0.0
 11
340.5752899911253
 21
-44.1339174791192
 31
0.0
  0
LINE
  5
FB2E
330
18
100
AcDbEntity
  8
1DIM
100
AcDbLine
 10
315.8019001102324
 20
-39.93391747911802
 30
0.0
 11
340.5752899911253
 21
-39.93391747911802
 31
0.0
  0
TEXT
  5
FB2F
330
18
100
AcDbEntity
  8
1TEXT
100
AcDbText
 10
318.884762002955
 20
-47.47551065660537
 30
0.0
 40
2.400000000000716
  1
450～499
100
AcDbText
  0
TEXT
  5
FB30
330
18
100
AcDbEntity
  8
1TEXT
100
AcDbText
 10
318.884762002955
 20
-55.83042525932252
 30
0.0
 40
2.400000000000716
  1
550～599
100
AcDbText
  0
TEXT
  5
FB31
330
18
100
AcDbEntity
  8
1TEXT
100
AcDbText
 10
318.884762002955
 20
-51.61720675744755
 30
0.0
 40
2.400000000000716
  1
500～549
100
AcDbText
  0
TEXT
  5
FB32
330
18
100
AcDbEntity
  8
1TEXT
100
AcDbText
 10
318.884762002955
 20
-43.20274999165486
 30
0.0
 40
2.400000000000716
  1
400～449
100
AcDbText
  0
TEXT
  5
FB33
330
18
100
AcDbEntity
  8
1TEXT
100
AcDbText
 10
318.884762002955
 20
-39.06105389081268
 30
0.0
 40
2.400000000000716
  1
350～399
100
AcDbText
  0
TEXT
  5
FB34
330
18
100
AcDbEntity
  8
1TEXT
100
AcDbText
 10
350.5201202018219
 20
-45.07462697041547
 30
0.0
 40
2.400000000000716
  1
3
100
AcDbText
  0
LINE
  5
FB35
330
18
100
AcDbEntity
  8
1DIM
100
AcDbLine
 10
315.8019001102324
 20
-27.33391747911401
 30
0.0
 11
340.5752899911271
 21
-27.33391747911401
 31
0.0
  0
LINE
  5
FB36
330
18
100
AcDbEntity
  8
1DIM
100
AcDbLine
 10
315.8019001102324
 20
-31.5339174791152
 30
0.0
 11
361.8217664424222
 21
-31.5339174791152
 31
0.0
  0
LINE
  5
FB37
330
18
100
AcDbEntity
  8
1DIM
100
AcDbLine
 10
315.8019001102324
 20
-23.13391747911283
 30
0.0
 11
340.5752899911253
 21
-23.13391747911283
 31
0.0
  0
LINE
  5
FB38
330
18
100
AcDbEntity
  8
1DIM
100
AcDbLine
 10
315.8019001102324
 20
-18.93391747911165
 30
0.0
 11
340.5752899911253
 21
-18.93391747911165
 31
0.0
  0
LINE
  5
FB39
330
18
100
AcDbEntity
  8
1DIM
100
AcDbLine
 10
315.8019001102324
 20
-14.73391747911047
 30
0.0
 11
340.5752899911253
 21
-14.73391747911047
 31
0.0
  0
LINE
  5
FB3A
330
18
100
AcDbEntity
  8
1DIM
100
AcDbLine
 10
315.8019001102324
 20
-35.73391747911683
 30
0.0
 11
340.5752899911253
 21
-35.73391747911683
 31
0.0
  0
TEXT
  5
FB3B
330
18
100
AcDbEntity
  8
1TEXT
100
AcDbText
 10
318.884762002955
 20
-26.49235014773604
 30
0.0
 40
2.400000000000716
  1
200～249
100
AcDbText
  0
TEXT
  5
FB3C
330
18
100
AcDbEntity
  8
1TEXT
100
AcDbText
 10
318.884762002955
 20
-34.90680691352873
 30
0.0
 40
2.400000000000716
  1
300～349
100
AcDbText
  0
TEXT
  5
FB3D
330
18
100
AcDbEntity
  8
1TEXT
100
AcDbText
 10
318.884762002955
 20
-30.76511081268655
 30
0.0
 40
2.400000000000716
  1
250～299
100
AcDbText
  0
TEXT
  5
FB3E
330
18
100
AcDbEntity
  8
1TEXT
100
AcDbText
 10
318.884762002955
 20
-22.35065404689386
 30
0.0
 40
2.400000000000716
  1
150～199
100
AcDbText
  0
TEXT
  5
FB3F
330
18
100
AcDbEntity
  8
1TEXT
100
AcDbText
 10
318.9415624021379
 20
-18.02307285604957
 30
0.0
 40
2.400000000000716
  1
100～149
100
AcDbText
  0
TEXT
  5
FB40
330
18
100
AcDbEntity
  8
1TEXT
100
AcDbText
 10
350.5201202018228
 20
-20.77462697040847
 30
0.0
 40
2.400000000000716
  1
2
100
AcDbText
  0
LINE
  5
FB41
330
18
100
AcDbEntity
  8
1DIM
100
AcDbLine
 10
315.8019001102324
 20
-6.333917479108102
 30
0.0
 11
407.8416327746112
 21
-6.333917479107647
 31
0.0
  0
TEXT
  5
FB42
330
18
100
AcDbEntity
  8
1TEXT
100
AcDbText
 10
322.0595207625123
 20
-9.555827174282975
 30
0.0
 40
2.400000000000716
  1
L寸法
100
AcDbText
  0
TEXT
  5
FB43
330
18
100
AcDbEntity
  8
1TEXT
100
AcDbText
 10
342.185216159169
 20
-9.555827174282975
 30
0.0
 40
2.400000000000716
  1
穴数・付属ネジ数
 41
0.8
100
AcDbText
  0
LINE
  5
FB44
330
18
100
AcDbEntity
  8
1DIM
100
AcDbLine
 10
315.8019001102324
 20
-10.53391747910928
 30
0.0
 11
407.8416327746112
 21
-10.53391747910883
 31
0.0
  0
LINE
  5
FB45
330
18
100
AcDbEntity
  8
1DIM
100
AcDbLine
 10
386.5951563233147
 20
-6.333917479108102
 30
0.0
 11
386.5951563233142
 21
-60.93391747912393
 31
0.0
  0
TEXT
  5
FB46
330
18
100
AcDbEntity
  8
1TEXT
100
AcDbText
 10
364.9046283351448
 20
-60.01720675744992
 30
0.0
 40
2.400000000000716
  1
1150～1199
100
AcDbText
  0
LINE
  5
FB47
330
18
100
AcDbEntity
  8
1DIM
100
AcDbLine
 10
315.801900110231
 20
-60.93391747912347
 30
0.0
 11
407.8416327746112
 21
-60.93391747912393
 31
0.0
  0
TEXT
  5
FB48
330
18
100
AcDbEntity
  8
1TEXT
100
AcDbText
 10
364.9614287343278
 20
-13.82307285604794
 30
0.0
 40
2.400000000000716
  1
600～649
100
AcDbText
  0
LINE
  5
FB49
330
18
100
AcDbEntity
  8
1DIM
100
AcDbLine
 10
361.8217664424222
 20
-56.73391747912274
 30
0.0
 11
386.5951563233142
 21
-56.73391747912274
 31
0.0
  0
LINE
  5
FB4A
330
18
100
AcDbEntity
  8
1DIM
100
AcDbLine
 10
361.8217664424222
 20
-52.53391747912156
 30
0.0
 11
386.5951563233142
 21
-52.53391747912156
 31
0.0
  0
LINE
  5
FB4B
330
18
100
AcDbEntity
  8
1DIM
100
AcDbLine
 10
361.8217664424222
 20
-48.33391747912038
 30
0.0
 11
386.5951563233142
 21
-48.33391747912038
 31
0.0
  0
LINE
  5
FB4C
330
18
100
AcDbEntity
  8
1DIM
100
AcDbLine
 10
361.8217664424222
 20
-44.1339174791192
 30
0.0
 11
386.5951563233142
 21
-44.1339174791192
 31
0.0
  0
LINE
  5
FB4D
330
18
100
AcDbEntity
  8
1DIM
100
AcDbLine
 10
361.8217664424222
 20
-39.93391747911802
 30
0.0
 11
386.5951563233142
 21
-39.93391747911802
 31
0.0
  0
LINE
  5
FB4E
330
18
100
AcDbEntity
  8
1DIM
100
AcDbLine
 10
361.8217664424222
 20
-35.73391747911638
 30
0.0
 11
386.5951563233142
 21
-35.73391747911638
 31
0.0
  0
TEXT
  5
FB4F
330
18
100
AcDbEntity
  8
1TEXT
100
AcDbText
 10
364.9046283351448
 20
-47.46105389081504
 30
0.0
 40
2.400000000000716
  1
1000～1049
100
AcDbText
  0
TEXT
  5
FB50
330
18
100
AcDbEntity
  8
1TEXT
100
AcDbText
 10
364.9046283351448
 20
-51.60274999165723
 30
0.0
 40
2.400000000000716
  1
1050～1099
100
AcDbText
  0
TEXT
  5
FB51
330
18
100
AcDbEntity
  8
1TEXT
100
AcDbText
 10
364.9046283351448
 20
-55.87551065660774
 30
0.0
 40
2.400000000000716
  1
1100～1149
100
AcDbText
  0
TEXT
  5
FB52
330
18
100
AcDbEntity
  8
1TEXT
100
AcDbText
 10
364.9046283351448
 20
-39.16511081268892
 30
0.0
 40
2.400000000000716
  1
900～949
100
AcDbText
  0
TEXT
  5
FB53
330
18
100
AcDbEntity
  8
1TEXT
100
AcDbText
 10
364.9046283351448
 20
-43.3068069135311
 30
0.0
 40
2.400000000000716
  1
950～999
100
AcDbText
  0
LINE
  5
FB54
330
18
100
AcDbEntity
  8
1DIM
100
AcDbLine
 10
361.8217664424222
 20
-31.5339174791152
 30
0.0
 11
386.5951563233142
 21
-31.5339174791152
 31
0.0
  0
LINE
  5
FB55
330
18
100
AcDbEntity
  8
1DIM
100
AcDbLine
 10
361.8217664424222
 20
-27.33391747911401
 30
0.0
 11
386.5951563233142
 21
-27.33391747911401
 31
0.0
  0
LINE
  5
FB56
330
18
100
AcDbEntity
  8
1DIM
100
AcDbLine
 10
361.8217664424222
 20
-23.13391747911283
 30
0.0
 11
386.5951563233142
 21
-23.13391747911283
 31
0.0
  0
LINE
  5
FB57
330
18
100
AcDbEntity
  8
1DIM
100
AcDbLine
 10
361.8217664424222
 20
-18.93391747911165
 30
0.0
 11
386.5951563233151
 21
-18.93391747911165
 31
0.0
  0
LINE
  5
FB58
330
18
100
AcDbEntity
  8
1DIM
100
AcDbLine
 10
361.8217664424222
 20
-14.73391747911047
 30
0.0
 11
386.5951563233151
 21
-14.73391747911047
 31
0.0
  0
TEXT
  5
FB59
330
18
100
AcDbEntity
  8
1TEXT
100
AcDbText
 10
364.9046283351448
 20
-30.69235014773722
 30
0.0
 40
2.400000000000716
  1
800～849
100
AcDbText
  0
TEXT
  5
FB5A
330
18
100
AcDbEntity
  8
1TEXT
100
AcDbText
 10
364.9046283351448
 20
-34.89235014773841
 30
0.0
 40
2.400000000000716
  1
850～899
100
AcDbText
  0
TEXT
  5
FB5B
330
18
100
AcDbEntity
  8
1TEXT
100
AcDbText
 10
364.9046283351448
 20
-26.55065404689504
 30
0.0
 40
2.400000000000716
  1
750～799
100
AcDbText
  0
TEXT
  5
FB5C
330
18
100
AcDbEntity
  8
1TEXT
100
AcDbText
 10
364.9046283351448
 20
-22.35065404689386
 30
0.0
 40
2.400000000000716
  1
700～749
100
AcDbText
  0
TEXT
  5
FB5D
330
18
100
AcDbEntity
  8
1TEXT
100
AcDbText
 10
364.9614287343278
 20
-18.02307285604957
 30
0.0
 40
2.400000000000716
  1
650～699
100
AcDbText
  0
TEXT
  5
FB5E
330
18
100
AcDbEntity
  8
1TEXT
100
AcDbText
 10
396.5951563233144
 20
-34.57462697041274
 30
0.0
 40
2.400000000000716
  1
5
100
AcDbText
  0
LINE
  5
FB5F
330
18
100
AcDbEntity
  8
1DIM
100
AcDbLine
 10
407.8416327746112
 20
-60.93391747912393
 30
0.0
 11
407.8416327746107
 21
-6.333917479107619
 31
0.0
  0
TEXT
  5
FB60
330
18
100
AcDbEntity
  8
1TEXT
100
AcDbText
 10
368.0793870947022
 20
-9.555827174282975
 30
0.0
 40
2.400000000000716
  1
L寸法
100
AcDbText
  0
LINE
  5
FB62
330
18
100
AcDbEntity
  8
01
100
AcDbLine
 10
451.6452361661808
 20
-18.3948469825275
 30
0.0
 11
449.6452501269017
 21
-16.3948469825275
 31
0.0
  0
LINE
  5
FB63
330
18
100
AcDbEntity
  8
01
100
AcDbLine
 10
451.6452361661808
 20
-18.3948469825275
 30
0.0
 11
451.6452524537457
 21
-11.3948469825275
 31
0.0
  0
LINE
  5
FB64
330
18
100
AcDbEntity
  8
01
100
AcDbLine
 10
451.9452361661819
 20
-18.3948469825275
 30
0.0
 11
451.9452524537459
 21
-11.3948469825275
 31
0.0
  0
LINE
  5
FB66
330
18
100
AcDbEntity
  8
01
100
AcDbLine
 10
442.9452408197707
 20
-16.3948469825275
 30
0.0
 11
442.8452396563738
 21
-16.8948469825275
 31
0.0
  0
LINE
  5
FB67
330
18
100
AcDbEntity
  8
01
100
AcDbLine
 10
447.645239656374
 20
-16.8948469825275
 30
0.0
 11
446.8452489635514
 21
-12.8948469825275
 31
0.0
  0
LINE
  5
FB68
330
18
100
AcDbEntity
  8
01
100
AcDbLine
 10
447.7452408197709
 20
-16.3948469825275
 30
0.0
 11
447.645239656374
 21
-16.8948469825275
 31
0.0
  0
LINE
  5
FB69
330
18
100
AcDbEntity
  8
01
100
AcDbLine
 10
446.8452489635514
 20
-12.8948469825275
 30
0.0
 11
446.7452478001536
 21
-13.3948469825275
 31
0.0
  0
LINE
  5
FB6A
330
18
100
AcDbEntity
  8
01
100
AcDbLine
 10
446.0452396563736
 20
-16.8948469825275
 30
0.0
 11
445.245248963551
 21
-12.8948469825275
 31
0.0
  0
LINE
  5
FB6B
330
18
100
AcDbEntity
  8
01
100
AcDbLine
 10
444.4452396563732
 20
-16.8948469825275
 30
0.0
 11
443.6452489635507
 21
-12.8948469825275
 31
0.0
  0
LINE
  5
FB6C
330
18
100
AcDbEntity
  8
01
100
AcDbLine
 10
444.545240819771
 20
-16.3948469825275
 30
0.0
 11
444.4452396563732
 21
-16.8948469825275
 31
0.0
  0
LINE
  5
FB6D
330
18
100
AcDbEntity
  8
01
100
AcDbLine
 10
443.6452489635507
 20
-12.8948469825275
 30
0.0
 11
443.5452478001538
 21
-13.3948469825275
 31
0.0
  0
LINE
  5
FB6E
330
18
100
AcDbEntity
  8
01
100
AcDbLine
 10
445.245248963551
 20
-12.8948469825275
 30
0.0
 11
445.1452478001542
 21
-13.3948469825275
 31
0.0
  0
LINE
  5
FB6F
330
18
100
AcDbEntity
  8
01
100
AcDbLine
 10
446.1452408197705
 20
-16.3948469825275
 30
0.0
 11
446.0452396563736
 21
-16.8948469825275
 31
0.0
  0
LINE
  5
FB70
330
18
100
AcDbEntity
  8
01
100
AcDbLine
 10
451.6452524537457
 20
-11.3948469825275
 30
0.0
 11
449.6452291856607
 21
-13.3948469825275
 31
0.0
  0
LINE
  5
FB71
330
18
100
AcDbEntity
  8
01
100
AcDbLine
 10
435.9452443099102
 20
-14.8948469825275
 30
0.0
 11
441.2452408197709
 21
-16.3948469825275
 31
0.0
  0
LINE
  5
FB72
330
18
100
AcDbEntity
  8
01
100
AcDbLine
 10
435.9452443099102
 20
-14.8948469825275
 30
0.0
 11
441.2452478001554
 21
-13.3948469825275
 31
0.0
  0
LINE
  5
FB73
330
18
100
AcDbEntity
  8
01
100
AcDbLine
 10
442.0452489635512
 20
-12.8948469825275
 30
0.0
 11
441.9452478001543
 21
-13.3948469825275
 31
0.0
  0
LINE
  5
FB74
330
18
100
AcDbEntity
  8
01
100
AcDbLine
 10
440.4452484367488
 20
-13.12125403473169
 30
0.0
 11
440.3159777391187
 21
-13.65784777000249
 31
0.0
  0
LINE
  5
FB75
330
18
100
AcDbEntity
  8
01
100
AcDbLine
 10
441.2452396563734
 20
-16.8948469825275
 30
0.0
 11
440.4452484367488
 21
-13.12125403473169
 31
0.0
  0
LINE
  5
FB76
330
18
100
AcDbEntity
  8
01
100
AcDbLine
 10
439.7580102223341
 20
-15.9739323853189
 30
0.0
 11
439.6452407099836
 21
-16.44203084046899
 31
0.0
  0
LINE
  5
FB77
330
18
100
AcDbEntity
  8
01
100
AcDbLine
 10
441.3452408197712
 20
-16.3948469825275
 30
0.0
 11
441.2452396563734
 21
-16.8948469825275
 31
0.0
  0
LINE
  5
FB78
330
18
100
AcDbEntity
  8
01
100
AcDbLine
 10
437.2452463295371
 20
-14.02688224354483
 30
0.0
 11
436.9334764732852
 21
-14.61515881858782
 31
0.0
  0
LINE
  5
FB79
330
18
100
AcDbEntity
  8
01
100
AcDbLine
 10
438.1966775600289
 20
-15.5320454917894
 30
0.0
 11
438.0452417635883
 21
-15.98921733242082
 31
0.0
  0
LINE
  5
FB7A
330
18
100
AcDbEntity
  8
01
100
AcDbLine
 10
438.8452473831425
 20
-13.57406813913826
 30
0.0
 11
438.6624832405145
 21
-14.12581760294165
 31
0.0
  0
LINE
  5
FB7B
330
18
100
AcDbEntity
  8
01
100
AcDbLine
 10
438.0452417635883
 20
-15.98921733242082
 30
0.0
 11
437.2452463295371
 21
-14.02688224354483
 31
0.0
  0
LINE
  5
FB7C
330
18
100
AcDbEntity
  8
01
100
AcDbLine
 10
439.6452407099836
 20
-16.44203084046899
 30
0.0
 11
438.8452473831425
 21
-13.57406813913826
 31
0.0
  0
LINE
  5
FB7D
330
18
100
AcDbEntity
  8
1CENTER
100
AcDbLine
 10
434.4085876906514
 20
-14.8948469825275
 30
0.0
 11
452.3087507666954
 21
-14.8948469825275
 31
0.0
  0
LINE
  5
FB7E
330
18
100
AcDbEntity
  8
01
100
AcDbLine
 10
441.2452408197709
 20
-16.3948469825275
 30
0.0
 11
449.6452501269017
 21
-16.3948469825275
 31
0.0
  0
LINE
  5
FB7F
330
18
100
AcDbEntity
  8
01
100
AcDbLine
 10
441.2452478001554
 20
-13.3948469825275
 30
0.0
 11
449.6452291856607
 21
-13.3948469825275
 31
0.0
  0
LINE
  5
FB80
330
18
100
AcDbEntity
  8
01
100
AcDbLine
 10
442.8452396563738
 20
-16.8948469825275
 30
0.0
 11
442.0452489635512
 21
-12.8948469825275
 31
0.0
  0
LINE
  5
FB82
330
18
100
AcDbEntity
  8
01
100
AcDbLine
 10
451.6452524537457
 20
-11.3948469825275
 30
0.0
 11
451.9452524537459
 21
-11.3948469825275
 31
0.0
  0
LINE
  5
FB83
330
18
100
AcDbEntity
  8
01
100
AcDbLine
 10
451.6452361661808
 20
-18.3948469825275
 30
0.0
 11
451.9452361661819
 21
-18.3948469825275
 31
0.0
  0
LINE
  5
FB84
330
18
100
AcDbEntity
  8
01
100
AcDbLine
 10
449.3452408197712
 20
-16.3948469825275
 30
0.0
 11
449.2452396563743
 21
-16.8948469825275
 31
0.0
  0
LINE
  5
FB85
330
18
100
AcDbEntity
  8
01
100
AcDbLine
 10
449.2452396563743
 20
-16.8948469825275
 30
0.0
 11
448.4452489635518
 21
-12.8948469825275
 31
0.0
  0
LINE
  5
FB86
330
18
100
AcDbEntity
  8
01
100
AcDbLine
 10
448.4452489635518
 20
-12.8948469825275
 30
0.0
 11
448.345247800154
 21
-13.3948469825275
 31
0.0
  0
LINE
  5
FB88
330
18
100
AcDbEntity
  8
1CENTER
100
AcDbLine
 10
290.2933636975143
 20
163.3658768036423
 30
0.0
 11
290.2933636975143
 21
157.3658768036424
 31
0.0
  0
TEXT
  5
FB8B
330
18
100
AcDbEntity
  8
1TEXT
100
AcDbText
 10
315.8019001102324
 20
-2.833917479108102
 30
0.0
 40
4.0
  1
穴数表
100
AcDbText
  0
TEXT
  5
FB8C
330
18
100
AcDbEntity
  8
1TEXT
100
AcDbText
 10
425.8019001102324
 20
11.19227218866739
 30
0.0
 40
4.0
  1
付属ねじ
100
AcDbText
  0
TEXT
  5
FB8D
330
18
100
AcDbEntity
  8
1TEXT
100
AcDbText
 10
388.2050824913575
 20
-9.555827174282747
 30
0.0
 40
2.400000000000716
  1
穴数・付属ネジ数
 41
0.8
100
AcDbText
  0
LINE
  5
FB8E
330
18
100
AcDbEntity
  8
1HIDDEN
100
AcDbLine
 10
190.2933636975134
 20
68.9658958036423
 30
0.0
 11
390.2933636975134
 21
68.9658958036423
 31
0.0
  0
LINE
  5
FB8F
330
18
100
AcDbEntity
  8
1DIM
100
AcDbLine
 10
185.8019001102324
 20
-20.33391747910856
 30
0.0
 11
295.8019001102324
 21
-20.33391747910856
 31
0.0
  0
LINE
  5
FB90
330
18
100
AcDbEntity
  8
01
  6
CONTINUOUS
100
AcDbLine
 10
444.6246399411131
 20
60.46590295955672
 30
0.0
 11
444.1246399411131
 21
59.96589580364269
 31
0.0
  0
LINE
  5
FB91
330
18
100
AcDbEntity
  8
01
  6
CONTINUOUS
100
AcDbLine
 10
444.1246399411131
 20
59.96589580364269
 30
0.0
 11
444.6246399411131
 21
59.46590295945429
 31
0.0
  0
LINE
  5
FB92
330
18
100
AcDbEntity
  8
01
  6
CONTINUOUS
100
AcDbLine
 10
442.724639941113
 20
53.96589580364269
 30
0.0
 11
442.724639941113
 21
68.9658958036427
 31
0.0
  0
LINE
  5
FB93
330
18
100
AcDbEntity
  8
01
  6
CONTINUOUS
100
AcDbLine
 10
442.724639941113
 20
68.9658958036427
 30
0.0
 11
422.8246399411131
 21
68.9658958036427
 31
0.0
  0
LINE
  5
FB94
330
18
100
AcDbEntity
  8
01
  6
CONTINUOUS
100
AcDbLine
 10
443.6246399411131
 20
53.96589580364269
 30
0.0
 11
442.724639941113
 21
53.96589580364269
 31
0.0
  0
LINE
  5
FB95
330
18
100
AcDbEntity
  8
01
  6
CONTINUOUS
100
AcDbLine
 10
422.8246399411131
 20
68.9658958036427
 30
0.0
 11
422.8246399411131
 21
65.9658958036427
 31
0.0
  0
LINE
  5
FB96
330
18
100
AcDbEntity
  8
01
  6
CONTINUOUS
100
AcDbLine
 10
422.8246399411131
 20
65.9658958036427
 30
0.0
 11
422.2995305622095
 21
65.9658958036427
 31
0.0
  0
LINE
  5
FB97
330
18
100
AcDbEntity
  8
01
  6
CONTINUOUS
100
AcDbLine
 10
444.6246399411131
 20
95.66589580364274
 30
0.0
 11
444.6246399411131
 21
70.46589580364258
 31
0.0
  0
LINE
  5
FB98
330
18
100
AcDbEntity
  8
01
  6
CONTINUOUS
100
AcDbLine
 10
444.6246399411131
 20
69.86589580364273
 30
0.0
 11
444.6246399411131
 21
60.46590295955672
 31
0.0
  0
ARC
  5
FB99
330
18
100
AcDbEntity
  8
01
  6
CONTINUOUS
100
AcDbCircle
 10
443.6246399411131
 20
95.66589580364274
 30
0.0
 40
1.0
100
AcDbArc
 50
0.0
 51
90.0
  0
LINE
  5
FB9A
330
18
100
AcDbEntity
  8
01
  6
CONTINUOUS
100
AcDbLine
 10
421.6246399411131
 20
90.9658958036427
 30
0.0
 11
421.6246399411131
 21
95.66589580364268
 31
0.0
  0
LINE
  5
FB9B
330
18
100
AcDbEntity
  8
01
  6
CONTINUOUS
100
AcDbLine
 10
422.8246399411131
 20
92.29892608162504
 30
0.0
 11
422.8246399411131
 21
93.4658958036427
 31
0.0
  0
LINE
  5
FB9C
330
18
100
AcDbEntity
  8
01
  6
CONTINUOUS
100
AcDbLine
 10
423.1246399411131
 20
89.96589580364275
 30
0.0
 11
422.6246399411131
 21
89.9658958036427
 31
0.0
  0
ARC
  5
FB9D
330
18
100
AcDbEntity
  8
01
  6
CONTINUOUS
100
AcDbCircle
 10
422.6246399411131
 20
90.9658958036427
 30
0.0
 40
1.0
100
AcDbArc
 50
180.0
 51
269.9999999997916
  0
LINE
  5
FB9E
330
18
100
AcDbEntity
  8
01
  6
CONTINUOUS
100
AcDbLine
 10
441.1246399411131
 20
95.4658958036427
 30
0.0
 11
424.8246399411131
 21
95.4658958036427
 31
0.0
  0
ARC
  5
FB9F
330
18
100
AcDbEntity
  8
01
  6
CONTINUOUS
100
AcDbCircle
 10
424.8246399411131
 20
93.4658958036427
 30
0.0
 40
2.0
100
AcDbArc
 50
90.0
 51
180.0
  0
LINE
  5
FBA0
330
18
100
AcDbEntity
  8
01
  6
CONTINUOUS
100
AcDbLine
 10
443.6246399411131
 20
96.66589580364274
 30
0.0
 11
422.6246399411131
 21
96.66589580364268
 31
0.0
  0
ARC
  5
FBA1
330
18
100
AcDbEntity
  8
01
  6
CONTINUOUS
100
AcDbCircle
 10
422.6246399411131
 20
95.66589580364268
 30
0.0
 40
1.0
100
AcDbArc
 50
90.0
 51
180.0
  0
ARC
  5
FBA2
330
18
100
AcDbEntity
  8
01
100
AcDbCircle
 10
441.1246399411131
 20
93.4658958036427
 30
0.0
 40
2.0
100
AcDbArc
 50
0.0
 51
90.0
  0
ARC
  5
FBA3
330
18
100
AcDbEntity
  8
01
  6
CONTINUOUS
100
AcDbCircle
 10
427.8246399411131
 20
72.66589580364268
 30
0.0
 40
2.5
100
AcDbArc
 50
218.9448035942349
 51
270.0
  0
LINE
  5
FBA4
330
18
100
AcDbEntity
  8
01
  6
CONTINUOUS
100
AcDbLine
 10
424.4016239060617
 20
71.46589580364275
 30
0.0
 11
425.1025084233498
 21
71.4658958036427
 31
0.0
  0
ARC
  5
FBA5
330
18
100
AcDbEntity
  8
01
  6
CONTINUOUS
100
AcDbCircle
 10
425.1025084233498
 20
70.4658958036427
 30
0.0
 40
0.9999999999999992
100
AcDbArc
 50
38.94480359409763
 51
89.99999999986973
  0
LINE
  5
FBA6
330
18
100
AcDbEntity
  8
01
  6
CONTINUOUS
100
AcDbLine
 10
444.6246399411131
 20
59.46590295945429
 30
0.0
 11
444.6246399411131
 21
54.96589580364269
 31
0.0
  0
ARC
  5
FBA7
330
18
100
AcDbEntity
  8
01
  6
CONTINUOUS
100
AcDbCircle
 10
443.6246399411131
 20
54.96589580364269
 30
0.0
 40
1.0
100
AcDbArc
 50
270.0
 51
0.0
  0
LINE
  5
FBA8
330
18
100
AcDbEntity
  8
01
100
AcDbLine
 10
421.680486336205
 20
68.76247573885729
 30
0.0
 11
421.8001934990449
 21
66.44015677976824
 31
0.0
  0
LINE
  5
FBA9
330
18
100
AcDbEntity
  8
1DIM
100
AcDbLine
 10
421.8001934990447
 20
66.44015677976824
 30
0.0
 11
421.8246399411131
 21
65.9658958036427
 31
0.0
  0
ARC
  5
FBAA
330
18
100
AcDbEntity
  8
01
100
AcDbCircle
 10
423.6778345888641
 20
68.8654318343552
 30
0.0
 40
2.0
100
AcDbArc
 50
120.9637565320759
 51
182.9507791090064
  0
ARC
  5
FBAB
330
18
100
AcDbEntity
  8
01
100
AcDbCircle
 10
422.2995305622095
 20
66.4658958036427
 30
0.0
 40
0.5
100
AcDbArc
 50
182.9507791090074
 51
270.0
  0
ARC
  5
FBAC
330
18
100
AcDbEntity
  8
01
  6
BYBLOCK
100
AcDbCircle
 10
423.1246399411131
 20
90.4658958036427
 30
0.0
 40
0.5
100
AcDbArc
 50
270.0
 51
47.15635695641467
  0
ARC
  5
FBAD
330
18
100
AcDbEntity
  8
01
100
AcDbCircle
 10
424.8246399411131
 20
92.29892608162504
 30
0.0
 40
2.0
100
AcDbArc
 50
180.0
 51
227.1563569564077
  0
LINE
  5
FBAE
330
18
100
AcDbEntity
  8
01
100
AcDbLine
 10
425.4510692169653
 20
95.4658958036427
 30
0.0
 11
425.4510692169653
 21
95.4658958036427
 31
0.0
  0
LINE
  5
FBAF
330
18
100
AcDbEntity
  8
01
  6
BYBLOCK
100
AcDbLine
 10
423.8871281506341
 20
71.32338872935526
 30
0.0
 11
422.648843078009
 21
70.58041768578028
 31
0.0
  0
ARC
  5
FBB0
330
18
100
AcDbEntity
  8
01
100
AcDbCircle
 10
424.4016239060617
 20
70.46589580364275
 30
0.0
 40
1.0
100
AcDbArc
 50
90.0
 51
120.9637565320755
  0
LINE
  5
FBB1
330
18
100
AcDbEntity
  8
01
100
AcDbLine
 10
443.1246399411131
 20
72.16589580364268
 30
0.0
 11
443.1246399411131
 21
93.4658958036427
 31
0.0
  0
ARC
  5
FBB2
330
18
100
AcDbEntity
  8
01
100
AcDbCircle
 10
441.1246399411131
 20
72.16589580364268
 30
0.0
 40
2.0
100
AcDbArc
 50
270.0
 51
0.0
  0
LINE
  5
FBB3
330
18
100
AcDbEntity
  8
01
100
AcDbLine
 10
427.8246399411131
 20
70.16589580364268
 30
0.0
 11
441.1246399411131
 21
70.16589580364268
 31
0.0
  0
LINE
  5
FBB4
330
18
100
AcDbEntity
  8
1DIM
100
AcDbLine
 10
422.2995305622095
 20
65.9658958036427
 30
0.0
 11
421.8246399411131
 21
65.9658958036427
 31
0.0
  0
LINE
  5
FBB5
330
18
100
AcDbEntity
  8
1DIM
100
AcDbLine
 10
423.8871281506341
 20
71.32338872935526
 30
0.0
 11
424.1246399411133
 21
71.46589580364275
 31
0.0
  0
LINE
  5
FBB6
330
18
100
AcDbEntity
  8
1DIM
100
AcDbLine
 10
424.4016239060617
 20
71.46589580364275
 30
0.0
 11
424.1246399411133
 21
71.46589580364275
 31
0.0
  0
LINE
  5
FBB7
330
18
100
AcDbEntity
  8
01
100
AcDbLine
 10
444.3246399411131
 20
70.16589580364268
 30
0.0
 11
444.6246399411131
 21
69.86589580364273
 31
0.0
  0
LINE
  5
FBB8
330
18
100
AcDbEntity
  8
01
100
AcDbLine
 10
444.3246399411131
 20
70.16589580364263
 30
0.0
 11
444.6246399411131
 21
70.46589580364252
 31
0.0
  0
LINE
  5
FBB9
330
18
100
AcDbEntity
  8
1CENTER
 48
0.5
100
AcDbLine
 10
446.9501882707212
 20
59.96591299053181
 30
0.0
 11
440.4374998091774
 21
59.96587337597168
 31
0.0
  0
LINE
  5
FBBA
330
18
100
AcDbEntity
  8
1HIDDEN
 48
0.5
100
AcDbLine
 10
444.2244769594676
 20
64.06589701927726
 30
0.0
 11
442.7246399411132
 21
62.5660927162408
 31
0.0
  0
LINE
  5
FBBB
330
18
100
AcDbEntity
  8
1HIDDEN
 48
0.5
100
AcDbLine
 10
442.724639941113
 20
57.36569735347461
 30
0.0
 11
444.2244827217722
 21
55.86589701916062
 31
0.0
  0
LINE
  5
FBBC
330
18
100
AcDbEntity
  8
1HIDDEN
100
AcDbLine
 10
444.6244411906304
 20
64.0658970192772
 30
0.0
 11
444.2244769594676
 21
64.06589701927726
 31
0.0
  0
LINE
  5
FBBD
330
18
100
AcDbEntity
  8
1HIDDEN
100
AcDbLine
 10
444.6139544266501
 20
55.86589701916062
 30
0.0
 11
444.2244827217722
 21
55.86589701916062
 31
0.0
  0
LINE
  5
FBBE
330
18
100
AcDbEntity
  8
1HIDDEN
 48
0.5
100
AcDbLine
 10
444.2244769594676
 20
64.06589701927726
 30
0.0
 11
444.2244827217722
 21
55.86589701916062
 31
0.0
  0
TEXT
  5
FBCE
330
18
100
AcDbEntity
  8
1TEXT
100
AcDbText
 10
243.3225958144083
 20
-25.83391747910856
 30
0.0
 40
4.0
  1
PA59Z-
 72
     1
 11
254.6707439625565
 21
-25.83391747910856
 31
0.0
100
AcDbText
  0
TEXT
  5
FBCF
330
18
100
AcDbEntity
  8
1TEXT
100
AcDbText
 10
186.475629074265
 20
-25.8339174791081
 30
0.0
 40
4.0
  1
ステンカラーヘアライン
 41
0.9
 72
     1
 11
209.935629074265
 21
-25.8339174791081
 31
0.0
100
AcDbText
  0
LINE
  5
FBD0
330
18
100
AcDbEntity
  8
1DIM
100
AcDbLine
 10
185.8019001102324
 20
-27.33391747910856
 30
0.0
 11
295.8019001102324
 21
-27.33391747910856
 31
0.0
  0
LINE
  5
FFC4
330
18
100
AcDbEntity
  8
01
100
AcDbLine
 10
229.1286778250309
 20
-28.90955404588022
 30
0.0
 11
245.9349753975351
 21
-28.90955404588022
 31
0.0
  0
LINE
  5
FFC5
330
18
100
AcDbEntity
  8
01
100
AcDbLine
 10
245.9349753975351
 20
-28.90955404588022
 30
0.0
 11
245.9349753975351
 21
-35.27611672279637
 31
0.0
  0
LINE
  5
FFC6
330
18
100
AcDbEntity
  8
01
100
AcDbLine
 10
245.9349753975351
 20
-35.27611672279637
 30
0.0
 11
229.1286778250309
 21
-35.27611672279637
 31
0.0
  0
LINE
  5
FFC7
330
18
100
AcDbEntity
  8
01
100
AcDbLine
 10
229.1286778250309
 20
-35.27611672279637
 30
0.0
 11
229.1286778250309
 21
-28.90955404588022
 31
0.0
  0
LINE
  5
FFC8
330
18
100
AcDbEntity
  8
1DIM
100
AcDbLine
 10
190.2933636975132
 20
54.96589580364283
 30
0.0
 11
190.2933636975132
 21
29.66608252089148
 31
0.0
  0
LINE
  5
FFC9
330
18
100
AcDbEntity
  8
1DIM
100
AcDbLine
 10
215.2933636975134
 20
55.07345391003087
 30
0.0
 11
215.2933636975134
 21
29.66608252089148
 31
0.0
  0
LINE
  5
FFCA
330
18
100
AcDbEntity
  8
1DIM
100
AcDbLine
 10
192.2933636975132
 20
30.66608252089148
 30
0.0
 11
213.2933636975134
 21
30.66608252089148
 31
0.0
  0
LINE
  5
FFCE
330
18
100
AcDbEntity
  8
1DIM
100
AcDbLine
 10
365.2933636975143
 20
55.07345391003087
 30
0.0
 11
365.2933636975143
 21
29.66608252089171
 31
0.0
  0
LINE
  5
FFCF
330
18
100
AcDbEntity
  8
1DIM
100
AcDbLine
 10
390.2933636975143
 20
54.96589580364283
 30
0.0
 11
390.2933636975143
 21
29.66608252089171
 31
0.0
  0
LINE
  5
FFD0
330
18
100
AcDbEntity
  8
1DIM
100
AcDbLine
 10
367.2933636975143
 20
30.66608252089171
 30
0.0
 11
388.2933636975143
 21
30.66608252089171
 31
0.0
  0
LINE
  5
FFD4
330
18
100
AcDbEntity
  8
1DIM
100
AcDbLine
 10
190.2933636975132
 20
54.96589580364277
 30
0.0
 11
190.2933636975132
 21
19.66608252089144
 31
0.0
  0
LINE
  5
FFD5
330
18
100
AcDbEntity
  8
1DIM
100
AcDbLine
 10
390.2933636975143
 20
54.96589580364283
 30
0.0
 11
390.2933636975143
 21
19.66608252089144
 31
0.0
  0
LINE
  5
FFD6
330
18
100
AcDbEntity
  8
1DIM
100
AcDbLine
 10
192.2933636975132
 20
20.66608252089144
 30
0.0
 11
388.2933636975143
 21
20.66608252089144
 31
0.0
  0
TEXT
  5
FFDA
330
18
100
AcDbEntity
  8
1HIDDEN
  6
CONTINUOUS
100
AcDbText
 10
193.5503883206533
 20
-41.18108589003141
 30
0.0
 40
4.000000000000001
  1
EX.寸法  　70mm  　PA59S70
100
AcDbText
  0
TEXT
  5
FFDB
330
18
100
AcDbEntity
  8
1HIDDEN
  6
CONTINUOUS
100
AcDbText
 10
193.5503883206533
 20
-47.85886366780919
 30
0.0
 40
4.000000000000001
  1
      　295mm   PA59S295
100
AcDbText
  0
TEXT
  5
FFDC
330
18
100
AcDbEntity
  8
1HIDDEN
  6
CONTINUOUS
100
AcDbText
 10
193.5503883206533
 20
-54.53664144558697
 30
0.0
 40
4.000000000000001
  1
     　1050mm   PA59S1050
100
AcDbText
  0
LINE
  5
FFDD
330
18
100
AcDbEntity
  8
1DIM
100
AcDbLine
 10
425.8019001102324
 20
7.692272188667403
 30
0.0
 11
464.0598752783329
 21
7.692272188667403
 31
0.0
  0
LINE
  5
FFDE
330
18
100
AcDbEntity
  8
1DIM
100
AcDbLine
 10
464.0598752783329
 20
7.692272188667403
 30
0.0
 11
464.0598752783329
 21
-33.86365882639279
 31
0.0
  0
LINE
  5
FFDF
330
18
100
AcDbEntity
  8
1DIM
100
AcDbLine
 10
464.0598752783329
 20
-33.86365882639279
 30
0.0
 11
425.8019001102324
 21
-33.86365882639279
 31
0.0
  0
LINE
  5
FFE0
330
18
100
AcDbEntity
  8
1DIM
100
AcDbLine
 10
425.8019001102324
 20
-33.86365882639279
 30
0.0
 11
425.8019001102324
 21
7.692272188667403
 31
0.0
  0
LINE
  5
FFE1
330
18
100
AcDbEntity
  8
1DIM
100
AcDbLine
 10
442.0452489635512
 20
-12.8948469825275
 30
0.0
 11
430.2003684328569
 21
-12.8948469825275
 31
0.0
1001
ACAD
1000
DSTYLE
1002
{
1070
     3
1000
φ<>
1070
    40
1040
1.0
1002
}
  0
LINE
  5
FFE2
330
18
100
AcDbEntity
  8
1DIM
100
AcDbLine
 10
442.8452396563738
 20
-16.8948469825275
 30
0.0
 11
430.2003684328569
 21
-16.8948469825275
 31
0.0
1001
ACAD
1000
DSTYLE
1002
{
1070
     3
1000
φ<>
1070
    40
1040
1.0
1002
}
  0
LINE
  5
FFE3
330
18
100
AcDbEntity
  8
1DIM
100
AcDbLine
 10
431.2003684328569
 20
-12.8948469825275
 30
0.0
 11
431.2003684328569
 21
-1.111513649193455
 31
0.0
1001
ACAD
1000
DSTYLE
1002
{
1070
     3
1000
φ<>
1070
    40
1040
1.0
1002
}
  0
LINE
  5
FFE4
330
18
100
AcDbEntity
  8
1DIM
100
AcDbLine
 10
431.2003684328569
 20
-12.8948469825275
 30
0.0
 11
431.2003684328569
 21
-16.8948469825275
 31
0.0
1001
ACAD
1000
DSTYLE
1002
{
1070
     3
1000
φ<>
1070
    40
1040
1.0
1002
}
  0
LINE
  5
FFE5
330
18
100
AcDbEntity
  8
1DIM
100
AcDbLine
 10
431.2003684328569
 20
-10.8948469825275
 30
0.0
 11
431.2003684328569
 21
-8.894846982527497
 31
0.0
1001
ACAD
1000
DSTYLE
1002
{
1070
     3
1000
φ<>
1070
    40
1040
1.0
1002
}
  0
LINE
  5
FFE6
330
18
100
AcDbEntity
  8
1DIM
100
AcDbLine
 10
431.2003684328569
 20
-18.8948469825275
 30
0.0
 11
431.2003684328569
 21
-20.8948469825275
 31
0.0
1001
ACAD
1000
DSTYLE
1002
{
1070
     3
1000
φ<>
1070
    40
1040
1.0
1002
}
  0
LINE
  5
FFEA
330
18
100
AcDbEntity
  8
1DIM
100
AcDbLine
 10
435.9452443099102
 20
-14.8948469825275
 30
0.0
 11
435.9452443099102
 21
-1.944985351296282
 31
0.0
1001
ACAD
1000
DSTYLE
1002
{
1070
    40
1040
1.0
1002
}
  0
LINE
  5
FFEB
330
18
100
AcDbEntity
  8
1DIM
100
AcDbLine
 10
451.9452524537459
 20
-11.3948469825275
 30
0.0
 11
451.9452524537459
 21
-1.944985351296282
 31
0.0
1001
ACAD
1000
DSTYLE
1002
{
1070
    40
1040
1.0
1002
}
  0
LINE
  5
FFEC
330
18
100
AcDbEntity
  8
1DIM
100
AcDbLine
 10
437.9452443099102
 20
-2.944985351296282
 30
0.0
 11
449.9452524537459
 21
-2.944985351296282
 31
0.0
1001
ACAD
1000
DSTYLE
1002
{
1070
    40
1040
1.0
1002
}
  0
LINE
  5
FFF0
330
18
100
AcDbEntity
  8
1DIM
100
AcDbLine
 10
451.9452361661819
 20
-18.3948469825275
 30
0.0
 11
461.4848532192203
 21
-18.3948469825275
 31
0.0
1001
ACAD
1000
DSTYLE
1002
{
1070
     3
1000
φ<>
1070
    40
1040
1.0
1002
}
  0
LINE
  5
FFF1
330
18
100
AcDbEntity
  8
1DIM
100
AcDbLine
 10
451.9452524537459
 20
-11.3948469825275
 30
0.0
 11
461.4848532192203
 21
-11.3948469825275
 31
0.0
1001
ACAD
1000
DSTYLE
1002
{
1070
     3
1000
φ<>
1070
    40
1040
1.0
1002
}
  0
LINE
  5
FFF2
330
18
100
AcDbEntity
  8
1DIM
100
AcDbLine
 10
460.4848532192203
 20
-11.3948469825275
 30
0.0
 11
460.4848532192203
 21
-1.894846982527497
 31
0.0
1001
ACAD
1000
DSTYLE
1002
{
1070
     3
1000
φ<>
1070
    40
1040
1.0
1002
}
  0
LINE
  5
FFF3
330
18
100
AcDbEntity
  8
1DIM
100
AcDbLine
 10
460.4848532192203
 20
-16.3948469825275
 30
0.0
 11
460.4848532192203
 21
-13.3948469825275
 31
0.0
1001
ACAD
1000
DSTYLE
1002
{
1070
     3
1000
φ<>
1070
    40
1040
1.0
1002
}
  0
LINE
  5
FFF7
330
18
100
AcDbEntity
  8
1DIM
100
AcDbLine
 10
215.2933636975134
 20
55.07345391003087
 30
0.0
 11
215.2933636975134
 21
29.66608252089149
 31
0.0
  0
LINE
  5
FFF8
330
18
100
AcDbEntity
  8
1DIM
100
AcDbLine
 10
290.2933636975134
 20
55.07345391003087
 30
0.0
 11
290.2933636975134
 21
29.66608252089149
 31
0.0
  0
LINE
  5
FFF9
330
18
100
AcDbEntity
  8
1DIM
100
AcDbLine
 10
217.2933636975134
 20
30.66608252089149
 30
0.0
 11
288.2933636975134
 21
30.66608252089149
 31
0.0
  0
LINE
  5
FFFD
330
18
100
AcDbEntity
  8
1DIM
100
AcDbLine
 10
290.2933636975134
 20
55.07345391003087
 30
0.0
 11
290.2933636975134
 21
29.66608252089171
 31
0.0
  0
LINE
  5
FFFE
330
18
100
AcDbEntity
  8
1DIM
100
AcDbLine
 10
365.2933636975143
 20
55.07345391003087
 30
0.0
 11
365.2933636975143
 21
29.66608252089171
 31
0.0
  0
LINE
  5
FFFF
330
18
100
AcDbEntity
  8
1DIM
100
AcDbLine
 10
292.2933636975134
 20
30.66608252089171
 30
0.0
 11
363.2933636975143
 21
30.66608252089171
 31
0.0
  0
LINE
  5
10003
330
18
100
AcDbEntity
  8
1DIM
100
AcDbLine
 10
442.724639941113
 20
53.96589580364269
 30
0.0
 11
442.724639941113
 21
36.47170581053341
 31
0.0
1001
ACAD
1000
DSTYLE
1002
{
1070
    45
1040
0.5
1002
}
  0
LINE
  5
10004
330
18
100
AcDbEntity
  8
1DIM
100
AcDbLine
 10
444.6246399411131
 20
54.96589580364269
 30
0.0
 11
444.6246399411131
 21
36.47170581053341
 31
0.0
1001
ACAD
1000
DSTYLE
1002
{
1070
    45
1040
0.5
1002
}
  0
LINE
  5
10005
330
18
100
AcDbEntity
  8
1DIM
100
AcDbLine
 10
446.6246399411131
 20
37.47170581053341
 30
0.0
 11
452.3579732744464
 21
37.47170581053341
 31
0.0
1001
ACAD
1000
DSTYLE
1002
{
1070
    45
1040
0.5
1002
}
  0
LINE
  5
10006
330
18
100
AcDbEntity
  8
1DIM
100
AcDbLine
 10
442.724639941113
 20
37.47170581053341
 30
0.0
 11
444.6246399411131
 21
37.47170581053341
 31
0.0
1001
ACAD
1000
DSTYLE
1002
{
1070
    45
1040
0.5
1002
}
  0
LINE
  5
10007
330
18
100
AcDbEntity
  8
1DIM
100
AcDbLine
 10
440.724639941113
 20
37.47170581053341
 30
0.0
 11
438.724639941113
 21
37.47170581053341
 31
0.0
1001
ACAD
1000
DSTYLE
1002
{
1070
    45
1040
0.5
1002
}
  0
LINE
  5
1000B
330
18
100
AcDbEntity
  8
1DIM
100
AcDbLine
 10
442.7246399411132
 20
62.5660927162408
 30
0.0
 11
436.2978796473607
 21
62.5660927162408
 31
0.0
1001
ACAD
1000
DSTYLE
1002
{
1070
     3
1000
φ<>
1070
    45
1040
0.5
1002
}
  0
LINE
  5
1000C
330
18
100
AcDbEntity
  8
1DIM
100
AcDbLine
 10
442.724639941113
 20
57.36569735347461
 30
0.0
 11
436.2978796473607
 21
57.36569735347461
 31
0.0
1001
ACAD
1000
DSTYLE
1002
{
1070
     3
1000
φ<>
1070
    45
1040
0.5
1002
}
  0
LINE
  5
1000D
330
18
100
AcDbEntity
  8
1DIM
100
AcDbLine
 10
437.2978796473607
 20
55.36569735347461
 30
0.0
 11
437.2978796473607
 21
45.86569735347461
 31
0.0
1001
ACAD
1000
DSTYLE
1002
{
1070
     3
1000
φ<>
1070
    45
1040
0.5
1002
}
  0
LINE
  5
1000E
330
18
100
AcDbEntity
  8
1DIM
100
AcDbLine
 10
437.2978796473607
 20
62.5660927162408
 30
0.0
 11
437.2978796473607
 21
57.36569735347461
 31
0.0
1001
ACAD
1000
DSTYLE
1002
{
1070
     3
1000
φ<>
1070
    45
1040
0.5
1002
}
  0
LINE
  5
1000F
330
18
100
AcDbEntity
  8
1DIM
100
AcDbLine
 10
437.2978796473607
 20
64.5660927162408
 30
0.0
 11
437.2978796473607
 21
66.5660927162408
 31
0.0
1001
ACAD
1000
DSTYLE
1002
{
1070
     3
1000
φ<>
1070
    45
1040
0.5
1002
}
  0
LINE
  5
10013
330
18
100
AcDbEntity
  8
1DIM
100
AcDbLine
 10
444.6244411906304
 20
64.0658970192772
 30
0.0
 11
456.3589562412786
 21
64.0658970192772
 31
0.0
1001
ACAD
1000
DSTYLE
1002
{
1070
     3
1000
φ<>
1070
    45
1040
0.5
1002
}
  0
LINE
  5
10014
330
18
100
AcDbEntity
  8
1DIM
100
AcDbLine
 10
444.6244411906301
 20
55.86589701916062
 30
0.0
 11
456.3589562412786
 21
55.86589701916062
 31
0.0
1001
ACAD
1000
DSTYLE
1002
{
1070
     3
1000
φ<>
1070
    45
1040
0.5
1002
}
  0
LINE
  5
10015
330
18
100
AcDbEntity
  8
1DIM
100
AcDbLine
 10
455.3589562412786
 20
55.86589701916062
 30
0.0
 11
455.3589562412786
 21
45.21016478707786
 31
0.0
1001
ACAD
1000
DSTYLE
1002
{
1070
     3
1000
φ<>
1070
    45
1040
0.5
1002
}
  0
LINE
  5
10016
330
18
100
AcDbEntity
  8
1DIM
100
AcDbLine
 10
455.3589562412786
 20
62.0658970192772
 30
0.0
 11
455.3589562412786
 21
57.86589701916062
 31
0.0
1001
ACAD
1000
DSTYLE
1002
{
1070
     3
1000
φ<>
1070
    45
1040
0.5
1002
}
  0
LINE
  5
1001A
330
18
100
AcDbEntity
  8
1DIM
100
AcDbLine
 10
446.9501882707212
 20
59.96591299053181
 30
0.0
 11
466.8008967064267
 21
59.96591299053181
 31
0.0
1001
ACAD
1000
DSTYLE
1002
{
1070
    45
1040
0.5
1002
}
  0
LINE
  5
1001B
330
18
100
AcDbEntity
  8
1DIM
100
AcDbLine
 10
442.724639941113
 20
68.9658958036427
 30
0.0
 11
466.8008967064267
 21
68.9658958036427
 31
0.0
1001
ACAD
1000
DSTYLE
1002
{
1070
    45
1040
0.5
1002
}
  0
LINE
  5
1001C
330
18
100
AcDbEntity
  8
1DIM
100
AcDbLine
 10
465.8008967064267
 20
61.96591299053181
 30
0.0
 11
465.8008967064267
 21
66.9658958036427
 31
0.0
1001
ACAD
1000
DSTYLE
1002
{
1070
    45
1040
0.5
1002
}
  0
LINE
  5
10020
330
18
100
AcDbEntity
  8
1DIM
100
AcDbLine
 10
442.724639941113
 20
68.9658958036427
 30
0.0
 11
474.6630820198937
 21
68.9658958036427
 31
0.0
1001
ACAD
1000
DSTYLE
1002
{
1070
    45
1040
0.5
1002
}
  0
LINE
  5
10021
330
18
100
AcDbEntity
  8
1DIM
100
AcDbLine
 10
443.6246399411131
 20
96.66589580364274
 30
0.0
 11
474.6630820198937
 21
96.66589580364274
 31
0.0
1001
ACAD
1000
DSTYLE
1002
{
1070
    45
1040
0.5
1002
}
  0
LINE
  5
10022
330
18
100
AcDbEntity
  8
1DIM
100
AcDbLine
 10
473.6630820198937
 20
70.9658958036427
 30
0.0
 11
473.6630820198937
 21
94.66589580364274
 31
0.0
1001
ACAD
1000
DSTYLE
1002
{
1070
    45
1040
0.5
1002
}
  0
LINE
  5
10026
330
18
100
AcDbEntity
  8
1DIM
100
AcDbLine
 10
443.6246399411131
 20
53.96589580364269
 30
0.0
 11
483.3398118651352
 21
53.96589580364269
 31
0.0
1001
ACAD
1000
DSTYLE
1002
{
1070
    45
1040
0.5
1002
}
  0
LINE
  5
10027
330
18
100
AcDbEntity
  8
1DIM
100
AcDbLine
 10
443.6246399411131
 20
96.66589580364274
 30
0.0
 11
483.3398118651352
 21
96.66589580364274
 31
0.0
1001
ACAD
1000
DSTYLE
1002
{
1070
    45
1040
0.5
1002
}
  0
LINE
  5
10028
330
18
100
AcDbEntity
  8
1DIM
100
AcDbLine
 10
482.3398118651352
 20
55.96589580364269
 30
0.0
 11
482.3398118651352
 21
94.66589580364274
 31
0.0
1001
ACAD
1000
DSTYLE
1002
{
1070
    45
1040
0.5
1002
}
  0
LINE
  5
1002C
330
18
100
AcDbEntity
  8
1DIM
100
AcDbLine
 10
442.724639941113
 20
68.9658958036427
 30
0.0
 11
474.6630820198937
 21
68.9658958036427
 31
0.0
1001
ACAD
1000
DSTYLE
1002
{
1070
    45
1040
0.5
1002
}
  0
LINE
  5
1002D
330
18
100
AcDbEntity
  8
1DIM
100
AcDbLine
 10
443.6246399411131
 20
53.96589580364269
 30
0.0
 11
474.6630820198937
 21
53.96589580364269
 31
0.0
1001
ACAD
1000
DSTYLE
1002
{
1070
    45
1040
0.5
1002
}
  0
LINE
  5
1002E
330
18
100
AcDbEntity
  8
1DIM
100
AcDbLine
 10
473.6630820198937
 20
66.9658958036427
 30
0.0
 11
473.6630820198937
 21
55.96589580364269
 31
0.0
1001
ACAD
1000
DSTYLE
1002
{
1070
    45
1040
0.5
1002
}
  0
LINE
  5
10032
330
18
100
AcDbEntity
  8
1DIM
100
AcDbLine
 10
421.6246399411131
 20
95.66589580364268
 30
0.0
 11
421.6246399411131
 21
109.5723060587031
 31
0.0
1001
ACAD
1000
DSTYLE
1002
{
1070
    45
1040
0.5
1002
}
  0
LINE
  5
10033
330
18
100
AcDbEntity
  8
1DIM
100
AcDbLine
 10
444.6246399411131
 20
95.66589580364274
 30
0.0
 11
444.6246399411131
 21
109.5723060587031
 31
0.0
1001
ACAD
1000
DSTYLE
1002
{
1070
    45
1040
0.5
1002
}
  0
LINE
  5
10034
330
18
100
AcDbEntity
  8
1DIM
100
AcDbLine
 10
423.6246399411131
 20
108.5723060587031
 30
0.0
 11
442.6246399411131
 21
108.5723060587031
 31
0.0
1001
ACAD
1000
DSTYLE
1002
{
1070
    45
1040
0.5
1002
}
  0
LINE
  5
10038
330
18
100
AcDbEntity
  8
1DIM
100
AcDbLine
 10
421.8246399411131
 20
65.9658958036427
 30
0.0
 11
415.5726451357758
 21
65.9658958036427
 31
0.0
1001
ACAD
1000
DSTYLE
1002
{
1070
    45
1040
0.5
1002
}
  0
LINE
  5
10039
330
18
100
AcDbEntity
  8
1DIM
100
AcDbLine
 10
422.8246399411131
 20
68.9658958036427
 30
0.0
 11
415.5726451357758
 21
68.9658958036427
 31
0.0
1001
ACAD
1000
DSTYLE
1002
{
1070
    45
1040
0.5
1002
}
  0
LINE
  5
1003A
330
18
100
AcDbEntity
  8
1DIM
100
AcDbLine
 10
416.5726451357758
 20
70.9658958036427
 30
0.0
 11
416.5726451357758
 21
76.69922913697604
 31
0.0
1001
ACAD
1000
DSTYLE
1002
{
1070
    45
1040
0.5
1002
}
  0
LINE
  5
1003B
330
18
100
AcDbEntity
  8
1DIM
100
AcDbLine
 10
416.5726451357758
 20
65.9658958036427
 30
0.0
 11
416.5726451357758
 21
68.9658958036427
 31
0.0
1001
ACAD
1000
DSTYLE
1002
{
1070
    45
1040
0.5
1002
}
  0
LINE
  5
1003C
330
18
100
AcDbEntity
  8
1DIM
100
AcDbLine
 10
416.5726451357758
 20
63.9658958036427
 30
0.0
 11
416.5726451357758
 21
61.9658958036427
 31
0.0
1001
ACAD
1000
DSTYLE
1002
{
1070
    45
1040
0.5
1002
}
  0
LINE
  5
10040
330
18
100
AcDbEntity
  8
1DIM
100
AcDbLine
 10
422.6246399411131
 20
96.66589580364268
 30
0.0
 11
415.5726451357758
 21
96.66589580364268
 31
0.0
1001
ACAD
1000
DSTYLE
1002
{
1070
    45
1040
0.5
1002
}
  0
LINE
  5
10041
330
18
100
AcDbEntity
  8
1DIM
100
AcDbLine
 10
422.6246399411094
 20
89.9658958036427
 30
0.0
 11
415.5726451357758
 21
89.9658958036427
 31
0.0
1001
ACAD
1000
DSTYLE
1002
{
1070
    45
1040
0.5
1002
}
  0
LINE
  5
10042
330
18
100
AcDbEntity
  8
1DIM
100
AcDbLine
 10
416.5726451357758
 20
89.9658958036427
 30
0.0
 11
416.5726451357758
 21
79.39922913697609
 31
0.0
1001
ACAD
1000
DSTYLE
1002
{
1070
    45
1040
0.5
1002
}
  0
LINE
  5
10043
330
18
100
AcDbEntity
  8
1DIM
100
AcDbLine
 10
416.5726451357758
 20
94.66589580364268
 30
0.0
 11
416.5726451357758
 21
91.9658958036427
 31
0.0
1001
ACAD
1000
DSTYLE
1002
{
1070
    45
1040
0.5
1002
}
  0
LINE
  5
10047
330
18
100
AcDbEntity
  8
1DIM
100
AcDbLine
 10
421.8246399411131
 20
65.9658958036427
 30
0.0
 11
408.8203234553906
 21
65.9658958036427
 31
0.0
1001
ACAD
1000
DSTYLE
1002
{
1070
    45
1040
0.5
1002
}
  0
LINE
  5
10048
330
18
100
AcDbEntity
  8
1DIM
100
AcDbLine
 10
422.6246399411131
 20
96.66589580364268
 30
0.0
 11
408.8203234553906
 21
96.66589580364268
 31
0.0
1001
ACAD
1000
DSTYLE
1002
{
1070
    45
1040
0.5
1002
}
  0
LINE
  5
10049
330
18
100
AcDbEntity
  8
1DIM
100
AcDbLine
 10
409.8203234553906
 20
67.9658958036427
 30
0.0
 11
409.8203234553906
 21
94.66589580364268
 31
0.0
1001
ACAD
1000
DSTYLE
1002
{
1070
    45
1040
0.5
1002
}
  0
LINE
  5
1004D
330
18
100
AcDbEntity
  8
1DIM
100
AcDbLine
 10
444.6246399411131
 20
54.96589580364269
 30
0.0
 11
444.6246399411131
 21
28.70947902788783
 31
0.0
1001
ACAD
1000
DSTYLE
1002
{
1070
    45
1040
0.5
1002
}
  0
LINE
  5
1004E
330
18
100
AcDbEntity
  8
1DIM
100
AcDbLine
 10
421.6803594348572
 20
68.9658958036427
 30
0.0
 11
421.6803594348572
 21
28.70947902788783
 31
0.0
1001
ACAD
1000
DSTYLE
1002
{
1070
    45
1040
0.5
1002
}
  0
LINE
  5
1004F
330
18
100
AcDbEntity
  8
1DIM
100
AcDbLine
 10
442.6246399411131
 20
29.70947902788783
 30
0.0
 11
423.6803594348572
 21
29.70947902788783
 31
0.0
1001
ACAD
1000
DSTYLE
1002
{
1070
    45
1040
0.5
1002
}
  0
LINE
  5
10053
330
18
100
AcDbEntity
  8
1DIM
100
AcDbLine
 10
442.724639941113
 20
53.96589580364269
 30
0.0
 11
442.724639941113
 21
36.47170581053341
 31
0.0
  0
LINE
  5
10054
330
18
100
AcDbEntity
  8
1DIM
100
AcDbLine
 10
422.8246399411131
 20
65.9658958036427
 30
0.0
 11
422.8246399411131
 21
36.47170581053341
 31
0.0
  0
LINE
  5
10055
330
18
100
AcDbEntity
  8
1DIM
100
AcDbLine
 10
440.724639941113
 20
37.47170581053341
 30
0.0
 11
424.8246399411131
 21
37.47170581053341
 31
0.0
  0
LINE
  5
10059
330
18
100
AcDbEntity
  8
0
  6
BYBLOCK
100
AcDbLine
 10
192.2933636975132
 20
30.13018414089148
 30
0.0
 11
190.2933636975132
 21
30.66608252089148
 31
0.0
  0
LINE
  5
1005A
330
18
100
AcDbEntity
  8
0
  6
BYBLOCK
100
AcDbLine
 10
190.2933636975132
 20
30.66608252089148
 30
0.0
 11
192.2933636975132
 21
31.20198090089148
 31
0.0
  0
LINE
  5
1005B
330
18
100
AcDbEntity
  8
0
  6
BYBLOCK
100
AcDbLine
 10
190.2933636975132
 20
30.66608252089148
 30
0.0
 11
192.2933636975132
 21
30.66608252089148
 31
0.0
  0
LINE
  5
1005C
330
18
100
AcDbEntity
  8
0
  6
BYBLOCK
100
AcDbLine
 10
213.2933636975134
 20
31.20198090089148
 30
0.0
 11
215.2933636975134
 21
30.66608252089148
 31
0.0
  0
LINE
  5
1005D
330
18
100
AcDbEntity
  8
0
  6
BYBLOCK
100
AcDbLine
 10
215.2933636975134
 20
30.66608252089148
 30
0.0
 11
213.2933636975134
 21
30.13018414089148
 31
0.0
  0
LINE
  5
1005E
330
18
100
AcDbEntity
  8
0
  6
BYBLOCK
100
AcDbLine
 10
215.2933636975134
 20
30.66608252089148
 30
0.0
 11
213.2933636975134
 21
30.66608252089148
 31
0.0
  0
TEXT
  5
1005F
330
18
100
AcDbEntity
  8
1DIM
  6
CONTINUOUS
100
AcDbText
 10
199.8766970308468
 20
31.36608252089149
 30
0.0
 40
3.5
  1
25
100
AcDbText
  0
LINE
  5
10060
330
18
100
AcDbEntity
  8
0
  6
BYBLOCK
100
AcDbLine
 10
367.2933636975143
 20
30.13018414089171
 30
0.0
 11
365.2933636975143
 21
30.66608252089171
 31
0.0
  0
LINE
  5
10061
330
18
100
AcDbEntity
  8
0
  6
BYBLOCK
100
AcDbLine
 10
365.2933636975143
 20
30.66608252089171
 30
0.0
 11
367.2933636975143
 21
31.20198090089171
 31
0.0
  0
LINE
  5
10062
330
18
100
AcDbEntity
  8
0
  6
BYBLOCK
100
AcDbLine
 10
365.2933636975143
 20
30.66608252089171
 30
0.0
 11
367.2933636975143
 21
30.66608252089171
 31
0.0
  0
LINE
  5
10063
330
18
100
AcDbEntity
  8
0
  6
BYBLOCK
100
AcDbLine
 10
388.2933636975143
 20
31.20198090089171
 30
0.0
 11
390.2933636975143
 21
30.66608252089171
 31
0.0
  0
LINE
  5
10064
330
18
100
AcDbEntity
  8
0
  6
BYBLOCK
100
AcDbLine
 10
390.2933636975143
 20
30.66608252089171
 30
0.0
 11
388.2933636975143
 21
30.13018414089171
 31
0.0
  0
LINE
  5
10065
330
18
100
AcDbEntity
  8
0
  6
BYBLOCK
100
AcDbLine
 10
390.2933636975143
 20
30.66608252089171
 30
0.0
 11
388.2933636975143
 21
30.66608252089171
 31
0.0
  0
TEXT
  5
10066
330
18
100
AcDbEntity
  8
1DIM
  6
CONTINUOUS
100
AcDbText
 10
374.8766970308477
 20
31.36608252089172
 30
0.0
 40
3.5
  1
25
100
AcDbText
  0
LINE
  5
10067
330
18
100
AcDbEntity
  8
0
  6
BYBLOCK
100
AcDbLine
 10
192.2933636975132
 20
20.13018414089144
 30
0.0
 11
190.2933636975132
 21
20.66608252089144
 31
0.0
  0
LINE
  5
10068
330
18
100
AcDbEntity
  8
0
  6
BYBLOCK
100
AcDbLine
 10
190.2933636975132
 20
20.66608252089144
 30
0.0
 11
192.2933636975132
 21
21.20198090089144
 31
0.0
  0
LINE
  5
10069
330
18
100
AcDbEntity
  8
0
  6
BYBLOCK
100
AcDbLine
 10
190.2933636975132
 20
20.66608252089144
 30
0.0
 11
192.2933636975132
 21
20.66608252089144
 31
0.0
  0
LINE
  5
1006A
330
18
100
AcDbEntity
  8
0
  6
BYBLOCK
100
AcDbLine
 10
388.2933636975143
 20
21.20198090089144
 30
0.0
 11
390.2933636975143
 21
20.66608252089144
 31
0.0
  0
LINE
  5
1006B
330
18
100
AcDbEntity
  8
0
  6
BYBLOCK
100
AcDbLine
 10
390.2933636975143
 20
20.66608252089144
 30
0.0
 11
388.2933636975143
 21
20.13018414089144
 31
0.0
  0
LINE
  5
1006C
330
18
100
AcDbEntity
  8
0
  6
BYBLOCK
100
AcDbLine
 10
390.2933636975143
 20
20.66608252089144
 30
0.0
 11
388.2933636975143
 21
20.66608252089144
 31
0.0
  0
TEXT
  5
1006D
330
18
100
AcDbEntity
  8
1DIM
  6
CONTINUOUS
100
AcDbText
 10
284.6933636975137
 20
21.36608252089144
 30
0.0
 40
3.5
  1
L寸法
100
AcDbText
  0
LINE
  5
1006E
330
18
100
AcDbEntity
  8
0
  6
BYBLOCK
100
AcDbLine
 10
431.7362668128569
 20
-10.8948469825275
 30
0.0
 11
431.2003684328569
 21
-12.8948469825275
 31
0.0
  0
LINE
  5
1006F
330
18
100
AcDbEntity
  8
0
  6
BYBLOCK
100
AcDbLine
 10
431.2003684328569
 20
-12.8948469825275
 30
0.0
 11
430.6644700528569
 21
-10.8948469825275
 31
0.0
  0
LINE
  5
10070
330
18
100
AcDbEntity
  8
0
  6
BYBLOCK
100
AcDbLine
 10
431.2003684328569
 20
-12.8948469825275
 30
0.0
 11
431.2003684328569
 21
-10.8948469825275
 31
0.0
  0
LINE
  5
10071
330
18
100
AcDbEntity
  8
0
  6
BYBLOCK
100
AcDbLine
 10
430.6644700528569
 20
-18.8948469825275
 30
0.0
 11
431.2003684328569
 21
-16.8948469825275
 31
0.0
  0
LINE
  5
10072
330
18
100
AcDbEntity
  8
0
  6
BYBLOCK
100
AcDbLine
 10
431.2003684328569
 20
-16.8948469825275
 30
0.0
 11
431.7362668128569
 21
-18.8948469825275
 31
0.0
  0
LINE
  5
10073
330
18
100
AcDbEntity
  8
0
  6
BYBLOCK
100
AcDbLine
 10
431.2003684328569
 20
-16.8948469825275
 30
0.0
 11
431.2003684328569
 21
-18.8948469825275
 31
0.0
  0
TEXT
  5
10074
330
18
100
AcDbEntity
  8
1DIM
  6
CONTINUOUS
100
AcDbText
 10
430.5003684328569
 20
-8.678180315860118
 30
0.0
 40
3.5
  1
φ4
 50
90.0
100
AcDbText
1001
ACAD
1000
DSTYLE
1002
{
1070
     3
1000
φ<>
1070
    40
1040
1.0
1002
}
  0
LINE
  5
10075
330
18
100
AcDbEntity
  8
0
  6
BYBLOCK
100
AcDbLine
 10
437.9452443099102
 20
-3.480883731296282
 30
0.0
 11
435.9452443099102
 21
-2.944985351296282
 31
0.0
  0
LINE
  5
10076
330
18
100
AcDbEntity
  8
0
  6
BYBLOCK
100
AcDbLine
 10
435.9452443099102
 20
-2.944985351296282
 30
0.0
 11
437.9452443099102
 21
-2.409086971296282
 31
0.0
  0
LINE
  5
10077
330
18
100
AcDbEntity
  8
0
  6
BYBLOCK
100
AcDbLine
 10
435.9452443099102
 20
-2.944985351296282
 30
0.0
 11
437.9452443099102
 21
-2.944985351296282
 31
0.0
  0
LINE
  5
10078
330
18
100
AcDbEntity
  8
0
  6
BYBLOCK
100
AcDbLine
 10
449.9452524537459
 20
-2.409086971296282
 30
0.0
 11
451.9452524537459
 21
-2.944985351296282
 31
0.0
  0
LINE
  5
10079
330
18
100
AcDbEntity
  8
0
  6
BYBLOCK
100
AcDbLine
 10
451.9452524537459
 20
-2.944985351296282
 30
0.0
 11
449.9452524537459
 21
-3.480883731296282
 31
0.0
  0
LINE
  5
1007A
330
18
100
AcDbEntity
  8
0
  6
BYBLOCK
100
AcDbLine
 10
451.9452524537459
 20
-2.944985351296282
 30
0.0
 11
449.9452524537459
 21
-2.944985351296282
 31
0.0
  0
TEXT
  5
1007B
330
18
100
AcDbEntity
  8
1DIM
  6
CONTINUOUS
100
AcDbText
 10
441.9142192701639
 20
-2.244985351296282
 30
0.0
 40
3.5
  1
16
100
AcDbText
1001
ACAD
1000
DSTYLE
1002
{
1070
    40
1040
1.0
1002
}
  0
LINE
  5
1007C
330
18
100
AcDbEntity
  8
0
  6
BYBLOCK
100
AcDbLine
 10
461.0207515992203
 20
-16.3948469825275
 30
0.0
 11
460.4848532192203
 21
-18.3948469825275
 31
0.0
  0
LINE
  5
1007D
330
18
100
AcDbEntity
  8
0
  6
BYBLOCK
100
AcDbLine
 10
460.4848532192203
 20
-18.3948469825275
 30
0.0
 11
459.9489548392203
 21
-16.3948469825275
 31
0.0
  0
LINE
  5
1007E
330
18
100
AcDbEntity
  8
0
  6
BYBLOCK
100
AcDbLine
 10
460.4848532192203
 20
-18.3948469825275
 30
0.0
 11
460.4848532192203
 21
-16.3948469825275
 31
0.0
  0
LINE
  5
1007F
330
18
100
AcDbEntity
  8
0
  6
BYBLOCK
100
AcDbLine
 10
459.9489548392203
 20
-13.3948469825275
 30
0.0
 11
460.4848532192203
 21
-11.3948469825275
 31
0.0
  0
LINE
  5
10080
330
18
100
AcDbEntity
  8
0
  6
BYBLOCK
100
AcDbLine
 10
460.4848532192203
 20
-11.3948469825275
 30
0.0
 11
461.0207515992203
 21
-13.3948469825275
 31
0.0
  0
LINE
  5
10081
330
18
100
AcDbEntity
  8
0
  6
BYBLOCK
100
AcDbLine
 10
460.4848532192203
 20
-11.3948469825275
 30
0.0
 11
460.4848532192203
 21
-13.3948469825275
 31
0.0
  0
TEXT
  5
10082
330
18
100
AcDbEntity
  8
1DIM
  6
CONTINUOUS
100
AcDbText
 10
459.7848532192203
 20
-9.378180315860845
 30
0.0
 40
3.5
  1
φ7
 50
90.0
100
AcDbText
1001
ACAD
1000
DSTYLE
1002
{
1070
     3
1000
φ<>
1070
    40
1040
1.0
1002
}
  0
LINE
  5
10083
330
18
100
AcDbEntity
  8
0
  6
BYBLOCK
100
AcDbLine
 10
217.2933636975134
 20
30.13018414089149
 30
0.0
 11
215.2933636975134
 21
30.66608252089149
 31
0.0
  0
LINE
  5
10084
330
18
100
AcDbEntity
  8
0
  6
BYBLOCK
100
AcDbLine
 10
215.2933636975134
 20
30.66608252089149
 30
0.0
 11
217.2933636975134
 21
31.20198090089148
 31
0.0
  0
LINE
  5
10085
330
18
100
AcDbEntity
  8
0
  6
BYBLOCK
100
AcDbLine
 10
215.2933636975134
 20
30.66608252089149
 30
0.0
 11
217.2933636975134
 21
30.66608252089149
 31
0.0
  0
LINE
  5
10086
330
18
100
AcDbEntity
  8
0
  6
BYBLOCK
100
AcDbLine
 10
288.2933636975134
 20
31.20198090089148
 30
0.0
 11
290.2933636975134
 21
30.66608252089149
 31
0.0
  0
LINE
  5
10087
330
18
100
AcDbEntity
  8
0
  6
BYBLOCK
100
AcDbLine
 10
290.2933636975134
 20
30.66608252089149
 30
0.0
 11
288.2933636975134
 21
30.13018414089149
 31
0.0
  0
LINE
  5
10088
330
18
100
AcDbEntity
  8
0
  6
BYBLOCK
100
AcDbLine
 10
290.2933636975134
 20
30.66608252089149
 30
0.0
 11
288.2933636975134
 21
30.66608252089149
 31
0.0
  0
TEXT
  5
10089
330
18
100
AcDbEntity
  8
1DIM
  6
CONTINUOUS
100
AcDbText
 10
221.6433636975134
 20
31.42441585422482
 30
0.0
 40
3.5
  1
穴数は表による　ピッチは均等割
100
AcDbText
  0
LINE
  5
1008A
330
18
100
AcDbEntity
  8
0
  6
BYBLOCK
100
AcDbLine
 10
292.2933636975134
 20
30.13018414089171
 30
0.0
 11
290.2933636975134
 21
30.66608252089171
 31
0.0
  0
LINE
  5
1008B
330
18
100
AcDbEntity
  8
0
  6
BYBLOCK
100
AcDbLine
 10
290.2933636975134
 20
30.66608252089171
 30
0.0
 11
292.2933636975134
 21
31.20198090089171
 31
0.0
  0
LINE
  5
1008C
330
18
100
AcDbEntity
  8
0
  6
BYBLOCK
100
AcDbLine
 10
290.2933636975134
 20
30.66608252089171
 30
0.0
 11
292.2933636975134
 21
30.66608252089171
 31
0.0
  0
LINE
  5
1008D
330
18
100
AcDbEntity
  8
0
  6
BYBLOCK
100
AcDbLine
 10
363.2933636975143
 20
31.20198090089171
 30
0.0
 11
365.2933636975143
 21
30.66608252089171
 31
0.0
  0
LINE
  5
1008E
330
18
100
AcDbEntity
  8
0
  6
BYBLOCK
100
AcDbLine
 10
365.2933636975143
 20
30.66608252089171
 30
0.0
 11
363.2933636975143
 21
30.13018414089171
 31
0.0
  0
LINE
  5
1008F
330
18
100
AcDbEntity
  8
0
  6
BYBLOCK
100
AcDbLine
 10
365.2933636975143
 20
30.66608252089171
 30
0.0
 11
363.2933636975143
 21
30.66608252089171
 31
0.0
  0
TEXT
  5
10090
330
18
100
AcDbEntity
  8
1DIM
  6
CONTINUOUS
100
AcDbText
 10
296.6433636975138
 20
31.42441585422504
 30
0.0
 40
3.5
  1
穴数は表による　ピッチは均等割
100
AcDbText
  0
LINE
  5
10091
330
18
100
AcDbEntity
  8
0
  6
BYBLOCK
100
AcDbLine
 10
440.724639941113
 20
38.00760419053341
 30
0.0
 11
442.724639941113
 21
37.47170581053341
 31
0.0
  0
LINE
  5
10092
330
18
100
AcDbEntity
  8
0
  6
BYBLOCK
100
AcDbLine
 10
442.724639941113
 20
37.47170581053341
 30
0.0
 11
440.724639941113
 21
36.93580743053342
 31
0.0
  0
LINE
  5
10093
330
18
100
AcDbEntity
  8
0
  6
BYBLOCK
100
AcDbLine
 10
442.724639941113
 20
37.47170581053341
 30
0.0
 11
440.724639941113
 21
37.47170581053341
 31
0.0
  0
LINE
  5
10094
330
18
100
AcDbEntity
  8
0
  6
BYBLOCK
100
AcDbLine
 10
446.6246399411131
 20
36.93580743053342
 30
0.0
 11
444.6246399411131
 21
37.47170581053341
 31
0.0
  0
LINE
  5
10095
330
18
100
AcDbEntity
  8
0
  6
BYBLOCK
100
AcDbLine
 10
444.6246399411131
 20
37.47170581053341
 30
0.0
 11
446.6246399411131
 21
38.00760419053341
 31
0.0
  0
LINE
  5
10096
330
18
100
AcDbEntity
  8
0
  6
BYBLOCK
100
AcDbLine
 10
444.6246399411131
 20
37.47170581053341
 30
0.0
 11
446.6246399411131
 21
37.47170581053341
 31
0.0
  0
TEXT
  5
10097
330
18
100
AcDbEntity
  8
1DIM
  6
CONTINUOUS
100
AcDbText
 10
449.324639941113
 20
38.17170581053342
 30
0.0
 40
3.5
  1
2
100
AcDbText
1001
ACAD
1000
DSTYLE
1002
{
1070
    45
1040
0.5
1002
}
  0
LINE
  5
10098
330
18
100
AcDbEntity
  8
0
  6
BYBLOCK
100
AcDbLine
 10
437.8337780273607
 20
64.5660927162408
 30
0.0
 11
437.2978796473607
 21
62.5660927162408
 31
0.0
  0
LINE
  5
10099
330
18
100
AcDbEntity
  8
0
  6
BYBLOCK
100
AcDbLine
 10
437.2978796473607
 20
62.5660927162408
 30
0.0
 11
436.7619812673607
 21
64.5660927162408
 31
0.0
  0
LINE
  5
1009A
330
18
100
AcDbEntity
  8
0
  6
BYBLOCK
100
AcDbLine
 10
437.2978796473607
 20
62.5660927162408
 30
0.0
 11
437.2978796473607
 21
64.5660927162408
 31
0.0
  0
LINE
  5
1009B
330
18
100
AcDbEntity
  8
0
  6
BYBLOCK
100
AcDbLine
 10
436.7619812673607
 20
55.36569735347461
 30
0.0
 11
437.2978796473607
 21
57.36569735347461
 31
0.0
  0
LINE
  5
1009C
330
18
100
AcDbEntity
  8
0
  6
BYBLOCK
100
AcDbLine
 10
437.2978796473607
 20
57.36569735347461
 30
0.0
 11
437.8337780273607
 21
55.36569735347461
 31
0.0
  0
LINE
  5
1009D
330
18
100
AcDbEntity
  8
0
  6
BYBLOCK
100
AcDbLine
 10
437.2978796473607
 20
57.36569735347461
 30
0.0
 11
437.2978796473607
 21
55.36569735347461
 31
0.0
  0
TEXT
  5
1009E
330
18
100
AcDbEntity
  8
1DIM
  6
CONTINUOUS
100
AcDbText
 10
436.5978796473607
 20
45.88236402014127
 30
0.0
 40
3.5
  1
φ5
 50
90.0
100
AcDbText
1001
ACAD
1000
DSTYLE
1002
{
1070
     3
1000
φ<>
1070
    45
1040
0.5
1002
}
  0
LINE
  5
1009F
330
18
100
AcDbEntity
  8
0
  6
BYBLOCK
100
AcDbLine
 10
454.8230578612786
 20
62.0658970192772
 30
0.0
 11
455.3589562412786
 21
64.0658970192772
 31
0.0
  0
LINE
  5
100A0
330
18
100
AcDbEntity
  8
0
  6
BYBLOCK
100
AcDbLine
 10
455.3589562412786
 20
64.0658970192772
 30
0.0
 11
455.8948546212786
 21
62.0658970192772
 31
0.0
  0
LINE
  5
100A1
330
18
100
AcDbEntity
  8
0
  6
BYBLOCK
100
AcDbLine
 10
455.3589562412786
 20
64.0658970192772
 30
0.0
 11
455.3589562412786
 21
62.0658970192772
 31
0.0
  0
LINE
  5
100A2
330
18
100
AcDbEntity
  8
0
  6
BYBLOCK
100
AcDbLine
 10
455.8948546212786
 20
57.86589701916062
 30
0.0
 11
455.3589562412786
 21
55.86589701916062
 31
0.0
  0
LINE
  5
100A3
330
18
100
AcDbEntity
  8
0
  6
BYBLOCK
100
AcDbLine
 10
455.3589562412786
 20
55.86589701916062
 30
0.0
 11
454.8230578612786
 21
57.86589701916062
 31
0.0
  0
LINE
  5
100A4
330
18
100
AcDbEntity
  8
0
  6
BYBLOCK
100
AcDbLine
 10
455.3589562412786
 20
55.86589701916062
 30
0.0
 11
455.3589562412786
 21
57.86589701916062
 31
0.0
  0
TEXT
  5
100A5
330
18
100
AcDbEntity
  8
1DIM
  6
CONTINUOUS
100
AcDbText
 10
454.6589562412786
 20
45.22683145374452
 30
0.0
 40
3.5
  1
φ8
 50
90.0
100
AcDbText
1001
ACAD
1000
DSTYLE
1002
{
1070
     3
1000
φ<>
1070
    45
1040
0.5
1002
}
  0
LINE
  5
100A6
330
18
100
AcDbEntity
  8
0
  6
BYBLOCK
100
AcDbLine
 10
466.3367950864267
 20
61.96591299053181
 30
0.0
 11
465.8008967064267
 21
59.96591299053181
 31
0.0
  0
LINE
  5
100A7
330
18
100
AcDbEntity
  8
0
  6
BYBLOCK
100
AcDbLine
 10
465.8008967064267
 20
59.96591299053181
 30
0.0
 11
465.2649983264267
 21
61.96591299053181
 31
0.0
  0
LINE
  5
100A8
330
18
100
AcDbEntity
  8
0
  6
BYBLOCK
100
AcDbLine
 10
465.8008967064267
 20
59.96591299053181
 30
0.0
 11
465.8008967064267
 21
61.96591299053181
 31
0.0
  0
LINE
  5
100A9
330
18
100
AcDbEntity
  8
0
  6
BYBLOCK
100
AcDbLine
 10
465.2649983264267
 20
66.9658958036427
 30
0.0
 11
465.8008967064267
 21
68.9658958036427
 31
0.0
  0
LINE
  5
100AA
330
18
100
AcDbEntity
  8
0
  6
BYBLOCK
100
AcDbLine
 10
465.8008967064267
 20
68.9658958036427
 30
0.0
 11
466.3367950864267
 21
66.9658958036427
 31
0.0
  0
LINE
  5
100AB
330
18
100
AcDbEntity
  8
0
  6
BYBLOCK
100
AcDbLine
 10
465.8008967064267
 20
68.9658958036427
 30
0.0
 11
465.8008967064267
 21
66.9658958036427
 31
0.0
  0
TEXT
  5
100AC
330
18
100
AcDbEntity
  8
1DIM
  6
CONTINUOUS
100
AcDbText
 10
465.1008967064267
 20
63.29761736005025
 30
0.0
 40
3.5
  1
9
 50
90.0
100
AcDbText
1001
ACAD
1000
DSTYLE
1002
{
1070
    45
1040
0.5
1002
}
  0
LINE
  5
100AD
330
18
100
AcDbEntity
  8
0
  6
BYBLOCK
100
AcDbLine
 10
474.1989803998937
 20
70.9658958036427
 30
0.0
 11
473.6630820198937
 21
68.9658958036427
 31
0.0
  0
LINE
  5
100AE
330
18
100
AcDbEntity
  8
0
  6
BYBLOCK
100
AcDbLine
 10
473.6630820198937
 20
68.9658958036427
 30
0.0
 11
473.1271836398938
 21
70.9658958036427
 31
0.0
  0
LINE
  5
100AF
330
18
100
AcDbEntity
  8
0
  6
BYBLOCK
100
AcDbLine
 10
473.6630820198937
 20
68.9658958036427
 30
0.0
 11
473.6630820198937
 21
70.9658958036427
 31
0.0
  0
LINE
  5
100B0
330
18
100
AcDbEntity
  8
0
  6
BYBLOCK
100
AcDbLine
 10
473.1271836398938
 20
94.66589580364274
 30
0.0
 11
473.6630820198937
 21
96.66589580364274
 31
0.0
  0
LINE
  5
100B1
330
18
100
AcDbEntity
  8
0
  6
BYBLOCK
100
AcDbLine
 10
473.6630820198937
 20
96.66589580364274
 30
0.0
 11
474.1989803998937
 21
94.66589580364274
 31
0.0
  0
LINE
  5
100B2
330
18
100
AcDbEntity
  8
0
  6
BYBLOCK
100
AcDbLine
 10
473.6630820198937
 20
96.66589580364274
 30
0.0
 11
473.6630820198937
 21
94.66589580364274
 31
0.0
  0
TEXT
  5
100B3
330
18
100
AcDbEntity
  8
1DIM
  6
CONTINUOUS
100
AcDbText
 10
472.9630820198938
 20
77.56589580364272
 30
0.0
 40
3.5
  1
27.5
 50
90.0
100
AcDbText
1001
ACAD
1000
DSTYLE
1002
{
1070
    45
1040
0.5
1002
}
  0
LINE
  5
100B4
330
18
100
AcDbEntity
  8
0
  6
BYBLOCK
100
AcDbLine
 10
482.8757102451352
 20
55.96589580364269
 30
0.0
 11
482.3398118651352
 21
53.96589580364269
 31
0.0
  0
LINE
  5
100B5
330
18
100
AcDbEntity
  8
0
  6
BYBLOCK
100
AcDbLine
 10
482.3398118651352
 20
53.96589580364269
 30
0.0
 11
481.8039134851352
 21
55.96589580364269
 31
0.0
  0
LINE
  5
100B6
330
18
100
AcDbEntity
  8
0
  6
BYBLOCK
100
AcDbLine
 10
482.3398118651352
 20
53.96589580364269
 30
0.0
 11
482.3398118651352
 21
55.96589580364269
 31
0.0
  0
LINE
  5
100B7
330
18
100
AcDbEntity
  8
0
  6
BYBLOCK
100
AcDbLine
 10
481.8039134851352
 20
94.66589580364274
 30
0.0
 11
482.3398118651352
 21
96.66589580364274
 31
0.0
  0
LINE
  5
100B8
330
18
100
AcDbEntity
  8
0
  6
BYBLOCK
100
AcDbLine
 10
482.3398118651352
 20
96.66589580364274
 30
0.0
 11
482.8757102451352
 21
94.66589580364274
 31
0.0
  0
LINE
  5
100B9
330
18
100
AcDbEntity
  8
0
  6
BYBLOCK
100
AcDbLine
 10
482.3398118651352
 20
96.66589580364274
 30
0.0
 11
482.3398118651352
 21
94.66589580364274
 31
0.0
  0
TEXT
  5
100BA
330
18
100
AcDbEntity
  8
1DIM
  6
CONTINUOUS
100
AcDbText
 10
481.6398118651352
 20
70.06589580364272
 30
0.0
 40
3.5
  1
42.5
 50
90.0
100
AcDbText
1001
ACAD
1000
DSTYLE
1002
{
1070
    45
1040
0.5
1002
}
  0
LINE
  5
100BB
330
18
100
AcDbEntity
  8
0
  6
BYBLOCK
100
AcDbLine
 10
473.1271836398938
 20
66.9658958036427
 30
0.0
 11
473.6630820198937
 21
68.9658958036427
 31
0.0
  0
LINE
  5
100BC
330
18
100
AcDbEntity
  8
0
  6
BYBLOCK
100
AcDbLine
 10
473.6630820198937
 20
68.9658958036427
 30
0.0
 11
474.1989803998937
 21
66.9658958036427
 31
0.0
  0
LINE
  5
100BD
330
18
100
AcDbEntity
  8
0
  6
BYBLOCK
100
AcDbLine
 10
473.6630820198937
 20
68.9658958036427
 30
0.0
 11
473.6630820198937
 21
66.9658958036427
 31
0.0
  0
LINE
  5
100BE
330
18
100
AcDbEntity
  8
0
  6
BYBLOCK
100
AcDbLine
 10
474.1989803998937
 20
55.96589580364269
 30
0.0
 11
473.6630820198937
 21
53.96589580364269
 31
0.0
  0
LINE
  5
100BF
330
18
100
AcDbEntity
  8
0
  6
BYBLOCK
100
AcDbLine
 10
473.6630820198937
 20
53.96589580364269
 30
0.0
 11
473.1271836398938
 21
55.96589580364269
 31
0.0
  0
LINE
  5
100C0
330
18
100
AcDbEntity
  8
0
  6
BYBLOCK
100
AcDbLine
 10
473.6630820198937
 20
53.96589580364269
 30
0.0
 11
473.6630820198937
 21
55.96589580364269
 31
0.0
  0
TEXT
  5
100C1
330
18
100
AcDbEntity
  8
1DIM
  6
CONTINUOUS
100
AcDbText
 10
472.9630820198938
 20
59.13256247030938
 30
0.0
 40
3.5
  1
15
 50
90.0
100
AcDbText
1001
ACAD
1000
DSTYLE
1002
{
1070
    45
1040
0.5
1002
}
  0
LINE
  5
100C2
330
18
100
AcDbEntity
  8
0
  6
BYBLOCK
100
AcDbLine
 10
423.6246399411131
 20
108.0364076787031
 30
0.0
 11
421.6246399411131
 21
108.5723060587031
 31
0.0
  0
LINE
  5
100C3
330
18
100
AcDbEntity
  8
0
  6
BYBLOCK
100
AcDbLine
 10
421.6246399411131
 20
108.5723060587031
 30
0.0
 11
423.6246399411131
 21
109.1082044387031
 31
0.0
  0
LINE
  5
100C4
330
18
100
AcDbEntity
  8
0
  6
BYBLOCK
100
AcDbLine
 10
421.6246399411131
 20
108.5723060587031
 30
0.0
 11
423.6246399411131
 21
108.5723060587031
 31
0.0
  0
LINE
  5
100C5
330
18
100
AcDbEntity
  8
0
  6
BYBLOCK
100
AcDbLine
 10
442.6246399411131
 20
109.1082044387031
 30
0.0
 11
444.6246399411131
 21
108.5723060587031
 31
0.0
  0
LINE
  5
100C6
330
18
100
AcDbEntity
  8
0
  6
BYBLOCK
100
AcDbLine
 10
444.6246399411131
 20
108.5723060587031
 30
0.0
 11
442.6246399411131
 21
108.0364076787031
 31
0.0
  0
LINE
  5
100C7
330
18
100
AcDbEntity
  8
0
  6
BYBLOCK
100
AcDbLine
 10
444.6246399411131
 20
108.5723060587031
 30
0.0
 11
442.6246399411131
 21
108.5723060587031
 31
0.0
  0
TEXT
  5
100C8
330
18
100
AcDbEntity
  8
1DIM
  6
CONTINUOUS
100
AcDbText
 10
430.2079732744464
 20
109.2723060587031
 30
0.0
 40
3.5
  1
23
100
AcDbText
1001
ACAD
1000
DSTYLE
1002
{
1070
    45
1040
0.5
1002
}
  0
LINE
  5
100C9
330
18
100
AcDbEntity
  8
0
  6
BYBLOCK
100
AcDbLine
 10
416.0367467557758
 20
63.9658958036427
 30
0.0
 11
416.5726451357758
 21
65.9658958036427
 31
0.0
  0
LINE
  5
100CA
330
18
100
AcDbEntity
  8
0
  6
BYBLOCK
100
AcDbLine
 10
416.5726451357758
 20
65.9658958036427
 30
0.0
 11
417.1085435157758
 21
63.9658958036427
 31
0.0
  0
LINE
  5
100CB
330
18
100
AcDbEntity
  8
0
  6
BYBLOCK
100
AcDbLine
 10
416.5726451357758
 20
65.9658958036427
 30
0.0
 11
416.5726451357758
 21
63.9658958036427
 31
0.0
  0
LINE
  5
100CC
330
18
100
AcDbEntity
  8
0
  6
BYBLOCK
100
AcDbLine
 10
417.1085435157758
 20
70.9658958036427
 30
0.0
 11
416.5726451357758
 21
68.9658958036427
 31
0.0
  0
LINE
  5
100CD
330
18
100
AcDbEntity
  8
0
  6
BYBLOCK
100
AcDbLine
 10
416.5726451357758
 20
68.9658958036427
 30
0.0
 11
416.0367467557758
 21
70.9658958036427
 31
0.0
  0
LINE
  5
100CE
330
18
100
AcDbEntity
  8
0
  6
BYBLOCK
100
AcDbLine
 10
416.5726451357758
 20
68.9658958036427
 30
0.0
 11
416.5726451357758
 21
70.9658958036427
 31
0.0
  0
TEXT
  5
100CF
330
18
100
AcDbEntity
  8
1DIM
  6
CONTINUOUS
100
AcDbText
 10
415.8726451357758
 20
73.66589580364268
 30
0.0
 40
3.5
  1
3
 50
90.0
100
AcDbText
1001
ACAD
1000
DSTYLE
1002
{
1070
    45
1040
0.5
1002
}
  0
LINE
  5
100D0
330
18
100
AcDbEntity
  8
0
  6
BYBLOCK
100
AcDbLine
 10
416.0367467557758
 20
94.66589580364268
 30
0.0
 11
416.5726451357758
 21
96.66589580364268
 31
0.0
  0
LINE
  5
100D1
330
18
100
AcDbEntity
  8
0
  6
BYBLOCK
100
AcDbLine
 10
416.5726451357758
 20
96.66589580364268
 30
0.0
 11
417.1085435157758
 21
94.66589580364268
 31
0.0
  0
LINE
  5
100D2
330
18
100
AcDbEntity
  8
0
  6
BYBLOCK
100
AcDbLine
 10
416.5726451357758
 20
96.66589580364268
 30
0.0
 11
416.5726451357758
 21
94.66589580364268
 31
0.0
  0
LINE
  5
100D3
330
18
100
AcDbEntity
  8
0
  6
BYBLOCK
100
AcDbLine
 10
417.1085435157758
 20
91.9658958036427
 30
0.0
 11
416.5726451357758
 21
89.9658958036427
 31
0.0
  0
LINE
  5
100D4
330
18
100
AcDbEntity
  8
0
  6
BYBLOCK
100
AcDbLine
 10
416.5726451357758
 20
89.9658958036427
 30
0.0
 11
416.0367467557758
 21
91.9658958036427
 31
0.0
  0
LINE
  5
100D5
330
18
100
AcDbEntity
  8
0
  6
BYBLOCK
100
AcDbLine
 10
416.5726451357758
 20
89.9658958036427
 30
0.0
 11
416.5726451357758
 21
91.9658958036427
 31
0.0
  0
TEXT
  5
100D6
330
18
100
AcDbEntity
  8
1DIM
  6
CONTINUOUS
100
AcDbText
 10
415.8726451357758
 20
80.17040969253162
 30
0.0
 40
3.5
  1
6.5
 50
90.0
100
AcDbText
1001
ACAD
1000
DSTYLE
1002
{
1070
    45
1040
0.5
1002
}
  0
LINE
  5
100D7
330
18
100
AcDbEntity
  8
0
  6
BYBLOCK
100
AcDbLine
 10
410.3562218353906
 20
67.9658958036427
 30
0.0
 11
409.8203234553906
 21
65.9658958036427
 31
0.0
  0
LINE
  5
100D8
330
18
100
AcDbEntity
  8
0
  6
BYBLOCK
100
AcDbLine
 10
409.8203234553906
 20
65.9658958036427
 30
0.0
 11
409.2844250753906
 21
67.9658958036427
 31
0.0
  0
LINE
  5
100D9
330
18
100
AcDbEntity
  8
0
  6
BYBLOCK
100
AcDbLine
 10
409.8203234553906
 20
65.9658958036427
 30
0.0
 11
409.8203234553906
 21
67.9658958036427
 31
0.0
  0
LINE
  5
100DA
330
18
100
AcDbEntity
  8
0
  6
BYBLOCK
100
AcDbLine
 10
409.2844250753906
 20
94.66589580364268
 30
0.0
 11
409.8203234553906
 21
96.66589580364268
 31
0.0
  0
LINE
  5
100DB
330
18
100
AcDbEntity
  8
0
  6
BYBLOCK
100
AcDbLine
 10
409.8203234553906
 20
96.66589580364268
 30
0.0
 11
410.3562218353906
 21
94.66589580364268
 31
0.0
  0
LINE
  5
100DC
330
18
100
AcDbEntity
  8
0
  6
BYBLOCK
100
AcDbLine
 10
409.8203234553906
 20
96.66589580364268
 30
0.0
 11
409.8203234553906
 21
94.66589580364268
 31
0.0
  0
TEXT
  5
100DD
330
18
100
AcDbEntity
  8
1DIM
  6
CONTINUOUS
100
AcDbText
 10
409.1203234553907
 20
76.3575624703094
 30
0.0
 40
3.5
  1
30.5
 50
90.0
100
AcDbText
1001
ACAD
1000
DSTYLE
1002
{
1070
    45
1040
0.5
1002
}
  0
LINE
  5
100DE
330
18
100
AcDbEntity
  8
0
  6
BYBLOCK
100
AcDbLine
 10
442.6246399411131
 20
30.24537740788783
 30
0.0
 11
444.6246399411131
 21
29.70947902788783
 31
0.0
  0
LINE
  5
100DF
330
18
100
AcDbEntity
  8
0
  6
BYBLOCK
100
AcDbLine
 10
444.6246399411131
 20
29.70947902788783
 30
0.0
 11
442.6246399411131
 21
29.17358064788783
 31
0.0
  0
LINE
  5
100E0
330
18
100
AcDbEntity
  8
0
  6
BYBLOCK
100
AcDbLine
 10
444.6246399411131
 20
29.70947902788783
 30
0.0
 11
442.6246399411131
 21
29.70947902788783
 31
0.0
  0
LINE
  5
100E1
330
18
100
AcDbEntity
  8
0
  6
BYBLOCK
100
AcDbLine
 10
423.6803594348572
 20
29.17358064788783
 30
0.0
 11
421.6803594348572
 21
29.70947902788783
 31
0.0
  0
LINE
  5
100E2
330
18
100
AcDbEntity
  8
0
  6
BYBLOCK
100
AcDbLine
 10
421.6803594348572
 20
29.70947902788783
 30
0.0
 11
423.6803594348572
 21
30.24537740788783
 31
0.0
  0
LINE
  5
100E3
330
18
100
AcDbEntity
  8
0
  6
BYBLOCK
100
AcDbLine
 10
421.6803594348572
 20
29.70947902788783
 30
0.0
 11
423.6803594348572
 21
29.70947902788783
 31
0.0
  0
TEXT
  5
100E4
330
18
100
AcDbEntity
  8
1DIM
  6
CONTINUOUS
100
AcDbText
 10
430.2358330213185
 20
30.40947902788783
 30
0.0
 40
3.5
  1
23
100
AcDbText
1001
ACAD
1000
DSTYLE
1002
{
1070
    45
1040
0.5
1002
}
  0
LINE
  5
100E5
330
18
100
AcDbEntity
  8
0
  6
BYBLOCK
100
AcDbLine
 10
440.724639941113
 20
38.00760419053341
 30
0.0
 11
442.724639941113
 21
37.47170581053341
 31
0.0
  0
LINE
  5
100E6
330
18
100
AcDbEntity
  8
0
  6
BYBLOCK
100
AcDbLine
 10
442.724639941113
 20
37.47170581053341
 30
0.0
 11
440.724639941113
 21
36.93580743053342
 31
0.0
  0
LINE
  5
100E7
330
18
100
AcDbEntity
  8
0
  6
BYBLOCK
100
AcDbLine
 10
442.724639941113
 20
37.47170581053341
 30
0.0
 11
440.724639941113
 21
37.47170581053341
 31
0.0
  0
LINE
  5
100E8
330
18
100
AcDbEntity
  8
0
  6
BYBLOCK
100
AcDbLine
 10
424.8246399411131
 20
36.93580743053342
 30
0.0
 11
422.8246399411131
 21
37.47170581053341
 31
0.0
  0
LINE
  5
100E9
330
18
100
AcDbEntity
  8
0
  6
BYBLOCK
100
AcDbLine
 10
422.8246399411131
 20
37.47170581053341
 30
0.0
 11
424.8246399411131
 21
38.00760419053341
 31
0.0
  0
LINE
  5
100EA
330
18
100
AcDbEntity
  8
0
  6
BYBLOCK
100
AcDbLine
 10
422.8246399411131
 20
37.47170581053341
 30
0.0
 11
424.8246399411131
 21
37.47170581053341
 31
0.0
  0
TEXT
  5
100EB
330
18
100
AcDbEntity
  8
1DIM
  6
CONTINUOUS
100
AcDbText
 10
428.1071630892612
 20
38.17170581053342
 30
0.0
 40
3.5
  1
19.8
100
AcDbText
  0
VIEWPORT
  5
57
330
15
100
AcDbEntity
 67
     1
  8
0
100
AcDbViewport
 68
     1
 10
0.0
 20
0.0
 30
0.0
 40
630.5106382978724
 41
297.0
 68
     1
 69
     1
1001
ACAD
1000
MVIEW
1002
{
1070
    16
1010
0.0
1020
0.0
1030
0.0
1010
0.0
1020
0.0
1030
1.0
1040
0.0
1040
297.0
1040
-4.171999999925333
1040
12.83903210976956
1040
50.0
1040
0.0
1040
0.0
1070
    16
1070
   100
1070
     0
1070
     1
1070
     0
1070
     0
1070
     0
1070
     0
1040
0.0
1040
0.0
1040
0.0
1040
10.0
1040
10.0
1040
10.0
1040
10.0
1070
     0
1002
{
1002
}
1002
}
  0
ENDSEC
  0
SECTION
  2
OBJECTS
  0
DICTIONARY
  5
C
330
0
100
AcDbDictionary
  3
ACAD_COLOR
350
18D
  3
ACAD_GROUP
350
D
  3
ACAD_LAYOUT
350
18E
  3
ACAD_MATERIAL
350
18C
  3
ACAD_MLEADERSTYLE
350
D09D
  3
ACAD_MLINESTYLE
350
1B
  3
ACAD_PLOTSETTINGS
350
18F
  3
ACAD_SCALELIST
350
D07B
  3
ACAD_VISUALSTYLE
350
D06A
  3
ACDBHEADERROUNDTRIPXREC
350
100EC
  3
ACDBVARIABLEDICTIONARY
350
37
  3
CONTENTDICTIONARY
350
D8
  3
DRAWINGVARIABLESDICT
350
20
  3
DWGPROPS
350
100EF
1001
ACAD
1000
TREAT_AS_HARD
1070
     0
  0
DICTIONARY
  5
D16C
330
2
100
AcDbDictionary
  3
ACAD_LAYERSTATES
360
D16D
1001
ACAD
1000
TREAT_AS_HARD
1070
     1
  0
DICTIONARY
  5
D0B5
330
E
100
AcDbDictionary
  3
ADSK_XREC_LAYER_RECONCILED
360
D0B6
1001
ACAD
1000
TREAT_AS_HARD
1070
     1
  0
DICTIONARY
  5
D0B7
330
29
100
AcDbDictionary
  3
ADSK_XREC_LAYER_RECONCILED
360
D0B8
1001
ACAD
1000
TREAT_AS_HARD
1070
     1
  0
DICTIONARY
  5
D0B9
330
31
100
AcDbDictionary
  3
ADSK_XREC_LAYER_RECONCILED
360
D0BA
1001
ACAD
1000
TREAT_AS_HARD
1070
     1
  0
DICTIONARY
  5
D0BF
330
243
100
AcDbDictionary
  3
ADSK_XREC_LAYER_RECONCILED
360
D0C0
1001
ACAD
1000
TREAT_AS_HARD
1070
     1
  0
DICTIONARY
  5
D0C5
330
24E
100
AcDbDictionary
  3
ADSK_XREC_LAYER_RECONCILED
360
D0C6
1001
ACAD
1000
TREAT_AS_HARD
1070
     1
  0
DICTIONARY
  5
D0D3
330
2C05
100
AcDbDictionary
  3
ADSK_XREC_LAYER_RECONCILED
360
D0D4
1001
ACAD
1000
TREAT_AS_HARD
1070
     1
  0
DICTIONARY
  5
88F
330
18
100
AcDbDictionary
  3
ACAD_SORTENTS
360
890
1001
ACAD
1000
TREAT_AS_HARD
1070
     1
  0
DICTIONARY
  5
18D
102
{ACAD_REACTORS
330
C
102
}
330
C
100
AcDbDictionary
1001
ACAD
1000
TREAT_AS_HARD
1070
     0
  0
DICTIONARY
  5
D
102
{ACAD_REACTORS
330
C
102
}
330
C
100
AcDbDictionary
1001
ACAD
1000
TREAT_AS_HARD
1070
     0
  0
DICTIONARY
  5
18E
102
{ACAD_REACTORS
330
C
102
}
330
C
100
AcDbDictionary
1001
ACAD
1000
TREAT_AS_HARD
1070
     0
  0
DICTIONARY
  5
18C
102
{ACAD_REACTORS
330
C
102
}
330
C
100
AcDbDictionary
  3
BYBLOCK
350
D05A
  3
BYLAYER
350
D052
  3
GLOBAL
350
D062
1001
ACAD
1000
TREAT_AS_HARD
1070
     0
  0
DICTIONARY
  5
D09D
102
{ACAD_REACTORS
330
C
102
}
330
C
100
AcDbDictionary
  3
STANDARD
350
D09E
1001
ACAD
1000
TREAT_AS_HARD
1070
     0
  0
DICTIONARY
  5
1B
102
{ACAD_REACTORS
330
C
102
}
330
C
100
AcDbDictionary
  3
STANDARD
350
1C
1001
ACAD
1000
TREAT_AS_HARD
1070
     0
  0
DICTIONARY
  5
18F
102
{ACAD_REACTORS
330
C
102
}
330
C
100
AcDbDictionary
1001
ACAD
1000
TREAT_AS_HARD
1070
     0
  0
DICTIONARY
  5
D07B
102
{ACAD_REACTORS
330
C
102
}
330
C
100
AcDbDictionary
  3
A0
350
D07C
  3
A1
350
D07D
  3
A2
350
D07E
  3
A3
350
D07F
  3
A4
350
D080
  3
A5
350
D081
  3
A6
350
D082
  3
A7
350
D083
  3
A8
350
D084
  3
A9
350
D085
  3
B0
350
D086
  3
B1
350
D087
  3
B2
350
D088
  3
B3
350
D089
  3
B4
350
D08A
  3
B5
350
D08B
  3
B6
350
D08C
  3
B7
350
D08D
  3
B8
350
D08E
  3
B9
350
D08F
  3
C0
350
D090
  3
C1
350
D091
  3
C2
350
D092
  3
C3
350
D093
  3
C4
350
D094
  3
C5
350
D095
  3
C6
350
D096
  3
C7
350
D097
  3
C8
350
D098
  3
C9
350
D099
  3
D0
350
D09A
  3
D1
350
D09B
  3
D2
350
D09C
1001
ACAD
1000
TREAT_AS_HARD
1070
     0
  0
DICTIONARY
  5
D06A
102
{ACAD_REACTORS
330
C
102
}
330
C
100
AcDbDictionary
  3
2DWIREFRAME
350
D070
  3
3D_HIDDEN
350
D072
  3
3DWIREFRAME
350
D071
  3
BASIC
350
D06F
  3
BRIGHTEN
350
D076
  3
COLORCHANGE
350
D07A
  3
CONCEPTUAL
350
D073
  3
DIM
350
D075
  3
EDGECOLOROFF
350
D29F
  3
FACEPATTERN
350
D079
  3
FLAT
350
D06B
  3
FLATWITHEDGES
350
D06C
  3
GOURAUD
350
D06D
  3
GOURAUDWITHEDGES
350
D06E
  3
HIDDEN
350
EFDA
  3
JITTEROFF
350
D29D
  3
LINEPATTERN
350
D078
  3
MODELING
350
EFE0
  3
OVERHANGOFF
350
D29E
  3
REALISTIC
350
D074
  3
SHADED
350
EFDF
  3
SHADED_WITH_EDGES
350
EFDE
  3
SHADES_OF_GRAY
350
EFDB
  3
SKETCHY
350
EFDC
  3
THICKEN
350
D077
  3
WIREFRAME
350
EFD9
  3
X-RAY
350
EFDD
1001
ACAD
1000
TREAT_AS_HARD
1070
     0
  0
DICTIONARY
  5
100EC
102
{ACAD_REACTORS
330
C
102
}
330
C
100
AcDbDictionary
  3
COLORDICT
350
100ED
  3
MATERIALDICT
350
100EE
1001
ACAD
1000
TREAT_AS_HARD
1070
     0
  0
DICTIONARY
  5
37
102
{ACAD_REACTORS
330
C
102
}
330
C
100
AcDbDictionary
  3
CANNOSCALE
350
F7D9
  3
CMLEADERSTYLE
350
D117
  3
CTABLESTYLE
350
29E
  3
DIMADEC
350
38
  3
DIMASSOC
350
1CE
  3
HIDETEXT
350
704E
  3
INDEXCTL
350
D11A
  3
INTERSECTIONCOLOR
350
7052
  3
INTERSECTIONDISPLAY
350
7051
  3
MSLTSCALE
350
F829
  3
OBSCOLOR
350
704F
  3
OBSLTYPE
350
7050
  3
PROJECTNAME
350
1CF
  3
SORTENTS
350
D119
  3
XCLIPFRAME
350
EFD8
1001
ACAD
1000
TREAT_AS_HARD
1070
     0
  0
DICTIONARY
  5
D8
102
{ACAD_REACTORS
330
C
102
}
330
C
100
AcDbDictionary
1001
ACAD
1000
TREAT_AS_HARD
1070
     0
  0
DICTIONARY
  5
20
102
{ACAD_REACTORS
330
C
102
}
330
C
100
AcDbDictionary
1001
DRAWINGVARIABLESXDATA
1000
POLARANG
1000
0.261799387799149410000000
1000
POLARMODE
1000
1
1000
POLARSTYLE
1000
1
1001
ACAD
1000
TREAT_AS_HARD
1070
     0
  0
XRECORD
  5
100EF
102
{ACAD_REACTORS
330
C
102
}
330
C
100
AcDbXrecord
  1
DWGPROPS COOKIE
  2

  3

  4

  6

  7

  8
3684
  9

300
=
301
=
302
=
303
=
304
=
305
=
306
=
307
=
308
=
309
=
 40
0.0
 41
2451318.246352917
 42
2458072.125525069
  1

 90
        0
  0
DICTIONARY
  5
D16D
102
{ACAD_REACTORS
330
D16C
102
}
330
D16C
100
AcDbDictionary
1001
ACAD
1000
TREAT_AS_HARD
1070
     0
  0
ACAD_PROXY_OBJECT
  5
D0B6
102
{ACAD_REACTORS
330
D0B5
102
}
330
D0B5
100
AcDbZombieObject
 90
      499
 91
      515
 93
       34
310
40C8804040
  0
ACAD_PROXY_OBJECT
  5
D0B8
102
{ACAD_REACTORS
330
D0B7
102
}
330
D0B7
100
AcDbZombieObject
 90
      499
 91
      515
 93
       34
310
40C8804040
  0
ACAD_PROXY_OBJECT
  5
D0BA
102
{ACAD_REACTORS
330
D0B9
102
}
330
D0B9
100
AcDbZombieObject
 90
      499
 91
      515
 93
       34
310
40C8804040
  0
ACAD_PROXY_OBJECT
  5
D0C0
102
{ACAD_REACTORS
330
D0BF
102
}
330
D0BF
100
AcDbZombieObject
 90
      499
 91
      515
 93
       34
310
40C8804040
  0
ACAD_PROXY_OBJECT
  5
D0C6
102
{ACAD_REACTORS
330
D0C5
102
}
330
D0C5
100
AcDbZombieObject
 90
      499
 91
      515
 93
       34
310
40C8804040
  0
ACAD_PROXY_OBJECT
  5
D0D4
102
{ACAD_REACTORS
330
D0D3
102
}
330
D0D3
100
AcDbZombieObject
 90
      499
 91
      515
 93
       34
310
40C8804040
  0
SORTENTSTABLE
  5
890
102
{ACAD_REACTORS
330
88F
102
}
330
88F
100
AcDbSortentsTable
330
18
331
0
  5
C618
331
FB07
  5
FB24
331
FB08
  5
FB25
331
FB09
  5
FB29
331
FB0A
  5
FB2A
331
FB0B
  5
FB2B
331
FB0C
  5
FB2C
331
FB0D
  5
FB2D
331
FB0E
  5
FB2E
331
FB0F
  5
FB2F
331
FB10
  5
FB30
331
FB11
  5
FB31
331
FB12
  5
FB32
331
FB13
  5
FB33
331
FB15
  5
FB3E
331
FB16
  5
FB3F
331
FB17
  5
FB40
331
FB18
  5
FB41
331
FB19
  5
FB42
331
FB1B
  5
FB46
331
FB1C
  5
FB47
331
FB1D
  5
FB48
331
FB1E
  5
FB49
331
FB1F
  5
FB4A
331
FB20
  5
FB4B
331
FB22
  5
FB50
331
FB23
  5
FB51
331
FB24
  5
FB52
331
FB25
  5
FB53
331
FB26
  5
FB54
331
FB27
  5
FB55
331
FB28
  5
FB56
331
FB29
  5
FB57
331
FB2A
  5
FB58
331
FB2B
  5
FB59
331
FB2C
  5
FB5A
331
FB2D
  5
FB5B
331
FB2E
  5
FB5C
331
FB2F
  5
FB5D
331
FB30
  5
FB5E
331
FB31
  5
FB5F
331
FB32
  5
FB60
331
FB33
  5
FB61
331
FB34
  5
FB62
331
FB35
  5
FB63
331
FB36
  5
FB64
331
FB37
  5
FB66
331
FB38
  5
FB67
331
FB39
  5
FB68
331
FB3A
  5
FB6A
331
FB3B
  5
FB6B
331
FB3C
  5
FB6C
331
FB3D
  5
FB6D
331
FB3E
  5
FB6E
331
FB3F
  5
FB6F
331
FB40
  5
FB70
331
FB41
  5
FB71
331
FB42
  5
FB72
331
FB43
  5
FB73
331
FB44
  5
FB74
331
FB45
  5
FB75
331
FB46
  5
FB76
331
FB47
  5
FB77
331
FB48
  5
FB78
331
FB49
  5
FB79
331
FB4A
  5
FB7A
331
FB4B
  5
FB7B
331
FB4C
  5
FB7C
331
FB4D
  5
FB7D
331
FB4E
  5
FB7E
331
FB4F
  5
FB7F
331
FB50
  5
FB80
331
FB51
  5
FB81
331
FB52
  5
FB82
331
FB53
  5
FB83
331
FB54
  5
FB84
331
FB55
  5
FB86
331
FB56
  5
FB87
331
FB57
  5
FB88
331
FB58
  5
FB89
331
FB59
  5
FB90
331
FB5A
  5
FB91
331
FB5B
  5
FB92
331
FB5C
  5
FB93
331
FB5D
  5
FB94
331
FB5E
  5
FB95
331
FB5F
  5
FB96
331
FB60
  5
FB97
331
0
  5
FB65
331
FB62
  5
FB9C
331
FB63
  5
FB9D
331
FB64
  5
FB9E
331
0
  5
FB69
331
FB66
  5
FBAC
331
FB67
  5
FBAD
331
FB68
  5
FBB1
331
FB69
  5
FBB2
331
FB6A
  5
FBB3
331
FB6B
  5
FBB4
331
FB6C
  5
FBB5
331
FB6D
  5
FBB6
331
FB6E
  5
FBB7
331
FB6F
  5
FBB8
331
FB70
  5
FBB9
331
FB71
  5
FBBD
331
FB72
  5
FBBE
331
FB73
  5
FBBF
331
FB74
  5
FBC0
331
FB75
  5
FFC6
331
FB76
  5
FFC7
331
FB77
  5
FFC8
331
FB78
  5
FFCC
331
FB79
  5
FFCD
331
FB7A
  5
FFCE
331
FB7B
  5
FFCF
331
FB7C
  5
FFD0
331
FB7D
  5
FFD1
331
FB7E
  5
FFD2
331
FB7F
  5
FFD3
331
FB80
  5
FFD4
331
0
  5
FB85
331
FB82
  5
FFDF
331
FB83
  5
FFE0
331
FB84
  5
FFE1
331
FB85
  5
FFE2
331
FB86
  5
FFE3
331
0
  5
FB8B
331
FB88
  5
FFEF
331
0
  5
FB8D
331
0
  5
FB8E
331
FB8B
  5
10004
331
FB8C
  5
10008
331
FB8D
  5
10009
331
FB8E
  5
1000A
331
FB8F
  5
1000B
331
FB90
  5
1000C
331
FB91
  5
10010
331
FB92
  5
10011
331
FB93
  5
10012
331
FB94
  5
10013
331
FB95
  5
10017
331
FB96
  5
10018
331
FB97
  5
10019
331
FB98
  5
1001D
331
FB99
  5
1001E
331
FB9A
  5
1001F
331
FB9B
  5
10023
331
FB9C
  5
10024
331
FB9D
  5
10025
331
FB9E
  5
10029
331
FB9F
  5
1002A
331
FBA0
  5
1002B
331
FBA1
  5
1002F
331
FBA2
  5
10030
331
FBA3
  5
10031
331
FBA4
  5
10035
331
FBA5
  5
10036
331
FBA6
  5
10037
331
FBA7
  5
10038
331
FBA8
  5
10039
331
FBA9
  5
1003D
331
FBAA
  5
1003E
331
FBAB
  5
1003F
331
FBAC
  5
10040
331
FBAD
  5
10044
331
FBAE
  5
10045
331
FBAF
  5
10046
331
FBB0
  5
1004A
331
FBB1
  5
1004B
331
FBB2
  5
1004C
331
FBB3
  5
10050
331
FBB4
  5
10051
331
FBB5
  5
10052
331
FBB6
  5
10056
331
FBB7
  5
10057
331
FBB8
  5
10058
331
FBB9
  5
10059
331
FBBA
  5
1005A
331
FBBB
  5
1005B
331
FBBC
  5
1005C
331
FBBD
  5
1005D
331
FBBE
  5
1005E
331
0
  5
FBC3
331
0
  5
FBC4
331
0
  5
FBC5
331
0
  5
FBC6
331
0
  5
FBC7
331
0
  5
FBC8
331
0
  5
FBC9
331
0
  5
FBCA
331
0
  5
FBCB
331
0
  5
FBCE
331
0
  5
FBCF
331
0
  5
FBD0
331
0
  5
FFC4
331
FBCE
  5
100E9
331
FBCF
  5
100EA
331
FBD0
  5
100EB
331
FFC4
  5
FB4C
331
FFC5
  5
FB4D
331
FFC6
  5
FB4E
331
FFC7
  5
FB4F
331
FFC8
  5
FB07
331
FFC9
  5
FB08
331
FFCA
  5
FB09
331
0
  5
FB0A
331
0
  5
FB0B
331
0
  5
FB0C
331
FFCE
  5
FB18
331
FFCF
  5
FB19
331
FFD0
  5
FB1B
331
0
  5
FB10
331
0
  5
FB11
331
0
  5
FB12
331
FFD4
  5
FB34
331
FFD5
  5
FB35
331
FFD6
  5
FB36
331
0
  5
FB26
331
0
  5
FB27
331
0
  5
FB28
331
FFDA
  5
FB43
331
FFDB
  5
FB44
331
FFDC
  5
FB45
331
FFDD
  5
FB98
331
FFDE
  5
FB99
331
FFDF
  5
FB9A
331
FFE0
  5
FB9B
331
FFE1
  5
FB9F
331
FFE2
  5
FBA0
331
FFE3
  5
FBA1
331
FFE4
  5
FBA2
331
FFE5
  5
FBA3
331
FFE6
  5
FBA4
331
0
  5
FB8A
331
0
  5
FB8C
331
0
  5
FB8F
331
FFEA
  5
FFD5
331
FFEB
  5
FFD6
331
FFEC
  5
FFD7
331
0
  5
FBAE
331
0
  5
FBAF
331
0
  5
FBB0
331
FFF0
  5
FFE4
331
FFF1
  5
FFE5
331
FFF2
  5
FFE6
331
FFF3
  5
FFE7
331
0
  5
FBBA
331
0
  5
FBBB
331
0
  5
FBBC
331
FFF7
  5
FFF0
331
FFF8
  5
FFF1
331
FFF9
  5
FFF2
331
0
  5
FBC1
331
0
  5
FBC2
331
0
  5
FFC5
331
FFFD
  5
FFFA
331
FFFE
  5
FFFB
331
FFFF
  5
FFFC
331
0
  5
FFC9
331
0
  5
FFCA
331
0
  5
FFCB
331
10003
  5
1005F
331
10004
  5
10060
331
10005
  5
10061
331
10006
  5
10062
331
10007
  5
10063
331
0
  5
10005
331
0
  5
10006
331
0
  5
10007
331
1000B
  5
1006B
331
1000C
  5
1006C
331
1000D
  5
1006D
331
1000E
  5
1006E
331
1000F
  5
1006F
331
0
  5
1000D
331
0
  5
1000E
331
0
  5
1000F
331
10013
  5
10077
331
10014
  5
10078
331
10015
  5
10079
331
10016
  5
1007A
331
0
  5
10014
331
0
  5
10015
331
0
  5
10016
331
1001A
  5
10082
331
1001B
  5
10083
331
1001C
  5
10084
331
0
  5
1001A
331
0
  5
1001B
331
0
  5
1001C
331
10020
  5
1008C
331
10021
  5
1008D
331
10022
  5
1008E
331
0
  5
10020
331
0
  5
10021
331
0
  5
10022
331
10026
  5
10096
331
10027
  5
10097
331
10028
  5
10098
331
0
  5
10026
331
0
  5
10027
331
0
  5
10028
331
1002C
  5
100A0
331
1002D
  5
100A1
331
1002E
  5
100A2
331
0
  5
1002C
331
0
  5
1002D
331
0
  5
1002E
331
10032
  5
100AA
331
10033
  5
100AB
331
10034
  5
100AC
331
0
  5
10032
331
0
  5
10033
331
0
  5
10034
331
10038
  5
100B4
331
10039
  5
100B5
331
1003A
  5
100B6
331
1003B
  5
100B7
331
1003C
  5
100B8
331
0
  5
1003A
331
0
  5
1003B
331
0
  5
1003C
331
10040
  5
100C0
331
10041
  5
100C1
331
10042
  5
100C2
331
10043
  5
100C3
331
0
  5
10041
331
0
  5
10042
331
0
  5
10043
331
10047
  5
100CB
331
10048
  5
100CC
331
10049
  5
100CD
331
0
  5
10047
331
0
  5
10048
331
0
  5
10049
331
1004D
  5
100D5
331
1004E
  5
100D6
331
1004F
  5
100D7
331
0
  5
1004D
331
0
  5
1004E
331
0
  5
1004F
331
10053
  5
100DF
331
10054
  5
100E0
331
10055
  5
100E1
331
0
  5
10053
331
0
  5
10054
331
0
  5
10055
331
10059
  5
FB0D
331
1005A
  5
FB0E
331
1005B
  5
FB0F
331
1005C
  5
FB13
331
1005D
  5
FB15
331
1005E
  5
FB16
331
1005F
  5
FB17
331
10060
  5
FB1C
331
10061
  5
FB1D
331
10062
  5
FB1E
331
10063
  5
FB1F
331
10064
  5
FB20
331
10065
  5
FB22
331
10066
  5
FB23
331
10067
  5
FB37
331
10068
  5
FB38
331
10069
  5
FB39
331
1006A
  5
FB3A
331
1006B
  5
FB3B
331
1006C
  5
FB3C
331
1006D
  5
FB3D
331
1006E
  5
FBA5
331
1006F
  5
FBA6
331
10070
  5
FBA7
331
10071
  5
FBA8
331
10072
  5
FBA9
331
10073
  5
FBAA
331
10074
  5
FBAB
331
10075
  5
FFD8
331
10076
  5
FFD9
331
10077
  5
FFDA
331
10078
  5
FFDB
331
10079
  5
FFDC
331
1007A
  5
FFDD
331
1007B
  5
FFDE
331
1007C
  5
FFE8
331
1007D
  5
FFE9
331
1007E
  5
FFEA
331
1007F
  5
FFEB
331
10080
  5
FFEC
331
10081
  5
FFED
331
10082
  5
FFEE
331
10083
  5
FFF3
331
10084
  5
FFF4
331
10085
  5
FFF5
331
10086
  5
FFF6
331
10087
  5
FFF7
331
10088
  5
FFF8
331
10089
  5
FFF9
331
1008A
  5
FFFD
331
1008B
  5
FFFE
331
1008C
  5
FFFF
331
1008D
  5
10000
331
1008E
  5
10001
331
1008F
  5
10002
331
10090
  5
10003
331
10091
  5
10064
331
10092
  5
10065
331
10093
  5
10066
331
10094
  5
10067
331
10095
  5
10068
331
10096
  5
10069
331
10097
  5
1006A
331
10098
  5
10070
331
10099
  5
10071
331
1009A
  5
10072
331
1009B
  5
10073
331
1009C
  5
10074
331
1009D
  5
10075
331
1009E
  5
10076
331
1009F
  5
1007B
331
100A0
  5
1007C
331
100A1
  5
1007D
331
100A2
  5
1007E
331
100A3
  5
1007F
331
100A4
  5
10080
331
100A5
  5
10081
331
100A6
  5
10085
331
100A7
  5
10086
331
100A8
  5
10087
331
100A9
  5
10088
331
100AA
  5
10089
331
100AB
  5
1008A
331
100AC
  5
1008B
331
100AD
  5
1008F
331
100AE
  5
10090
331
100AF
  5
10091
331
100B0
  5
10092
331
100B1
  5
10093
331
100B2
  5
10094
331
100B3
  5
10095
331
100B4
  5
10099
331
100B5
  5
1009A
331
100B6
  5
1009B
331
100B7
  5
1009C
331
100B8
  5
1009D
331
100B9
  5
1009E
331
100BA
  5
1009F
331
100BB
  5
100A3
331
100BC
  5
100A4
331
100BD
  5
100A5
331
100BE
  5
100A6
331
100BF
  5
100A7
331
100C0
  5
100A8
331
100C1
  5
100A9
331
100C2
  5
100AD
331
100C3
  5
100AE
331
100C4
  5
100AF
331
100C5
  5
100B0
331
100C6
  5
100B1
331
100C7
  5
100B2
331
100C8
  5
100B3
331
100C9
  5
100B9
331
100CA
  5
100BA
331
100CB
  5
100BB
331
100CC
  5
100BC
331
100CD
  5
100BD
331
100CE
  5
100BE
331
100CF
  5
100BF
331
100D0
  5
100C4
331
100D1
  5
100C5
331
100D2
  5
100C6
331
100D3
  5
100C7
331
100D4
  5
100C8
331
100D5
  5
100C9
331
100D6
  5
100CA
331
100D7
  5
100CE
331
100D8
  5
100CF
331
100D9
  5
100D0
331
100DA
  5
100D1
331
100DB
  5
100D2
331
100DC
  5
100D3
331
100DD
  5
100D4
331
100DE
  5
100D8
331
100DF
  5
100D9
331
100E0
  5
100DA
331
100E1
  5
100DB
331
100E2
  5
100DC
331
100E3
  5
100DD
331
100E4
  5
100DE
331
100E5
  5
100E2
331
100E6
  5
100E3
331
100E7
  5
100E4
331
100E8
  5
100E5
331
100E9
  5
100E6
331
100EA
  5
100E7
331
100EB
  5
100E8
  0
MATERIAL
  5
D05A
102
{ACAD_REACTORS
330
18C
102
}
102
{ACAD_XDICTIONARY
360
1028A
102
}
330
18C
100
AcDbMaterial
  1
BYBLOCK
 72
     0
 73
     2
 43
0.0208333333333333
 43
0.0
 43
0.0
 43
0.0
 43
0.0
 43
0.0208333333333333
 43
0.0
 43
0.0
 43
0.0
 43
0.0
 43
1.0
 43
0.0
 43
0.0
 43
0.0
 43
0.0
 43
1.0
 77
     0
 78
     2
 47
0.0208333333333333
 47
0.0
 47
0.0
 47
0.0
 47
0.0
 47
0.0208333333333333
 47
0.0
 47
0.0
 47
0.0
 47
0.0
 47
1.0
 47
0.0
 47
0.0
 47
0.0
 47
0.0
 47
1.0
171
     0
172
     2
 49
0.0208333333333333
 49
0.0
 49
0.0
 49
0.0
 49
0.0
 49
0.0208333333333333
 49
0.0
 49
0.0
 49
0.0
 49
0.0
 49
1.0
 49
0.0
 49
0.0
 49
0.0
 49
0.0
 49
1.0
175
     0
176
     2
142
0.0208333333333333
142
0.0
142
0.0
142
0.0
142
0.0
142
0.0208333333333333
142
0.0
142
0.0
142
0.0
142
0.0
142
1.0
142
0.0
142
0.0
142
0.0
142
0.0
142
1.0
179
     0
270
     2
144
0.0208333333333333
144
0.0
144
0.0
144
0.0
144
0.0
144
0.0208333333333333
144
0.0
144
0.0
144
0.0
144
0.0
144
1.0
144
0.0
144
0.0
144
0.0
144
0.0
144
1.0
274
     2
147
0.0208333333333333
147
0.0
147
0.0
147
0.0
147
0.0
147
0.0208333333333333
147
0.0
147
0.0
147
0.0
147
0.0
147
1.0
147
0.0
147
0.0
147
0.0
147
0.0
147
1.0
  0
MATERIAL
  5
D052
102
{ACAD_REACTORS
330
18C
102
}
102
{ACAD_XDICTIONARY
360
1028C
102
}
330
18C
100
AcDbMaterial
  1
BYLAYER
 72
     0
 73
     2
 43
0.0208333333333333
 43
0.0
 43
0.0
 43
0.0
 43
0.0
 43
0.0208333333333333
 43
0.0
 43
0.0
 43
0.0
 43
0.0
 43
1.0
 43
0.0
 43
0.0
 43
0.0
 43
0.0
 43
1.0
 77
     0
 78
     2
 47
0.0208333333333333
 47
0.0
 47
0.0
 47
0.0
 47
0.0
 47
0.0208333333333333
 47
0.0
 47
0.0
 47
0.0
 47
0.0
 47
1.0
 47
0.0
 47
0.0
 47
0.0
 47
0.0
 47
1.0
171
     0
172
     2
 49
0.0208333333333333
 49
0.0
 49
0.0
 49
0.0
 49
0.0
 49
0.0208333333333333
 49
0.0
 49
0.0
 49
0.0
 49
0.0
 49
1.0
 49
0.0
 49
0.0
 49
0.0
 49
0.0
 49
1.0
175
     0
176
     2
142
0.0208333333333333
142
0.0
142
0.0
142
0.0
142
0.0
142
0.0208333333333333
142
0.0
142
0.0
142
0.0
142
0.0
142
1.0
142
0.0
142
0.0
142
0.0
142
0.0
142
1.0
179
     0
270
     2
144
0.0208333333333333
144
0.0
144
0.0
144
0.0
144
0.0
144
0.0208333333333333
144
0.0
144
0.0
144
0.0
144
0.0
144
1.0
144
0.0
144
0.0
144
0.0
144
0.0
144
1.0
274
     2
147
0.0208333333333333
147
0.0
147
0.0
147
0.0
147
0.0
147
0.0208333333333333
147
0.0
147
0.0
147
0.0
147
0.0
147
1.0
147
0.0
147
0.0
147
0.0
147
0.0
147
1.0
  0
MATERIAL
  5
D062
102
{ACAD_REACTORS
330
18C
102
}
102
{ACAD_XDICTIONARY
360
1028E
102
}
330
18C
100
AcDbMaterial
  1
GLOBAL
 72
     0
 73
     2
 43
0.0208333333333333
 43
0.0
 43
0.0
 43
0.0
 43
0.0
 43
0.0208333333333333
 43
0.0
 43
0.0
 43
0.0
 43
0.0
 43
1.0
 43
0.0
 43
0.0
 43
0.0
 43
0.0
 43
1.0
 77
     0
 78
     2
 47
0.0208333333333333
 47
0.0
 47
0.0
 47
0.0
 47
0.0
 47
0.0208333333333333
 47
0.0
 47
0.0
 47
0.0
 47
0.0
 47
1.0
 47
0.0
 47
0.0
 47
0.0
 47
0.0
 47
1.0
171
     0
172
     2
 49
0.0208333333333333
 49
0.0
 49
0.0
 49
0.0
 49
0.0
 49
0.0208333333333333
 49
0.0
 49
0.0
 49
0.0
 49
0.0
 49
1.0
 49
0.0
 49
0.0
 49
0.0
 49
0.0
 49
1.0
175
     0
176
     2
142
0.0208333333333333
142
0.0
142
0.0
142
0.0
142
0.0
142
0.0208333333333333
142
0.0
142
0.0
142
0.0
142
0.0
142
1.0
142
0.0
142
0.0
142
0.0
142
0.0
142
1.0
179
     0
270
     2
144
0.0208333333333333
144
0.0
144
0.0
144
0.0
144
0.0
144
0.0208333333333333
144
0.0
144
0.0
144
0.0
144
0.0
144
1.0
144
0.0
144
0.0
144
0.0
144
0.0
144
1.0
274
     2
147
0.0208333333333333
147
0.0
147
0.0
147
0.0
147
0.0
147
0.0208333333333333
147
0.0
147
0.0
147
0.0
147
0.0
147
1.0
147
0.0
147
0.0
147
0.0
147
0.0
147
1.0
  0
ACAD_PROXY_OBJECT
  5
D09E
102
{ACAD_REACTORS
330
D09D
102
}
330
D09D
100
AcDbZombieObject
 90
      499
 91
      511
 93
      610
310
40901902A4063FBFFFFFE000000000000002040AD7A3703D0AD73F4214DD185B99185C990000000000000104090141901A00000000000004100000000000000041025764000000000000300FC0
340
12
340
0
340
F
340
0
 94
        0
1001
ACAD_MLEADERVER
1070
     2
  0
MLINESTYLE
  5
1C
102
{ACAD_REACTORS
330
1B
102
}
330
1B
100
AcDbMlineStyle
  2
STANDARD
 70
     0
  3

 62
   256
 51
90.0
 52
90.0
 71
     2
 49
0.5
 62
   256
  6
BYLAYER
 49
-0.5
 62
   256
  6
BYLAYER
  0
ACAD_PROXY_OBJECT
  5
D07C
102
{ACAD_REACTORS
330
D07B
102
}
330
D07B
100
AcDbZombieObject
 90
      499
 91
      510
 93
       41
310
903313A31580
  0
ACAD_PROXY_OBJECT
  5
D07D
102
{ACAD_REACTORS
330
D07B
102
}
330
D07B
100
AcDbZombieObject
 90
      499
 91
      510
 93
      105
310
903313A324000000000000004000
  0
ACAD_PROXY_OBJECT
  5
D07E
102
{ACAD_REACTORS
330
D07B
102
}
330
D07B
100
AcDbZombieObject
 90
      499
 91
      510
 93
      105
310
903313A344000000000000104000
  0
ACAD_PROXY_OBJECT
  5
D07F
102
{ACAD_REACTORS
330
D07B
102
}
330
D07B
100
AcDbZombieObject
 90
      499
 91
      510
 93
      105
310
903313A354000000000000144000
  0
ACAD_PROXY_OBJECT
  5
D080
102
{ACAD_REACTORS
330
D07B
102
}
330
D07B
100
AcDbZombieObject
 90
      499
 91
      510
 93
      105
310
903313A384000000000000204000
  0
ACAD_PROXY_OBJECT
  5
D081
102
{ACAD_REACTORS
330
D07B
102
}
330
D07B
100
AcDbZombieObject
 90
      499
 91
      510
 93
      113
310
904313A31304000000000000244000
  0
ACAD_PROXY_OBJECT
  5
D082
102
{ACAD_REACTORS
330
D07B
102
}
330
D07B
100
AcDbZombieObject
 90
      499
 91
      510
 93
      113
310
904313A31364000000000000304000
  0
ACAD_PROXY_OBJECT
  5
D083
102
{ACAD_REACTORS
330
D07B
102
}
330
D07B
100
AcDbZombieObject
 90
      499
 91
      510
 93
      113
310
904313A32304000000000000344000
  0
ACAD_PROXY_OBJECT
  5
D084
102
{ACAD_REACTORS
330
D07B
102
}
330
D07B
100
AcDbZombieObject
 90
      499
 91
      510
 93
      113
310
904313A333040000000000003E4000
  0
ACAD_PROXY_OBJECT
  5
D085
102
{ACAD_REACTORS
330
D07B
102
}
330
D07B
100
AcDbZombieObject
 90
      499
 91
      510
 93
      113
310
904313A34304000000000000444000
  0
ACAD_PROXY_OBJECT
  5
D086
102
{ACAD_REACTORS
330
D07B
102
}
330
D07B
100
AcDbZombieObject
 90
      499
 91
      510
 93
      113
310
904313A35304000000000000494000
  0
ACAD_PROXY_OBJECT
  5
D087
102
{ACAD_REACTORS
330
D07B
102
}
330
D07B
100
AcDbZombieObject
 90
      499
 91
      510
 93
      121
310
905313A3130304000000000000594000
  0
ACAD_PROXY_OBJECT
  5
D088
102
{ACAD_REACTORS
330
D07B
102
}
330
D07B
100
AcDbZombieObject
 90
      499
 91
      510
 93
      105
310
903323A310000000000000010100
  0
ACAD_PROXY_OBJECT
  5
D089
102
{ACAD_REACTORS
330
D07B
102
}
330
D07B
100
AcDbZombieObject
 90
      499
 91
      510
 93
      105
310
903343A310000000000000410100
  0
ACAD_PROXY_OBJECT
  5
D08A
102
{ACAD_REACTORS
330
D07B
102
}
330
D07B
100
AcDbZombieObject
 90
      499
 91
      510
 93
      105
310
903383A310000000000000810100
  0
ACAD_PROXY_OBJECT
  5
D08B
102
{ACAD_REACTORS
330
D07B
102
}
330
D07B
100
AcDbZombieObject
 90
      499
 91
      510
 93
      113
310
90431303A310000000000000910100
  0
ACAD_PROXY_OBJECT
  5
D08C
102
{ACAD_REACTORS
330
D07B
102
}
330
D07B
100
AcDbZombieObject
 90
      499
 91
      510
 93
      121
310
9053130303A310000000000001650100
  0
ACAD_PROXY_OBJECT
  5
D08D
102
{ACAD_REACTORS
330
D07B
102
}
330
D07B
100
AcDbZombieObject
 90
      499
 91
      510
 93
      257
310
90E312F31323822203D2031272D3022000000000000200FC000000000000284000
  0
ACAD_PROXY_OBJECT
  5
D08E
102
{ACAD_REACTORS
330
D07B
102
}
330
D07B
100
AcDbZombieObject
 90
      499
 91
      510
 93
      249
310
90D312F363422203D2031272D3022000000000000240FC000000000000284000
  0
ACAD_PROXY_OBJECT
  5
D08F
102
{ACAD_REACTORS
330
D07B
102
}
330
D07B
100
AcDbZombieObject
 90
      499
 91
      510
 93
      249
310
90D312F333222203D2031272D3022000000000000280FC000000000000284000
  0
ACAD_PROXY_OBJECT
  5
D090
102
{ACAD_REACTORS
330
D07B
102
}
330
D07B
100
AcDbZombieObject
 90
      499
 91
      510
 93
      249
310
90D312F313622203D2031272D30220000000000002C0FC000000000000284000
  0
ACAD_PROXY_OBJECT
  5
D091
102
{ACAD_REACTORS
330
D07B
102
}
330
D07B
100
AcDbZombieObject
 90
      499
 91
      510
 93
      249
310
90D332F333222203D2031272D30220000000000002E0FC000000000000284000
  0
ACAD_PROXY_OBJECT
  5
D092
102
{ACAD_REACTORS
330
D07B
102
}
330
D07B
100
AcDbZombieObject
 90
      499
 91
      510
 93
      241
310
90C312F3822203D2031272D3022000000000000300FC000000000000284000
  0
ACAD_PROXY_OBJECT
  5
D093
102
{ACAD_REACTORS
330
D07B
102
}
330
D07B
100
AcDbZombieObject
 90
      499
 91
      510
 93
      249
310
90D332F313622203D2031272D3022000000000000320FC000000000000284000
  0
ACAD_PROXY_OBJECT
  5
D094
102
{ACAD_REACTORS
330
D07B
102
}
330
D07B
100
AcDbZombieObject
 90
      499
 91
      510
 93
      241
310
90C312F3422203D2031272D3022000000000000340FC000000000000284000
  0
ACAD_PROXY_OBJECT
  5
D095
102
{ACAD_REACTORS
330
D07B
102
}
330
D07B
100
AcDbZombieObject
 90
      499
 91
      510
 93
      241
310
90C332F3822203D2031272D3022000000000000360FC000000000000284000
  0
ACAD_PROXY_OBJECT
  5
D096
102
{ACAD_REACTORS
330
D07B
102
}
330
D07B
100
AcDbZombieObject
 90
      499
 91
      510
 93
      241
310
90C312F3222203D2031272D3022000000000000380FC000000000000284000
  0
ACAD_PROXY_OBJECT
  5
D097
102
{ACAD_REACTORS
330
D07B
102
}
330
D07B
100
AcDbZombieObject
 90
      499
 91
      510
 93
      241
310
90C332F3422203D2031272D30220000000000003A0FC000000000000284000
  0
ACAD_PROXY_OBJECT
  5
D098
102
{ACAD_REACTORS
330
D07B
102
}
330
D07B
100
AcDbZombieObject
 90
      499
 91
      510
 93
      161
310
90A3122203D2031272D30224000000000000284000
  0
ACAD_PROXY_OBJECT
  5
D099
102
{ACAD_REACTORS
330
D07B
102
}
330
D07B
100
AcDbZombieObject
 90
      499
 91
      510
 93
      257
310
90E312D312F3222203D2031272D30220000000000003E0FC000000000000284000
  0
ACAD_PROXY_OBJECT
  5
D09A
102
{ACAD_REACTORS
330
D07B
102
}
330
D07B
100
AcDbZombieObject
 90
      499
 91
      510
 93
      225
310
90A3322203D2031272D302200000000000002100000000000000284000
  0
ACAD_PROXY_OBJECT
  5
D09B
102
{ACAD_REACTORS
330
D07B
102
}
330
D07B
100
AcDbZombieObject
 90
      499
 91
      510
 93
      225
310
90A3622203D2031272D302200000000000006100000000000000284000
  0
ACAD_PROXY_OBJECT
  5
D09C
102
{ACAD_REACTORS
330
D07B
102
}
330
D07B
100
AcDbZombieObject
 90
      499
 91
      510
 93
      249
310
90D31272D3022203D2031272D30220000000000000A100000000000000284000
  0
ACAD_PROXY_OBJECT
  5
D070
102
{ACAD_REACTORS
330
D06A
102
}
330
D06A
100
AcDbZombieObject
 90
      499
 91
      509
 93
      436
310
42CC9915DA5C99599C985B595049028333333333333E3BF0000000000000FB0107901411070040501600405405064090741402480A0340
1001
ACAD
1000
AcDbSavedByObjectVersion
1070
     0
  0
ACAD_PROXY_OBJECT
  5
D072
102
{ACAD_REACTORS
330
D06A
102
}
330
D06A
100
AcDbZombieObject
 90
      499
 91
      509
 93
      500
310
424CD108121A5919195B90640502408333333333333E3BF0000000000000FB01079024090700405020000000000001110200405405064090740C02480A0340
1001
ACAD
1000
AcDbSavedByObjectVersion
1070
     0
  0
ACAD_PROXY_OBJECT
  5
D071
102
{ACAD_REACTORS
330
D06A
102
}
330
D06A
100
AcDbZombieObject
 90
      499
 91
      509
 93
      436
310
42CCD915DA5C99599C985B595059028333333333333E3BF0000000000000FB0107901411070040501600405405064090741402480A0340
1001
ACAD
1000
AcDbSavedByObjectVersion
1070
     0
  0
ACAD_PROXY_OBJECT
  5
D06F
102
{ACAD_REACTORS
330
D06A
102
}
330
D06A
100
AcDbZombieObject
 90
      499
 91
      509
 93
      388
310
4150985CDA58D07406404333333333333E3BF0000000000000FB0107A41107004050150841D405064090741402480A0350
1001
ACAD
1000
AcDbSavedByObjectVersion
1070
     0
  0
ACAD_PROXY_OBJECT
  5
D076
102
{ACAD_REACTORS
330
D06A
102
}
330
D06A
100
AcDbZombieObject
 90
      499
 91
      509
 93
      428
310
42109C9A59DA1D195B90C409028333333333333E3BF0000000000000FB010790141107004050150841D405064090741402480A029950
1001
ACAD
1000
AcDbSavedByObjectVersion
1070
     0
  0
ACAD_PROXY_OBJECT
  5
D07A
102
{ACAD_REACTORS
330
D06A
102
}
330
D06A
100
AcDbZombieObject
 90
      499
 91
      509
 93
      452
310
42D0DBDB1BDC90DA185B99D95104090240C333333333333E3BF0000000000000FB0108901411070040501508421405064090741402480A0350
1001
ACAD
1000
AcDbSavedByObjectVersion
1070
     0
  0
ACAD_PROXY_OBJECT
  5
D073
102
{ACAD_REACTORS
330
D06A
102
}
330
D06A
100
AcDbZombieObject
 90
      499
 91
      509
 93
      500
310
4290DBDB98D95C1D1D585B10940D028333333333333E3BF0000000000000FB0107902409070040501000000000000111010841D405064090740C02480A0340
1001
ACAD
1000
AcDbSavedByObjectVersion
1070
     0
  0
ACAD_PROXY_OBJECT
  5
D075
102
{ACAD_REACTORS
330
D06A
102
}
330
D06A
100
AcDbZombieObject
 90
      499
 91
      509
 93
      412
310
40D11A5B50B409028333333333333E3BF0000000000000FB010790141107004050150841D405064090741402480A02677FFFFFD0
1001
ACAD
1000
AcDbSavedByObjectVersion
1070
     0
  0
ACAD_PROXY_OBJECT
  5
D29F
102
{ACAD_REACTORS
330
D06A
102
}
330
D06A
100
AcDbZombieObject
 90
      499
 91
      509
 93
      452
310
43115919D950DBDB1BDC93D999916409028333333333333E3BF0000000000000FB010790141107004050150841D405064090741402480A0350
1001
ACAD
1000
AcDbSavedByObjectVersion
1070
     0
  0
ACAD_PROXY_OBJECT
  5
D079
102
{ACAD_REACTORS
330
D06A
102
}
330
D06A
100
AcDbZombieObject
 90
      499
 91
      509
 93
      444
310
42D19858D95C185D1D195C9B90F409028333333333333E3BF0000000000000FB010790141107004050150841D405064090741402480A0350
1001
ACAD
1000
AcDbSavedByObjectVersion
1070
     0
  0
ACAD_PROXY_OBJECT
  5
D06B
102
{ACAD_REACTORS
330
D06A
102
}
330
D06A
100
AcDbZombieObject
 90
      499
 91
      509
 93
      388
310
41119B185D240901404333333333333E3BF0000000000000F9010740A41107004050150841D405064090741402480A1B50
1001
ACAD
1000
AcDbSavedByObjectVersion
1070
     0
  0
ACAD_PROXY_OBJECT
  5
D06C
102
{ACAD_REACTORS
330
D06A
102
}
330
D06A
100
AcDbZombieObject
 90
      499
 91
      509
 93
      476
310
43519B185D15DA5D1A115919D95CD0140901404333333333333E3BF0000000000000F9010740901411070040501600405405064090741402480A1B50
1001
ACAD
1000
AcDbSavedByObjectVersion
1070
     0
  0
ACAD_PROXY_OBJECT
  5
D06D
102
{ACAD_REACTORS
330
D06A
102
}
330
D06A
100
AcDbZombieObject
 90
      499
 91
      509
 93
      412
310
41D1DBDD5C985D5910240902404333333333333E3BF0000000000000F9010740A411070040501641D405064090741402480A1B50
1001
ACAD
1000
AcDbSavedByObjectVersion
1070
     0
  0
ACAD_PROXY_OBJECT
  5
D06E
102
{ACAD_REACTORS
330
D06A
102
}
330
D06A
100
AcDbZombieObject
 90
      499
 91
      509
 93
      500
310
4411DBDD5C985D5915DA5D1A115919D95CD0340902404333333333333E3BF0000000000000F9010740901411070040501600405405064090741402480A1B50
1001
ACAD
1000
AcDbSavedByObjectVersion
1070
     0
  0
ACAD_PROXY_OBJECT
  5
EFDA
102
{ACAD_REACTORS
330
D06A
102
}
330
D06A
100
AcDbZombieObject
 90
      499
 91
      509
 93
      476
310
41921A5919195B90640502408333333333333E33F0000000000000F901079024090700405020000000000001110200405405064090740C02480A0340
1001
ACAD
1000
AcDbSavedByObjectVersion
1070
     0
  0
ACAD_PROXY_OBJECT
  5
D29D
102
{ACAD_REACTORS
330
D06A
102
}
330
D06A
100
AcDbZombieObject
 90
      499
 91
      509
 93
      428
310
42529A5D1D195C93D999914409028333333333333E3BF0000000000000FB010790141107004050150A41D405064090741402480A0350
1001
ACAD
1000
AcDbSavedByObjectVersion
1070
     0
  0
ACAD_PROXY_OBJECT
  5
D078
102
{ACAD_REACTORS
330
D06A
102
}
330
D06A
100
AcDbZombieObject
 90
      499
 91
      509
 93
      444
310
42D31A5B995C185D1D195C9B90E409028333333333333E3BF0000000000000FB010790141107004050750841D405064090741402483A0350
1001
ACAD
1000
AcDbSavedByObjectVersion
1070
     0
  0
ACAD_PROXY_OBJECT
  5
EFE0
102
{ACAD_REACTORS
330
D06A
102
}
330
D06A
100
AcDbZombieObject
 90
      499
 91
      509
 93
      484
310
42135BD9195B1A5B99D0A409038333333333333E33F0000000000000F901074090290700405010000000000201990108421405064090741402480A1B40
1001
ACAD
1000
AcDbSavedByObjectVersion
1070
     0
  0
ACAD_PROXY_OBJECT
  5
D29E
102
{ACAD_REACTORS
330
D06A
102
}
330
D06A
100
AcDbZombieObject
 90
      499
 91
      509
 93
      444
310
42D3DD995C9A185B99D3D999915409028333333333333E3BF0000000000000FB010790141107004050150941D405064090741402480A0350
1001
ACAD
1000
AcDbSavedByObjectVersion
1070
     0
  0
ACAD_PROXY_OBJECT
  5
D074
102
{ACAD_REACTORS
330
D06A
102
}
330
D06A
100
AcDbZombieObject
 90
      499
 91
      509
 93
      420
310
425499585B1A5CDD1A58D08409028333333333333E3BF0000000000000FB01079019070040501508421405064090741402480A1B40
1001
ACAD
1000
AcDbSavedByObjectVersion
1070
     0
  0
ACAD_PROXY_OBJECT
  5
EFDF
102
{ACAD_REACTORS
330
D06A
102
}
330
D06A
100
AcDbZombieObject
 90
      499
 91
      509
 93
      420
310
4194DA1859195911B40902404333333333333E33F0000000000000F9010740A41107004050150800405405064090840C02480A0B40
1001
ACAD
1000
AcDbSavedByObjectVersion
1070
     0
  0
ACAD_PROXY_OBJECT
  5
EFDE
102
{ACAD_REACTORS
330
D06A
102
}
330
D06A
100
AcDbZombieObject
 90
      499
 91
      509
 93
      516
310
4454DA18591959081DDA5D1A08195919D95CD1A40902404333333333333E33F0000000000000F901074090142907004050250800405405064090740C02480A0B40
1001
ACAD
1000
AcDbSavedByObjectVersion
1070
     0
  0
ACAD_PROXY_OBJECT
  5
EFDB
102
{ACAD_REACTORS
330
D06A
102
}
330
D06A
100
AcDbZombieObject
 90
      499
 91
      509
 93
      532
310
4394DA1859195CC81BD98811DC985E5174090240C333333333333E33F0000000000000F901079024090741D01000000000000111010841D405064090740C02480A0340
1001
ACAD
1000
AcDbSavedByObjectVersion
1070
     0
  0
ACAD_PROXY_OBJECT
  5
EFDC
102
{ACAD_REACTORS
330
D06A
102
}
330
D06A
100
AcDbZombieObject
 90
      499
 91
      509
 93
      476
310
41D4DAD95D18DA1E51840502408333333333333E33F0000000000000F901079024090741D01000000000000111010B41D405064090741802480A0340
1001
ACAD
1000
AcDbSavedByObjectVersion
1070
     0
  0
ACAD_PROXY_OBJECT
  5
D077
102
{ACAD_REACTORS
330
D06A
102
}
330
D06A
100
AcDbZombieObject
 90
      499
 91
      509
 93
      412
310
41D51A1A58DAD95B90D409028333333333333E3BF0000000000000FB010790141107004050150C41D405064090741402480A0350
1001
ACAD
1000
AcDbSavedByObjectVersion
1070
     0
  0
ACAD_PROXY_OBJECT
  5
EFD9
102
{ACAD_REACTORS
330
D06A
102
}
330
D06A
100
AcDbZombieObject
 90
      499
 91
      509
 93
      420
310
4255DA5C99599C985B595059028333333333333E33F0000000000000F90107901411070040501600405405064090740C02480A0340
1001
ACAD
1000
AcDbSavedByObjectVersion
1070
     0
  0
ACAD_PROXY_OBJECT
  5
EFDD
102
{ACAD_REACTORS
330
D06A
102
}
330
D06A
100
AcDbZombieObject
 90
      499
 91
      509
 93
      404
310
41560B54985E51940902404000000000000E03F0000000000000F9010740501907004050150841D405064090740C02480A1B40
1001
ACAD
1000
AcDbSavedByObjectVersion
1070
     0
  0
XRECORD
  5
100ED
102
{ACAD_REACTORS
330
100EC
102
}
330
100EC
100
AcDbXrecord
340
18D
  0
XRECORD
  5
100EE
102
{ACAD_REACTORS
330
100EC
102
}
330
100EC
100
AcDbXrecord
340
18C
  0
DICTIONARYVAR
  5
F7D9
102
{ACAD_REACTORS
330
37
102
}
330
37
100
DictionaryVariables
280
     0
  1
1:1
  0
DICTIONARYVAR
  5
D117
102
{ACAD_REACTORS
330
37
102
}
330
37
100
DictionaryVariables
280
     0
  1
Standard
  0
DICTIONARYVAR
  5
29E
102
{ACAD_REACTORS
330
37
102
}
330
37
100
DictionaryVariables
280
     0
  1
Standard
  0
DICTIONARYVAR
  5
38
102
{ACAD_REACTORS
330
37
102
}
330
37
100
DictionaryVariables
280
     0
  1
-1
  0
DICTIONARYVAR
  5
1CE
102
{ACAD_REACTORS
330
37
102
}
330
37
100
DictionaryVariables
280
     0
  1
2
  0
DICTIONARYVAR
  5
704E
102
{ACAD_REACTORS
330
37
102
}
330
37
100
DictionaryVariables
280
     0
  1
1
  0
DICTIONARYVAR
  5
D11A
102
{ACAD_REACTORS
330
37
102
}
330
37
100
DictionaryVariables
280
     0
  1
0
  0
DICTIONARYVAR
  5
7052
102
{ACAD_REACTORS
330
37
102
}
330
37
100
DictionaryVariables
280
     0
  1
8
  0
DICTIONARYVAR
  5
7051
102
{ACAD_REACTORS
330
37
102
}
330
37
100
DictionaryVariables
280
     0
  1
1
  0
DICTIONARYVAR
  5
F829
102
{ACAD_REACTORS
330
37
102
}
330
37
100
DictionaryVariables
280
     0
  1
0
  0
DICTIONARYVAR
  5
704F
102
{ACAD_REACTORS
330
37
102
}
330
37
100
DictionaryVariables
280
     0
  1
8
  0
DICTIONARYVAR
  5
7050
102
{ACAD_REACTORS
330
37
102
}
330
37
100
DictionaryVariables
280
     0
  1
2
  0
DICTIONARYVAR
  5
1CF
102
{ACAD_REACTORS
330
37
102
}
330
37
100
DictionaryVariables
280
     0
  1

  0
DICTIONARYVAR
  5
D119
102
{ACAD_REACTORS
330
37
102
}
330
37
100
DictionaryVariables
280
     0
  1
127
  0
DICTIONARYVAR
  5
EFD8
102
{ACAD_REACTORS
330
37
102
}
330
37
100
DictionaryVariables
280
     0
  1
2
  0
DICTIONARY
  5
1028A
330
D05A
100
AcDbDictionary
  3
ACAD_XREC_ROUNDTRIP
360
1028B
1001
ACAD
1000
TREAT_AS_HARD
1070
     1
  0
DICTIONARY
  5
1028C
330
D052
100
AcDbDictionary
  3
ACAD_XREC_ROUNDTRIP
360
1028D
1001
ACAD
1000
TREAT_AS_HARD
1070
     1
  0
DICTIONARY
  5
1028E
330
D062
100
AcDbDictionary
  3
ACAD_XREC_ROUNDTRIP
360
1028F
1001
ACAD
1000
TREAT_AS_HARD
1070
     1
  0
XRECORD
  5
1028B
102
{ACAD_REACTORS
330
1028A
102
}
330
1028A
100
AcDbXrecord
102
MATERIAL
148
0.0
149
0.0
149
0.0
 93
        0
 94
      127
282
     0
 72
     0
 77
     0
171
     0
175
     0
179
     0
273
     0
  0
XRECORD
  5
1028D
102
{ACAD_REACTORS
330
1028C
102
}
330
1028C
100
AcDbXrecord
102
MATERIAL
148
0.0
149
0.0
149
0.0
 93
        0
 94
      127
282
     0
 72
     0
 77
     0
171
     0
175
     0
179
     0
273
     0
  0
XRECORD
  5
1028F
102
{ACAD_REACTORS
330
1028E
102
}
330
1028E
100
AcDbXrecord
102
MATERIAL
148
0.0
149
0.0
149
0.0
 93
        0
 94
      127
282
     0
 72
     0
 77
     0
171
     0
175
     0
179
     0
273
     0
  0
ENDSEC
  0
EOF
