  0
SECTION
  2
HEADER
  9
$ACADVER
  1
AC1009
  9
$INSBASE
 10
0.0
 20
0.0
 30
0.0
  9
$EXTMIN
 10
-212.29733075785131
 20
-1438.9777209323411
 30
0.0
  9
$EXTMAX
 10
-113.7071267658292
 20
-1218.9776700158959
 30
0.0
  9
$LIMMIN
 10
0.0
 20
0.0
  9
$LIMMAX
 10
420.0
 20
297.0
  9
$ORTHOMODE
 70
     0
  9
$REGENMODE
 70
     1
  9
$FILLMODE
 70
     1
  9
$QTEXTMODE
 70
     0
  9
$MIRRTEXT
 70
     0
  9
$DRAGMODE
 70
     2
  9
$LTSCALE
 40
0.5
  9
$OSMODE
 70
   255
  9
$ATTMODE
 70
     1
  9
$TEXTSIZE
 40
4.0
  9
$TRACEWID
 40
1.0
  9
$TEXTSTYLE
  7
STANDARD
  9
$CLAYER
  8
1TEXT
  9
$CELTYPE
  6
BYLAYER
  9
$CECOLOR
 62
   256
  9
$DIMSCALE
 40
1.0
  9
$DIMASZ
 40
2.0
  9
$DIMEXO
 40
0.0
  9
$DIMDLI
 40
7.0
  9
$DIMRND
 40
0.0
  9
$DIMDLE
 40
0.0
  9
$DIMEXE
 40
1.0
  9
$DIMTP
 40
0.0
  9
$DIMTM
 40
0.0
  9
$DIMTXT
 40
3.5
  9
$DIMCEN
 40
0.0
  9
$DIMTSZ
 40
0.0
  9
$DIMTOL
 70
     0
  9
$DIMLIM
 70
     0
  9
$DIMTIH
 70
     0
  9
$DIMTOH
 70
     0
  9
$DIMSE1
 70
     0
  9
$DIMSE2
 70
     0
  9
$DIMTAD
 70
     1
  9
$DIMZIN
 70
     8
  9
$DIMBLK
  1

  9
$DIMASO
 70
     1
  9
$DIMSHO
 70
     1
  9
$DIMPOST
  1
 
  9
$DIMAPOST
  1

  9
$DIMALT
 70
     0
  9
$DIMALTD
 70
     2
  9
$DIMALTF
 40
25.399999999999999
  9
$DIMLFAC
 40
1.0
  9
$DIMTOFL
 70
     1
  9
$DIMTVP
 40
0.0
  9
$DIMTIX
 70
     0
  9
$DIMSOXD
 70
     0
  9
$DIMSAH
 70
     1
  9
$DIMBLK1
  1
OPEN30
  9
$DIMBLK2
  1
OPEN30
  9
$DIMSTYLE
  2
NEWX10
  9
$DIMCLRD
 70
   256
  9
$DIMCLRE
 70
   256
  9
$DIMCLRT
 70
   201
  9
$DIMTFAC
 40
0.7
  9
$DIMGAP
 40
0.7
  9
$LUNITS
 70
     2
  9
$LUPREC
 70
     4
  9
$SKETCHINC
 40
1.0
  9
$FILLETRAD
 40
0.0
  9
$AUNITS
 70
     0
  9
$AUPREC
 70
     2
  9
$MENU
  1
acad
  9
$ELEVATION
 40
0.0
  9
$PELEVATION
 40
0.0
  9
$THICKNESS
 40
0.0
  9
$LIMCHECK
 70
     0
  9
$BLIPMODE
 70
     0
  9
$CHAMFERA
 40
10.0
  9
$CHAMFERB
 40
10.0
  9
$SKPOLY
 70
     0
  9
$TDCREATE
 40
2453033.7326634838
  9
$TDUPDATE
 40
2454552.578506574
  9
$TDINDWG
 40
0.4063915972
  9
$TDUSRTIMER
 40
0.4063915972
  9
$USRTIMER
 70
     1
  9
$ANGBASE
 50
0.0
  9
$ANGDIR
 70
     0
  9
$PDMODE
 70
     0
  9
$PDSIZE
 40
0.0
  9
$PLINEWID
 40
0.0
  9
$COORDS
 70
     2
  9
$SPLFRAME
 70
     0
  9
$SPLINETYPE
 70
     6
  9
$SPLINESEGS
 70
     8
  9
$ATTDIA
 70
     0
  9
$ATTREQ
 70
     1
  9
$HANDLING
 70
     1
  9
$HANDSEED
  5
9AEE
  9
$SURFTAB1
 70
     6
  9
$SURFTAB2
 70
     6
  9
$SURFTYPE
 70
     6
  9
$SURFU
 70
     6
  9
$SURFV
 70
     6
  9
$UCSNAME
  2

  9
$UCSORG
 10
0.0
 20
0.0
 30
0.0
  9
$UCSXDIR
 10
1.0
 20
0.0
 30
0.0
  9
$UCSYDIR
 10
0.0
 20
1.0
 30
0.0
  9
$PUCSNAME
  2

  9
$PUCSORG
 10
0.0
 20
0.0
 30
0.0
  9
$PUCSXDIR
 10
1.0
 20
0.0
 30
0.0
  9
$PUCSYDIR
 10
0.0
 20
1.0
 30
0.0
  9
$USERI1
 70
     0
  9
$USERI2
 70
     0
  9
$USERI3
 70
     0
  9
$USERI4
 70
     0
  9
$USERI5
 70
     0
  9
$USERR1
 40
0.0
  9
$USERR2
 40
0.0
  9
$USERR3
 40
0.0
  9
$USERR4
 40
0.0
  9
$USERR5
 40
0.0
  9
$WORLDVIEW
 70
     1
  9
$SHADEDGE
 70
     3
  9
$SHADEDIF
 70
    70
  9
$TILEMODE
 70
     1
  9
$MAXACTVP
 70
    48
  9
$PLIMCHECK
 70
     0
  9
$PEXTMIN
 10
1.0000000000000000E+020
 20
1.0000000000000000E+020
 30
1.0000000000000000E+020
  9
$PEXTMAX
 10
-1.0000000000000000E+020
 20
-1.0000000000000000E+020
 30
-1.0000000000000000E+020
  9
$PLIMMIN
 10
0.0
 20
0.0
  9
$PLIMMAX
 10
420.0
 20
297.0
  9
$UNITMODE
 70
     0
  9
$VISRETAIN
 70
     1
  9
$PLINEGEN
 70
     0
  9
$PSLTSCALE
 70
     1
  0
ENDSEC
  0
SECTION
  2
TABLES
  0
TABLE
  2
VPORT
 70
     4
  0
VPORT
  2
*ACTIVE
 70
     0
 10
0.0
 20
0.0
 11
1.0
 21
1.0
 12
-162.99075750100801
 22
-1328.9692418965151
 13
0.0
 23
0.0
 14
10.0
 24
10.0
 15
10.0
 25
10.0
 16
0.0
 26
0.0
 36
1.0
 17
0.0
 27
0.0
 37
0.0
 40
233.57945220503251
 41
1.508086253369272
 42
50.0
 43
0.0
 44
0.0
 50
0.0
 51
0.0
 71
     0
 72
   100
 73
     1
 74
     1
 75
     0
 76
     0
 77
     0
 78
     0
  0
ENDTAB
  0
TABLE
  2
LTYPE
 70
    14
  0
LTYPE
  2
CONTINUOUS
 70
     0
  3
Solid line
 72
    65
 73
     0
 40
0.0
  0
LTYPE
  2
CENTER2
 70
     0
  3
Center (.5x) ___ _ ___ _ ___ _ ___ _ ___ _ ___
 72
    65
 73
     4
 40
28.574999999999999
 49
19.050000000000001
 49
-3.1749999999999989
 49
3.1749999999999989
 49
-3.1749999999999989
  0
LTYPE
  2
XREF1|CENTER2
 70
    48
  3
Center (.5x) ___ _ ___ _ ___ _ ___ _ ___ _ ___
 72
    65
 73
     4
 40
28.574999999999999
 49
19.050000000000001
 49
-3.1749999999999989
 49
3.1749999999999989
 49
-3.1749999999999989
  0
LTYPE
  2
A3WAKUDAKE|CENTER2
 70
    48
  3
Center (.5x) ___ _ ___ _ ___ _ ___ _ ___ _ ___
 72
    65
 73
     4
 40
28.574999999999999
 49
19.050000000000001
 49
-3.1749999999999989
 49
3.1749999999999989
 49
-3.1749999999999989
  0
ENDTAB
  0
TABLE
  2
LAYER
 70
    43
  0
LAYER
  2
0
 70
     0
 62
     7
  6
CONTINUOUS
  0
LAYER
  2
1CENTER
 70
     0
 62
     7
  6
CENTER2
  0
LAYER
  2
1TEXT
 70
     0
 62
     7
  6
CONTINUOUS
  0
LAYER
  2
1DIM
 70
     0
 62
     7
  6
CONTINUOUS
  0
LAYER
  2
01
 70
     0
 62
     1
  6
CONTINUOUS
  0
LAYER
  2
XREF1|1CENTER
 70
    48
 62
     7
  6
XREF1|CENTER2
  0
LAYER
  2
A3WAKUDAKE|THICK
 70
    48
 62
     7
  6
CONTINUOUS
  0
LAYER
  2
A3WAKUDAKE|POINT
 70
    48
 62
     7
  6
CONTINUOUS
  0
LAYER
  2
A3WAKUDAKE|1CENTER
 70
    48
 62
     7
  6
A3WAKUDAKE|CENTER2
  0
LAYER
  2
A3WAKUDAKE|0-6
 70
    48
 62
     7
  6
CONTINUOUS
  0
LAYER
  2
A3WAKUDAKE|1DIM
 70
    48
 62
     7
  6
CONTINUOUS
  0
ENDTAB
  0
TABLE
  2
STYLE
 70
    22
  0
STYLE
  2
STANDARD
 70
     0
 40
0.0
 41
1.0
 50
0.0
 71
     0
 42
4.0
  3
txt.shx
  4
extfont.shx
  0
ENDTAB
  0
TABLE
  2
VIEW
 70
     0
  0
ENDTAB
  0
TABLE
  2
UCS
 70
     0
  0
ENDTAB
  0
TABLE
  2
APPID
 70
     9
  0
APPID
  2
ACAD
 70
     0
  0
APPID
  2
DRAWINGVARIABLESXDATA
 70
     0
  0
APPID
  2
CONTENTTABDATA
 70
     0
  0
APPID
  2
CONTENTCURRENTTAB
 70
     0
  0
APPID
  2
CONTENTBLOCKDESCRIPTION
 70
     0
  0
APPID
  2
CONTENTBLOCKICON
 70
     0
  0
APPID
  2
CONTENTLONGBLOCKNAME
 70
     0
  0
APPID
  2
ACAD_PSEXT
 70
     0
  0
APPID
  2
ACAD_DSTYLE_DIMTEXT_FILL
 70
     0
  0
ENDTAB
  0
TABLE
  2
DIMSTYLE
 70
     8
  0
DIMSTYLE
  2
NEWX10
 70
     0
  3
 
  4

  5

  6
OPEN30
  7
OPEN30
 40
1.0
 41
2.0
 42
0.0
 43
7.0
 44
1.0
 45
0.0
 46
0.0
 47
0.0
 48
0.0
140
3.5
141
0.0
142
0.0
143
25.399999999999999
144
1.0
145
0.0
146
0.7
147
0.7
 71
     0
 72
     0
 73
     0
 74
     0
 75
     0
 76
     0
 77
     1
 78
     8
170
     0
171
     2
172
     1
173
     1
174
     0
175
     0
176
   256
177
   256
178
   201
  0
ENDTAB
  0
ENDSEC
  0
SECTION
  2
BLOCKS
  0
BLOCK
  8
0
  2
$MODEL_SPACE
 70
     0
 10
0.0
 20
0.0
 30
0.0
  3
$MODEL_SPACE
  1

  0
ENDBLK
  5
1A
  8
0
  0
BLOCK
 67
     1
  8
0
  2
$PAPER_SPACE
 70
     0
 10
0.0
 20
0.0
 30
0.0
  3
$PAPER_SPACE
  1

  0
ENDBLK
  5
17
 67
     1
  8
0
  0
BLOCK
  8
0
  2
_OPEN30
 70
     0
 10
0.0
 20
0.0
 30
0.0
  3
_OPEN30
  1

  0
LINE
  5
44
  8
0
  6
BYBLOCK
 62
     0
 10
-1.0
 20
0.26794919
 30
0.0
 11
0.0
 21
0.0
 31
0.0
  0
LINE
  5
45
  8
0
  6
BYBLOCK
 62
     0
 10
0.0
 20
0.0
 30
0.0
 11
-1.0
 21
-0.26794919
 31
0.0
  0
LINE
  5
46
  8
0
  6
BYBLOCK
 62
     0
 10
0.0
 20
0.0
 30
0.0
 11
-1.0
 21
0.0
 31
0.0
  0
ENDBLK
  5
47
  8
0
  0
BLOCK
  8
0
  2
XREF1
 70
    36
 10
0.0
 20
0.0
 30
0.0
  3
XREF1
  1
D:\ACLT\FORMAT\KAWAJUN(9)図面用.dwg
  0
ENDBLK
  5
5D
  8
0
  0
BLOCK
  8
0
  2
A3WAKUDAKE
 70
    36
 10
0.0
 20
0.0
 30
0.0
  3
A3WAKUDAKE
  1
D:\ACLT\FORMAT\A3WAKUdake.dwg
  0
ENDBLK
  5
6DC
  8
0
  0
BLOCK
  8
0
  2
*U10
 70
     1
 10
0.0
 20
0.0
 30
0.0
  3
*U10
  1

  0
TEXT
  5
9A61
  8
1DIM
 62
   201
 10
-175.91897715745321
 20
-1272.3074306830131
 30
0.0
 40
3.5
  1
φ17
 50
90.0
  0
ENDBLK
  5
9A63
  8
0
  0
BLOCK
  8
0
  2
*U11
 70
     1
 10
0.0
 20
0.0
 30
0.0
  3
*U11
  1

  0
TEXT
  5
9A65
  8
1DIM
 62
   201
 10
-208.45604327514459
 20
-1370.277720932341
 30
0.0
 40
3.5
  1
φ14
  0
ENDBLK
  5
9A67
  8
0
  0
BLOCK
  8
0
  2
*U12
 70
     1
 10
0.0
 20
0.0
 30
0.0
  3
*U12
  1

  0
TEXT
  5
9A69
  8
1DIM
 62
   201
 10
-175.91897715745321
 20
-1341.3943621407859
 30
0.0
 40
3.5
  1
25 
 50
90.0
  0
ENDBLK
  5
9A6B
  8
0
  0
ENDSEC
  0
SECTION
  2
ENTITIES
  0
TEXT
  5
33D7
  8
1TEXT
 10
-212.1262826080287
 20
-1225.977670015897
 30
0.0
 40
7.0
  1
PB095M
 41
1.0098214000000001
  0
POINT
  5
9049
  8
1CENTER
 10
-203.67270994181121
 20
-1267.5240973496791
 30
0.0
  0
LINE
  5
9111
  8
1CENTER
 10
-203.67270994181121
 20
-1270.5240973496791
 30
0.0
 11
-203.67270994181121
 21
-1264.5240973496791
 31
0.0
  0
LINE
  5
9112
  8
1CENTER
 10
-206.67270994181121
 20
-1267.5240973496791
 30
0.0
 11
-200.67270994181129
 21
-1267.5240973496791
 31
0.0
  0
POINT
  5
91E4
  8
1CENTER
 10
-203.67270994181129
 20
-1267.5240973496791
 30
0.0
  0
POINT
  5
9343
  8
1CENTER
 10
-203.67270994181121
 20
-1267.5240973496791
 30
0.0
  0
POINT
  5
963C
  8
1CENTER
 10
-203.67270994181121
 20
-1267.5240973496791
 30
0.0
  0
LINE
  5
982E
  8
1DIM
 10
-212.1262826080287
 20
-1438.9777209323411
 30
0.0
 11
-142.1262826080287
 21
-1438.9777209323411
 31
0.0
  0
TEXT
  5
9830
  8
1TEXT
 10
-205.37390165564821
 20
-1416.4777209323411
 30
0.0
 40
4.0
  1
表面処理：
 72
     1
 11
-194.72628260802909
 21
-1416.4777209323411
 31
0.0
  0
TEXT
  5
9831
  8
1TEXT
 10
-204.05961594136249
 20
-1430.313009591865
 30
0.0
 40
4.0
  1
クローム
 72
     1
 11
-194.72628260802909
 21
-1430.313009591865
 31
0.0
  0
TEXT
  5
9832
  8
1TEXT
 10
-205.92628260802911
 20
-1423.4556159523261
 30
0.0
 40
4.0
  1
本金メッキ
 72
     1
 11
-194.72628260802909
 21
-1423.4556159523261
 31
0.0
  0
LINE
  5
9833
  8
1DIM
 10
-212.1262826080287
 20
-1410.9777209323411
 30
0.0
 11
-142.1262826080287
 21
-1410.9777209323411
 31
0.0
  0
LINE
  5
9834
  8
1DIM
 10
-212.1262826080287
 20
-1424.9777209323411
 30
0.0
 11
-142.1262826080287
 21
-1424.9777209323411
 31
0.0
  0
LINE
  5
9835
  8
1DIM
 10
-212.1262826080287
 20
-1417.9777209323411
 30
0.0
 11
-142.1262826080287
 21
-1417.9777209323411
 31
0.0
  0
LINE
  5
9836
  8
1DIM
 10
-212.1262826080287
 20
-1431.9777209323411
 30
0.0
 11
-142.1262826080287
 21
-1431.9777209323411
 31
0.0
  0
LINE
  5
9837
  8
1DIM
 10
-212.1262826080287
 20
-1431.9777209323411
 30
0.0
 11
-142.1262826080287
 21
-1431.9777209323411
 31
0.0
  0
LINE
  5
9838
  8
1DIM
 10
-177.1262826080287
 20
-1410.9777209323411
 30
0.0
 11
-177.1262826080287
 21
-1438.9777209323411
 31
0.0
  0
TEXT
  5
9839
  8
1TEXT
 10
-174.72628260802821
 20
-1430.6920779159909
 30
0.0
 40
4.0
  1
PB095XCM
 72
     1
 11
-159.72628260802821
 21
-1430.6920779159909
 31
0.0
  0
TEXT
  5
983B
  8
1TEXT
 10
-174.72628260802821
 20
-1423.6920779159909
 30
0.0
 40
4.0
  1
PB095XGM
 72
     1
 11
-159.72628260802821
 21
-1423.6920779159909
 31
0.0
  0
TEXT
  5
983C
  8
1TEXT
 10
-166.52628260802911
 20
-1416.4777209323411
 30
0.0
 40
4.0
  1
コード
 72
     1
 11
-159.72628260802909
 21
-1416.4777209323411
 31
0.0
  0
TEXT
  5
983E
  8
1TEXT
 10
-210.9929492746958
 20
-1437.2886345439119
 30
0.0
 40
4.0
  1
サテンニッケル
 72
     1
 11
-194.72628260802909
 21
-1437.2886345439119
 31
0.0
  0
TEXT
  5
983F
  8
1TEXT
 10
-174.72628260802821
 20
-1437.6920779159909
 30
0.0
 40
4.0
  1
PB095XNM
 72
     1
 11
-159.72628260802821
 21
-1437.6920779159909
 31
0.0
  0
LINE
  5
9840
  8
1DIM
 10
-212.1262826080287
 20
-1438.9777209323411
 30
0.0
 11
-212.1262826080287
 21
-1410.9777209323411
 31
0.0
  0
LINE
  5
9841
  8
1DIM
 10
-142.1262826080287
 20
-1438.9777209323411
 30
0.0
 11
-142.1262826080287
 21
-1410.9777209323411
 31
0.0
  0
TEXT
  5
9842
  8
1TEXT
 10
-212.1262826080283
 20
-1407.211693346022
 30
0.0
 40
4.0
  1
材質：真鍮
 11
-212.1262826080283
 21
-1407.211693346022
 31
0.0
 73
     1
  0
LINE
  5
985D
  8
01
 10
-139.76556460938679
 20
-1350.9777209323411
 30
0.0
 11
-153.76556460938659
 21
-1350.9777209323411
 31
0.0
  0
LINE
  5
985E
  8
01
 10
-139.58512652572441
 20
-1327.4777209323411
 30
0.0
 11
-154.1088262927021
 21
-1327.4777209323411
 31
0.0
  0
ARC
  5
985F
  8
01
 10
-146.7655646093867
 20
-1350.8102113434029
 30
0.0
 40
24.83254132750611
 50
71.775101622852489
 51
108.2248983771413
  0
ARC
  5
9860
  8
01
 10
-139.3119919431692
 20
-1328.1732000425111
 30
0.0
 40
1.0
 50
356.3477772196876
 51
71.775101622852489
  0
LINE
  5
9861
  8
01
 10
-139.76556460938679
 20
-1350.9777209323411
 30
0.0
 11
-138.31402286030561
 21
-1328.236900196737
 31
0.0
  0
LINE
  5
9862
  8
01
 10
-155.1543708438499
 20
-1329.2197565922261
 30
0.0
 11
-155.2171063584621
 21
-1328.236900196742
 31
0.0
  0
ARC
  5
9863
  8
01
 10
-154.219137275599
 20
-1328.17320004251
 30
0.0
 40
1.0
 50
108.2248983771413
 51
183.65222278070411
  0
ARC
  5
9864
  8
01
 10
-154.15640176098671
 20
-1329.156056437994
 30
0.0
 40
1.0
 50
183.65222278070411
 51
254.4152885938289
  0
ARC
  5
9865
  8
01
 10
-153.43468091512671
 20
-1340.463016355222
 30
0.0
 40
1.0
 50
112.8891569675835
 51
183.65222278070411
  0
ARC
  5
9866
  8
01
 10
-155.76837858683839
 20
-1334.9354621784589
 30
0.0
 40
5.0
 50
292.88915696758352
 51
74.415288593828976
  0
LINE
  5
9867
  8
01
 10
-153.76556460921859
 20
-1350.977720932387
 30
0.0
 11
-154.43264999798981
 21
-1340.526716509454
 31
0.0
  0
CIRCLE
  5
9869
  8
01
 10
-203.67270994181129
 20
-1267.5240973496791
 30
0.0
 40
8.4535726662174966
  0
POINT
  5
986A
  8
1CENTER
 10
-203.67270994181129
 20
-1267.5240973496791
 30
0.0
  0
ARC
  5
986D
  8
01
 10
-196.219137275599
 20
-1328.17320004251
 30
0.0
 40
1.0
 50
356.34777721929589
 51
71.775101622858671
  0
ARC
  5
986E
  8
01
 10
-211.12628260802879
 20
-1328.1732000425111
 30
0.0
 40
1.0
 50
108.2248983771475
 51
183.6522227803124
  0
LINE
  5
986F
  8
01
 10
-196.67270994197941
 20
-1350.977720932387
 30
0.0
 11
-195.22116819273589
 21
-1328.236900196742
 31
0.0
  0
LINE
  5
9870
  8
01
 10
-210.67270994181109
 20
-1350.9777209323411
 30
0.0
 11
-212.12425169089241
 21
-1328.236900196737
 31
0.0
  0
LINE
  5
9871
  8
01
 10
-210.67270994181109
 20
-1350.9777209323411
 30
0.0
 11
-196.67270994181141
 21
-1350.9777209323411
 31
0.0
  0
LINE
  5
9872
  8
01
 10
-210.85314802547359
 20
-1327.4777209323411
 30
0.0
 11
-196.3294482584958
 21
-1327.4777209323411
 31
0.0
  0
ARC
  5
9873
  8
01
 10
-203.67270994181129
 20
-1350.8102113434029
 30
0.0
 40
24.83254132750611
 50
71.775101622858671
 51
108.2248983771475
  0
POLYLINE
  5
9875
  8
01
 10
-211.11853904842872
 20
-1334.8732365508399
 30
0.0
 66
     1
 70
     8
  0
VERTEX
  8
01
  5
9A6C
 10
-211.119
 20
-1334.87
 30
0.000000
  70
    32
  0
VERTEX
  8
01
  5
9A6D
 10
-211.110
 20
-1335.11
 30
0.000000
  70
    32
  0
VERTEX
  8
01
  5
9A6E
 10
-211.083
 20
-1335.35
 30
0.000000
  70
    32
  0
VERTEX
  8
01
  5
9A6F
 10
-211.038
 20
-1335.59
 30
0.000000
  70
    32
  0
VERTEX
  8
01
  5
9A70
 10
-210.975
 20
-1335.83
 30
0.000000
  70
    32
  0
VERTEX
  8
01
  5
9A71
 10
-210.895
 20
-1336.06
 30
0.000000
  70
    32
  0
VERTEX
  8
01
  5
9A72
 10
-210.798
 20
-1336.29
 30
0.000000
  70
    32
  0
VERTEX
  8
01
  5
9A73
 10
-210.683
 20
-1336.52
 30
0.000000
  70
    32
  0
VERTEX
  8
01
  5
9A74
 10
-210.552
 20
-1336.75
 30
0.000000
  70
    32
  0
VERTEX
  8
01
  5
9A75
 10
-210.404
 20
-1336.97
 30
0.000000
  70
    32
  0
VERTEX
  8
01
  5
9A76
 10
-210.239
 20
-1337.18
 30
0.000000
  70
    32
  0
VERTEX
  8
01
  5
9A77
 10
-210.059
 20
-1337.39
 30
0.000000
  70
    32
  0
VERTEX
  8
01
  5
9A78
 10
-209.864
 20
-1337.59
 30
0.000000
  70
    32
  0
VERTEX
  8
01
  5
9A79
 10
-209.653
 20
-1337.79
 30
0.000000
  70
    32
  0
VERTEX
  8
01
  5
9A7A
 10
-209.428
 20
-1337.98
 30
0.000000
  70
    32
  0
VERTEX
  8
01
  5
9A7B
 10
-209.190
 20
-1338.16
 30
0.000000
  70
    32
  0
VERTEX
  8
01
  5
9A7C
 10
-208.938
 20
-1338.33
 30
0.000000
  70
    32
  0
VERTEX
  8
01
  5
9A7D
 10
-208.673
 20
-1338.50
 30
0.000000
  70
    32
  0
VERTEX
  8
01
  5
9A7E
 10
-208.396
 20
-1338.66
 30
0.000000
  70
    32
  0
VERTEX
  8
01
  5
9A7F
 10
-208.108
 20
-1338.80
 30
0.000000
  70
    32
  0
VERTEX
  8
01
  5
9A80
 10
-207.809
 20
-1338.94
 30
0.000000
  70
    32
  0
VERTEX
  8
01
  5
9A81
 10
-207.501
 20
-1339.07
 30
0.000000
  70
    32
  0
VERTEX
  8
01
  5
9A82
 10
-207.183
 20
-1339.19
 30
0.000000
  70
    32
  0
VERTEX
  8
01
  5
9A83
 10
-206.856
 20
-1339.30
 30
0.000000
  70
    32
  0
VERTEX
  8
01
  5
9A84
 10
-206.522
 20
-1339.39
 30
0.000000
  70
    32
  0
VERTEX
  8
01
  5
9A85
 10
-206.181
 20
-1339.48
 30
0.000000
  70
    32
  0
VERTEX
  8
01
  5
9A86
 10
-205.834
 20
-1339.56
 30
0.000000
  70
    32
  0
VERTEX
  8
01
  5
9A87
 10
-205.482
 20
-1339.62
 30
0.000000
  70
    32
  0
VERTEX
  8
01
  5
9A88
 10
-205.125
 20
-1339.67
 30
0.000000
  70
    32
  0
VERTEX
  8
01
  5
9A89
 10
-204.765
 20
-1339.71
 30
0.000000
  70
    32
  0
VERTEX
  8
01
  5
9A8A
 10
-204.403
 20
-1339.74
 30
0.000000
  70
    32
  0
VERTEX
  8
01
  5
9A8B
 10
-204.038
 20
-1339.76
 30
0.000000
  70
    32
  0
VERTEX
  8
01
  5
9A8C
 10
-203.673
 20
-1339.77
 30
0.000000
  70
    32
  0
VERTEX
  8
01
  5
9A8D
 10
-203.307
 20
-1339.76
 30
0.000000
  70
    32
  0
VERTEX
  8
01
  5
9A8E
 10
-202.943
 20
-1339.74
 30
0.000000
  70
    32
  0
VERTEX
  8
01
  5
9A8F
 10
-202.580
 20
-1339.71
 30
0.000000
  70
    32
  0
VERTEX
  8
01
  5
9A90
 10
-202.220
 20
-1339.67
 30
0.000000
  70
    32
  0
VERTEX
  8
01
  5
9A91
 10
-201.864
 20
-1339.62
 30
0.000000
  70
    32
  0
VERTEX
  8
01
  5
9A92
 10
-201.511
 20
-1339.56
 30
0.000000
  70
    32
  0
VERTEX
  8
01
  5
9A93
 10
-201.164
 20
-1339.48
 30
0.000000
  70
    32
  0
VERTEX
  8
01
  5
9A94
 10
-200.823
 20
-1339.39
 30
0.000000
  70
    32
  0
VERTEX
  8
01
  5
9A95
 10
-200.489
 20
-1339.30
 30
0.000000
  70
    32
  0
VERTEX
  8
01
  5
9A96
 10
-200.163
 20
-1339.19
 30
0.000000
  70
    32
  0
VERTEX
  8
01
  5
9A97
 10
-199.845
 20
-1339.07
 30
0.000000
  70
    32
  0
VERTEX
  8
01
  5
9A98
 10
-199.536
 20
-1338.94
 30
0.000000
  70
    32
  0
VERTEX
  8
01
  5
9A99
 10
-199.237
 20
-1338.80
 30
0.000000
  70
    32
  0
VERTEX
  8
01
  5
9A9A
 10
-198.949
 20
-1338.66
 30
0.000000
  70
    32
  0
VERTEX
  8
01
  5
9A9B
 10
-198.672
 20
-1338.50
 30
0.000000
  70
    32
  0
VERTEX
  8
01
  5
9A9C
 10
-198.408
 20
-1338.33
 30
0.000000
  70
    32
  0
VERTEX
  8
01
  5
9A9D
 10
-198.156
 20
-1338.16
 30
0.000000
  70
    32
  0
VERTEX
  8
01
  5
9A9E
 10
-197.917
 20
-1337.98
 30
0.000000
  70
    32
  0
VERTEX
  8
01
  5
9A9F
 10
-197.692
 20
-1337.79
 30
0.000000
  70
    32
  0
VERTEX
  8
01
  5
9AA0
 10
-197.482
 20
-1337.59
 30
0.000000
  70
    32
  0
VERTEX
  8
01
  5
9AA1
 10
-197.286
 20
-1337.39
 30
0.000000
  70
    32
  0
VERTEX
  8
01
  5
9AA2
 10
-197.106
 20
-1337.18
 30
0.000000
  70
    32
  0
VERTEX
  8
01
  5
9AA3
 10
-196.942
 20
-1336.97
 30
0.000000
  70
    32
  0
VERTEX
  8
01
  5
9AA4
 10
-196.794
 20
-1336.75
 30
0.000000
  70
    32
  0
VERTEX
  8
01
  5
9AA5
 10
-196.662
 20
-1336.52
 30
0.000000
  70
    32
  0
VERTEX
  8
01
  5
9AA6
 10
-196.547
 20
-1336.29
 30
0.000000
  70
    32
  0
VERTEX
  8
01
  5
9AA7
 10
-196.450
 20
-1336.06
 30
0.000000
  70
    32
  0
VERTEX
  8
01
  5
9AA8
 10
-196.370
 20
-1335.83
 30
0.000000
  70
    32
  0
VERTEX
  8
01
  5
9AA9
 10
-196.307
 20
-1335.59
 30
0.000000
  70
    32
  0
VERTEX
  8
01
  5
9AAA
 10
-196.263
 20
-1335.35
 30
0.000000
  70
    32
  0
VERTEX
  8
01
  5
9AAB
 10
-196.236
 20
-1335.11
 30
0.000000
  70
    32
  0
VERTEX
  8
01
  5
9AAC
 10
-196.227
 20
-1334.87
 30
0.000000
  70
    32
  0
VERTEX
  8
01
  5
9AAD
 10
-196.236
 20
-1334.63
 30
0.000000
  70
    32
  0
VERTEX
  8
01
  5
9AAE
 10
-196.263
 20
-1334.39
 30
0.000000
  70
    32
  0
VERTEX
  8
01
  5
9AAF
 10
-196.307
 20
-1334.16
 30
0.000000
  70
    32
  0
VERTEX
  8
01
  5
9AB0
 10
-196.370
 20
-1333.92
 30
0.000000
  70
    32
  0
VERTEX
  8
01
  5
9AB1
 10
-196.450
 20
-1333.68
 30
0.000000
  70
    32
  0
VERTEX
  8
01
  5
9AB2
 10
-196.547
 20
-1333.45
 30
0.000000
  70
    32
  0
VERTEX
  8
01
  5
9AB3
 10
-196.662
 20
-1333.22
 30
0.000000
  70
    32
  0
VERTEX
  8
01
  5
9AB4
 10
-196.794
 20
-1333.00
 30
0.000000
  70
    32
  0
VERTEX
  8
01
  5
9AB5
 10
-196.942
 20
-1332.78
 30
0.000000
  70
    32
  0
VERTEX
  8
01
  5
9AB6
 10
-197.106
 20
-1332.57
 30
0.000000
  70
    32
  0
VERTEX
  8
01
  5
9AB7
 10
-197.286
 20
-1332.36
 30
0.000000
  70
    32
  0
VERTEX
  8
01
  5
9AB8
 10
-197.482
 20
-1332.15
 30
0.000000
  70
    32
  0
VERTEX
  8
01
  5
9AB9
 10
-197.692
 20
-1331.96
 30
0.000000
  70
    32
  0
VERTEX
  8
01
  5
9ABA
 10
-197.917
 20
-1331.77
 30
0.000000
  70
    32
  0
VERTEX
  8
01
  5
9ABB
 10
-198.156
 20
-1331.59
 30
0.000000
  70
    32
  0
VERTEX
  8
01
  5
9ABC
 10
-198.408
 20
-1331.41
 30
0.000000
  70
    32
  0
VERTEX
  8
01
  5
9ABD
 10
-198.672
 20
-1331.25
 30
0.000000
  70
    32
  0
VERTEX
  8
01
  5
9ABE
 10
-198.949
 20
-1331.09
 30
0.000000
  70
    32
  0
VERTEX
  8
01
  5
9ABF
 10
-199.237
 20
-1330.94
 30
0.000000
  70
    32
  0
VERTEX
  8
01
  5
9AC0
 10
-199.536
 20
-1330.80
 30
0.000000
  70
    32
  0
VERTEX
  8
01
  5
9AC1
 10
-199.845
 20
-1330.68
 30
0.000000
  70
    32
  0
VERTEX
  8
01
  5
9AC2
 10
-200.163
 20
-1330.56
 30
0.000000
  70
    32
  0
VERTEX
  8
01
  5
9AC3
 10
-200.489
 20
-1330.45
 30
0.000000
  70
    32
  0
VERTEX
  8
01
  5
9AC4
 10
-200.823
 20
-1330.35
 30
0.000000
  70
    32
  0
VERTEX
  8
01
  5
9AC5
 10
-201.164
 20
-1330.27
 30
0.000000
  70
    32
  0
VERTEX
  8
01
  5
9AC6
 10
-201.511
 20
-1330.19
 30
0.000000
  70
    32
  0
VERTEX
  8
01
  5
9AC7
 10
-201.864
 20
-1330.13
 30
0.000000
  70
    32
  0
VERTEX
  8
01
  5
9AC8
 10
-202.220
 20
-1330.07
 30
0.000000
  70
    32
  0
VERTEX
  8
01
  5
9AC9
 10
-202.580
 20
-1330.03
 30
0.000000
  70
    32
  0
VERTEX
  8
01
  5
9ACA
 10
-202.943
 20
-1330.00
 30
0.000000
  70
    32
  0
VERTEX
  8
01
  5
9ACB
 10
-203.307
 20
-1329.99
 30
0.000000
  70
    32
  0
VERTEX
  8
01
  5
9ACC
 10
-203.673
 20
-1329.98
 30
0.000000
  70
    32
  0
VERTEX
  8
01
  5
9ACD
 10
-204.038
 20
-1329.99
 30
0.000000
  70
    32
  0
VERTEX
  8
01
  5
9ACE
 10
-204.403
 20
-1330.00
 30
0.000000
  70
    32
  0
VERTEX
  8
01
  5
9ACF
 10
-204.765
 20
-1330.03
 30
0.000000
  70
    32
  0
VERTEX
  8
01
  5
9AD0
 10
-205.125
 20
-1330.07
 30
0.000000
  70
    32
  0
VERTEX
  8
01
  5
9AD1
 10
-205.482
 20
-1330.13
 30
0.000000
  70
    32
  0
VERTEX
  8
01
  5
9AD2
 10
-205.834
 20
-1330.19
 30
0.000000
  70
    32
  0
VERTEX
  8
01
  5
9AD3
 10
-206.181
 20
-1330.27
 30
0.000000
  70
    32
  0
VERTEX
  8
01
  5
9AD4
 10
-206.522
 20
-1330.35
 30
0.000000
  70
    32
  0
VERTEX
  8
01
  5
9AD5
 10
-206.856
 20
-1330.45
 30
0.000000
  70
    32
  0
VERTEX
  8
01
  5
9AD6
 10
-207.183
 20
-1330.56
 30
0.000000
  70
    32
  0
VERTEX
  8
01
  5
9AD7
 10
-207.501
 20
-1330.68
 30
0.000000
  70
    32
  0
VERTEX
  8
01
  5
9AD8
 10
-207.809
 20
-1330.80
 30
0.000000
  70
    32
  0
VERTEX
  8
01
  5
9AD9
 10
-208.108
 20
-1330.94
 30
0.000000
  70
    32
  0
VERTEX
  8
01
  5
9ADA
 10
-208.396
 20
-1331.09
 30
0.000000
  70
    32
  0
VERTEX
  8
01
  5
9ADB
 10
-208.673
 20
-1331.25
 30
0.000000
  70
    32
  0
VERTEX
  8
01
  5
9ADC
 10
-208.938
 20
-1331.41
 30
0.000000
  70
    32
  0
VERTEX
  8
01
  5
9ADD
 10
-209.190
 20
-1331.59
 30
0.000000
  70
    32
  0
VERTEX
  8
01
  5
9ADE
 10
-209.428
 20
-1331.77
 30
0.000000
  70
    32
  0
VERTEX
  8
01
  5
9ADF
 10
-209.653
 20
-1331.96
 30
0.000000
  70
    32
  0
VERTEX
  8
01
  5
9AE0
 10
-209.864
 20
-1332.15
 30
0.000000
  70
    32
  0
VERTEX
  8
01
  5
9AE1
 10
-210.059
 20
-1332.36
 30
0.000000
  70
    32
  0
VERTEX
  8
01
  5
9AE2
 10
-210.239
 20
-1332.57
 30
0.000000
  70
    32
  0
VERTEX
  8
01
  5
9AE3
 10
-210.404
 20
-1332.78
 30
0.000000
  70
    32
  0
VERTEX
  8
01
  5
9AE4
 10
-210.552
 20
-1333.00
 30
0.000000
  70
    32
  0
VERTEX
  8
01
  5
9AE5
 10
-210.683
 20
-1333.22
 30
0.000000
  70
    32
  0
VERTEX
  8
01
  5
9AE6
 10
-210.798
 20
-1333.45
 30
0.000000
  70
    32
  0
VERTEX
  8
01
  5
9AE7
 10
-210.895
 20
-1333.68
 30
0.000000
  70
    32
  0
VERTEX
  8
01
  5
9AE8
 10
-210.975
 20
-1333.92
 30
0.000000
  70
    32
  0
VERTEX
  8
01
  5
9AE9
 10
-211.038
 20
-1334.16
 30
0.000000
  70
    32
  0
VERTEX
  8
01
  5
9AEA
 10
-211.083
 20
-1334.39
 30
0.000000
  70
    32
  0
VERTEX
  8
01
  5
9AEB
 10
-211.110
 20
-1334.63
 30
0.000000
  70
    32
  0
VERTEX
  8
01
  5
9AEC
 10
-211.119
 20
-1334.87
 30
0.000000
  70
    32
  0
SEQEND
  8
01
  5
9AED
  0
LINE
  5
9879
  8
1CENTER
 10
-203.67270994181129
 20
-1340.9777209323411
 30
0.0
 11
-203.67270994181129
 21
-1352.9777209323411
 31
0.0
  0
LINE
  5
987A
  8
1CENTER
 10
-146.7655646093867
 20
-1340.9777209323411
 30
0.0
 11
-146.7655646093867
 21
-1352.9777209323411
 31
0.0
  0
TEXT
  5
9A25
  8
1DIM
 10
-130.87379343249609
 20
-1370.9822547869251
 30
0.0
 40
3.5
  1
M4-10
  0
SOLID
  5
9A26
  8
1DIM
 10
-145.9717587130844
 20
-1352.8480186849581
 30
0.0
 11
-146.7655069023142
 21
-1350.9822547869251
 31
0.0
 12
-145.40955140503181
 22
-1352.4897347372059
 32
0.0
 13
-145.40955140503181
 23
-1352.4897347372059
 33
0.0
  0
LINE
  5
9A28
  8
1DIM
 10
-196.67270994181141
 20
-1350.9777209323411
 30
0.0
 11
-174.21897715745339
 21
-1350.9777209323411
 31
0.0
  0
LINE
  5
9A29
  8
1DIM
 10
-203.67270994181129
 20
-1325.977670015897
 30
0.0
 11
-174.21897715745339
 21
-1325.977670015897
 31
0.0
  0
LINE
  5
9A2A
  8
1DIM
 10
-175.21897715745339
 20
-1348.9777209323411
 30
0.0
 11
-175.21897715745339
 21
-1327.977670015897
 31
0.0
  0
LINE
  5
9A2E
  8
1DIM
 10
-196.67270994181141
 20
-1350.9777209323411
 30
0.0
 11
-196.67270994181141
 21
-1371.9777209323411
 31
0.0
  0
LINE
  5
9A2F
  8
1DIM
 10
-210.67270994181109
 20
-1350.9777209323411
 30
0.0
 11
-210.67270994181109
 21
-1371.9777209323411
 31
0.0
  0
LINE
  5
9A30
  8
1DIM
 10
-198.67270994181141
 20
-1370.9777209323411
 30
0.0
 11
-208.67270994181121
 21
-1370.9777209323411
 31
0.0
  0
LINE
  5
9A34
  8
1DIM
 10
-203.67270994181129
 20
-1275.977670015897
 30
0.0
 11
-174.21897715745339
 21
-1275.977670015897
 31
0.0
  0
LINE
  5
9A35
  8
1DIM
 10
-203.67270994181129
 20
-1259.0705246834621
 30
0.0
 11
-174.21897715745339
 21
-1259.0705246834621
 31
0.0
  0
LINE
  5
9A36
  8
1DIM
 10
-175.21897715745339
 20
-1273.977670015897
 30
0.0
 11
-175.21897715745339
 21
-1261.0705246834621
 31
0.0
  0
TEXT
  5
9A3A
  8
1DIM
 10
-175.91897715745321
 20
-1272.3074306830131
 30
0.0
 40
3.5
  1
φ17
 50
90.0
  0
LINE
  5
9A3B
  8
0
  6
BYBLOCK
 10
-175.75487553745339
 20
-1261.0705246834621
 30
0.0
 11
-175.21897715745339
 21
-1259.0705246834621
 31
0.0
  0
LINE
  5
9A3C
  8
0
  6
BYBLOCK
 10
-175.21897715745339
 20
-1259.0705246834621
 30
0.0
 11
-174.6830787774534
 21
-1261.0705246834621
 31
0.0
  0
LINE
  5
9A3D
  8
0
  6
BYBLOCK
 10
-175.21897715745339
 20
-1259.0705246834621
 30
0.0
 11
-175.21897715745339
 21
-1261.0705246834621
 31
0.0
  0
LINE
  5
9A3E
  8
0
  6
BYBLOCK
 10
-174.6830787774534
 20
-1273.977670015897
 30
0.0
 11
-175.21897715745339
 21
-1275.977670015897
 31
0.0
  0
LINE
  5
9A3F
  8
0
  6
BYBLOCK
 10
-175.21897715745339
 20
-1275.977670015897
 30
0.0
 11
-175.75487553745339
 21
-1273.977670015897
 31
0.0
  0
LINE
  5
9A40
  8
0
  6
BYBLOCK
 10
-175.21897715745339
 20
-1275.977670015897
 30
0.0
 11
-175.21897715745339
 21
-1273.977670015897
 31
0.0
  0
TEXT
  5
9A41
  8
1DIM
 10
-208.45604327514459
 20
-1370.277720932341
 30
0.0
 40
3.5
  1
φ14
  0
LINE
  5
9A42
  8
0
  6
BYBLOCK
 10
-208.67270994181121
 20
-1371.513619312341
 30
0.0
 11
-210.67270994181109
 21
-1370.9777209323411
 31
0.0
  0
LINE
  5
9A43
  8
0
  6
BYBLOCK
 10
-210.67270994181109
 20
-1370.9777209323411
 30
0.0
 11
-208.67270994181121
 21
-1370.4418225523409
 31
0.0
  0
LINE
  5
9A44
  8
0
  6
BYBLOCK
 10
-210.67270994181109
 20
-1370.9777209323411
 30
0.0
 11
-208.67270994181121
 21
-1370.9777209323411
 31
0.0
  0
LINE
  5
9A45
  8
0
  6
BYBLOCK
 10
-198.67270994181141
 20
-1370.4418225523409
 30
0.0
 11
-196.67270994181141
 21
-1370.9777209323411
 31
0.0
  0
LINE
  5
9A46
  8
0
  6
BYBLOCK
 10
-196.67270994181141
 20
-1370.9777209323411
 30
0.0
 11
-198.67270994181141
 21
-1371.513619312341
 31
0.0
  0
LINE
  5
9A47
  8
0
  6
BYBLOCK
 10
-196.67270994181141
 20
-1370.9777209323411
 30
0.0
 11
-198.67270994181141
 21
-1370.9777209323411
 31
0.0
  0
TEXT
  5
9A48
  8
1DIM
 10
-175.91897715745321
 20
-1341.3943621407859
 30
0.0
 40
3.5
  1
25 
 50
90.0
  0
LINE
  5
9A49
  8
0
  6
BYBLOCK
 10
-175.75487553745339
 20
-1327.977670015897
 30
0.0
 11
-175.21897715745339
 21
-1325.977670015897
 31
0.0
  0
LINE
  5
9A4A
  8
0
  6
BYBLOCK
 10
-175.21897715745339
 20
-1325.977670015897
 30
0.0
 11
-174.6830787774534
 21
-1327.977670015897
 31
0.0
  0
LINE
  5
9A4B
  8
0
  6
BYBLOCK
 10
-175.21897715745339
 20
-1325.977670015897
 30
0.0
 11
-175.21897715745339
 21
-1327.977670015897
 31
0.0
  0
LINE
  5
9A4C
  8
0
  6
BYBLOCK
 10
-174.6830787774534
 20
-1348.9777209323411
 30
0.0
 11
-175.21897715745339
 21
-1350.9777209323411
 31
0.0
  0
LINE
  5
9A4D
  8
0
  6
BYBLOCK
 10
-175.21897715745339
 20
-1350.9777209323411
 30
0.0
 11
-175.75487553745339
 21
-1348.9777209323411
 31
0.0
  0
LINE
  5
9A4E
  8
0
  6
BYBLOCK
 10
-175.21897715745339
 20
-1350.9777209323411
 30
0.0
 11
-175.21897715745339
 21
-1348.9777209323411
 31
0.0
  0
LINE
  5
9A4F
  8
1DIM
 10
-145.69065505905809
 20
-1352.668876711082
 30
0.0
 11
-133.5737934324959
 21
-1371.682254786924
 31
0.0
  0
LINE
  5
9A50
  8
1DIM
 10
-133.5737934324959
 20
-1371.682254786924
 30
0.0
 11
-113.7071267658292
 21
-1371.682254786924
 31
0.0
  0
VIEWPORT
  5
57
 67
     1
  8
0
 10
-12.71820606546885
 20
68.605978139238601
 30
0.0
 40
657.95380306501977
 41
436.28393375714438
 68
     1
 69
     1
1001
ACAD
1000
MVIEW
1002
{
1070
    16
1010
0.0
1020
0.0
1030
0.0
1010
0.0
1020
0.0
1030
1.0
1040
0.0
1040
436.28393375714438
1040
-12.71820606546885
1040
68.605978139238601
1040
50.0
1040
0.0
1040
0.0
1070
     0
1070
   100
1070
     1
1070
     1
1070
     0
1070
     0
1070
     0
1070
     0
1040
0.0
1040
0.0
1040
0.0
1040
10.0
1040
10.0
1040
10.0
1040
10.0
1070
     0
1002
{
1002
}
1002
}
  0
ENDSEC
  0
EOF
