  0
SECTION
  2
HEADER
  9
$ACADVER
  1
AC1009
  9
$INSBASE
 10
0.0
 20
0.0
 30
0.0
  9
$EXTMIN
 10
-204.30677525835239
 20
-1861.9642148460671
 30
0.0
  9
$EXTMAX
 10
-78.265174316461639
 20
-1658.9642148460671
 30
0.0
  9
$LIMMIN
 10
0.0
 20
0.0
  9
$LIMMAX
 10
420.0
 20
297.0
  9
$ORTHOMODE
 70
     0
  9
$REGENMODE
 70
     1
  9
$FILLMODE
 70
     1
  9
$QTEXTMODE
 70
     0
  9
$MIRRTEXT
 70
     0
  9
$DRAGMODE
 70
     2
  9
$LTSCALE
 40
0.5
  9
$OSMODE
 70
   255
  9
$ATTMODE
 70
     1
  9
$TEXTSIZE
 40
4.0
  9
$TRACEWID
 40
1.0
  9
$TEXTSTYLE
  7
STANDARD
  9
$CLAYER
  8
1TEXT
  9
$CELTYPE
  6
BYLAYER
  9
$CECOLOR
 62
   256
  9
$DIMSCALE
 40
1.0
  9
$DIMASZ
 40
2.0
  9
$DIMEXO
 40
0.0
  9
$DIMDLI
 40
7.0
  9
$DIMRND
 40
0.0
  9
$DIMDLE
 40
0.0
  9
$DIMEXE
 40
1.0
  9
$DIMTP
 40
0.0
  9
$DIMTM
 40
0.0
  9
$DIMTXT
 40
3.5
  9
$DIMCEN
 40
0.0
  9
$DIMTSZ
 40
0.0
  9
$DIMTOL
 70
     0
  9
$DIMLIM
 70
     0
  9
$DIMTIH
 70
     0
  9
$DIMTOH
 70
     0
  9
$DIMSE1
 70
     0
  9
$DIMSE2
 70
     0
  9
$DIMTAD
 70
     1
  9
$DIMZIN
 70
     8
  9
$DIMBLK
  1

  9
$DIMASO
 70
     1
  9
$DIMSHO
 70
     1
  9
$DIMPOST
  1
 
  9
$DIMAPOST
  1

  9
$DIMALT
 70
     0
  9
$DIMALTD
 70
     2
  9
$DIMALTF
 40
25.399999999999999
  9
$DIMLFAC
 40
1.0
  9
$DIMTOFL
 70
     1
  9
$DIMTVP
 40
0.0
  9
$DIMTIX
 70
     0
  9
$DIMSOXD
 70
     0
  9
$DIMSAH
 70
     1
  9
$DIMBLK1
  1
OPEN30
  9
$DIMBLK2
  1
OPEN30
  9
$DIMSTYLE
  2
NEWX10
  9
$DIMCLRD
 70
   256
  9
$DIMCLRE
 70
   256
  9
$DIMCLRT
 70
   201
  9
$DIMTFAC
 40
0.7
  9
$DIMGAP
 40
0.7
  9
$LUNITS
 70
     2
  9
$LUPREC
 70
     4
  9
$SKETCHINC
 40
1.0
  9
$FILLETRAD
 40
0.0
  9
$AUNITS
 70
     0
  9
$AUPREC
 70
     2
  9
$MENU
  1
acad
  9
$ELEVATION
 40
0.0
  9
$PELEVATION
 40
0.0
  9
$THICKNESS
 40
0.0
  9
$LIMCHECK
 70
     0
  9
$BLIPMODE
 70
     0
  9
$CHAMFERA
 40
10.0
  9
$CHAMFERB
 40
10.0
  9
$SKPOLY
 70
     0
  9
$TDCREATE
 40
2453033.7326634838
  9
$TDUPDATE
 40
2454552.5789223379
  9
$TDINDWG
 40
0.3759365856
  9
$TDUSRTIMER
 40
0.3759365856
  9
$USRTIMER
 70
     1
  9
$ANGBASE
 50
0.0
  9
$ANGDIR
 70
     0
  9
$PDMODE
 70
     0
  9
$PDSIZE
 40
0.0
  9
$PLINEWID
 40
0.0
  9
$COORDS
 70
     2
  9
$SPLFRAME
 70
     0
  9
$SPLINETYPE
 70
     6
  9
$SPLINESEGS
 70
     8
  9
$ATTDIA
 70
     0
  9
$ATTREQ
 70
     1
  9
$HANDLING
 70
     1
  9
$HANDSEED
  5
A4EA
  9
$SURFTAB1
 70
     6
  9
$SURFTAB2
 70
     6
  9
$SURFTYPE
 70
     6
  9
$SURFU
 70
     6
  9
$SURFV
 70
     6
  9
$UCSNAME
  2

  9
$UCSORG
 10
0.0
 20
0.0
 30
0.0
  9
$UCSXDIR
 10
1.0
 20
0.0
 30
0.0
  9
$UCSYDIR
 10
0.0
 20
1.0
 30
0.0
  9
$PUCSNAME
  2

  9
$PUCSORG
 10
0.0
 20
0.0
 30
0.0
  9
$PUCSXDIR
 10
1.0
 20
0.0
 30
0.0
  9
$PUCSYDIR
 10
0.0
 20
1.0
 30
0.0
  9
$USERI1
 70
     0
  9
$USERI2
 70
     0
  9
$USERI3
 70
     0
  9
$USERI4
 70
     0
  9
$USERI5
 70
     0
  9
$USERR1
 40
0.0
  9
$USERR2
 40
0.0
  9
$USERR3
 40
0.0
  9
$USERR4
 40
0.0
  9
$USERR5
 40
0.0
  9
$WORLDVIEW
 70
     1
  9
$SHADEDGE
 70
     3
  9
$SHADEDIF
 70
    70
  9
$TILEMODE
 70
     1
  9
$MAXACTVP
 70
    48
  9
$PLIMCHECK
 70
     0
  9
$PEXTMIN
 10
1.0000000000000000E+020
 20
1.0000000000000000E+020
 30
1.0000000000000000E+020
  9
$PEXTMAX
 10
-1.0000000000000000E+020
 20
-1.0000000000000000E+020
 30
-1.0000000000000000E+020
  9
$PLIMMIN
 10
0.0
 20
0.0
  9
$PLIMMAX
 10
420.0
 20
297.0
  9
$UNITMODE
 70
     0
  9
$VISRETAIN
 70
     1
  9
$PLINEGEN
 70
     0
  9
$PSLTSCALE
 70
     1
  0
ENDSEC
  0
SECTION
  2
TABLES
  0
TABLE
  2
VPORT
 70
     4
  0
VPORT
  2
*ACTIVE
 70
     0
 10
0.0
 20
0.0
 11
1.0
 21
1.0
 12
-141.2864269310829
 22
-1760.482746360814
 13
0.0
 23
0.0
 14
10.0
 24
10.0
 15
10.0
 25
10.0
 16
0.0
 26
0.0
 36
1.0
 17
0.0
 27
0.0
 37
0.0
 40
215.5102784258811
 41
1.508086253369272
 42
50.0
 43
0.0
 44
0.0
 50
0.0
 51
0.0
 71
     0
 72
   100
 73
     1
 74
     1
 75
     0
 76
     0
 77
     0
 78
     0
  0
ENDTAB
  0
TABLE
  2
LTYPE
 70
    15
  0
LTYPE
  2
CONTINUOUS
 70
     0
  3
Solid line
 72
    65
 73
     0
 40
0.0
  0
LTYPE
  2
CENTER2
 70
     0
  3
Center (.5x) ___ _ ___ _ ___ _ ___ _ ___ _ ___
 72
    65
 73
     4
 40
28.574999999999999
 49
19.050000000000001
 49
-3.1749999999999989
 49
3.1749999999999989
 49
-3.1749999999999989
  0
LTYPE
  2
XREF1|CENTER2
 70
    48
  3
Center (.5x) ___ _ ___ _ ___ _ ___ _ ___ _ ___
 72
    65
 73
     4
 40
28.574999999999999
 49
19.050000000000001
 49
-3.1749999999999989
 49
3.1749999999999989
 49
-3.1749999999999989
  0
LTYPE
  2
HIDDEN
 70
     0
  3
Hidden __ __ __ __ __ __ __ __ __ __ __ __ __ _
 72
    65
 73
     2
 40
9.5249999999999986
 49
6.3499999999999988
 49
-3.1749999999999989
  0
LTYPE
  2
A3WAKUDAKE|CENTER2
 70
    48
  3
Center (.5x) ___ _ ___ _ ___ _ ___ _ ___ _ ___
 72
    65
 73
     4
 40
28.574999999999999
 49
19.050000000000001
 49
-3.1749999999999989
 49
3.1749999999999989
 49
-3.1749999999999989
  0
ENDTAB
  0
TABLE
  2
LAYER
 70
    43
  0
LAYER
  2
0
 70
     0
 62
     7
  6
CONTINUOUS
  0
LAYER
  2
1CENTER
 70
     0
 62
     7
  6
CENTER2
  0
LAYER
  2
1TEXT
 70
     0
 62
     7
  6
CONTINUOUS
  0
LAYER
  2
1DIM
 70
     0
 62
     7
  6
CONTINUOUS
  0
LAYER
  2
1HIDDEN
 70
     0
 62
     7
  6
HIDDEN
  0
LAYER
  2
01
 70
     0
 62
     1
  6
CONTINUOUS
  0
LAYER
  2
XREF1|1CENTER
 70
    48
 62
     7
  6
XREF1|CENTER2
  0
LAYER
  2
A3WAKUDAKE|THICK
 70
    48
 62
     7
  6
CONTINUOUS
  0
LAYER
  2
A3WAKUDAKE|POINT
 70
    48
 62
     7
  6
CONTINUOUS
  0
LAYER
  2
A3WAKUDAKE|1CENTER
 70
    48
 62
     7
  6
A3WAKUDAKE|CENTER2
  0
LAYER
  2
A3WAKUDAKE|0-6
 70
    48
 62
     7
  6
CONTINUOUS
  0
LAYER
  2
A3WAKUDAKE|1DIM
 70
    48
 62
     7
  6
CONTINUOUS
  0
ENDTAB
  0
TABLE
  2
STYLE
 70
    22
  0
STYLE
  2
STANDARD
 70
     0
 40
0.0
 41
1.0
 50
0.0
 71
     0
 42
4.0
  3
txt.shx
  4
extfont.shx
  0
ENDTAB
  0
TABLE
  2
VIEW
 70
     0
  0
ENDTAB
  0
TABLE
  2
UCS
 70
     0
  0
ENDTAB
  0
TABLE
  2
APPID
 70
     9
  0
APPID
  2
ACAD
 70
     0
  0
APPID
  2
DRAWINGVARIABLESXDATA
 70
     0
  0
APPID
  2
CONTENTTABDATA
 70
     0
  0
APPID
  2
CONTENTCURRENTTAB
 70
     0
  0
APPID
  2
CONTENTBLOCKDESCRIPTION
 70
     0
  0
APPID
  2
CONTENTBLOCKICON
 70
     0
  0
APPID
  2
CONTENTLONGBLOCKNAME
 70
     0
  0
APPID
  2
ACAD_PSEXT
 70
     0
  0
APPID
  2
ACAD_DSTYLE_DIMTEXT_FILL
 70
     0
  0
ENDTAB
  0
TABLE
  2
DIMSTYLE
 70
     8
  0
DIMSTYLE
  2
NEWX10
 70
     0
  3
 
  4

  5

  6
OPEN30
  7
OPEN30
 40
1.0
 41
2.0
 42
0.0
 43
7.0
 44
1.0
 45
0.0
 46
0.0
 47
0.0
 48
0.0
140
3.5
141
0.0
142
0.0
143
25.399999999999999
144
1.0
145
0.0
146
0.7
147
0.7
 71
     0
 72
     0
 73
     0
 74
     0
 75
     0
 76
     0
 77
     1
 78
     8
170
     0
171
     2
172
     1
173
     1
174
     0
175
     0
176
   256
177
   256
178
   201
  0
ENDTAB
  0
ENDSEC
  0
SECTION
  2
BLOCKS
  0
BLOCK
  8
0
  2
$MODEL_SPACE
 70
     0
 10
0.0
 20
0.0
 30
0.0
  3
$MODEL_SPACE
  1

  0
ENDBLK
  5
1A
  8
0
  0
BLOCK
 67
     1
  8
0
  2
$PAPER_SPACE
 70
     0
 10
0.0
 20
0.0
 30
0.0
  3
$PAPER_SPACE
  1

  0
ENDBLK
  5
17
 67
     1
  8
0
  0
BLOCK
  8
0
  2
_OPEN30
 70
     0
 10
0.0
 20
0.0
 30
0.0
  3
_OPEN30
  1

  0
LINE
  5
44
  8
0
  6
BYBLOCK
 62
     0
 10
-1.0
 20
0.26794919
 30
0.0
 11
0.0
 21
0.0
 31
0.0
  0
LINE
  5
45
  8
0
  6
BYBLOCK
 62
     0
 10
0.0
 20
0.0
 30
0.0
 11
-1.0
 21
-0.26794919
 31
0.0
  0
LINE
  5
46
  8
0
  6
BYBLOCK
 62
     0
 10
0.0
 20
0.0
 30
0.0
 11
-1.0
 21
0.0
 31
0.0
  0
ENDBLK
  5
47
  8
0
  0
BLOCK
  8
0
  2
XREF1
 70
    36
 10
0.0
 20
0.0
 30
0.0
  3
XREF1
  1
D:\ACLT\FORMAT\KAWAJUN(9)図面用.dwg
  0
ENDBLK
  5
5D
  8
0
  0
BLOCK
  8
0
  2
A3WAKUDAKE
 70
    36
 10
0.0
 20
0.0
 30
0.0
  3
A3WAKUDAKE
  1
D:\ACLT\FORMAT\A3WAKUdake.dwg
  0
ENDBLK
  5
6DC
  8
0
  0
BLOCK
  8
0
  2
*U15
 70
     1
 10
0.0
 20
0.0
 30
0.0
  3
*U15
  1

  0
TEXT
  5
A4CB
  8
1DIM
 62
   201
 10
-177.90197525835251
 20
-1715.2642148460691
 30
0.0
 40
3.5
  1
50 
  0
ENDBLK
  5
A4CD
  8
0
  0
BLOCK
  8
0
  2
*U16
 70
     1
 10
0.0
 20
0.0
 30
0.0
  3
*U16
  1

  0
TEXT
  5
A4CF
  8
1DIM
 62
   201
 10
-179.66685623491929
 20
-1810.264214846067
 30
0.0
 40
3.5
  1
P40 
  0
ENDBLK
  5
A4D1
  8
0
  0
BLOCK
  8
0
  2
*U17
 70
     1
 10
0.0
 20
0.0
 30
0.0
  3
*U17
  1

  0
TEXT
  5
A4D3
  8
1DIM
 62
   201
 10
-153.95850387815261
 20
-1810.2642148460641
 30
0.0
 40
3.5
  1
5 
  0
ENDBLK
  5
A4D5
  8
0
  0
BLOCK
  8
0
  2
*U18
 70
     1
 10
0.0
 20
0.0
 30
0.0
  3
*U18
  1

  0
TEXT
  5
A4D7
  8
1DIM
 62
   201
 10
-198.97344192501919
 20
-1810.264214846067
 30
0.0
 40
3.5
  1
5 
  0
ENDBLK
  5
A4D9
  8
0
  0
BLOCK
  8
0
  2
*U19
 70
     1
 10
0.0
 20
0.0
 30
0.0
  3
*U19
  1

  0
TEXT
  5
A4DB
  8
1DIM
 62
   201
 10
-121.0067752583525
 20
-1771.3808704060191
 30
0.0
 40
3.5
  1
25 
 50
90.0
  0
ENDBLK
  5
A4DD
  8
0
  0
BLOCK
  8
0
  2
*U20
 70
     1
 10
0.0
 20
0.0
 30
0.0
  3
*U20
  1

  0
TEXT
  5
A4DF
  8
1DIM
 62
   201
 10
-131.00677525835249
 20
-1692.692495803328
 30
0.0
 40
3.5
  1
9 
 50
90.0
  0
ENDBLK
  5
A4E1
  8
0
  0
BLOCK
  8
0
  2
*U21
 70
     1
 10
0.0
 20
0.0
 30
0.0
  3
*U21
  1

  0
TEXT
  5
A4E3
  8
1DIM
 62
   201
 10
-131.00677525835241
 20
-1775.131432572686
 30
0.0
 40
3.5
  1
16 
 50
90.0
  0
ENDBLK
  5
A4E5
  8
0
  0
BLOCK
  8
0
  2
*U22
 70
     1
 10
0.0
 20
0.0
 30
0.0
  3
*U22
  1

  0
TEXT
  5
A4E7
  8
1DIM
 62
   201
 10
-178.20852290158589
 20
-1800.264214846067
 30
0.0
 40
3.5
  1
33 
  0
ENDBLK
  5
A4E9
  8
0
  0
ENDSEC
  0
SECTION
  2
ENTITIES
  0
TEXT
  5
30E6
  8
1TEXT
 10
-200.2471752583522
 20
-1665.9642148460671
 30
0.0
 40
7.0
  1
PC063S
 41
1.0098214000000001
  0
LINE
  5
8CD0
  8
1CENTER
 10
-155.27697525835251
 20
-1694.525864846067
 30
0.0
 11
-155.27697525835251
 21
-1688.525864846067
 31
0.0
  0
LINE
  5
8CD1
  8
1CENTER
 10
-158.27697525835251
 20
-1691.525864846067
 30
0.0
 11
-152.27697525835251
 21
-1691.525864846067
 31
0.0
  0
LINE
  5
8CD2
  8
1CENTER
 10
-195.27697525835251
 20
-1694.525864846067
 30
0.0
 11
-195.27697525835251
 21
-1688.525864846067
 31
0.0
  0
LINE
  5
8CD3
  8
1CENTER
 10
-198.27697525835251
 20
-1691.525864846067
 30
0.0
 11
-192.27697525835251
 21
-1691.525864846067
 31
0.0
  0
LINE
  5
8CDC
  8
1CENTER
 10
-105.86847202839419
 20
-1774.5667749208701
 30
0.0
 11
-105.86847202839419
 21
-1782.5667749208701
 31
0.0
  0
LINE
  5
91A5
  8
1CENTER
 10
-195.3067752583527
 20
-1774.963290375686
 30
0.0
 11
-195.3067752583527
 21
-1782.963290375686
 31
0.0
  0
LINE
  5
91A6
  8
1CENTER
 10
-155.27693721148589
 20
-1774.963312589115
 30
0.0
 11
-155.27693721148589
 21
-1782.963312589115
 31
0.0
  0
TEXT
  5
9D81
  8
1TEXT
 10
-200.0358584285926
 20
-1837.1981872597451
 30
0.0
 40
4.0
  1
材質：亜鉛ダイキャスト
 72
     1
 11
-174.56919176192591
 21
-1837.1981872597451
 31
0.0
  0
LINE
  5
A26C
  8
01
 10
-193.2918752583526
 20
-1695.9642148460671
 30
0.0
 11
-157.26207525835241
 21
-1695.9642148460671
 31
0.0
  0
LINE
  5
A26E
  8
01
 10
-193.2918752583526
 20
-1687.0875048460671
 30
0.0
 11
-157.26207525835241
 21
-1687.0875048460671
 31
0.0
  0
ARC
  5
A270
  8
01
 10
-192.11067525835259
 20
-1686.041974846067
 30
0.0
 40
10.0
 50
217.54015000000319
 51
262.45985999999931
  0
ARC
  5
A271
  8
01
 10
-193.2918752583526
 20
-1694.9642148460671
 30
0.0
 40
1.0
 50
262.45985999999931
 51
270.0
  0
ARC
  5
A272
  8
01
 10
-199.2471752583522
 20
-1691.525854846067
 30
0.0
 40
1.0
 50
142.45984999999681
 51
217.54015000000319
  0
ARC
  5
A273
  8
01
 10
-193.2918752583526
 20
-1688.0875048460671
 30
0.0
 40
1.0
 50
90.0
 51
97.540141999999705
  0
ARC
  5
A274
  8
01
 10
-192.11067525835259
 20
-1697.009744846067
 30
0.0
 40
10.0
 50
97.540141999999705
 51
142.45984999999681
  0
ARC
  5
A276
  8
01
 10
-158.44297525835259
 20
-1686.041974846067
 30
0.0
 40
10.0
 50
277.54014000000069
 51
322.4598600000013
  0
ARC
  5
A277
  8
01
 10
-157.26207525835241
 20
-1694.9642148460671
 30
0.0
 40
1.0
 50
270.0
 51
277.54014000000069
  0
ARC
  5
A278
  8
01
 10
-151.3067752583527
 20
-1691.525854846067
 30
0.0
 40
1.0
 50
322.4598600000013
 51
37.54014400000402
  0
ARC
  5
A279
  8
01
 10
-157.26207525835241
 20
-1688.0875048460671
 30
0.0
 40
1.0
 50
82.45985599999976
 51
90.0
  0
ARC
  5
A27A
  8
01
 10
-158.44297525835259
 20
-1697.009744846067
 30
0.0
 40
10.0
 50
37.54014400000402
 51
82.45985599999976
  0
ARC
  5
A2C6
  8
01
 10
-175.3067752583527
 20
-1780.9642148460671
 30
0.0
 40
25.0
 50
0.0
 51
180.000010000001
  0
ARC
  5
A2C7
  8
01
 10
-175.3067752583527
 20
-1780.9642148460671
 30
0.0
 40
16.332208999999999
 50
0.0
 51
180.000010000001
  0
LINE
  5
A2C9
  8
01
 10
-200.30677525835279
 20
-1780.9642148460671
 30
0.0
 11
-191.63897525835259
 21
-1780.9642148460671
 31
0.0
  0
LINE
  5
A2CB
  8
01
 10
-158.9744752583527
 20
-1780.9642148460671
 30
0.0
 11
-150.30677525835321
 21
-1780.9642148460671
 31
0.0
  0
ARC
  5
A2CE
  8
01
 10
-100.3845752583528
 20
-1764.1005648460671
 30
0.0
 40
10.0
 50
127.5401500000019
 51
172.45985999999789
  0
ARC
  5
A2CF
  8
01
 10
-111.35237525835321
 20
-1764.1005648460671
 30
0.0
 40
10.0
 50
7.5401428999980826
 51
52.45985499999675
  0
ARC
  5
A2D0
  8
01
 10
-105.868475258353
 20
-1756.9642148460659
 30
0.0
 40
1.0
 50
52.45985499999675
 51
127.5401500000019
  0
LINE
  5
A2D1
  8
01
 10
-110.3067752583528
 20
-1762.855444846067
 30
0.0
 11
-110.3067752583528
 21
-1780.9642148460671
 31
0.0
  0
LINE
  5
A2D2
  8
01
 10
-101.4301752583532
 20
-1762.919594846067
 30
0.0
 11
-101.4301752583532
 21
-1780.9642148460671
 31
0.0
  0
ARC
  5
A2D3
  8
1HIDDEN
 10
-109.3067752583528
 20
-1762.919594846067
 30
0.0
 40
1.0
 50
180.0
 51
247.54015000000169
  0
ARC
  5
A2D4
  8
1HIDDEN
 10
-105.868475258353
 20
-1754.6022748460671
 30
0.0
 40
10.0
 50
247.5401399999985
 51
292.45986000000153
  0
ARC
  5
A2D5
  8
1HIDDEN
 10
-102.4301752583532
 20
-1762.919594846067
 30
0.0
 40
1.0
 50
292.45986000000153
 51
0.0
  0
ARC
  5
A2D6
  8
01
 10
-109.3067752583528
 20
-1762.919594846067
 30
0.0
 40
1.0
 50
172.45985999999789
 51
180.0
  0
ARC
  5
A2D7
  8
01
 10
-102.4301752583532
 20
-1762.919594846067
 30
0.0
 40
1.0
 50
0.0
 51
7.5401428999980826
  0
LINE
  5
A2D8
  8
01
 10
-110.3067752583528
 20
-1780.9642148460671
 30
0.0
 11
-101.4301752583532
 21
-1780.9642148460671
 31
0.0
  0
LINE
  5
A31D
  8
1DIM
 10
-200.24717525835231
 20
-1861.9642148460671
 30
0.0
 11
-130.24717525835231
 21
-1861.9642148460671
 31
0.0
  0
LINE
  5
A31E
  8
1DIM
 10
-200.24717525835231
 20
-1854.9642148460671
 30
0.0
 11
-130.24717525835231
 21
-1854.9642148460671
 31
0.0
  0
LINE
  5
A31F
  8
1DIM
 10
-200.24717525835231
 20
-1847.9642148460671
 30
0.0
 11
-130.24717525835231
 21
-1847.9642148460671
 31
0.0
  0
LINE
  5
A320
  8
1DIM
 10
-200.24717525835231
 20
-1840.9642148460671
 30
0.0
 11
-130.24717525835231
 21
-1840.9642148460671
 31
0.0
  0
TEXT
  5
A321
  8
1TEXT
 10
-193.4947943059708
 20
-1846.4642148460671
 30
0.0
 40
4.0
  1
表面処理：
 72
     1
 11
-182.84717525835171
 21
-1846.4642148460671
 31
0.0
  0
TEXT
  5
A322
  8
1TEXT
 10
-192.18050859168511
 20
-1860.305492173851
 30
0.0
 40
4.0
  1
クローム
 72
     1
 11
-182.84717525835171
 21
-1860.305492173851
 31
0.0
  0
LINE
  5
A323
  8
1DIM
 10
-200.24717525835231
 20
-1840.9642148460671
 30
0.0
 11
-200.24717525835189
 21
-1861.9642148460671
 31
0.0
  0
TEXT
  5
A324
  8
1TEXT
 10
-154.64717525835169
 20
-1846.4642148460671
 30
0.0
 40
4.0
  1
コード
 72
     1
 11
-147.84717525835171
 21
-1846.4642148460671
 31
0.0
  0
TEXT
  5
A325
  8
1TEXT
 10
-162.84717525835171
 20
-1853.4642148460671
 30
0.0
 40
4.0
  1
PC063XGS
 72
     1
 11
-147.84717525835171
 21
-1853.4642148460671
 31
0.0
  0
LINE
  5
A326
  8
1DIM
 10
-165.24717525835231
 20
-1840.9642148460671
 30
0.0
 11
-165.24717525835189
 21
-1861.9642148460671
 31
0.0
  0
TEXT
  5
A327
  8
1TEXT
 10
-194.0471752583517
 20
-1853.4642148460671
 30
0.0
 40
4.0
  1
本金メッキ
 72
     1
 11
-182.84717525835171
 21
-1853.4642148460671
 31
0.0
  0
LINE
  5
A328
  8
1DIM
 10
-130.24717525835231
 20
-1840.9642148460671
 30
0.0
 11
-130.24717525835189
 21
-1861.9642148460671
 31
0.0
  0
TEXT
  5
A329
  8
1TEXT
 10
-162.84717525835171
 20
-1860.4642148460671
 30
0.0
 40
4.0
  1
PC063XCS
 72
     1
 11
-147.84717525835171
 21
-1860.4642148460671
 31
0.0
  0
LINE
  5
A39E
  8
01
 10
-199.2471752583522
 20
-1691.525854846067
 30
0.0
 11
-151.3067752583527
 21
-1691.525854846067
 31
0.0
  0
LINE
  5
A44A
  8
1DIM
 10
-191.63897525835259
 20
-1780.9642148460671
 30
0.0
 11
-191.63897525835259
 21
-1801.9642148460671
 31
0.0
  0
LINE
  5
A44B
  8
1DIM
 10
-158.944737211486
 20
-1780.9641926326381
 30
0.0
 11
-158.944737211486
 21
-1801.9642148460671
 31
0.0
  0
LINE
  5
A44C
  8
1DIM
 10
-189.63897525835259
 20
-1800.9642148460671
 30
0.0
 11
-160.944737211486
 21
-1800.9642148460671
 31
0.0
  0
TEXT
  5
A450
  8
1TEXT
 10
-93.585716837318287
 20
-1798.8869234593701
 30
0.0
 40
3.5
  1
M4-5
  0
SOLID
  5
A451
  8
1DIM
 10
-105.13306289227479
 20
-1782.853729113077
 30
0.0
 11
-105.8684772508565
 21
-1780.9642114941321
 31
0.0
 12
-104.5599984947025
 22
-1782.5130802606211
 32
0.0
 13
-104.5599984947025
 23
-1782.5130802606211
 33
0.0
  0
LINE
  5
A453
  8
1DIM
 10
-175.3067752583527
 20
-1764.6320058460669
 30
0.0
 11
-129.3067752583527
 21
-1764.6320058460669
 31
0.0
  0
LINE
  5
A454
  8
1DIM
 10
-150.30673721148611
 20
-1780.9641926326381
 30
0.0
 11
-129.3067752583527
 21
-1780.9641926326381
 31
0.0
  0
LINE
  5
A455
  8
1DIM
 10
-130.3067752583527
 20
-1766.6320058460669
 30
0.0
 11
-130.3067752583527
 21
-1778.9641926326381
 31
0.0
  0
LINE
  5
A459
  8
1DIM
 10
-157.130854447367
 20
-1687.096151680558
 30
0.0
 11
-129.30677525835279
 21
-1687.096151680558
 31
0.0
  0
LINE
  5
A45A
  8
1DIM
 10
-157.13076784059379
 20
-1695.9555065927641
 30
0.0
 11
-129.30677525835279
 21
-1695.9555065927641
 31
0.0
  0
LINE
  5
A45B
  8
1DIM
 10
-130.30677525835279
 20
-1689.096151680558
 30
0.0
 11
-130.30677525835279
 21
-1693.9555065927641
 31
0.0
  0
LINE
  5
A45F
  8
1DIM
 10
-175.3067752583527
 20
-1755.9642148460671
 30
0.0
 11
-119.3067752583527
 21
-1755.9642148460671
 31
0.0
  0
LINE
  5
A460
  8
1DIM
 10
-150.30673721148611
 20
-1780.9641926326381
 30
0.0
 11
-119.3067752583527
 21
-1780.9641926326381
 31
0.0
  0
LINE
  5
A461
  8
1DIM
 10
-120.3067752583527
 20
-1757.9642148460671
 30
0.0
 11
-120.3067752583527
 21
-1778.9641926326381
 31
0.0
  0
LINE
  5
A465
  8
1DIM
 10
-195.3067752583527
 20
-1782.963290375686
 30
0.0
 11
-195.3067752583527
 21
-1811.9642148460671
 31
0.0
  0
LINE
  5
A466
  8
1DIM
 10
-200.30677525835239
 20
-1780.9642192093911
 30
0.0
 11
-200.30677525835239
 21
-1811.9642148460671
 31
0.0
  0
LINE
  5
A467
  8
1DIM
 10
-193.3067752583527
 20
-1810.9642148460671
 30
0.0
 11
-191.3067752583527
 21
-1810.9642148460671
 31
0.0
  0
LINE
  5
A468
  8
1DIM
 10
-202.30677525835239
 20
-1810.9642148460671
 30
0.0
 11
-204.30677525835239
 21
-1810.9642148460671
 31
0.0
  0
LINE
  5
A469
  8
1DIM
 10
-195.3067752583527
 20
-1810.9642148460671
 30
0.0
 11
-200.30677525835239
 21
-1810.9642148460671
 31
0.0
  0
LINE
  5
A46D
  8
1DIM
 10
-155.27693721148589
 20
-1782.963312589115
 30
0.0
 11
-155.27693721148589
 21
-1811.9642148460639
 31
0.0
  0
LINE
  5
A46E
  8
1DIM
 10
-150.30673721148611
 20
-1780.9641926326381
 30
0.0
 11
-150.30673721148611
 21
-1811.9642148460639
 31
0.0
  0
LINE
  5
A46F
  8
1DIM
 10
-157.27693721148589
 20
-1810.9642148460639
 30
0.0
 11
-159.27693721148589
 21
-1810.9642148460639
 31
0.0
  0
LINE
  5
A470
  8
1DIM
 10
-148.30673721148611
 20
-1810.9642148460639
 30
0.0
 11
-146.30673721148611
 21
-1810.9642148460639
 31
0.0
  0
LINE
  5
A471
  8
1DIM
 10
-155.27693721148589
 20
-1810.9642148460639
 30
0.0
 11
-150.30673721148611
 21
-1810.9642148460639
 31
0.0
  0
LINE
  5
A475
  8
1DIM
 10
-195.3067752583527
 20
-1782.963290375686
 30
0.0
 11
-195.3067752583527
 21
-1811.9642148460671
 31
0.0
  0
LINE
  5
A476
  8
1DIM
 10
-155.27693721148589
 20
-1782.963312589115
 30
0.0
 11
-155.27693721148589
 21
-1811.9642148460671
 31
0.0
  0
LINE
  5
A477
  8
1DIM
 10
-193.3067752583527
 20
-1810.9642148460671
 30
0.0
 11
-157.27693721148589
 21
-1810.9642148460671
 31
0.0
  0
LINE
  5
A47B
  8
1DIM
 10
-200.2471752583522
 20
-1691.525854846067
 30
0.0
 11
-200.2471752583522
 21
-1716.9642148460689
 31
0.0
  0
LINE
  5
A47C
  8
1DIM
 10
-150.3067752583527
 20
-1691.525854846067
 30
0.0
 11
-150.3067752583527
 21
-1716.9642148460689
 31
0.0
  0
LINE
  5
A47D
  8
1DIM
 10
-198.2471752583522
 20
-1715.9642148460689
 30
0.0
 11
-152.3067752583527
 21
-1715.9642148460689
 31
0.0
  0
TEXT
  5
A481
  8
1DIM
 10
-177.90197525835251
 20
-1715.2642148460691
 30
0.0
 40
3.5
  1
50 
  0
LINE
  5
A482
  8
0
  6
BYBLOCK
 10
-152.3067752583527
 20
-1715.428316466069
 30
0.0
 11
-150.3067752583527
 21
-1715.9642148460689
 31
0.0
  0
LINE
  5
A483
  8
0
  6
BYBLOCK
 10
-150.3067752583527
 20
-1715.9642148460689
 30
0.0
 11
-152.3067752583527
 21
-1716.5001132260691
 31
0.0
  0
LINE
  5
A484
  8
0
  6
BYBLOCK
 10
-150.3067752583527
 20
-1715.9642148460689
 30
0.0
 11
-152.3067752583527
 21
-1715.9642148460689
 31
0.0
  0
LINE
  5
A485
  8
0
  6
BYBLOCK
 10
-198.2471752583522
 20
-1716.5001132260691
 30
0.0
 11
-200.2471752583522
 21
-1715.9642148460689
 31
0.0
  0
LINE
  5
A486
  8
0
  6
BYBLOCK
 10
-200.2471752583522
 20
-1715.9642148460689
 30
0.0
 11
-198.2471752583522
 21
-1715.428316466069
 31
0.0
  0
LINE
  5
A487
  8
0
  6
BYBLOCK
 10
-200.2471752583522
 20
-1715.9642148460689
 30
0.0
 11
-198.2471752583522
 21
-1715.9642148460689
 31
0.0
  0
TEXT
  5
A488
  8
1DIM
 10
-179.66685623491929
 20
-1810.264214846067
 30
0.0
 40
3.5
  1
P40 
  0
LINE
  5
A489
  8
0
  6
BYBLOCK
 10
-157.27693721148589
 20
-1810.4283164660669
 30
0.0
 11
-155.27693721148589
 21
-1810.9642148460671
 31
0.0
  0
LINE
  5
A48A
  8
0
  6
BYBLOCK
 10
-155.27693721148589
 20
-1810.9642148460671
 30
0.0
 11
-157.27693721148589
 21
-1811.500113226067
 31
0.0
  0
LINE
  5
A48B
  8
0
  6
BYBLOCK
 10
-155.27693721148589
 20
-1810.9642148460671
 30
0.0
 11
-157.27693721148589
 21
-1810.9642148460671
 31
0.0
  0
LINE
  5
A48C
  8
0
  6
BYBLOCK
 10
-193.3067752583527
 20
-1811.500113226067
 30
0.0
 11
-195.3067752583527
 21
-1810.9642148460671
 31
0.0
  0
LINE
  5
A48D
  8
0
  6
BYBLOCK
 10
-195.3067752583527
 20
-1810.9642148460671
 30
0.0
 11
-193.3067752583527
 21
-1810.4283164660669
 31
0.0
  0
LINE
  5
A48E
  8
0
  6
BYBLOCK
 10
-195.3067752583527
 20
-1810.9642148460671
 30
0.0
 11
-193.3067752583527
 21
-1810.9642148460671
 31
0.0
  0
TEXT
  5
A48F
  8
1DIM
 10
-153.95850387815261
 20
-1810.2642148460641
 30
0.0
 40
3.5
  1
5 
  0
LINE
  5
A490
  8
0
  6
BYBLOCK
 10
-148.30673721148611
 20
-1811.5001132260641
 30
0.0
 11
-150.30673721148611
 21
-1810.9642148460639
 31
0.0
  0
LINE
  5
A491
  8
0
  6
BYBLOCK
 10
-150.30673721148611
 20
-1810.9642148460639
 30
0.0
 11
-148.30673721148611
 21
-1810.428316466064
 31
0.0
  0
LINE
  5
A492
  8
0
  6
BYBLOCK
 10
-150.30673721148611
 20
-1810.9642148460639
 30
0.0
 11
-148.30673721148611
 21
-1810.9642148460639
 31
0.0
  0
LINE
  5
A493
  8
0
  6
BYBLOCK
 10
-157.27693721148589
 20
-1810.428316466064
 30
0.0
 11
-155.27693721148589
 21
-1810.9642148460639
 31
0.0
  0
LINE
  5
A494
  8
0
  6
BYBLOCK
 10
-155.27693721148589
 20
-1810.9642148460639
 30
0.0
 11
-157.27693721148589
 21
-1811.5001132260641
 31
0.0
  0
LINE
  5
A495
  8
0
  6
BYBLOCK
 10
-155.27693721148589
 20
-1810.9642148460639
 30
0.0
 11
-157.27693721148589
 21
-1810.9642148460639
 31
0.0
  0
TEXT
  5
A496
  8
1DIM
 10
-198.97344192501919
 20
-1810.264214846067
 30
0.0
 40
3.5
  1
5 
  0
LINE
  5
A497
  8
0
  6
BYBLOCK
 10
-202.30677525835239
 20
-1810.4283164660669
 30
0.0
 11
-200.30677525835239
 21
-1810.9642148460671
 31
0.0
  0
LINE
  5
A498
  8
0
  6
BYBLOCK
 10
-200.30677525835239
 20
-1810.9642148460671
 30
0.0
 11
-202.30677525835239
 21
-1811.500113226067
 31
0.0
  0
LINE
  5
A499
  8
0
  6
BYBLOCK
 10
-200.30677525835239
 20
-1810.9642148460671
 30
0.0
 11
-202.30677525835239
 21
-1810.9642148460671
 31
0.0
  0
LINE
  5
A49A
  8
0
  6
BYBLOCK
 10
-193.3067752583527
 20
-1811.500113226067
 30
0.0
 11
-195.3067752583527
 21
-1810.9642148460671
 31
0.0
  0
LINE
  5
A49B
  8
0
  6
BYBLOCK
 10
-195.3067752583527
 20
-1810.9642148460671
 30
0.0
 11
-193.3067752583527
 21
-1810.4283164660669
 31
0.0
  0
LINE
  5
A49C
  8
0
  6
BYBLOCK
 10
-195.3067752583527
 20
-1810.9642148460671
 30
0.0
 11
-193.3067752583527
 21
-1810.9642148460671
 31
0.0
  0
TEXT
  5
A49D
  8
1DIM
 10
-121.0067752583525
 20
-1771.3808704060191
 30
0.0
 40
3.5
  1
25 
 50
90.0
  0
LINE
  5
A49E
  8
0
  6
BYBLOCK
 10
-119.77087687835269
 20
-1778.9641926326381
 30
0.0
 11
-120.3067752583527
 21
-1780.9641926326381
 31
0.0
  0
LINE
  5
A49F
  8
0
  6
BYBLOCK
 10
-120.3067752583527
 20
-1780.9641926326381
 30
0.0
 11
-120.84267363835269
 21
-1778.9641926326381
 31
0.0
  0
LINE
  5
A4A0
  8
0
  6
BYBLOCK
 10
-120.3067752583527
 20
-1780.9641926326381
 30
0.0
 11
-120.3067752583527
 21
-1778.9641926326381
 31
0.0
  0
LINE
  5
A4A1
  8
0
  6
BYBLOCK
 10
-120.84267363835269
 20
-1757.9642148460671
 30
0.0
 11
-120.3067752583527
 21
-1755.9642148460671
 31
0.0
  0
LINE
  5
A4A2
  8
0
  6
BYBLOCK
 10
-120.3067752583527
 20
-1755.9642148460671
 30
0.0
 11
-119.77087687835269
 21
-1757.9642148460671
 31
0.0
  0
LINE
  5
A4A3
  8
0
  6
BYBLOCK
 10
-120.3067752583527
 20
-1755.9642148460671
 30
0.0
 11
-120.3067752583527
 21
-1757.9642148460671
 31
0.0
  0
TEXT
  5
A4A4
  8
1DIM
 10
-131.00677525835249
 20
-1692.692495803328
 30
0.0
 40
3.5
  1
9 
 50
90.0
  0
LINE
  5
A4A5
  8
0
  6
BYBLOCK
 10
-129.77087687835279
 20
-1693.9555065927641
 30
0.0
 11
-130.30677525835279
 21
-1695.9555065927641
 31
0.0
  0
LINE
  5
A4A6
  8
0
  6
BYBLOCK
 10
-130.30677525835279
 20
-1695.9555065927641
 30
0.0
 11
-130.84267363835281
 21
-1693.9555065927641
 31
0.0
  0
LINE
  5
A4A7
  8
0
  6
BYBLOCK
 10
-130.30677525835279
 20
-1695.9555065927641
 30
0.0
 11
-130.30677525835279
 21
-1693.9555065927641
 31
0.0
  0
LINE
  5
A4A8
  8
0
  6
BYBLOCK
 10
-130.84267363835281
 20
-1689.096151680558
 30
0.0
 11
-130.30677525835279
 21
-1687.096151680558
 31
0.0
  0
LINE
  5
A4A9
  8
0
  6
BYBLOCK
 10
-130.30677525835279
 20
-1687.096151680558
 30
0.0
 11
-129.77087687835279
 21
-1689.096151680558
 31
0.0
  0
LINE
  5
A4AA
  8
0
  6
BYBLOCK
 10
-130.30677525835279
 20
-1687.096151680558
 30
0.0
 11
-130.30677525835279
 21
-1689.096151680558
 31
0.0
  0
TEXT
  5
A4AB
  8
1DIM
 10
-131.00677525835241
 20
-1775.131432572686
 30
0.0
 40
3.5
  1
16 
 50
90.0
  0
LINE
  5
A4AC
  8
0
  6
BYBLOCK
 10
-129.77087687835271
 20
-1778.9641926326381
 30
0.0
 11
-130.3067752583527
 21
-1780.9641926326381
 31
0.0
  0
LINE
  5
A4AD
  8
0
  6
BYBLOCK
 10
-130.3067752583527
 20
-1780.9641926326381
 30
0.0
 11
-130.84267363835269
 21
-1778.9641926326381
 31
0.0
  0
LINE
  5
A4AE
  8
0
  6
BYBLOCK
 10
-130.3067752583527
 20
-1780.9641926326381
 30
0.0
 11
-130.3067752583527
 21
-1778.9641926326381
 31
0.0
  0
LINE
  5
A4AF
  8
0
  6
BYBLOCK
 10
-130.84267363835269
 20
-1766.6320058460669
 30
0.0
 11
-130.3067752583527
 21
-1764.6320058460669
 31
0.0
  0
LINE
  5
A4B0
  8
0
  6
BYBLOCK
 10
-130.3067752583527
 20
-1764.6320058460669
 30
0.0
 11
-129.77087687835271
 21
-1766.6320058460669
 31
0.0
  0
LINE
  5
A4B1
  8
0
  6
BYBLOCK
 10
-130.3067752583527
 20
-1764.6320058460669
 30
0.0
 11
-130.3067752583527
 21
-1766.6320058460669
 31
0.0
  0
LINE
  5
A4B2
  8
1DIM
 10
-104.8465306934886
 20
-1782.6834046868489
 30
0.0
 11
-94.798507649794971
 21
-1799.5869234593699
 31
0.0
  0
LINE
  5
A4B3
  8
1DIM
 10
-94.798507649794971
 20
-1799.5869234593699
 30
0.0
 11
-78.265174316461639
 21
-1799.5869234593699
 31
0.0
  0
TEXT
  5
A4B4
  8
1DIM
 10
-178.20852290158589
 20
-1800.264214846067
 30
0.0
 40
3.5
  1
33 
  0
LINE
  5
A4B5
  8
0
  6
BYBLOCK
 10
-160.944737211486
 20
-1800.4283164660669
 30
0.0
 11
-158.944737211486
 21
-1800.9642148460671
 31
0.0
  0
LINE
  5
A4B6
  8
0
  6
BYBLOCK
 10
-158.944737211486
 20
-1800.9642148460671
 30
0.0
 11
-160.944737211486
 21
-1801.500113226067
 31
0.0
  0
LINE
  5
A4B7
  8
0
  6
BYBLOCK
 10
-158.944737211486
 20
-1800.9642148460671
 30
0.0
 11
-160.944737211486
 21
-1800.9642148460671
 31
0.0
  0
LINE
  5
A4B8
  8
0
  6
BYBLOCK
 10
-189.63897525835259
 20
-1801.500113226067
 30
0.0
 11
-191.63897525835259
 21
-1800.9642148460671
 31
0.0
  0
LINE
  5
A4B9
  8
0
  6
BYBLOCK
 10
-191.63897525835259
 20
-1800.9642148460671
 30
0.0
 11
-189.63897525835259
 21
-1800.4283164660669
 31
0.0
  0
LINE
  5
A4BA
  8
0
  6
BYBLOCK
 10
-191.63897525835259
 20
-1800.9642148460671
 30
0.0
 11
-189.63897525835259
 21
-1800.9642148460671
 31
0.0
  0
VIEWPORT
  5
57
 67
     1
  8
0
 10
-12.71820606546885
 20
68.581313688406453
 30
0.0
 40
657.67205041569355
 41
436.09710581630441
 68
     1
 69
     1
1001
ACAD
1000
MVIEW
1002
{
1070
    16
1010
0.0
1020
0.0
1030
0.0
1010
0.0
1020
0.0
1030
1.0
1040
0.0
1040
436.09710581630441
1040
-12.71820606546885
1040
68.581313688406453
1040
50.0
1040
0.0
1040
0.0
1070
     0
1070
   100
1070
     1
1070
     1
1070
     0
1070
     0
1070
     0
1070
     0
1040
0.0
1040
0.0
1040
0.0
1040
10.0
1040
10.0
1040
10.0
1040
10.0
1070
     0
1002
{
1002
}
1002
}
  0
ENDSEC
  0
EOF
