  0
SECTION
  2
HEADER
  9
$ACADVER
  1
AC1012
  9
$DWGCODEPAGE
  3
ansi_932
  9
$INSBASE
 10
0.0
 20
0.0
 30
0.0
  9
$EXTMIN
 10
-244.8096388918888
 20
-2240.861489824605
 30
0.0
  9
$EXTMAX
 10
-58.31150150249341
 20
-2061.480602302047
 30
0.0
  9
$LIMMIN
 10
0.0
 20
0.0
  9
$LIMMAX
 10
420.0
 20
297.0
  9
$ORTHOMODE
 70
     0
  9
$REGENMODE
 70
     1
  9
$FILLMODE
 70
     1
  9
$QTEXTMODE
 70
     0
  9
$MIRRTEXT
 70
     0
  9
$DRAGMODE
 70
     2
  9
$LTSCALE
 40
0.5
  9
$OSMODE
 70
 30847
  9
$ATTMODE
 70
     1
  9
$TEXTSIZE
 40
4.0
  9
$TRACEWID
 40
1.0
  9
$TEXTSTYLE
  7
STANDARD
  9
$CLAYER
  8
1TEXT
  9
$CELTYPE
  6
BYLAYER
  9
$CECOLOR
 62
   256
  9
$CELTSCALE
 40
1.0
  9
$DELOBJ
 70
     1
  9
$DISPSILH
 70
     0
  9
$DIMSCALE
 40
1.0
  9
$DIMASZ
 40
2.0
  9
$DIMEXO
 40
0.0
  9
$DIMDLI
 40
7.0
  9
$DIMRND
 40
0.0
  9
$DIMDLE
 40
0.0
  9
$DIMEXE
 40
1.0
  9
$DIMTP
 40
0.0
  9
$DIMTM
 40
0.0
  9
$DIMTXT
 40
3.5
  9
$DIMCEN
 40
0.0
  9
$DIMTSZ
 40
0.0
  9
$DIMTOL
 70
     0
  9
$DIMLIM
 70
     0
  9
$DIMTIH
 70
     0
  9
$DIMTOH
 70
     0
  9
$DIMSE1
 70
     0
  9
$DIMSE2
 70
     0
  9
$DIMTAD
 70
     1
  9
$DIMZIN
 70
     8
  9
$DIMBLK
  1

  9
$DIMASO
 70
     1
  9
$DIMSHO
 70
     1
  9
$DIMPOST
  1
 
  9
$DIMAPOST
  1

  9
$DIMALT
 70
     0
  9
$DIMALTD
 70
     2
  9
$DIMALTF
 40
25.4
  9
$DIMLFAC
 40
1.0
  9
$DIMTOFL
 70
     1
  9
$DIMTVP
 40
0.0
  9
$DIMTIX
 70
     0
  9
$DIMSOXD
 70
     0
  9
$DIMSAH
 70
     1
  9
$DIMBLK1
  1
OPEN30
  9
$DIMBLK2
  1
OPEN30
  9
$DIMSTYLE
  2
NEWX10
  9
$DIMCLRD
 70
   256
  9
$DIMCLRE
 70
   256
  9
$DIMCLRT
 70
   201
  9
$DIMTFAC
 40
0.7
  9
$DIMGAP
 40
0.7
  9
$DIMJUST
 70
     0
  9
$DIMSD1
 70
     0
  9
$DIMSD2
 70
     0
  9
$DIMTOLJ
 70
     1
  9
$DIMTZIN
 70
     8
  9
$DIMALTZ
 70
     0
  9
$DIMALTTZ
 70
     0
  9
$DIMFIT
 70
     2
  9
$DIMUPT
 70
     0
  9
$DIMUNIT
 70
     2
  9
$DIMDEC
 70
     2
  9
$DIMTDEC
 70
     4
  9
$DIMALTU
 70
     2
  9
$DIMALTTD
 70
     2
  9
$DIMTXSTY
  7
STANDARD
  9
$DIMAUNIT
 70
     0
  9
$LUNITS
 70
     2
  9
$LUPREC
 70
     4
  9
$SKETCHINC
 40
1.0
  9
$FILLETRAD
 40
0.0
  9
$AUNITS
 70
     0
  9
$AUPREC
 70
     2
  9
$MENU
  1
acad
  9
$ELEVATION
 40
0.0
  9
$PELEVATION
 40
0.0
  9
$THICKNESS
 40
0.0
  9
$LIMCHECK
 70
     0
  9
$CHAMFERA
 40
10.0
  9
$CHAMFERB
 40
10.0
  9
$CHAMFERC
 40
20.0
  9
$CHAMFERD
 40
0.0
  9
$SKPOLY
 70
     0
  9
$TDCREATE
 40
2453033.732663484
  9
$TDUPDATE
 40
2458149.716514144
  9
$TDINDWG
 40
0.3669178935
  9
$TDUSRTIMER
 40
0.3669178935
  9
$USRTIMER
 70
     1
  9
$ANGBASE
 50
0.0
  9
$ANGDIR
 70
     0
  9
$PDMODE
 70
     0
  9
$PDSIZE
 40
0.0
  9
$PLINEWID
 40
0.0
  9
$COORDS
 70
     2
  9
$SPLFRAME
 70
     0
  9
$SPLINETYPE
 70
     6
  9
$SPLINESEGS
 70
     8
  9
$ATTDIA
 70
     0
  9
$ATTREQ
 70
     1
  9
$HANDLING
 70
     1
  9
$HANDSEED
  5
B73B
  9
$SURFTAB1
 70
     6
  9
$SURFTAB2
 70
     6
  9
$SURFTYPE
 70
     6
  9
$SURFU
 70
     6
  9
$SURFV
 70
     6
  9
$UCSNAME
  2

  9
$UCSORG
 10
0.0
 20
0.0
 30
0.0
  9
$UCSXDIR
 10
1.0
 20
0.0
 30
0.0
  9
$UCSYDIR
 10
0.0
 20
1.0
 30
0.0
  9
$PUCSNAME
  2

  9
$PUCSORG
 10
0.0
 20
0.0
 30
0.0
  9
$PUCSXDIR
 10
1.0
 20
0.0
 30
0.0
  9
$PUCSYDIR
 10
0.0
 20
1.0
 30
0.0
  9
$USERI1
 70
     0
  9
$USERI2
 70
     0
  9
$USERI3
 70
     0
  9
$USERI4
 70
     0
  9
$USERI5
 70
     0
  9
$USERR1
 40
0.0
  9
$USERR2
 40
0.0
  9
$USERR3
 40
0.0
  9
$USERR4
 40
0.0
  9
$USERR5
 40
0.0
  9
$WORLDVIEW
 70
     1
  9
$SHADEDGE
 70
     3
  9
$SHADEDIF
 70
    70
  9
$TILEMODE
 70
     1
  9
$MAXACTVP
 70
    48
  9
$PINSBASE
 10
0.0
 20
0.0
 30
0.0
  9
$PLIMCHECK
 70
     0
  9
$PEXTMIN
 10
1.000000000000000E+20
 20
1.000000000000000E+20
 30
1.000000000000000E+20
  9
$PEXTMAX
 10
-1.000000000000000E+20
 20
-1.000000000000000E+20
 30
-1.000000000000000E+20
  9
$PLIMMIN
 10
0.0
 20
0.0
  9
$PLIMMAX
 10
420.0
 20
297.0
  9
$UNITMODE
 70
     0
  9
$VISRETAIN
 70
     1
  9
$PLINEGEN
 70
     0
  9
$PSLTSCALE
 70
     1
  9
$TREEDEPTH
 70
  3020
  9
$PICKSTYLE
 70
     1
  9
$CMLSTYLE
  2
STANDARD
  9
$CMLJUST
 70
     0
  9
$CMLSCALE
 40
20.0
  9
$SAVEIMAGES
 70
     1
  0
ENDSEC
  0
SECTION
  2
CLASSES
  0
CLASS
  1
DICTIONARYVAR
  2
AcDbDictionaryVar
  3
ObjectDBX Classes
 90
        0
280
     0
281
     0
  0
CLASS
  1
IDBUFFER
  2
AcDbIdBuffer
  3
ObjectDBX Classes
 90
    32768
280
     0
281
     0
  0
CLASS
  1
LWPOLYLINE
  2
AcDbPolyline
  3
ObjectDBX Classes
 90
    32768
280
     0
281
     1
  0
CLASS
  1
ACDBDICTIONARYWDFLT
  2
AcDbDictionaryWithDefault
  3
ObjectDBX Classes
 90
    32768
280
     0
281
     0
  0
CLASS
  1
ACDBPLACEHOLDER
  2
AcDbPlaceHolder
  3
ObjectDBX Classes
 90
        0
280
     0
281
     0
  0
CLASS
  1
LAYOUT
  2
AcDbLayout
  3
ObjectDBX Classes
 90
        0
280
     0
281
     0
  0
CLASS
  1
TABLESTYLE
  2
AcDbTableStyle
  3
ObjectDBX Classes
 90
     4095
280
     0
281
     0
  0
CLASS
  1
SORTENTSTABLE
  2
AcDbSortentsTable
  3
ObjectDBX Classes
 90
    32768
280
     0
281
     0
  0
CLASS
  1
DIMASSOC
  2
AcDbDimAssoc
  3
"AcDbDimAssoc|Product Desc:     AcDim ARX App For Dimension|Company:          Autodesk, Inc.|WEB Address:      www.autodesk.com"
 90
        0
280
     0
281
     0
  0
CLASS
  1
VISUALSTYLE
  2
AcDbVisualStyle
  3
ObjectDBX Classes
 90
     4095
280
     0
281
     0
  0
CLASS
  1
SCALE
  2
AcDbScale
  3
ObjectDBX Classes
 90
     1153
280
     0
281
     0
  0
CLASS
  1
MATERIAL
  2
AcDbMaterial
  3
ObjectDBX Classes
 90
     1153
280
     0
281
     0
  0
CLASS
  1
MLEADERSTYLE
  2
AcDbMLeaderStyle
  3
ACDB_MLEADERSTYLE_CLASS
 90
     4095
280
     0
281
     0
  0
CLASS
  1
SUN
  2
AcDbSun
  3
SCENEOE
 90
     1153
280
     0
281
     0
  0
CLASS
  1
CELLSTYLEMAP
  2
AcDbCellStyleMap
  3
ObjectDBX Classes
 90
     1152
280
     0
281
     0
  0
CLASS
  1
XRECORD
  2
AcDbXrecord
  3
ObjectDBX Classes
 90
    32768
280
     0
281
     0
  0
CLASS
  1
HATCH
  2
AcDbHatch
  3
ObjectDBX Classes
 90
    32768
280
     0
281
     1
  0
ENDSEC
  0
SECTION
  2
TABLES
  0
TABLE
  2
VPORT
  5
8
330
0
100
AcDbSymbolTable
 70
     1
  0
VPORT
  5
AA08
330
8
100
AcDbSymbolTableRecord
100
AcDbViewportTableRecord
  2
*ACTIVE
 70
     0
 10
0.0
 20
0.0
 11
1.0
 21
1.0
 12
-151.5605701971911
 22
-2151.171046063326
 13
0.0
 23
0.0
 14
10.0
 24
10.0
 15
10.0
 25
10.0
 16
0.0
 26
0.0
 36
1.0
 17
0.0
 27
0.0
 37
0.0
 40
192.5984266031668
 41
2.233782129742962
 42
50.0
 43
0.0
 44
0.0
 50
0.0
 51
0.0
 71
    16
 72
   100
 73
     1
 74
     1
 75
     0
 76
     0
 77
     0
 78
     0
  0
ENDTAB
  0
TABLE
  2
LTYPE
  5
5
330
0
100
AcDbSymbolTable
 70
     3
  0
LTYPE
  5
12
330
5
100
AcDbSymbolTableRecord
100
AcDbLinetypeTableRecord
  2
BYBLOCK
 70
     0
  3

 72
    65
 73
     0
 40
0.0
  0
LTYPE
  5
13
330
5
100
AcDbSymbolTableRecord
100
AcDbLinetypeTableRecord
  2
BYLAYER
 70
     0
  3

 72
    65
 73
     0
 40
0.0
  0
LTYPE
  5
14
330
5
100
AcDbSymbolTableRecord
100
AcDbLinetypeTableRecord
  2
CONTINUOUS
 70
     0
  3
Solid line
 72
    65
 73
     0
 40
0.0
  0
LTYPE
  5
26
330
5
100
AcDbSymbolTableRecord
100
AcDbLinetypeTableRecord
  2
CENTER2
 70
     0
  3
Center (.5x) ___ _ ___ _ ___ _ ___ _ ___ _ ___
 72
    65
 73
     4
 40
28.575
 49
19.05
 74
     0
 49
-3.175
 74
     0
 49
3.175
 74
     0
 49
-3.175
 74
     0
  0
LTYPE
  5
FF
330
5
100
AcDbSymbolTableRecord
100
AcDbLinetypeTableRecord
  2
HIDDEN
 70
     0
  3
Hidden __ __ __ __ __ __ __ __ __ __ __ __ __ _
 72
    65
 73
     2
 40
9.524999999999999
 49
6.35
 74
     0
 49
-3.175
 74
     0
  0
ENDTAB
  0
TABLE
  2
LAYER
  5
2
102
{ACAD_XDICTIONARY
360
B28E
102
}
330
0
100
AcDbSymbolTable
 70
     7
  0
LAYER
  5
E
330
2
100
AcDbSymbolTableRecord
100
AcDbLayerTableRecord
  2
0
 70
     0
 62
     7
  6
CONTINUOUS
  0
LAYER
  5
29
330
2
100
AcDbSymbolTableRecord
100
AcDbLayerTableRecord
  2
1CENTER
 70
     0
 62
     7
  6
CENTER2
  0
LAYER
  5
31
330
2
100
AcDbSymbolTableRecord
100
AcDbLayerTableRecord
  2
1TEXT
 70
     0
 62
     7
  6
CONTINUOUS
  0
LAYER
  5
101
330
2
100
AcDbSymbolTableRecord
100
AcDbLayerTableRecord
  2
1DIM
 70
     0
 62
     7
  6
CONTINUOUS
  0
LAYER
  5
102
330
2
100
AcDbSymbolTableRecord
100
AcDbLayerTableRecord
  2
1HIDDEN
 70
     0
 62
     7
  6
HIDDEN
  0
LAYER
  5
25F
330
2
100
AcDbSymbolTableRecord
100
AcDbLayerTableRecord
  2
01
 70
     0
 62
     1
  6
CONTINUOUS
  0
LAYER
  5
26D
330
2
100
AcDbSymbolTableRecord
100
AcDbLayerTableRecord
  2
1HATCH
 70
     0
 62
     7
  6
CONTINUOUS
  0
ENDTAB
  0
TABLE
  2
STYLE
  5
3
330
0
100
AcDbSymbolTable
 70
     1
  0
STYLE
  5
F
330
3
100
AcDbSymbolTableRecord
100
AcDbTextStyleTableRecord
  2
STANDARD
 70
     0
 40
0.0
 41
1.0
 50
0.0
 71
     0
 42
4.0
  3
txt.shx
  4
extfont.shx
  0
ENDTAB
  0
TABLE
  2
VIEW
  5
6
330
0
100
AcDbSymbolTable
 70
     0
  0
ENDTAB
  0
TABLE
  2
UCS
  5
7
330
0
100
AcDbSymbolTable
 70
     0
  0
ENDTAB
  0
TABLE
  2
APPID
  5
9
330
0
100
AcDbSymbolTable
 70
    12
  0
APPID
  5
10
330
9
100
AcDbSymbolTableRecord
100
AcDbRegAppTableRecord
  2
ACAD
 70
     0
  0
APPID
  5
21
330
9
100
AcDbSymbolTableRecord
100
AcDbRegAppTableRecord
  2
DRAWINGVARIABLESXDATA
 70
     0
  0
APPID
  5
64
330
9
100
AcDbSymbolTableRecord
100
AcDbRegAppTableRecord
  2
CONTENTTABDATA
 70
     0
  0
APPID
  5
65
330
9
100
AcDbSymbolTableRecord
100
AcDbRegAppTableRecord
  2
CONTENTCURRENTTAB
 70
     0
  0
APPID
  5
66
330
9
100
AcDbSymbolTableRecord
100
AcDbRegAppTableRecord
  2
CONTENTBLOCKDESCRIPTION
 70
     0
  0
APPID
  5
67
330
9
100
AcDbSymbolTableRecord
100
AcDbRegAppTableRecord
  2
CONTENTBLOCKICON
 70
     0
  0
APPID
  5
68
330
9
100
AcDbSymbolTableRecord
100
AcDbRegAppTableRecord
  2
CONTENTLONGBLOCKNAME
 70
     0
  0
APPID
  5
5A9
330
9
100
AcDbSymbolTableRecord
100
AcDbRegAppTableRecord
  2
ACAD_PSEXT
 70
     0
  0
APPID
  5
18AC
330
9
100
AcDbSymbolTableRecord
100
AcDbRegAppTableRecord
  2
ACAD_DSTYLE_DIMTEXT_FILL
 70
     0
  0
APPID
  5
AB44
330
9
100
AcDbSymbolTableRecord
100
AcDbRegAppTableRecord
  2
ACADANNOTATIVE
 70
     0
  0
APPID
  5
AB45
330
9
100
AcDbSymbolTableRecord
100
AcDbRegAppTableRecord
  2
ACDBBLOCKREPETAG
 70
     0
  0
APPID
  5
B350
330
9
100
AcDbSymbolTableRecord
100
AcDbRegAppTableRecord
  2
ACAD_MLEADERVER
 70
     0
  0
ENDTAB
  0
TABLE
  2
DIMSTYLE
  5
A
330
0
100
AcDbSymbolTable
 70
     1
  0
DIMSTYLE
105
48
102
{ACAD_REACTORS
102
}
330
A
100
AcDbSymbolTableRecord
100
AcDbDimStyleTableRecord
  2
NEWX10
 70
     0
  3
 
  4

  5

  6
OPEN30
  7
OPEN30
 40
1.0
 41
2.0
 42
0.0
 43
7.0
 44
1.0
 45
0.0
 46
0.0
 47
0.0
 48
0.0
140
3.5
141
0.0
142
0.0
143
25.4
144
1.0
145
0.0
146
0.7
147
0.7
 71
     0
 72
     0
 73
     0
 74
     0
 75
     0
 76
     0
 77
     1
 78
     8
170
     0
171
     2
172
     1
173
     1
174
     0
175
     0
176
   256
177
   256
178
   201
179
     2
270
     2
271
     2
272
     4
273
     2
274
     2
340
F
275
     0
280
     0
281
     0
282
     0
283
     1
284
     8
285
     0
286
     0
287
     2
288
     0
  0
ENDTAB
  0
TABLE
  2
BLOCK_RECORD
  5
1
330
0
100
AcDbSymbolTable
 70
     8
  0
BLOCK_RECORD
  5
18
102
{ACAD_XDICTIONARY
360
6E9
102
}
330
1
100
AcDbSymbolTableRecord
100
AcDbBlockTableRecord
  2
*MODEL_SPACE
  0
BLOCK_RECORD
  5
15
102
{ACAD_XDICTIONARY
360
59B
102
}
330
1
100
AcDbSymbolTableRecord
100
AcDbBlockTableRecord
  2
*PAPER_SPACE
  0
BLOCK_RECORD
  5
42
330
1
100
AcDbSymbolTableRecord
100
AcDbBlockTableRecord
  2
_OPEN30
  0
BLOCK_RECORD
  5
AB95
330
1
100
AcDbSymbolTableRecord
100
AcDbBlockTableRecord
  2
A3WAKUKAWAJUN2017_HYOUDAI_
  0
BLOCK_RECORD
  5
B59B
330
1
100
AcDbSymbolTableRecord
100
AcDbBlockTableRecord
  2
*X23
  0
BLOCK_RECORD
  5
B5E9
330
1
100
AcDbSymbolTableRecord
100
AcDbBlockTableRecord
  2
*X24
  0
BLOCK_RECORD
  5
B63B
330
1
100
AcDbSymbolTableRecord
100
AcDbBlockTableRecord
  2
*X25
  0
BLOCK_RECORD
  5
B68C
330
1
100
AcDbSymbolTableRecord
100
AcDbBlockTableRecord
  2
*X26
  0
BLOCK_RECORD
  5
B6C9
330
1
100
AcDbSymbolTableRecord
100
AcDbBlockTableRecord
  2
*X27
  0
BLOCK_RECORD
  5
B709
330
1
100
AcDbSymbolTableRecord
100
AcDbBlockTableRecord
  2
*X28
  0
ENDTAB
  0
ENDSEC
  0
SECTION
  2
BLOCKS
  0
BLOCK
  5
19
330
18
100
AcDbEntity
  8
0
100
AcDbBlockBegin
  2
*MODEL_SPACE
 70
     0
 10
0.0
 20
0.0
 30
0.0
  3
*MODEL_SPACE
  1

  0
ENDBLK
  5
1A
330
18
100
AcDbEntity
  8
0
100
AcDbBlockEnd
  0
BLOCK
  5
16
330
15
100
AcDbEntity
 67
     1
  8
0
100
AcDbBlockBegin
  2
*PAPER_SPACE
 70
     0
 10
0.0
 20
0.0
 30
0.0
  3
*PAPER_SPACE
  1

  0
ENDBLK
  5
17
330
15
100
AcDbEntity
 67
     1
  8
0
100
AcDbBlockEnd
  0
BLOCK
  5
43
330
42
100
AcDbEntity
  8
0
100
AcDbBlockBegin
  2
_OPEN30
 70
     0
 10
0.0
 20
0.0
 30
0.0
  3
_OPEN30
  1

  0
LINE
  5
44
330
42
100
AcDbEntity
  8
0
  6
BYBLOCK
 62
     0
100
AcDbLine
 10
-1.0
 20
0.26794919
 30
0.0
 11
0.0
 21
0.0
 31
0.0
  0
LINE
  5
45
330
42
100
AcDbEntity
  8
0
  6
BYBLOCK
 62
     0
100
AcDbLine
 10
0.0
 20
0.0
 30
0.0
 11
-1.0
 21
-0.26794919
 31
0.0
  0
LINE
  5
46
330
42
100
AcDbEntity
  8
0
  6
BYBLOCK
 62
     0
100
AcDbLine
 10
0.0
 20
0.0
 30
0.0
 11
-1.0
 21
0.0
 31
0.0
  0
ENDBLK
  5
47
330
42
100
AcDbEntity
  8
0
100
AcDbBlockEnd
  0
BLOCK
  5
B296
330
AB95
100
AcDbEntity
  8
0
100
AcDbBlockBegin
  2
A3WAKUKAWAJUN2017_HYOUDAI_
 70
     0
 10
0.0
 20
0.0
 30
0.0
  3
A3WAKUKAWAJUN2017_HYOUDAI_
  1

  0
LINE
  5
AB97
330
AB95
100
AcDbEntity
  8
0
100
AcDbLine
 10
13.26299999998673
 20
-0.0001000000000317
 30
0.0
 11
9.236999999990758
 21
8.999899999990987
 31
0.0
1001
ACAD
1000
ASC_BOUNDS
1002
{
1070
    19
1005
ABD8
1002
}
  0
LINE
  5
AB98
330
AB95
100
AcDbEntity
  8
0
100
AcDbLine
 10
5.657999999994331
 20
0.9999999999989768
 30
0.0
 11
9.236999999990758
 21
8.999999999991019
 31
0.0
1001
ACAD
1000
ASC_BOUNDS
1002
{
1070
    19
1005
ABD8
1002
}
  0
LINE
  5
AB99
330
AB95
100
AcDbEntity
  8
0
100
AcDbLine
 10
18.59199999998134
 20
-0.2368999999997641
 30
0.0
 11
16.46099999998353
 21
5.432899999994561
 31
0.0
1001
ACAD
1000
ASC_BOUNDS
1002
{
1070
    19
1005
ABD9
1002
}
  0
LINE
  5
AB9A
330
AB95
100
AcDbEntity
  8
0
100
AcDbLine
 10
18.59199999998134
 20
-0.2368999999997641
 30
0.0
 11
22.38199999997767
 21
8.763099999991255
 31
0.0
1001
ACAD
1000
ASC_BOUNDS
1002
{
1070
    19
1005
ABD9
1002
}
  0
LINE
  5
AB9B
330
AB95
100
AcDbEntity
  8
0
100
AcDbLine
 10
14.32899999998563
 20
-0.2368999999997641
 30
0.0
 11
16.46099999998353
 21
5.432899999994561
 31
0.0
1001
ACAD
1000
ASC_BOUNDS
1002
{
1070
    19
1005
ABD9
1002
}
  0
LINE
  5
AB9C
330
AB95
100
AcDbEntity
  8
0
100
AcDbLine
 10
14.32899999998563
 20
-0.2368999999997641
 30
0.0
 11
10.53899999998941
 21
8.763099999991255
 31
0.0
1001
ACAD
1000
ASC_BOUNDS
1002
{
1070
    19
1005
ABD9
1002
}
  0
LINE
  5
AB9D
330
AB95
100
AcDbEntity
  8
0
100
AcDbLine
 10
19.53899999998043
 20
-0.0001000000000317
 30
0.0
 11
23.56599999997638
 21
8.999899999990987
 31
0.0
1001
ACAD
1000
ASC_BOUNDS
1002
{
1070
    19
1005
ABDA
1002
}
  0
LINE
  5
AB9E
330
AB95
100
AcDbEntity
  8
0
100
AcDbLine
 10
26.97358892824991
 20
1.383099999991202
 30
0.0
 11
23.56599999997638
 21
8.999899999990987
 31
0.0
1001
ACAD
1000
ASC_BOUNDS
1002
{
1070
    19
1005
ABDA
1002
}
  0
LINE
  5
AB9F
330
AB95
100
AcDbEntity
  8
0
100
AcDbLine
 10
5.657999999994331
 20
0.9999999999989768
 30
0.0
 11
3.181999999996833
 21
4.668599999995308
 31
0.0
1001
ACAD
1000
ASC_BOUNDS
1002
{
1070
    19
1005
ABD8
1002
}
  0
LINE
  5
ABA0
330
AB95
100
AcDbEntity
  8
0
100
AcDbLine
 10
4.617999999995391
 20
-0.0001000000000317
 30
0.0
 11
1.420999999998571
 21
4.736799999995242
 31
0.0
1001
ACAD
1000
ASC_BOUNDS
1002
{
1070
    19
1005
ABD8
1002
}
  0
LINE
  5
ABA1
330
AB95
100
AcDbEntity
  8
0
100
AcDbLine
 10
1.420999999998571
 20
8.763099999991255
 30
0.0
 11
1.420999999998571
 21
0.0
 31
0.0
1001
ACAD
1000
ASC_BOUNDS
1002
{
1070
    19
1005
ABDD
1002
}
  0
LINE
  5
ABA2
330
AB95
100
AcDbEntity
  8
0
100
AcDbLine
 10
0.0
 20
8.763099999991255
 30
0.0
 11
0.0
 21
0.0
 31
0.0
1001
ACAD
1000
ASC_BOUNDS
1002
{
1070
    19
1005
ABDD
1002
}
  0
LINE
  5
ABA3
330
AB95
100
AcDbEntity
  8
0
100
AcDbLine
 10
6.766999999993232
 20
-0.0001000000000317
 30
0.0
 11
7.826999999992154
 21
2.368399999997621
 31
0.0
1001
ACAD
1000
ASC_BOUNDS
1002
{
1070
    19
1005
ABD8
1002
}
  0
LINE
  5
ABA4
330
AB95
100
AcDbEntity
  8
0
100
AcDbLine
 10
0.0
 20
0.0
 30
0.0
 11
1.420999999998571
 21
0.0
 31
0.0
1001
ACAD
1000
ASC_BOUNDS
1002
{
1070
    19
1005
ABDD
1002
}
  0
LINE
  5
ABA5
330
AB95
100
AcDbEntity
  8
0
100
AcDbLine
 10
4.617999999995391
 20
0.0
 30
0.0
 11
6.766999999993232
 21
0.0
 31
0.0
1001
ACAD
1000
ASC_BOUNDS
1002
{
1070
    19
1005
ABD8
1002
}
  0
LINE
  5
ABA6
330
AB95
100
AcDbEntity
  8
0
100
AcDbLine
 10
11.70599999998831
 20
-0.0001000000000317
 30
0.0
 11
10.64699999998936
 21
2.368399999997621
 31
0.0
1001
ACAD
1000
ASC_BOUNDS
1002
{
1070
    19
1005
ABD8
1002
}
  0
LINE
  5
ABA7
330
AB95
100
AcDbEntity
  8
0
100
AcDbLine
 10
7.826999999992154
 20
2.368399999997621
 30
0.0
 11
10.64699999998936
 21
2.368399999997621
 31
0.0
1001
ACAD
1000
ASC_BOUNDS
1002
{
1070
    19
1005
ABD8
1002
}
  0
LINE
  5
ABA8
330
AB95
100
AcDbEntity
  8
0
100
AcDbLine
 10
11.70599999998831
 20
0.0
 30
0.0
 11
13.26299999998673
 21
0.0
 31
0.0
1001
ACAD
1000
ASC_BOUNDS
1002
{
1070
    19
1005
ABD8
1002
}
  0
LINE
  5
ABA9
330
AB95
100
AcDbEntity
  8
0
100
AcDbLine
 10
22.15599999997789
 20
2.368399999997621
 30
0.0
 11
24.97599999997499
 21
2.368399999997621
 31
0.0
1001
ACAD
1000
ASC_BOUNDS
1002
{
1070
    19
1005
ABDA
1002
}
  0
LINE
  5
ABAA
330
AB95
100
AcDbEntity
  8
0
100
AcDbLine
 10
19.53899999998043
 20
0.0
 30
0.0
 11
21.09599999997886
 21
0.0
 31
0.0
1001
ACAD
1000
ASC_BOUNDS
1002
{
1070
    19
1005
ABDA
1002
}
  0
LINE
  5
ABAB
330
AB95
100
AcDbEntity
  8
0
100
AcDbLine
 10
21.09599999997886
 20
-0.0001000000000317
 30
0.0
 11
22.15599999997789
 21
2.368399999997621
 31
0.0
1001
ACAD
1000
ASC_BOUNDS
1002
{
1070
    19
1005
ABDA
1002
}
  0
LINE
  5
ABAC
330
AB95
100
AcDbEntity
  8
0
100
AcDbLine
 10
26.02015566812236
 20
0.0330999999912365
 30
0.0
 11
24.97599999997499
 21
2.368399999997621
 31
0.0
1001
ACAD
1000
ASC_BOUNDS
1002
{
1070
    19
1005
ABDA
1002
}
  0
LINE
  5
ABAD
330
AB95
100
AcDbEntity
  8
0
100
AcDbLine
 10
14.32399999998563
 20
3.315799999996671
 30
0.0
 11
16.46099999998353
 21
8.999899999990987
 31
0.0
1001
ACAD
1000
ASC_BOUNDS
1002
{
1070
    19
1005
ABD9
1002
}
  0
LINE
  5
ABAE
330
AB95
100
AcDbEntity
  8
0
100
AcDbLine
 10
6.432999999993513
 20
8.763099999991255
 30
0.0
 11
3.181999999996833
 21
4.668599999995308
 31
0.0
1001
ACAD
1000
ASC_BOUNDS
1002
{
1070
    19
1005
ABD8
1002
}
  0
LINE
  5
ABAF
330
AB95
100
AcDbEntity
  8
0
100
AcDbLine
 10
4.617999999995391
 20
8.763099999991255
 30
0.0
 11
1.420999999998571
 21
4.736799999995242
 31
0.0
1001
ACAD
1000
ASC_BOUNDS
1002
{
1070
    19
1005
ABD8
1002
}
  0
LINE
  5
ABB0
330
AB95
100
AcDbEntity
  8
0
100
AcDbLine
 10
0.0
 20
8.763099999991255
 30
0.0
 11
1.420999999998571
 21
8.763099999991255
 31
0.0
1001
ACAD
1000
ASC_BOUNDS
1002
{
1070
    19
1005
ABDD
1002
}
  0
LINE
  5
ABB1
330
AB95
100
AcDbEntity
  8
0
100
AcDbLine
 10
4.617999999995391
 20
8.763099999991255
 30
0.0
 11
6.432999999993513
 21
8.763099999991255
 31
0.0
1001
ACAD
1000
ASC_BOUNDS
1002
{
1070
    19
1005
ABD8
1002
}
  0
LINE
  5
ABB2
330
AB95
100
AcDbEntity
  8
0
100
AcDbLine
 10
14.32399999998563
 20
3.315799999996671
 30
0.0
 11
12.02999999998792
 21
8.763099999991255
 31
0.0
1001
ACAD
1000
ASC_BOUNDS
1002
{
1070
    19
1005
ABD9
1002
}
  0
LINE
  5
ABB3
330
AB95
100
AcDbEntity
  8
0
100
AcDbLine
 10
10.06399999998996
 20
3.670999999996297
 30
0.0
 11
9.236999999990758
 21
5.5200999999945
 31
0.0
1001
ACAD
1000
ASC_BOUNDS
1002
{
1070
    19
1005
ABD8
1002
}
  0
LINE
  5
ABB4
330
AB95
100
AcDbEntity
  8
0
100
AcDbLine
 10
8.409999999991555
 20
3.670999999996297
 30
0.0
 11
9.236999999990758
 21
5.5200999999945
 31
0.0
1001
ACAD
1000
ASC_BOUNDS
1002
{
1070
    19
1005
ABD8
1002
}
  0
LINE
  5
ABB5
330
AB95
100
AcDbEntity
  8
0
100
AcDbLine
 10
8.409999999991555
 20
3.670999999996297
 30
0.0
 11
10.06399999998996
 21
3.670999999996297
 31
0.0
1001
ACAD
1000
ASC_BOUNDS
1002
{
1070
    19
1005
ABD8
1002
}
  0
LINE
  5
ABB6
330
AB95
100
AcDbEntity
  8
0
100
AcDbLine
 10
10.53899999998941
 20
8.763099999991255
 30
0.0
 11
12.02999999998792
 21
8.763099999991255
 31
0.0
1001
ACAD
1000
ASC_BOUNDS
1002
{
1070
    19
1005
ABD9
1002
}
  0
LINE
  5
ABB7
330
AB95
100
AcDbEntity
  8
0
100
AcDbLine
 10
22.7389999999773
 20
3.670999999996297
 30
0.0
 11
23.56599999997638
 21
5.5200999999945
 31
0.0
1001
ACAD
1000
ASC_BOUNDS
1002
{
1070
    19
1005
ABDA
1002
}
  0
LINE
  5
ABB8
330
AB95
100
AcDbEntity
  8
0
100
AcDbLine
 10
22.7389999999773
 20
3.670999999996297
 30
0.0
 11
24.39299999997559
 21
3.670999999996297
 31
0.0
1001
ACAD
1000
ASC_BOUNDS
1002
{
1070
    19
1005
ABDA
1002
}
  0
LINE
  5
ABB9
330
AB95
100
AcDbEntity
  8
0
100
AcDbLine
 10
18.59799999998143
 20
3.315799999996671
 30
0.0
 11
20.89099999997916
 21
8.763099999991255
 31
0.0
1001
ACAD
1000
ASC_BOUNDS
1002
{
1070
    19
1005
ABD9
1002
}
  0
LINE
  5
ABBA
330
AB95
100
AcDbEntity
  8
0
100
AcDbLine
 10
18.59799999998143
 20
3.315799999996671
 30
0.0
 11
16.46099999998353
 21
8.999899999990987
 31
0.0
1001
ACAD
1000
ASC_BOUNDS
1002
{
1070
    19
1005
ABD9
1002
}
  0
LINE
  5
ABBB
330
AB95
100
AcDbEntity
  8
0
100
AcDbLine
 10
20.89099999997916
 20
8.763099999991255
 30
0.0
 11
22.38199999997767
 21
8.763099999991255
 31
0.0
1001
ACAD
1000
ASC_BOUNDS
1002
{
1070
    19
1005
ABD9
1002
}
  0
LINE
  5
ABBC
330
AB95
100
AcDbEntity
  8
0
100
AcDbLine
 10
24.39299999997559
 20
3.670999999996297
 30
0.0
 11
23.56599999997638
 21
5.5200999999945
 31
0.0
1001
ACAD
1000
ASC_BOUNDS
1002
{
1070
    19
1005
ABDA
1002
}
  0
LINE
  5
ABBD
330
AB95
100
AcDbEntity
  8
0
100
AcDbLine
 10
44.99999999995498
 20
-0.2368999999997641
 30
0.0
 11
40.02599999995994
 21
5.341799999994635
 31
0.0
1001
ACAD
1000
ASC_BOUNDS
1002
{
1070
    19
1005
ABDC
1002
}
  0
LINE
  5
ABBE
330
AB95
100
AcDbEntity
  8
0
100
AcDbLine
 10
40.02599999995994
 20
5.341799999994635
 30
0.0
 11
40.02599999995994
 21
0.0
 31
0.0
1001
ACAD
1000
ASC_BOUNDS
1002
{
1070
    19
1005
ABDC
1002
}
  0
LINE
  5
ABBF
330
AB95
100
AcDbEntity
  8
0
100
AcDbLine
 10
38.60499999996136
 20
8.999999999991019
 30
0.0
 11
38.60499999996136
 21
0.0
 31
0.0
1001
ACAD
1000
ASC_BOUNDS
1002
{
1070
    19
1005
ABDC
1002
}
  0
LINE
  5
ABC0
330
AB95
100
AcDbEntity
  8
0
100
AcDbLine
 10
44.99999999995498
 20
8.763099999991255
 30
0.0
 11
44.99999999995498
 21
-0.2368999999997641
 31
0.0
1001
ACAD
1000
ASC_BOUNDS
1002
{
1070
    19
1005
ABDC
1002
}
  0
LINE
  5
ABC1
330
AB95
100
AcDbEntity
  8
0
100
AcDbLine
 10
38.60499999996136
 20
0.0
 30
0.0
 11
40.02599999995994
 21
0.0
 31
0.0
1001
ACAD
1000
ASC_BOUNDS
1002
{
1070
    19
1005
ABDC
1002
}
  0
LINE
  5
ABC2
330
AB95
100
AcDbEntity
  8
0
100
AcDbLine
 10
43.57899999995641
 20
3.421199999996588
 30
0.0
 11
38.60499999996136
 21
8.999899999990987
 31
0.0
1001
ACAD
1000
ASC_BOUNDS
1002
{
1070
    19
1005
ABDC
1002
}
  0
LINE
  5
ABC3
330
AB95
100
AcDbEntity
  8
0
100
AcDbLine
 10
43.57899999995641
 20
8.763099999991255
 30
0.0
 11
43.57899999995641
 21
3.421199999996588
 31
0.0
1001
ACAD
1000
ASC_BOUNDS
1002
{
1070
    19
1005
ABDC
1002
}
  0
LINE
  5
ABC4
330
AB95
100
AcDbEntity
  8
0
100
AcDbLine
 10
43.57899999995641
 20
8.763099999991255
 30
0.0
 11
44.99999999995498
 21
8.763099999991255
 31
0.0
1001
ACAD
1000
ASC_BOUNDS
1002
{
1070
    19
1005
ABDC
1002
}
  0
LINE
  5
ABC5
330
AB95
100
AcDbEntity
  8
0
100
AcDbLine
 10
37.67199999996831
 20
8.763099999991255
 30
0.0
 11
36.23199999996837
 21
8.763099999991255
 31
0.0
  0
LINE
  5
ABC6
330
AB95
100
AcDbEntity
  8
0
100
AcDbLine
 10
31.64199999996833
 20
8.763099999991255
 30
0.0
 11
31.64199999996833
 21
2.481619422925121
 31
0.0
  0
LINE
  5
ABC7
330
AB95
100
AcDbEntity
  8
0
100
AcDbLine
 10
37.67199999996831
 20
8.763099999991255
 30
0.0
 11
37.67199999996831
 21
2.481619422925121
 31
0.0
  0
LINE
  5
ABC8
330
AB95
100
AcDbEntity
  8
0
100
AcDbLine
 10
36.23199999996837
 20
8.763099999991255
 30
0.0
 11
36.23199999996837
 21
2.481619422925064
 31
0.0
  0
LINE
  5
ABC9
330
AB95
100
AcDbEntity
  8
0
100
AcDbLine
 10
33.08199999996839
 20
8.763099999991255
 30
0.0
 11
33.08199999996839
 21
2.481619422925121
 31
0.0
  0
ARC
  5
ABCA
330
AB95
100
AcDbEntity
  8
0
100
AcDbCircle
 10
34.65699999996832
 20
3.183099999991214
 30
0.0
 40
3.420000000000007
100
AcDbArc
 50
240.0000000000255
 51
299.9999999999766
  0
ARC
  5
ABCB
330
AB95
100
AcDbEntity
  8
0
100
AcDbCircle
 10
34.65699999996832
 20
3.183099999991214
 30
0.0
 40
1.97999999999999
100
AcDbArc
 50
240.000000000026
 51
299.9999999999703
  0
LINE
  5
ABCC
330
AB95
100
AcDbEntity
  8
0
100
AcDbLine
 10
33.08199999996828
 20
8.763099999991255
 30
0.0
 11
31.64199999996833
 21
8.763099999991255
 31
0.0
  0
ARC
  5
ABCD
330
AB95
100
AcDbEntity
  8
0
100
AcDbCircle
 10
35.06199999996829
 20
2.481619422925064
 30
0.0
 40
1.17
100
AcDbArc
 50
299.9999999999699
 51
0.0
  0
ARC
  5
ABCE
330
AB95
100
AcDbEntity
  8
0
100
AcDbCircle
 10
34.25199999996835
 20
2.481619422925121
 30
0.0
 40
1.17
100
AcDbArc
 50
180.0
 51
240.0000000000238
  0
ARC
  5
ABCF
330
AB95
100
AcDbEntity
  8
0
100
AcDbCircle
 10
35.06199999996841
 20
2.481619422925121
 30
0.0
 40
2.61
100
AcDbArc
 50
299.9999999999756
 51
0.0
  0
ARC
  5
ABD0
330
AB95
100
AcDbEntity
  8
0
100
AcDbCircle
 10
34.25199999996835
 20
2.481619422925121
 30
0.0
 40
2.61
100
AcDbArc
 50
180.0
 51
240.0000000000244
  0
LINE
  5
ABD1
330
AB95
100
AcDbEntity
  8
0
100
AcDbLine
 10
29.30199999996933
 20
8.763099999991255
 30
0.0
 11
30.74199999996927
 21
8.763099999991255
 31
0.0
1001
ACAD
1000
ASC_BOUNDS
1002
{
1070
    19
1005
ABDA
1002
}
  0
LINE
  5
ABD2
330
AB95
100
AcDbEntity
  8
0
100
AcDbLine
 10
30.74199999996927
 20
8.763099999991255
 30
0.0
 11
30.74199999996927
 21
2.373099999991211
 31
0.0
1001
ACAD
1000
ASC_BOUNDS
1002
{
1070
    19
1005
ABDA
1002
}
  0
LINE
  5
ABD3
330
AB95
100
AcDbEntity
  8
0
100
AcDbLine
 10
26.02015566812236
 20
0.0330999999912365
 30
0.0
 11
28.40199999996923
 21
0.0330999999912365
 31
0.0
1001
ACAD
1000
ASC_BOUNDS
1002
{
1070
    19
1005
ABDA
1002
}
  0
LINE
  5
ABD4
330
AB95
100
AcDbEntity
  8
0
100
AcDbLine
 10
29.30199999996933
 20
8.763099999991255
 30
0.0
 11
29.30199999996933
 21
2.283099999991236
 31
0.0
1001
ACAD
1000
ASC_BOUNDS
1002
{
1070
    19
1005
ABDA
1002
}
  0
LINE
  5
ABD5
330
AB95
100
AcDbEntity
  8
0
100
AcDbLine
 10
26.97358892824991
 20
1.383099999991202
 30
0.0
 11
28.40199999996923
 21
1.383099999991202
 31
0.0
1001
ACAD
1000
ASC_BOUNDS
1002
{
1070
    19
1005
ABDA
1002
}
  0
ARC
  5
ABD6
330
AB95
100
AcDbEntity
  8
0
100
AcDbCircle
 10
28.40199999996923
 20
2.283099999991236
 30
0.0
 40
0.9
100
AcDbArc
 50
270.0
 51
0.0
1001
ACAD
1000
ASC_BOUNDS
1002
{
1070
    19
1005
ABDA
1002
}
  0
ARC
  5
ABD7
330
AB95
100
AcDbEntity
  8
0
100
AcDbCircle
 10
28.40199999996923
 20
2.373099999991211
 30
0.0
 40
2.34
100
AcDbArc
 50
270.0
 51
0.0
1001
ACAD
1000
ASC_BOUNDS
1002
{
1070
    19
1005
ABDA
1002
}
  0
INSERT
  5
ABD8
330
AB95
100
AcDbEntity
  8
0
100
AcDbBlockReference
  2
*X23
 10
0.0
 20
0.0
 30
0.0
1001
ACAD
1000
HATCH
1002
{
1070
    19
1000
ANSI37
1040
0.15
1040
0.0
1000
ASC_BOUNDS
1070
     2
1070
     2
1070
    12
1005
AB97
1005
AB98
1005
AB9F
1005
ABAE
1005
ABB1
1005
ABAF
1005
ABA0
1005
ABA5
1005
ABA3
1005
ABA7
1005
ABA6
1005
ABA8
1070
     2
1070
     3
1005
ABB3
1005
ABB5
1005
ABB4
1000
ASC_SEEDPOINT
1011
3.614004224891801
1021
2.996669441146025
1031
0.0
1000
R14_HATCH_DATA
1000
ABD8
1011
1.0
1021
0.0
1031
0.0
1011
0.0
1021
1.0
1031
0.0
1011
0.0
1021
0.0
1031
1.0
1040
0.0
1010
0.0
1020
0.0
1030
1.0
1000
ANSI37
1070
     0
1070
     1
1071
        2
1071
        7
1070
     0
1070
     1
1071
       17
1040
13.26299999998673
1040
-0.0001000000000317
1040
9.236999999990758
1040
8.999899999990987
1040
9.236999999990758
1040
8.999999999991019
1040
5.657999999994331
1040
0.9999999999989768
1040
3.181999999996833
1040
4.668599999995308
1040
6.432999999993513
1040
8.763099999991255
1040
4.617999999995391
1040
8.763099999991255
1040
1.420999999998571
1040
4.736799999995242
1040
4.617999999995391
1040
-0.0001000000000317
1040
4.617999999995391
1040
0.0
1040
6.766999999993232
1040
0.0
1040
6.766999999993232
1040
-0.0001000000000317
1040
7.826999999992154
1040
2.368399999997621
1040
10.64699999998936
1040
2.368399999997621
1040
11.70599999998831
1040
-0.0001000000000317
1040
11.70599999998831
1040
0.0
1040
13.26299999998673
1040
0.0
1071
       12
1005
AB97
1005
AB98
1005
AB9F
1005
ABAE
1005
ABB1
1005
ABAF
1005
ABA0
1005
ABA5
1005
ABA3
1005
ABA7
1005
ABA6
1005
ABA8
1071
       22
1070
     0
1070
     1
1071
        3
1040
9.236999999990758
1040
5.5200999999945
1040
10.06399999998996
1040
3.670999999996297
1040
8.409999999991555
1040
3.670999999996297
1071
        3
1005
ABB3
1005
ABB5
1005
ABB4
1070
     0
1070
     1
1040
0.0
1040
0.15
1070
     0
1070
     2
1040
0.7853981633974483
1040
49.29960901727088
1040
-10.17736998311392
1040
-0.3367596045400932
1040
0.3367596045400932
1070
     0
1040
2.356194490192345
1040
49.29960901727088
1040
-10.17736998311392
1040
-0.3367596045400932
1040
-0.3367596045400932
1070
     0
1040
0.0110235143455945
1071
        2
1040
3.614004224891801
1040
2.996669441146025
1040
0.0
1040
3.614004224891801
1040
2.996669441146025
1040
0.0
1002
}
  0
INSERT
  5
ABD9
330
AB95
100
AcDbEntity
  8
0
100
AcDbBlockReference
  2
*X24
 10
0.0
 20
0.0
 30
0.0
1001
ACAD
1000
HATCH
1002
{
1070
    19
1000
ANSI37
1040
0.15
1040
0.0
1000
ASC_BOUNDS
1070
     1
1070
     2
1070
    10
1005
AB99
1005
AB9A
1005
ABBB
1005
ABB9
1005
ABBA
1005
ABAD
1005
ABB2
1005
ABB6
1005
AB9C
1005
AB9B
1000
ASC_SEEDPOINT
1011
14.73245321214324
1021
2.798246178283421
1031
0.0
1000
R14_HATCH_DATA
1000
ABD9
1011
1.0
1021
0.0
1031
0.0
1011
0.0
1021
1.0
1031
0.0
1011
0.0
1021
0.0
1031
1.0
1040
0.0
1010
0.0
1020
0.0
1030
1.0
1000
ANSI37
1070
     0
1070
     1
1071
        1
1071
        7
1070
     0
1070
     1
1071
       10
1040
16.46099999998353
1040
5.432899999994561
1040
18.59199999998134
1040
-0.2368999999997641
1040
22.38199999997767
1040
8.763099999991255
1040
20.89099999997916
1040
8.763099999991255
1040
18.59799999998143
1040
3.315799999996671
1040
16.46099999998353
1040
8.999899999990987
1040
14.32399999998563
1040
3.315799999996671
1040
12.02999999998792
1040
8.763099999991255
1040
10.53899999998941
1040
8.763099999991255
1040
14.32899999998563
1040
-0.2368999999997641
1071
       10
1005
AB99
1005
AB9A
1005
ABBB
1005
ABB9
1005
ABBA
1005
ABAD
1005
ABB2
1005
ABB6
1005
AB9C
1005
AB9B
1070
     0
1070
     1
1040
0.0
1040
0.15
1070
     0
1070
     2
1040
0.7853981633974483
1040
49.29960901727088
1040
-10.17736998311392
1040
-0.3367596045400932
1040
0.3367596045400932
1070
     0
1040
2.356194490192345
1040
49.29960901727088
1040
-10.17736998311392
1040
-0.3367596045400932
1040
-0.3367596045400932
1070
     0
1040
0.0110235143455945
1071
        1
1040
14.73245321214324
1040
2.798246178283421
1040
0.0
1002
}
  0
INSERT
  5
ABDA
330
AB95
100
AcDbEntity
  8
0
100
AcDbBlockReference
  2
*X25
 10
0.0
 20
0.0
 30
0.0
1001
ACAD
1000
HATCH
1002
{
1070
    19
1000
ANSI37
1040
0.15
1040
0.0
1000
ASC_BOUNDS
1070
     2
1070
     2
1070
    13
1005
AB9D
1005
ABAA
1005
ABAB
1005
ABA9
1005
ABAC
1005
ABD3
1005
ABD7
1005
ABD2
1005
ABD1
1005
ABD4
1005
ABD6
1005
ABD5
1005
AB9E
1070
     2
1070
     3
1005
ABB7
1005
ABBC
1005
ABB8
1000
ASC_SEEDPOINT
1011
21.97929957367762
1021
3.294304244259308
1031
0.0
1000
R14_HATCH_DATA
1000
ABDA
1011
1.0
1021
0.0
1031
0.0
1011
0.0
1021
1.0
1031
0.0
1011
0.0
1021
0.0
1031
1.0
1040
0.0
1010
0.0
1020
0.0
1030
1.0
1000
ANSI37
1070
     0
1070
     1
1071
        2
1071
        7
1070
     1
1070
     1
1071
       15
1040
23.56599999997638
1040
8.999899999990987
1040
0.0
1040
19.53899999998043
1040
-0.0001000000000317
1040
0.0
1040
19.53899999998043
1040
0.0
1040
0.0
1040
21.09599999997886
1040
0.0
1040
0.0
1040
21.09599999997886
1040
-0.0001000000000317
1040
0.0
1040
22.15599999997789
1040
2.368399999997621
1040
0.0
1040
24.97599999997499
1040
2.368399999997621
1040
0.0
1040
26.02015566812236
1040
0.0330999999912365
1040
0.0
1040
28.40199999996923
1040
0.0330999999912365
1040
0.414213562373095
1040
30.74199999996923
1040
2.373099999991211
1040
0.0
1040
30.74199999996927
1040
8.763099999991255
1040
0.0
1040
29.30199999996933
1040
8.763099999991255
1040
0.0
1040
29.30199999996933
1040
2.283099999991236
1040
-0.414213562373095
1040
28.40199999996923
1040
1.383099999991237
1040
0.0
1040
26.97358892824991
1040
1.383099999991202
1040
0.0
1071
       13
1005
AB9D
1005
ABAA
1005
ABAB
1005
ABA9
1005
ABAC
1005
ABD3
1005
ABD7
1005
ABD2
1005
ABD1
1005
ABD4
1005
ABD6
1005
ABD5
1005
AB9E
1071
       22
1070
     0
1070
     1
1071
        3
1040
22.7389999999773
1040
3.670999999996297
1040
23.56599999997638
1040
5.5200999999945
1040
24.39299999997559
1040
3.670999999996297
1071
        3
1005
ABB7
1005
ABBC
1005
ABB8
1070
     0
1070
     1
1040
0.0
1040
0.15
1070
     0
1070
     2
1040
0.7853981633974483
1040
49.29960901727088
1040
-10.17736998311392
1040
-0.3367596045400932
1040
0.3367596045400932
1070
     0
1040
2.356194490192345
1040
49.29960901727088
1040
-10.17736998311392
1040
-0.3367596045400932
1040
-0.3367596045400932
1070
     0
1040
0.0110235143455945
1071
        2
1040
21.97929957367762
1040
3.294304244259308
1040
0.0
1040
21.97929957367762
1040
3.294304244259308
1040
0.0
1002
}
  0
INSERT
  5
ABDB
330
AB95
100
AcDbEntity
  8
0
100
AcDbBlockReference
  2
*X26
 10
0.0
 20
0.0
 30
0.0
1001
ACAD
1000
HATCH
1002
{
1070
    19
1000
ANSI37
1040
0.15
1040
0.0
1000
R14_HATCH_DATA
1000
ABDB
1011
1.0
1021
0.0
1031
0.0
1011
0.0
1021
1.0
1031
0.0
1011
0.0
1021
0.0
1031
1.0
1040
0.0
1010
0.0
1020
0.0
1030
1.0
1000
ANSI37
1070
     0
1070
     1
1071
        1
1071
        7
1070
     1
1070
     1
1071
       12
1040
31.64199999996833
1040
2.481619422925121
1040
0.2679491924310942
1040
32.94699999997067
1040
0.2212931190493919
1040
0.2679491924301353
1040
36.36699999995983
1040
0.2212931190459813
1040
0.2679491924321411
1040
37.67199999996831
1040
2.481619422928361
1040
0.0
1040
37.67199999996831
1040
8.763099999991255
1040
0.0
1040
36.23199999996837
1040
8.763099999991255
1040
0.0
1040
36.23199999996837
1040
2.481619422925064
1040
-0.2679491924310291
1040
35.64699999996708
1040
1.468369700498386
1040
-0.267949192430519
1040
33.66699999997093
1040
1.468369700497703
1040
-0.267949192431809
1040
33.08199999996839
1040
2.481619422926997
1040
0.0
1040
33.08199999996839
1040
8.763099999991255
1040
0.0
1040
31.64199999996833
1040
8.763099999991255
1040
0.0
1071
        0
1070
     0
1070
     1
1040
0.0
1040
0.15
1070
     0
1070
     2
1040
0.7853981633974483
1040
49.29960901727088
1040
-10.17736998311392
1040
-0.3367596045400932
1040
0.3367596045400932
1070
     0
1040
2.356194490192345
1040
49.29960901727088
1040
-10.17736998311392
1040
-0.3367596045400932
1040
-0.3367596045400932
1070
     0
1040
0.0110235143455945
1071
        1
1040
32.30357378967278
1040
3.988785755459219
1040
0.0
1002
}
  0
INSERT
  5
ABDC
330
AB95
100
AcDbEntity
  8
0
100
AcDbBlockReference
  2
*X27
 10
0.0
 20
0.0
 30
0.0
1001
ACAD
1000
HATCH
1002
{
1070
    19
1000
ANSI37
1040
0.15
1040
0.0
1000
ASC_BOUNDS
1070
     1
1070
     2
1070
     8
1005
ABBD
1005
ABC0
1005
ABC4
1005
ABC3
1005
ABC2
1005
ABBF
1005
ABC1
1005
ABBE
1000
ASC_SEEDPOINT
1011
39.74896370716704
1021
4.484843821435049
1031
0.0
1000
R14_HATCH_DATA
1000
ABDC
1011
1.0
1021
0.0
1031
0.0
1011
0.0
1021
1.0
1031
0.0
1011
0.0
1021
0.0
1031
1.0
1040
0.0
1010
0.0
1020
0.0
1030
1.0
1000
ANSI37
1070
     0
1070
     1
1071
        1
1071
        7
1070
     0
1070
     1
1071
        9
1040
40.02599999995994
1040
5.341799999994635
1040
44.99999999995498
1040
-0.2368999999997641
1040
44.99999999995498
1040
8.763099999991255
1040
43.57899999995641
1040
8.763099999991255
1040
43.57899999995641
1040
3.421199999996588
1040
38.60499999996136
1040
8.999899999990987
1040
38.60499999996136
1040
8.999999999991019
1040
38.60499999996136
1040
0.0
1040
40.02599999995994
1040
0.0
1071
        8
1005
ABBD
1005
ABC0
1005
ABC4
1005
ABC3
1005
ABC2
1005
ABBF
1005
ABC1
1005
ABBE
1070
     0
1070
     1
1040
0.0
1040
0.15
1070
     0
1070
     2
1040
0.7853981633974483
1040
49.29960901727088
1040
-10.17736998311392
1040
-0.3367596045400932
1040
0.3367596045400932
1070
     0
1040
2.356194490192345
1040
49.29960901727088
1040
-10.17736998311392
1040
-0.3367596045400932
1040
-0.3367596045400932
1070
     0
1040
0.0110235143455945
1071
        1
1040
39.74896370716704
1040
4.484843821435049
1040
0.0
1002
}
  0
INSERT
  5
ABDD
330
AB95
100
AcDbEntity
  8
0
100
AcDbBlockReference
  2
*X28
 10
0.0
 20
0.0
 30
0.0
1001
ACAD
1000
HATCH
1002
{
1070
    19
1000
ANSI37
1040
0.15
1040
0.0
1000
ASC_BOUNDS
1070
     1
1070
     2
1070
     4
1005
ABA1
1005
ABB0
1005
ABA2
1005
ABA4
1000
ASC_SEEDPOINT
1011
1.079051535452663
1021
4.148538732891836
1031
0.0
1000
R14_HATCH_DATA
1000
ABDD
1011
1.0
1021
0.0
1031
0.0
1011
0.0
1021
1.0
1031
0.0
1011
0.0
1021
0.0
1031
1.0
1040
0.0
1010
0.0
1020
0.0
1030
1.0
1000
ANSI37
1070
     0
1070
     1
1071
        1
1071
        7
1070
     0
1070
     1
1071
        4
1040
1.420999999998571
1040
0.0
1040
1.420999999998571
1040
8.763099999991255
1040
0.0
1040
8.763099999991255
1040
0.0
1040
0.0
1071
        4
1005
ABA1
1005
ABB0
1005
ABA2
1005
ABA4
1070
     0
1070
     1
1040
0.0
1040
0.15
1070
     0
1070
     2
1040
0.7853981633974483
1040
49.29960901727088
1040
-10.17736998311392
1040
-0.3367596045400932
1040
0.3367596045400932
1070
     0
1040
2.356194490192345
1040
49.29960901727088
1040
-10.17736998311392
1040
-0.3367596045400932
1040
-0.3367596045400932
1070
     0
1040
0.0053004257112761
1071
        1
1040
1.079051535452663
1040
4.148538732891836
1040
0.0
1002
}
  0
ENDBLK
  5
B297
330
AB95
100
AcDbEntity
  8
0
100
AcDbBlockEnd
  0
BLOCK
  5
B729
330
B59B
100
AcDbEntity
  8
0
100
AcDbBlockBegin
  2
*X23
 70
     1
 10
0.0
 20
0.0
 30
0.0
  3
*X23
  1

  0
LINE
  5
B59C
330
B59B
100
AcDbEntity
  8
0
  6
CONTINUOUS
100
AcDbLine
 10
3.418023043697893
 20
7.251849696850613
 30
0.0
 11
4.929273346838536
 21
8.763099999991255
 31
0.0
  0
LINE
  5
B59D
330
B59B
100
AcDbEntity
  8
0
  6
CONTINUOUS
100
AcDbLine
 10
1.483656411257782
 20
4.643963855330318
 30
0.0
 11
5.60279255591872
 21
8.763099999991255
 31
0.0
  0
LINE
  5
B59E
330
B59B
100
AcDbEntity
  8
0
  6
CONTINUOUS
100
AcDbLine
 10
1.755053947328235
 20
4.241842182320584
 30
0.0
 11
6.276311764998907
 21
8.763099999991255
 31
0.0
  0
LINE
  5
B59F
330
B59B
100
AcDbEntity
  8
0
  6
CONTINUOUS
100
AcDbLine
 10
2.026451483398688
 20
3.839720509310849
 30
0.0
 11
4.441040904851878
 21
6.254309930764039
 31
0.0
  0
LINE
  5
B5A0
330
B59B
100
AcDbEntity
  8
0
  6
CONTINUOUS
100
AcDbLine
 10
2.297849019469139
 20
3.437598836301114
 30
0.0
 11
3.321765168359338
 21
4.461514985191313
 31
0.0
  0
LINE
  5
B5A1
330
B59B
100
AcDbEntity
  8
0
  6
CONTINUOUS
100
AcDbLine
 10
2.569246555539591
 20
3.03547716329138
 30
0.0
 11
3.593163397972743
 21
4.059394005724531
 31
0.0
  0
LINE
  5
B5A2
330
B59B
100
AcDbEntity
  8
0
  6
CONTINUOUS
100
AcDbLine
 10
2.840644091610043
 20
2.633355490281646
 30
0.0
 11
3.864561627586149
 21
3.657273026257751
 31
0.0
  0
LINE
  5
B5A3
330
B59B
100
AcDbEntity
  8
0
  6
CONTINUOUS
100
AcDbLine
 10
3.112041627680496
 20
2.231233817271911
 30
0.0
 11
4.135959857199554
 21
3.25515204679097
 31
0.0
  0
LINE
  5
B5A4
330
B59B
100
AcDbEntity
  8
0
  6
CONTINUOUS
100
AcDbLine
 10
3.383439163750948
 20
1.829112144262177
 30
0.0
 11
4.40735808681296
 21
2.853031067324189
 31
0.0
  0
LINE
  5
B5A5
330
B59B
100
AcDbEntity
  8
0
  6
CONTINUOUS
100
AcDbLine
 10
3.654836699821399
 20
1.426990471252442
 30
0.0
 11
4.678756316426365
 21
2.450910087857407
 31
0.0
  0
LINE
  5
B5A6
330
B59B
100
AcDbEntity
  8
0
  6
CONTINUOUS
100
AcDbLine
 10
3.926234235891853
 20
1.024868798242709
 30
0.0
 11
4.95015454603977
 21
2.048789108390626
 31
0.0
  0
LINE
  5
B5A7
330
B59B
100
AcDbEntity
  8
0
  6
CONTINUOUS
100
AcDbLine
 10
4.197631771962304
 20
0.6227471252329737
 30
0.0
 11
5.221552775653176
 21
1.646668128923846
 31
0.0
  0
LINE
  5
B5A8
330
B59B
100
AcDbEntity
  8
0
  6
CONTINUOUS
100
AcDbLine
 10
8.715877546767851
 20
7.835069736359266
 30
0.0
 11
9.435953450375058
 21
8.555145639966472
 31
0.0
  0
LINE
  5
B5A9
330
B59B
100
AcDbEntity
  8
0
  6
CONTINUOUS
100
AcDbLine
 10
8.170620868422267
 20
6.616293848933497
 30
0.0
 11
9.644120833743461
 21
8.08979381425469
 31
0.0
  0
LINE
  5
B5AA
330
B59B
100
AcDbEntity
  8
0
  6
CONTINUOUS
100
AcDbLine
 10
7.625364190076684
 20
5.397517961507727
 30
0.0
 11
9.852288217111864
 21
7.624441988542907
 31
0.0
  0
LINE
  5
B5AB
330
B59B
100
AcDbEntity
  8
0
  6
CONTINUOUS
100
AcDbLine
 10
7.080107511731101
 20
4.178742074081957
 30
0.0
 11
10.06045560048027
 21
7.159090162831124
 31
0.0
  0
LINE
  5
B5AC
330
B59B
100
AcDbEntity
  8
0
  6
CONTINUOUS
100
AcDbLine
 10
6.534850833385518
 20
2.959966186656187
 30
0.0
 11
10.26862298384867
 21
6.693738337119342
 31
0.0
  0
LINE
  5
B5AD
330
B59B
100
AcDbEntity
  8
0
  6
CONTINUOUS
100
AcDbLine
 10
4.469029308032756
 20
0.2206254522232385
 30
0.0
 11
5.492951005266582
 21
1.244547149457064
 31
0.0
  0
LINE
  5
B5AE
330
B59B
100
AcDbEntity
  8
0
  6
CONTINUOUS
100
AcDbLine
 10
5.989594155039935
 20
1.741190299230417
 30
0.0
 11
8.806950407233131
 21
4.558546551423613
 31
0.0
  0
LINE
  5
B5AF
330
B59B
100
AcDbEntity
  8
0
  6
CONTINUOUS
100
AcDbLine
 10
9.401251593263643
 20
5.152847737454126
 30
0.0
 11
10.47679036721708
 21
6.228386511407559
 31
0.0
  0
LINE
  5
B5B0
330
B59B
100
AcDbEntity
  8
0
  6
CONTINUOUS
100
AcDbLine
 10
4.921837203428691
 20
-0.0000858614610131
 30
0.0
 11
8.592923064886001
 21
3.670999999996297
 31
0.0
  0
LINE
  5
B5B1
330
B59B
100
AcDbEntity
  8
0
  6
CONTINUOUS
100
AcDbLine
 10
9.609390446785305
 20
4.6874673818956
 30
0.0
 11
10.68495775058548
 21
5.763034685695775
 31
0.0
  0
LINE
  5
B5B2
330
B59B
100
AcDbEntity
  8
0
  6
CONTINUOUS
100
AcDbLine
 10
5.595387755019432
 20
-0.0000545189504582
 30
0.0
 11
7.716137258923768
 21
2.120694984953879
 31
0.0
  0
LINE
  5
B5B3
330
B59B
100
AcDbEntity
  8
0
  6
CONTINUOUS
100
AcDbLine
 10
6.268938306610172
 20
-0.000023176439905
 30
0.0
 11
7.170485805526503
 21
0.9015243224764267
 31
0.0
  0
LINE
  5
B5B4
330
B59B
100
AcDbEntity
  8
0
  6
CONTINUOUS
100
AcDbLine
 10
7.963842273967511
 20
2.368399999997621
 30
0.0
 11
9.266442273966188
 21
3.670999999996297
 31
0.0
  0
LINE
  5
B5B5
330
B59B
100
AcDbEntity
  8
0
  6
CONTINUOUS
100
AcDbLine
 10
8.637361483047696
 20
2.368399999997621
 30
0.0
 11
9.939961483046375
 21
3.670999999996297
 31
0.0
  0
LINE
  5
B5B6
330
B59B
100
AcDbEntity
  8
0
  6
CONTINUOUS
100
AcDbLine
 10
9.817529300306965
 20
4.222087026337075
 30
0.0
 11
10.89312513395388
 21
5.297682859983993
 31
0.0
  0
LINE
  5
B5B7
330
B59B
100
AcDbEntity
  8
0
  6
CONTINUOUS
100
AcDbLine
 10
10.02566815382863
 20
3.756706670778549
 30
0.0
 11
11.10129251732229
 21
4.832331034272211
 31
0.0
  0
LINE
  5
B5B8
330
B59B
100
AcDbEntity
  8
0
  6
CONTINUOUS
100
AcDbLine
 10
9.310880692127883
 20
2.368399999997621
 30
0.0
 11
11.30945990069069
 21
4.366979208560428
 31
0.0
  0
LINE
  5
B5B9
330
B59B
100
AcDbEntity
  8
0
  6
CONTINUOUS
100
AcDbLine
 10
9.98439990120807
 20
2.36839999999762
 30
0.0
 11
11.5176272840591
 21
3.901627382848645
 31
0.0
  0
LINE
  5
B5BA
330
B59B
100
AcDbEntity
  8
0
  6
CONTINUOUS
100
AcDbLine
 10
10.65037369446246
 20
2.36085458417182
 30
0.0
 11
11.7257946674275
 21
3.436275557136862
 31
0.0
  0
LINE
  5
B5BB
330
B59B
100
AcDbEntity
  8
0
  6
CONTINUOUS
100
AcDbLine
 10
10.85847197087848
 20
1.895433651507656
 30
0.0
 11
11.9339620507959
 21
2.97092373142508
 31
0.0
  0
LINE
  5
B5BC
330
B59B
100
AcDbEntity
  8
0
  6
CONTINUOUS
100
AcDbLine
 10
11.0665702472945
 20
1.430012718843491
 30
0.0
 11
12.14212943416431
 21
2.505571905713296
 31
0.0
  0
LINE
  5
B5BD
330
B59B
100
AcDbEntity
  8
0
  6
CONTINUOUS
100
AcDbLine
 10
11.27466852371052
 20
0.9645917861793256
 30
0.0
 11
12.35029681753271
 21
2.040220080001513
 31
0.0
  0
LINE
  5
B5BE
330
B59B
100
AcDbEntity
  8
0
  6
CONTINUOUS
100
AcDbLine
 10
11.48276680012654
 20
0.4991708535151611
 30
0.0
 11
12.55846420090111
 21
1.57486825428973
 31
0.0
  0
LINE
  5
B5BF
330
B59B
100
AcDbEntity
  8
0
  6
CONTINUOUS
100
AcDbLine
 10
11.69086507654257
 20
0.0337499208509957
 30
0.0
 11
12.76663158426952
 21
1.109516428577947
 31
0.0
  0
LINE
  5
B5C0
330
B59B
100
AcDbEntity
  8
0
  6
CONTINUOUS
100
AcDbLine
 10
12.33057447873954
 20
-0.0000598860322123
 30
0.0
 11
12.97479896763792
 21
0.6441646028661663
 31
0.0
  0
LINE
  5
B5C1
330
B59B
100
AcDbEntity
  8
0
  6
CONTINUOUS
100
AcDbLine
 10
13.00413694809395
 20
-0.0000166257579952
 30
0.0
 11
13.18296635100632
 21
0.1788127771543824
 31
0.0
  0
LINE
  5
B5C2
330
B59B
100
AcDbEntity
  8
0
  6
CONTINUOUS
100
AcDbLine
 10
4.772852165289667
 20
-0.000092794222212
 30
0.0
 11
4.296495091028902
 21
0.4762642800385528
 31
0.0
  0
LINE
  5
B5C3
330
B59B
100
AcDbEntity
  8
0
  6
CONTINUOUS
100
AcDbLine
 10
5.446340034776103
 20
-0.0000614546284616
 30
0.0
 11
2.898195908335625
 21
2.548082671812017
 31
0.0
  0
LINE
  5
B5C4
330
B59B
100
AcDbEntity
  8
0
  6
CONTINUOUS
100
AcDbLine
 10
6.119827904262539
 20
-0.0000301150347113
 30
0.0
 11
1.499896725642348
 21
4.61990106358548
 31
0.0
  0
LINE
  5
B5C5
330
B59B
100
AcDbEntity
  8
0
  6
CONTINUOUS
100
AcDbLine
 10
6.775136745476159
 20
0.0181802528318542
 30
0.0
 11
5.699826040202669
 21
1.093490958105344
 31
0.0
  0
LINE
  5
B5C6
330
B59B
100
AcDbEntity
  8
0
  6
CONTINUOUS
100
AcDbLine
 10
6.983376846288489
 20
0.4834593610997118
 30
0.0
 11
5.908008617934405
 21
1.558827589453796
 31
0.0
  0
LINE
  5
B5C7
330
B59B
100
AcDbEntity
  8
0
  6
CONTINUOUS
100
AcDbLine
 10
5.377063484962296
 20
1.416253513345719
 30
0.0
 11
1.702276957014131
 21
5.091040041293883
 31
0.0
  0
LINE
  5
B5C8
330
B59B
100
AcDbEntity
  8
0
  6
CONTINUOUS
100
AcDbLine
 10
3.978745891735324
 20
3.488090315652877
 30
0.0
 11
2.000373521109399
 21
5.466462686278803
 31
0.0
  0
LINE
  5
B5C9
330
B59B
100
AcDbEntity
  8
0
  6
CONTINUOUS
100
AcDbLine
 10
7.191616947100819
 20
0.948738469367568
 30
0.0
 11
6.11619119566614
 21
2.024164220802247
 31
0.0
  0
LINE
  5
B5CA
330
B59B
100
AcDbEntity
  8
0
  6
CONTINUOUS
100
AcDbLine
 10
7.399857047913149
 20
1.414017577635424
 30
0.0
 11
6.324373773397875
 21
2.489500852150698
 31
0.0
  0
LINE
  5
B5CB
330
B59B
100
AcDbEntity
  8
0
  6
CONTINUOUS
100
AcDbLine
 10
7.608097148725479
 20
1.879296685903281
 30
0.0
 11
6.53255635112961
 21
2.95483748349915
 31
0.0
  0
LINE
  5
B5CC
330
B59B
100
AcDbEntity
  8
0
  6
CONTINUOUS
100
AcDbLine
 10
7.816337249537808
 20
2.344575794171138
 30
0.0
 11
6.740738928861345
 21
3.420174114847601
 31
0.0
  0
LINE
  5
B5CD
330
B59B
100
AcDbEntity
  8
0
  6
CONTINUOUS
100
AcDbLine
 10
3.310241080789734
 20
4.830114335678653
 30
0.0
 11
2.298470085204666
 21
5.84188533126372
 31
0.0
  0
LINE
  5
B5CE
330
B59B
100
AcDbEntity
  8
0
  6
CONTINUOUS
100
AcDbLine
 10
3.60832983563551
 20
5.205544789913063
 30
0.0
 11
2.596566649299935
 21
6.217307976248638
 31
0.0
  0
LINE
  5
B5CF
330
B59B
100
AcDbEntity
  8
0
  6
CONTINUOUS
100
AcDbLine
 10
3.906418590481286
 20
5.580975244147473
 30
0.0
 11
2.894663213395203
 21
6.592730621233557
 31
0.0
  0
LINE
  5
B5D0
330
B59B
100
AcDbEntity
  8
0
  6
CONTINUOUS
100
AcDbLine
 10
4.204507345327062
 20
5.956405698381884
 30
0.0
 11
3.192759777490472
 21
6.968153266218474
 31
0.0
  0
LINE
  5
B5D1
330
B59B
100
AcDbEntity
  8
0
  6
CONTINUOUS
100
AcDbLine
 10
8.466032252791512
 20
2.368399999997621
 30
0.0
 11
6.948921506593081
 21
3.885510746196053
 31
0.0
  0
LINE
  5
B5D2
330
B59B
100
AcDbEntity
  8
0
  6
CONTINUOUS
100
AcDbLine
 10
9.139551461871699
 20
2.36839999999762
 30
0.0
 11
7.157104084324816
 21
4.350847377544504
 31
0.0
  0
LINE
  5
B5D3
330
B59B
100
AcDbEntity
  8
0
  6
CONTINUOUS
100
AcDbLine
 10
4.502596100172839
 20
6.331836152616295
 30
0.0
 11
3.49085634158574
 21
7.343575911203393
 31
0.0
  0
LINE
  5
B5D4
330
B59B
100
AcDbEntity
  8
0
  6
CONTINUOUS
100
AcDbLine
 10
4.800684855018615
 20
6.707266606850705
 30
0.0
 11
3.788952905681008
 21
7.718998556188312
 31
0.0
  0
LINE
  5
B5D5
330
B59B
100
AcDbEntity
  8
0
  6
CONTINUOUS
100
AcDbLine
 10
12.18154012887317
 20
-0.0000694579236642
 30
0.0
 11
11.32140332908496
 21
0.8600673418645499
 31
0.0
  0
LINE
  5
B5D6
330
B59B
100
AcDbEntity
  8
0
  6
CONTINUOUS
100
AcDbLine
 10
12.85501608323566
 20
-0.0000262032059659
 30
0.0
 11
10.77672456435345
 21
2.078265315676246
 31
0.0
  0
LINE
  5
B5D7
330
B59B
100
AcDbEntity
  8
0
  6
CONTINUOUS
100
AcDbLine
 10
9.813070670951886
 20
2.36839999999762
 30
0.0
 11
8.51047067095321
 21
3.670999999996297
 31
0.0
  0
LINE
  5
B5D8
330
B59B
100
AcDbEntity
  8
0
  6
CONTINUOUS
100
AcDbLine
 10
10.48658988003207
 20
2.36839999999762
 30
0.0
 11
9.183989880033396
 21
3.670999999996297
 31
0.0
  0
LINE
  5
B5D9
330
B59B
100
AcDbEntity
  8
0
  6
CONTINUOUS
100
AcDbLine
 10
8.441048632286794
 20
3.740422038662712
 30
0.0
 11
7.365286662056551
 21
4.816184008892956
 31
0.0
  0
LINE
  5
B5DA
330
B59B
100
AcDbEntity
  8
0
  6
CONTINUOUS
100
AcDbLine
 10
8.649187485808454
 20
4.205802394221237
 30
0.0
 11
7.573469239788285
 21
5.281520640241407
 31
0.0
  0
LINE
  5
B5DB
330
B59B
100
AcDbEntity
  8
0
  6
CONTINUOUS
100
AcDbLine
 10
5.098773609864391
 20
7.082697061085115
 30
0.0
 11
4.087049469776277
 21
8.09442120117323
 31
0.0
  0
LINE
  5
B5DC
330
B59B
100
AcDbEntity
  8
0
  6
CONTINUOUS
100
AcDbLine
 10
5.396862364710167
 20
7.458127515319526
 30
0.0
 11
4.385146033871544
 21
8.469843846158149
 31
0.0
  0
LINE
  5
B5DD
330
B59B
100
AcDbEntity
  8
0
  6
CONTINUOUS
100
AcDbLine
 10
13.04801363231285
 20
0.4804954567970334
 30
0.0
 11
9.85750908911358
 21
3.670999999996297
 31
0.0
  0
LINE
  5
B5DE
330
B59B
100
AcDbEntity
  8
0
  6
CONTINUOUS
100
AcDbLine
 10
8.857326339330116
 20
4.671182749779763
 30
0.0
 11
7.781651817520021
 21
5.746857271589858
 31
0.0
  0
LINE
  5
B5DF
330
B59B
100
AcDbEntity
  8
0
  6
CONTINUOUS
100
AcDbLine
 10
5.694951119555943
 20
7.833557969553937
 30
0.0
 11
4.765409089118624
 21
8.763099999991255
 31
0.0
  0
LINE
  5
B5E0
330
B59B
100
AcDbEntity
  8
0
  6
CONTINUOUS
100
AcDbLine
 10
12.50286117236978
 20
1.699167125820288
 30
0.0
 11
9.68611877250287
 21
4.515909525687196
 31
0.0
  0
LINE
  5
B5E1
330
B59B
100
AcDbEntity
  8
0
  6
CONTINUOUS
100
AcDbLine
 10
9.065465192851777
 20
5.136563105338288
 30
0.0
 11
7.989834395251757
 21
6.21219390293831
 31
0.0
  0
LINE
  5
B5E2
330
B59B
100
AcDbEntity
  8
0
  6
CONTINUOUS
100
AcDbLine
 10
5.993039874401719
 20
8.208988423788346
 30
0.0
 11
5.43892829819881
 21
8.763099999991255
 31
0.0
  0
LINE
  5
B5E3
330
B59B
100
AcDbEntity
  8
0
  6
CONTINUOUS
100
AcDbLine
 10
11.95770871242671
 20
2.917838794843543
 30
0.0
 11
8.19801697298349
 21
6.677530534286761
 31
0.0
  0
LINE
  5
B5E4
330
B59B
100
AcDbEntity
  8
0
  6
CONTINUOUS
100
AcDbLine
 10
6.291128629247495
 20
8.584418878022756
 30
0.0
 11
6.112447507278997
 21
8.763099999991255
 31
0.0
  0
LINE
  5
B5E5
330
B59B
100
AcDbEntity
  8
0
  6
CONTINUOUS
100
AcDbLine
 10
11.41255625248364
 20
4.136510463866797
 30
0.0
 11
8.406199550715227
 21
7.142867165635211
 31
0.0
  0
LINE
  5
B5E6
330
B59B
100
AcDbEntity
  8
0
  6
CONTINUOUS
100
AcDbLine
 10
10.86740379254057
 20
5.355182132890051
 30
0.0
 11
8.614382128446962
 21
7.608203796983664
 31
0.0
  0
LINE
  5
B5E7
330
B59B
100
AcDbEntity
  8
0
  6
CONTINUOUS
100
AcDbLine
 10
10.3222513325975
 20
6.573853801913305
 30
0.0
 11
8.822564706178696
 21
8.073540428332114
 31
0.0
  0
LINE
  5
B5E8
330
B59B
100
AcDbEntity
  8
0
  6
CONTINUOUS
100
AcDbLine
 10
9.777098872654436
 20
7.792525470936562
 30
0.0
 11
9.030747283910433
 21
8.538877059680566
 31
0.0
  0
ENDBLK
  5
B72A
330
B59B
100
AcDbEntity
  8
0
100
AcDbBlockEnd
  0
BLOCK
  5
B72B
330
B5E9
100
AcDbEntity
  8
0
100
AcDbBlockBegin
  2
*X24
 70
     1
 10
0.0
 20
0.0
 30
0.0
  3
*X24
  1

  0
LINE
  5
B5EA
330
B5E9
100
AcDbEntity
  8
0
  6
CONTINUOUS
100
AcDbLine
 10
10.67292308101235
 20
8.445076852443387
 30
0.0
 11
10.99094622856022
 21
8.763099999991255
 31
0.0
  0
LINE
  5
B5EB
330
B5E9
100
AcDbEntity
  8
0
  6
CONTINUOUS
100
AcDbLine
 10
10.87250383178748
 20
7.971138394138331
 30
0.0
 11
11.6644654376404
 21
8.763099999991255
 31
0.0
  0
LINE
  5
B5EC
330
B5E9
100
AcDbEntity
  8
0
  6
CONTINUOUS
100
AcDbLine
 10
11.07208458256261
 20
7.497199935833273
 30
0.0
 11
12.12126590876355
 21
8.546381262034211
 31
0.0
  0
LINE
  5
B5ED
330
B5E9
100
AcDbEntity
  8
0
  6
CONTINUOUS
100
AcDbLine
 10
11.27166533333774
 20
7.023261477528216
 30
0.0
 11
12.32085164573666
 21
8.072447789927136
 31
0.0
  0
LINE
  5
B5EE
330
B5E9
100
AcDbEntity
  8
0
  6
CONTINUOUS
100
AcDbLine
 10
11.47124608411287
 20
6.549323019223158
 30
0.0
 11
12.52043738270977
 21
7.59851431782006
 31
0.0
  0
LINE
  5
B5EF
330
B5E9
100
AcDbEntity
  8
0
  6
CONTINUOUS
100
AcDbLine
 10
11.670826834888
 20
6.075384560918101
 30
0.0
 11
12.72002311968288
 21
7.124580845712984
 31
0.0
  0
LINE
  5
B5F0
330
B5E9
100
AcDbEntity
  8
0
  6
CONTINUOUS
100
AcDbLine
 10
11.87040758566313
 20
5.601446102613043
 30
0.0
 11
12.91960885665599
 21
6.650647373605907
 31
0.0
  0
LINE
  5
B5F1
330
B5E9
100
AcDbEntity
  8
0
  6
CONTINUOUS
100
AcDbLine
 10
12.06998833643825
 20
5.127507644307986
 30
0.0
 11
13.1191945936291
 21
6.176713901498832
 31
0.0
  0
LINE
  5
B5F2
330
B5E9
100
AcDbEntity
  8
0
  6
CONTINUOUS
100
AcDbLine
 10
12.26956908721338
 20
4.65356918600293
 30
0.0
 11
13.31878033060221
 21
5.702780429391757
 31
0.0
  0
LINE
  5
B5F3
330
B5E9
100
AcDbEntity
  8
0
  6
CONTINUOUS
100
AcDbLine
 10
12.46914983798851
 20
4.179630727697873
 30
0.0
 11
13.51836606757532
 21
5.228846957284683
 31
0.0
  0
LINE
  5
B5F4
330
B5E9
100
AcDbEntity
  8
0
  6
CONTINUOUS
100
AcDbLine
 10
12.66873058876364
 20
3.705692269392816
 30
0.0
 11
13.71795180454843
 21
4.754913485177607
 31
0.0
  0
LINE
  5
B5F5
330
B5E9
100
AcDbEntity
  8
0
  6
CONTINUOUS
100
AcDbLine
 10
12.86831133953877
 20
3.231753811087759
 30
0.0
 11
13.91753754152154
 21
4.280980013070531
 31
0.0
  0
LINE
  5
B5F6
330
B5E9
100
AcDbEntity
  8
0
  6
CONTINUOUS
100
AcDbLine
 10
13.0678920903139
 20
2.757815352782702
 30
0.0
 11
14.11712327849465
 21
3.807046540963456
 31
0.0
  0
LINE
  5
B5F7
330
B5E9
100
AcDbEntity
  8
0
  6
CONTINUOUS
100
AcDbLine
 10
13.26747284108903
 20
2.283876894477644
 30
0.0
 11
14.31670901546777
 21
3.333113068856379
 31
0.0
  0
LINE
  5
B5F8
330
B5E9
100
AcDbEntity
  8
0
  6
CONTINUOUS
100
AcDbLine
 10
16.36767838827179
 20
8.751678487061342
 30
0.0
 11
16.50332410898388
 21
8.887324207773432
 31
0.0
  0
LINE
  5
B5F9
330
B5E9
100
AcDbEntity
  8
0
  6
CONTINUOUS
100
AcDbLine
 10
15.96190732182191
 20
7.67238821153127
 30
0.0
 11
16.68735328004734
 21
8.397834169756699
 31
0.0
  0
LINE
  5
B5FA
330
B5E9
100
AcDbEntity
  8
0
  6
CONTINUOUS
100
AcDbLine
 10
15.55613625537202
 20
6.593097936001196
 30
0.0
 11
16.87138245111079
 21
7.908344131739965
 31
0.0
  0
LINE
  5
B5FB
330
B5E9
100
AcDbEntity
  8
0
  6
CONTINUOUS
100
AcDbLine
 10
15.15036518892213
 20
5.513807660471122
 30
0.0
 11
17.05541162217424
 21
7.418854093723231
 31
0.0
  0
LINE
  5
B5FC
330
B5E9
100
AcDbEntity
  8
0
  6
CONTINUOUS
100
AcDbLine
 10
14.74459412247225
 20
4.434517384941048
 30
0.0
 11
17.2394407932377
 21
6.929364055706499
 31
0.0
  0
LINE
  5
B5FD
330
B5E9
100
AcDbEntity
  8
0
  6
CONTINUOUS
100
AcDbLine
 10
14.33882305602236
 20
3.355227109410975
 30
0.0
 11
17.42346996430115
 21
6.439874017689766
 31
0.0
  0
LINE
  5
B5FE
330
B5E9
100
AcDbEntity
  8
0
  6
CONTINUOUS
100
AcDbLine
 10
13.46705359186416
 20
1.809938436172586
 30
0.0
 11
16.0819338255367
 21
4.424818669845129
 31
0.0
  0
LINE
  5
B5FF
330
B5E9
100
AcDbEntity
  8
0
  6
CONTINUOUS
100
AcDbLine
 10
16.63283254238972
 20
4.975717386698149
 30
0.0
 11
17.60749913536461
 21
5.950383979673033
 31
0.0
  0
LINE
  5
B600
330
B5E9
100
AcDbEntity
  8
0
  6
CONTINUOUS
100
AcDbLine
 10
13.66663434263929
 20
1.335999977867529
 30
0.0
 11
15.67604797733754
 21
3.345413612565779
 31
0.0
  0
LINE
  5
B601
330
B5E9
100
AcDbEntity
  8
0
  6
CONTINUOUS
100
AcDbLine
 10
13.86621509341442
 20
0.8620615195624723
 30
0.0
 11
15.27016212913838
 21
2.26600855528643
 31
0.0
  0
LINE
  5
B602
330
B5E9
100
AcDbEntity
  8
0
  6
CONTINUOUS
100
AcDbLine
 10
16.81682257348267
 20
4.486188208710908
 30
0.0
 11
17.79152830642806
 21
5.460893941656299
 31
0.0
  0
LINE
  5
B603
330
B5E9
100
AcDbEntity
  8
0
  6
CONTINUOUS
100
AcDbLine
 10
17.00081260457561
 20
3.996659030723667
 30
0.0
 11
17.97555747749151
 21
4.971403903639565
 31
0.0
  0
LINE
  5
B604
330
B5E9
100
AcDbEntity
  8
0
  6
CONTINUOUS
100
AcDbLine
 10
20.74362343514722
 20
8.412989070375462
 30
0.0
 11
21.09373436476302
 21
8.763099999991256
 31
0.0
  0
LINE
  5
B605
330
B5E9
100
AcDbEntity
  8
0
  6
CONTINUOUS
100
AcDbLine
 10
20.25401257174777
 20
7.249858997895826
 30
0.0
 11
21.7672535738432
 21
8.763099999991255
 31
0.0
  0
LINE
  5
B606
330
B5E9
100
AcDbEntity
  8
0
  6
CONTINUOUS
100
AcDbLine
 10
14.06579584418955
 20
0.3881230612574149
 30
0.0
 11
14.86427628093921
 21
1.186603498007082
 31
0.0
  0
LINE
  5
B607
330
B5E9
100
AcDbEntity
  8
0
  6
CONTINUOUS
100
AcDbLine
 10
14.26537659496467
 20
-0.0858153970476412
 30
0.0
 11
14.45839043274005
 21
0.1071984407277329
 31
0.0
  0
LINE
  5
B608
330
B5E9
100
AcDbEntity
  8
0
  6
CONTINUOUS
100
AcDbLine
 10
17.18480263566856
 20
3.507129852736426
 30
0.0
 11
18.15958664855496
 21
4.481913865622833
 31
0.0
  0
LINE
  5
B609
330
B5E9
100
AcDbEntity
  8
0
  6
CONTINUOUS
100
AcDbLine
 10
17.3687926667615
 20
3.017600674749186
 30
0.0
 11
18.34361581961842
 21
3.9924238276061
 31
0.0
  0
LINE
  5
B60A
330
B5E9
100
AcDbEntity
  8
0
  6
CONTINUOUS
100
AcDbLine
 10
19.76440170834832
 20
6.086728925416191
 30
0.0
 11
22.33924590259489
 21
8.661573119662755
 31
0.0
  0
LINE
  5
B60B
330
B5E9
100
AcDbEntity
  8
0
  6
CONTINUOUS
100
AcDbLine
 10
19.27479084494887
 20
4.923598852936555
 30
0.0
 11
21.84929622842713
 21
7.498104236414807
 31
0.0
  0
LINE
  5
B60C
330
B5E9
100
AcDbEntity
  8
0
  6
CONTINUOUS
100
AcDbLine
 10
17.55278269785445
 20
2.528071496761945
 30
0.0
 11
18.52764499068187
 21
3.502933789589366
 31
0.0
  0
LINE
  5
B60D
330
B5E9
100
AcDbEntity
  8
0
  6
CONTINUOUS
100
AcDbLine
 10
18.78517998154942
 20
3.760468780456919
 30
0.0
 11
21.35934655425936
 21
6.33463535316686
 31
0.0
  0
LINE
  5
B60E
330
B5E9
100
AcDbEntity
  8
0
  6
CONTINUOUS
100
AcDbLine
 10
17.73677272894739
 20
2.038542318774704
 30
0.0
 11
20.8693968800916
 21
5.171166469918914
 31
0.0
  0
LINE
  5
B60F
330
B5E9
100
AcDbEntity
  8
0
  6
CONTINUOUS
100
AcDbLine
 10
17.92076276004034
 20
1.549013140787464
 30
0.0
 11
20.37944720592384
 21
4.007697586670968
 31
0.0
  0
LINE
  5
B610
330
B5E9
100
AcDbEntity
  8
0
  6
CONTINUOUS
100
AcDbLine
 10
18.10475279113329
 20
1.059483962800223
 30
0.0
 11
19.88949753175608
 21
2.84422870342302
 31
0.0
  0
LINE
  5
B611
330
B5E9
100
AcDbEntity
  8
0
  6
CONTINUOUS
100
AcDbLine
 10
18.28874282222623
 20
0.5699547848129822
 30
0.0
 11
19.39954785758832
 21
1.680759820175074
 31
0.0
  0
LINE
  5
B612
330
B5E9
100
AcDbEntity
  8
0
  6
CONTINUOUS
100
AcDbLine
 10
18.47273285331918
 20
0.0804256068257416
 30
0.0
 11
18.90959818342056
 21
0.517290936927127
 31
0.0
  0
LINE
  5
B613
330
B5E9
100
AcDbEntity
  8
0
  6
CONTINUOUS
100
AcDbLine
 10
14.3590401358224
 20
-0.1570118376323384
 30
0.0
 11
14.24903296539946
 21
-0.0470046672093929
 31
0.0
  0
LINE
  5
B614
330
B5E9
100
AcDbEntity
  8
0
  6
CONTINUOUS
100
AcDbLine
 10
14.54309291258661
 20
0.332454594683643
 30
0.0
 11
13.75908329123172
 21
1.116464216038529
 31
0.0
  0
LINE
  5
B615
330
B5E9
100
AcDbEntity
  8
0
  6
CONTINUOUS
100
AcDbLine
 10
14.72714568935081
 20
0.8219210269996244
 30
0.0
 11
13.26913361706399
 21
2.27993309928645
 31
0.0
  0
LINE
  5
B616
330
B5E9
100
AcDbEntity
  8
0
  6
CONTINUOUS
100
AcDbLine
 10
14.91119846611502
 20
1.311387459315606
 30
0.0
 11
12.77918394289625
 21
3.443401982534371
 31
0.0
  0
LINE
  5
B617
330
B5E9
100
AcDbEntity
  8
0
  6
CONTINUOUS
100
AcDbLine
 10
15.09525124287922
 20
1.800853891631587
 30
0.0
 11
12.28923426872852
 21
4.606870865782293
 31
0.0
  0
LINE
  5
B618
330
B5E9
100
AcDbEntity
  8
0
  6
CONTINUOUS
100
AcDbLine
 10
15.27930401964343
 20
2.290320323947569
 30
0.0
 11
11.79928459456078
 21
5.770339749030213
 31
0.0
  0
LINE
  5
B619
330
B5E9
100
AcDbEntity
  8
0
  6
CONTINUOUS
100
AcDbLine
 10
15.46335679640763
 20
2.77978675626355
 30
0.0
 11
14.48885470994921
 21
3.754288842721972
 31
0.0
  0
LINE
  5
B61A
330
B5E9
100
AcDbEntity
  8
0
  6
CONTINUOUS
100
AcDbLine
 10
13.88507249233704
 20
4.358071060334137
 30
0.0
 11
11.30933492039305
 21
6.933808632278135
 31
0.0
  0
LINE
  5
B61B
330
B5E9
100
AcDbEntity
  8
0
  6
CONTINUOUS
100
AcDbLine
 10
18.75840522805855
 20
0.1582575336928151
 30
0.0
 11
18.25383727664818
 21
0.6628254851031863
 31
0.0
  0
LINE
  5
B61C
330
B5E9
100
AcDbEntity
  8
0
  6
CONTINUOUS
100
AcDbLine
 10
15.64740957317184
 20
3.269253188579531
 30
0.0
 11
14.67288388101266
 21
4.243778880738705
 31
0.0
  0
LINE
  5
B61D
330
B5E9
100
AcDbEntity
  8
0
  6
CONTINUOUS
100
AcDbLine
 10
13.39509276772158
 20
5.521569994029786
 30
0.0
 11
10.81938524622531
 21
8.097277515526056
 31
0.0
  0
LINE
  5
B61E
330
B5E9
100
AcDbEntity
  8
0
  6
CONTINUOUS
100
AcDbLine
 10
18.95798597883369
 20
0.6321959919978686
 30
0.0
 11
17.84825644852853
 21
1.741925522303024
 31
0.0
  0
LINE
  5
B61F
330
B5E9
100
AcDbEntity
  8
0
  6
CONTINUOUS
100
AcDbLine
 10
19.15756672960882
 20
1.106134450302922
 30
0.0
 11
17.44267562040888
 21
2.821025559502861
 31
0.0
  0
LINE
  5
B620
330
B5E9
100
AcDbEntity
  8
0
  6
CONTINUOUS
100
AcDbLine
 10
15.83146234993604
 20
3.758719620895513
 30
0.0
 11
14.85691305207612
 21
4.733268918755439
 31
0.0
  0
LINE
  5
B621
330
B5E9
100
AcDbEntity
  8
0
  6
CONTINUOUS
100
AcDbLine
 10
16.01551512670025
 20
4.248186053211494
 30
0.0
 11
15.04094222313957
 21
5.222758956772172
 31
0.0
  0
LINE
  5
B622
330
B5E9
100
AcDbEntity
  8
0
  6
CONTINUOUS
100
AcDbLine
 10
12.90511304310612
 20
6.685068927725435
 30
0.0
 11
10.8270819708403
 21
8.763099999991255
 31
0.0
  0
LINE
  5
B623
330
B5E9
100
AcDbEntity
  8
0
  6
CONTINUOUS
100
AcDbLine
 10
12.41513331849066
 20
7.848567861421083
 30
0.0
 11
11.50060117992049
 21
8.763099999991255
 31
0.0
  0
LINE
  5
B624
330
B5E9
100
AcDbEntity
  8
0
  6
CONTINUOUS
100
AcDbLine
 10
19.35714748038395
 20
1.580072908607975
 30
0.0
 11
17.03709479228923
 21
3.900125596702697
 31
0.0
  0
LINE
  5
B625
330
B5E9
100
AcDbEntity
  8
0
  6
CONTINUOUS
100
AcDbLine
 10
19.55672823115909
 20
2.054011366913028
 30
0.0
 11
16.63151396416958
 21
4.979225633902534
 31
0.0
  0
LINE
  5
B626
330
B5E9
100
AcDbEntity
  8
0
  6
CONTINUOUS
100
AcDbLine
 10
16.19956790346445
 20
4.737652485527476
 30
0.0
 11
15.22497139420302
 21
5.712248994788904
 31
0.0
  0
LINE
  5
B627
330
B5E9
100
AcDbEntity
  8
0
  6
CONTINUOUS
100
AcDbLine
 10
16.38362068022866
 20
5.227118917843457
 30
0.0
 11
15.40900056526648
 21
6.201739032805637
 31
0.0
  0
LINE
  5
B628
330
B5E9
100
AcDbEntity
  8
0
  6
CONTINUOUS
100
AcDbLine
 10
19.75630898193422
 20
2.527949825218081
 30
0.0
 11
18.70774536448286
 21
3.576513442669441
 31
0.0
  0
LINE
  5
B629
330
B5E9
100
AcDbEntity
  8
0
  6
CONTINUOUS
100
AcDbLine
 10
19.95588973270936
 20
3.001888283523134
 30
0.0
 11
18.90726987211446
 21
4.050508144118028
 31
0.0
  0
LINE
  5
B62A
330
B5E9
100
AcDbEntity
  8
0
  6
CONTINUOUS
100
AcDbLine
 10
20.15547048348449
 20
3.475826741828186
 30
0.0
 11
19.10679437974606
 21
4.524502845566614
 31
0.0
  0
LINE
  5
B62B
330
B5E9
100
AcDbEntity
  8
0
  6
CONTINUOUS
100
AcDbLine
 10
20.35505123425962
 20
3.94976520013324
 30
0.0
 11
19.30631888737766
 21
4.998497547015201
 31
0.0
  0
LINE
  5
B62C
330
B5E9
100
AcDbEntity
  8
0
  6
CONTINUOUS
100
AcDbLine
 10
20.55463198503475
 20
4.423703658438292
 30
0.0
 11
19.50584339500926
 21
5.472492248463787
 31
0.0
  0
LINE
  5
B62D
330
B5E9
100
AcDbEntity
  8
0
  6
CONTINUOUS
100
AcDbLine
 10
18.37481191085755
 20
3.909446896294752
 30
0.0
 11
15.59302973632993
 21
6.691229070822371
 31
0.0
  0
LINE
  5
B62E
330
B5E9
100
AcDbEntity
  8
0
  6
CONTINUOUS
100
AcDbLine
 10
17.96904084440766
 20
4.988737171824825
 30
0.0
 11
15.77705890739338
 21
7.180719108839104
 31
0.0
  0
LINE
  5
B62F
330
B5E9
100
AcDbEntity
  8
0
  6
CONTINUOUS
100
AcDbLine
 10
17.56326977795777
 20
6.068027447354899
 30
0.0
 11
15.96108807845684
 21
7.670209146855838
 31
0.0
  0
LINE
  5
B630
330
B5E9
100
AcDbEntity
  8
0
  6
CONTINUOUS
100
AcDbLine
 10
17.15749871150789
 20
7.147317722884972
 30
0.0
 11
16.14511724952029
 21
8.15969918487257
 31
0.0
  0
LINE
  5
B631
330
B5E9
100
AcDbEntity
  8
0
  6
CONTINUOUS
100
AcDbLine
 10
16.751727645058
 20
8.226607998415046
 30
0.0
 11
16.32914642058374
 21
8.649189222889303
 31
0.0
  0
LINE
  5
B632
330
B5E9
100
AcDbEntity
  8
0
  6
CONTINUOUS
100
AcDbLine
 10
20.75421273580989
 20
4.897642116743345
 30
0.0
 11
19.70536790264086
 21
5.946486949912374
 31
0.0
  0
LINE
  5
B633
330
B5E9
100
AcDbEntity
  8
0
  6
CONTINUOUS
100
AcDbLine
 10
20.95379348658502
 20
5.371580575048398
 30
0.0
 11
19.90489241027246
 21
6.42048165136096
 31
0.0
  0
LINE
  5
B634
330
B5E9
100
AcDbEntity
  8
0
  6
CONTINUOUS
100
AcDbLine
 10
21.15337423736015
 20
5.845519033353452
 30
0.0
 11
20.10441691790406
 21
6.894476352809547
 31
0.0
  0
LINE
  5
B635
330
B5E9
100
AcDbEntity
  8
0
  6
CONTINUOUS
100
AcDbLine
 10
21.35295498813529
 20
6.319457491658505
 30
0.0
 11
20.30394142553566
 21
7.368471054258134
 31
0.0
  0
LINE
  5
B636
330
B5E9
100
AcDbEntity
  8
0
  6
CONTINUOUS
100
AcDbLine
 10
21.55253573891042
 20
6.793395949963558
 30
0.0
 11
20.50346593316726
 21
7.842465755706721
 31
0.0
  0
LINE
  5
B637
330
B5E9
100
AcDbEntity
  8
0
  6
CONTINUOUS
100
AcDbLine
 10
21.75211648968556
 20
7.267334408268612
 30
0.0
 11
20.70299044079886
 21
8.316460457155308
 31
0.0
  0
LINE
  5
B638
330
B5E9
100
AcDbEntity
  8
0
  6
CONTINUOUS
100
AcDbLine
 10
21.95169724046069
 20
7.741272866573663
 30
0.0
 11
20.9298701070431
 21
8.763099999991256
 31
0.0
  0
LINE
  5
B639
330
B5E9
100
AcDbEntity
  8
0
  6
CONTINUOUS
100
AcDbLine
 10
22.15127799123582
 20
8.215211324878716
 30
0.0
 11
21.60338931612328
 21
8.763099999991256
 31
0.0
  0
LINE
  5
B63A
330
B5E9
100
AcDbEntity
  8
0
  6
CONTINUOUS
100
AcDbLine
 10
22.35085874201096
 20
8.689149783183769
 30
0.0
 11
22.27690852520347
 21
8.763099999991255
 31
0.0
  0
ENDBLK
  5
B72C
330
B5E9
100
AcDbEntity
  8
0
100
AcDbBlockEnd
  0
BLOCK
  5
B72D
330
B63B
100
AcDbEntity
  8
0
100
AcDbBlockBegin
  2
*X25
 70
     1
 10
0.0
 20
0.0
 30
0.0
  3
*X25
  1

  0
LINE
  5
B63C
330
B63B
100
AcDbEntity
  8
0
  6
CONTINUOUS
100
AcDbLine
 10
23.19462913593892
 20
8.169917934846424
 30
0.0
 11
23.70775465517246
 21
8.683043454079957
 31
0.0
  0
LINE
  5
B63D
330
B63B
100
AcDbEntity
  8
0
  6
CONTINUOUS
100
AcDbLine
 10
22.64923161835078
 20
6.951001208178088
 30
0.0
 11
23.9159364069932
 21
8.217705996820516
 31
0.0
  0
LINE
  5
B63E
330
B63B
100
AcDbEntity
  8
0
  6
CONTINUOUS
100
AcDbLine
 10
22.10383410076263
 20
5.732084481509751
 30
0.0
 11
24.12411815881395
 21
7.752368539561078
 31
0.0
  0
LINE
  5
B63F
330
B63B
100
AcDbEntity
  8
0
  6
CONTINUOUS
100
AcDbLine
 10
21.55843658317447
 20
4.513167754841414
 30
0.0
 11
24.3322999106347
 21
7.287031082301639
 31
0.0
  0
LINE
  5
B640
330
B63B
100
AcDbEntity
  8
0
  6
CONTINUOUS
100
AcDbLine
 10
21.01303906558632
 20
3.294251028173077
 30
0.0
 11
24.54048166245544
 21
6.821693625042199
 31
0.0
  0
LINE
  5
B641
330
B63B
100
AcDbEntity
  8
0
  6
CONTINUOUS
100
AcDbLine
 10
20.46764154799817
 20
2.075334301504738
 30
0.0
 11
23.28571549467848
 21
4.89340824818505
 31
0.0
  0
LINE
  5
B642
330
B63B
100
AcDbEntity
  8
0
  6
CONTINUOUS
100
AcDbLine
 10
19.92224403041002
 20
0.8564175748364002
 30
0.0
 11
22.74075865492779
 21
3.674932199354171
 31
0.0
  0
LINE
  5
B643
330
B63B
100
AcDbEntity
  8
0
  6
CONTINUOUS
100
AcDbLine
 10
23.67305085490148
 20
5.280743608408048
 30
0.0
 11
24.74866341427619
 21
6.356356167782759
 31
0.0
  0
LINE
  5
B644
330
B63B
100
AcDbEntity
  8
0
  6
CONTINUOUS
100
AcDbLine
 10
23.88118970842314
 20
4.815363252849522
 30
0.0
 11
24.95684516609694
 21
5.89101871052332
 31
0.0
  0
LINE
  5
B645
330
B63B
100
AcDbEntity
  8
0
  6
CONTINUOUS
100
AcDbLine
 10
19.73925852647308
 20
-0.0000871381807288
 30
0.0
 11
23.4103456646501
 21
3.670999999996297
 31
0.0
  0
LINE
  5
B646
330
B63B
100
AcDbEntity
  8
0
  6
CONTINUOUS
100
AcDbLine
 10
24.0893285619448
 20
4.349982897290997
 30
0.0
 11
25.16502691791769
 21
5.42568125326388
 31
0.0
  0
LINE
  5
B647
330
B63B
100
AcDbEntity
  8
0
  6
CONTINUOUS
100
AcDbLine
 10
20.41282099582748
 20
-0.0000438779065108
 30
0.0
 11
21.64944178675636
 21
1.236576913022366
 31
0.0
  0
LINE
  5
B648
330
B63B
100
AcDbEntity
  8
0
  6
CONTINUOUS
100
AcDbLine
 10
22.78126487373161
 20
2.36839999999762
 30
0.0
 11
24.08386487373029
 21
3.670999999996297
 31
0.0
  0
LINE
  5
B649
330
B63B
100
AcDbEntity
  8
0
  6
CONTINUOUS
100
AcDbLine
 10
24.29746741546646
 20
3.884602541732471
 30
0.0
 11
25.37320866973843
 21
4.960343796004441
 31
0.0
  0
LINE
  5
B64A
330
B63B
100
AcDbEntity
  8
0
  6
CONTINUOUS
100
AcDbLine
 10
21.08638346518189
 20
-0.0000006176322938
 30
0.0
 11
21.10379033335899
 21
0.0174062505448083
 31
0.0
  0
LINE
  5
B64B
330
B63B
100
AcDbEntity
  8
0
  6
CONTINUOUS
100
AcDbLine
 10
23.4547840828118
 20
2.36839999999762
 30
0.0
 11
25.58139042155918
 21
4.495006338745002
 31
0.0
  0
LINE
  5
B64C
330
B63B
100
AcDbEntity
  8
0
  6
CONTINUOUS
100
AcDbLine
 10
29.30199999996933
 20
8.215615917155148
 30
0.0
 11
29.84948408280543
 21
8.763099999991255
 31
0.0
  0
LINE
  5
B64D
330
B63B
100
AcDbEntity
  8
0
  6
CONTINUOUS
100
AcDbLine
 10
24.12830329189199
 20
2.36839999999762
 30
0.0
 11
25.78957217337993
 21
4.029668881485562
 31
0.0
  0
LINE
  5
B64E
330
B63B
100
AcDbEntity
  8
0
  6
CONTINUOUS
100
AcDbLine
 10
29.30199999996933
 20
7.54209670807496
 30
0.0
 11
30.52300329188562
 21
8.763099999991255
 31
0.0
  0
LINE
  5
B64F
330
B63B
100
AcDbEntity
  8
0
  6
CONTINUOUS
100
AcDbLine
 10
24.80182250097217
 20
2.36839999999762
 30
0.0
 11
25.99775392520067
 21
3.564331424226122
 31
0.0
  0
LINE
  5
B650
330
B63B
100
AcDbEntity
  8
0
  6
CONTINUOUS
100
AcDbLine
 10
29.30199999996933
 20
6.868577498994774
 30
0.0
 11
30.74199999996926
 21
8.308577498994712
 31
0.0
  0
LINE
  5
B651
330
B63B
100
AcDbEntity
  8
0
  6
CONTINUOUS
100
AcDbLine
 10
25.13028238392013
 20
2.023340673865392
 30
0.0
 11
26.20593567702142
 21
3.098993966966683
 31
0.0
  0
LINE
  5
B652
330
B63B
100
AcDbEntity
  8
0
  6
CONTINUOUS
100
AcDbLine
 10
25.33838066033617
 20
1.557919741201244
 30
0.0
 11
26.41411742884217
 21
2.633656509707244
 31
0.0
  0
LINE
  5
B653
330
B63B
100
AcDbEntity
  8
0
  6
CONTINUOUS
100
AcDbLine
 10
25.54647893675221
 20
1.092498808537098
 30
0.0
 11
26.62229918066291
 21
2.168319052447804
 31
0.0
  0
LINE
  5
B654
330
B63B
100
AcDbEntity
  8
0
  6
CONTINUOUS
100
AcDbLine
 10
25.75457721316825
 20
0.62707787587295
 30
0.0
 11
26.83048093248366
 21
1.702981595188365
 31
0.0
  0
LINE
  5
B655
330
B63B
100
AcDbEntity
  8
0
  6
CONTINUOUS
100
AcDbLine
 10
29.30199999996933
 20
6.195058289914587
 30
0.0
 11
30.74199999996926
 21
7.635058289914522
 31
0.0
  0
LINE
  5
B656
330
B63B
100
AcDbEntity
  8
0
  6
CONTINUOUS
100
AcDbLine
 10
29.30199999996933
 20
5.521539080834401
 30
0.0
 11
30.74199999996926
 21
6.961539080834331
 31
0.0
  0
LINE
  5
B657
330
B63B
100
AcDbEntity
  8
0
  6
CONTINUOUS
100
AcDbLine
 10
29.30199999996933
 20
4.848019871754214
 30
0.0
 11
30.74199999996925
 21
6.288019871754143
 31
0.0
  0
LINE
  5
B658
330
B63B
100
AcDbEntity
  8
0
  6
CONTINUOUS
100
AcDbLine
 10
29.30199999996933
 20
4.174500662674028
 30
0.0
 11
30.74199999996925
 21
5.614500662673953
 31
0.0
  0
LINE
  5
B659
330
B63B
100
AcDbEntity
  8
0
  6
CONTINUOUS
100
AcDbLine
 10
25.96267548958429
 20
0.1616569432088024
 30
0.0
 11
27.18411854636669
 21
1.383099999991207
 31
0.0
  0
LINE
  5
B65A
330
B63B
100
AcDbEntity
  8
0
  6
CONTINUOUS
100
AcDbLine
 10
29.30199999996933
 20
3.500981453593841
 30
0.0
 11
30.74199999996925
 21
4.940981453593762
 31
0.0
  0
LINE
  5
B65B
330
B63B
100
AcDbEntity
  8
0
  6
CONTINUOUS
100
AcDbLine
 10
26.50763775544691
 20
0.0330999999912356
 30
0.0
 11
27.85763775544689
 21
1.383099999991223
 31
0.0
  0
LINE
  5
B65C
330
B63B
100
AcDbEntity
  8
0
  6
CONTINUOUS
100
AcDbLine
 10
29.30199999996933
 20
2.827462244513656
 30
0.0
 11
30.74199999996925
 21
4.267462244513574
 31
0.0
  0
LINE
  5
B65D
330
B63B
100
AcDbEntity
  8
0
  6
CONTINUOUS
100
AcDbLine
 10
27.18115696452709
 20
0.0330999999912356
 30
0.0
 11
28.55073879889363
 21
1.402681834357775
 31
0.0
  0
LINE
  5
B65E
330
B63B
100
AcDbEntity
  8
0
  6
CONTINUOUS
100
AcDbLine
 10
29.28241816560272
 20
2.134361201066866
 30
0.0
 11
30.74199999996924
 21
3.593943035433383
 31
0.0
  0
LINE
  5
B65F
330
B63B
100
AcDbEntity
  8
0
  6
CONTINUOUS
100
AcDbLine
 10
27.85467617360728
 20
0.0330999999912356
 30
0.0
 11
30.74199999996924
 21
2.920423826353195
 31
0.0
  0
LINE
  5
B660
330
B63B
100
AcDbEntity
  8
0
  6
CONTINUOUS
100
AcDbLine
 10
28.53897559587887
 20
0.0438802131826428
 30
0.0
 11
30.73121978677781
 21
2.236124404081585
 31
0.0
  0
LINE
  5
B661
330
B63B
100
AcDbEntity
  8
0
  6
CONTINUOUS
100
AcDbLine
 10
29.45140055588722
 20
0.2827859641107988
 30
0.0
 11
30.49231403584965
 21
1.323699444073236
 31
0.0
  0
LINE
  5
B662
330
B63B
100
AcDbEntity
  8
0
  6
CONTINUOUS
100
AcDbLine
 10
19.59027867740337
 20
-0.0000967065718083
 30
0.0
 11
19.55485265190471
 21
0.035329318926844
 31
0.0
  0
LINE
  5
B663
330
B63B
100
AcDbEntity
  8
0
  6
CONTINUOUS
100
AcDbLine
 10
20.26375463176586
 20
-0.0000534518541091
 30
0.0
 11
19.76305575737534
 21
0.5006454225364014
 31
0.0
  0
LINE
  5
B664
330
B63B
100
AcDbEntity
  8
0
  6
CONTINUOUS
100
AcDbLine
 10
20.93723058612834
 20
-0.0000101971364099
 30
0.0
 11
19.97125886284597
 21
0.965961526145958
 31
0.0
  0
LINE
  5
B665
330
B63B
100
AcDbEntity
  8
0
  6
CONTINUOUS
100
AcDbLine
 10
21.25514828313686
 20
0.355591314935257
 30
0.0
 11
20.1794619683166
 21
1.431277629755512
 31
0.0
  0
LINE
  5
B666
330
B63B
100
AcDbEntity
  8
0
  6
CONTINUOUS
100
AcDbLine
 10
21.46338838394921
 20
0.8208704232030986
 30
0.0
 11
20.38766507378723
 21
1.896593733365069
 31
0.0
  0
LINE
  5
B667
330
B63B
100
AcDbEntity
  8
0
  6
CONTINUOUS
100
AcDbLine
 10
21.67162848476155
 20
1.28614953147094
 30
0.0
 11
20.59586817925786
 21
2.361909836974626
 31
0.0
  0
LINE
  5
B668
330
B63B
100
AcDbEntity
  8
0
  6
CONTINUOUS
100
AcDbLine
 10
21.8798685855739
 20
1.751428639738782
 30
0.0
 11
20.80407128472849
 21
2.827225940584183
 31
0.0
  0
LINE
  5
B669
330
B63B
100
AcDbEntity
  8
0
  6
CONTINUOUS
100
AcDbLine
 10
22.08810868638624
 20
2.216707748006623
 30
0.0
 11
21.01227439019912
 21
3.292542044193739
 31
0.0
  0
LINE
  5
B66A
330
B63B
100
AcDbEntity
  8
0
  6
CONTINUOUS
100
AcDbLine
 10
22.60993564347543
 20
2.36839999999762
 30
0.0
 11
21.22047749566975
 21
3.757858147803296
 31
0.0
  0
LINE
  5
B66B
330
B63B
100
AcDbEntity
  8
0
  6
CONTINUOUS
100
AcDbLine
 10
23.28345485255561
 20
2.36839999999762
 30
0.0
 11
21.42868060114038
 21
4.223174251412853
 31
0.0
  0
LINE
  5
B66C
330
B63B
100
AcDbEntity
  8
0
  6
CONTINUOUS
100
AcDbLine
 10
26.29227406164219
 20
0.0330999999912356
 30
0.0
 11
25.80009199592872
 21
0.5252820657046957
 31
0.0
  0
LINE
  5
B66D
330
B63B
100
AcDbEntity
  8
0
  6
CONTINUOUS
100
AcDbLine
 10
23.9569740616358
 20
2.36839999999762
 30
0.0
 11
21.63688370661101
 21
4.688490355022409
 31
0.0
  0
LINE
  5
B66E
330
B63B
100
AcDbEntity
  8
0
  6
CONTINUOUS
100
AcDbLine
 10
26.96579327072237
 20
0.0330999999912356
 30
0.0
 11
25.2554132311971
 21
1.743480039516508
 31
0.0
  0
LINE
  5
B66F
330
B63B
100
AcDbEntity
  8
0
  6
CONTINUOUS
100
AcDbLine
 10
24.63049327071599
 20
2.36839999999762
 30
0.0
 11
23.32789327071731
 21
3.670999999996297
 31
0.0
  0
LINE
  5
B670
330
B63B
100
AcDbEntity
  8
0
  6
CONTINUOUS
100
AcDbLine
 10
22.92098674744635
 20
4.077906523267254
 30
0.0
 11
21.84508681208164
 21
5.153806458631966
 31
0.0
  0
LINE
  5
B671
330
B63B
100
AcDbEntity
  8
0
  6
CONTINUOUS
100
AcDbLine
 10
27.63931247980256
 20
0.0330999999912356
 30
0.0
 11
24.0014124797975
 21
3.670999999996297
 31
0.0
  0
LINE
  5
B672
330
B63B
100
AcDbEntity
  8
0
  6
CONTINUOUS
100
AcDbLine
 10
23.129125600968
 20
4.5432868788258
 30
0.0
 11
22.05328991755227
 21
5.619122562241522
 31
0.0
  0
LINE
  5
B673
330
B63B
100
AcDbEntity
  8
0
  6
CONTINUOUS
100
AcDbLine
 10
28.31283168888275
 20
0.0330999999912356
 30
0.0
 11
24.16488385994816
 21
4.181047828925828
 31
0.0
  0
LINE
  5
B674
330
B63B
100
AcDbEntity
  8
0
  6
CONTINUOUS
100
AcDbLine
 10
23.33726445448964
 20
5.008667234384345
 30
0.0
 11
22.2614930230229
 21
6.084438665851079
 31
0.0
  0
LINE
  5
B675
330
B63B
100
AcDbEntity
  8
0
  6
CONTINUOUS
100
AcDbLine
 10
28.92085740005492
 20
0.0985934978992438
 30
0.0
 11
27.63635089796295
 21
1.383099999991217
 31
0.0
  0
LINE
  5
B676
330
B63B
100
AcDbEntity
  8
0
  6
CONTINUOUS
100
AcDbLine
 10
26.43704649509776
 20
2.582404402856405
 30
0.0
 11
23.61992702019732
 21
5.399523877756844
 31
0.0
  0
LINE
  5
B677
330
B63B
100
AcDbEntity
  8
0
  6
CONTINUOUS
100
AcDbLine
 10
23.54540330801128
 20
5.47404758994289
 30
0.0
 11
22.46969612849353
 21
6.549754769460635
 31
0.0
  0
LINE
  5
B678
330
B63B
100
AcDbEntity
  8
0
  6
CONTINUOUS
100
AcDbLine
 10
29.42225615078443
 20
0.2707139562499279
 30
0.0
 11
28.30987010704312
 21
1.383099999991234
 31
0.0
  0
LINE
  5
B679
330
B63B
100
AcDbEntity
  8
0
  6
CONTINUOUS
100
AcDbLine
 10
25.89179548232307
 20
3.801174624711282
 30
0.0
 11
22.67789923396416
 21
7.015070873070191
 31
0.0
  0
LINE
  5
B67A
330
B63B
100
AcDbEntity
  8
0
  6
CONTINUOUS
100
AcDbLine
 10
29.83624534690007
 20
0.5302439692144705
 30
0.0
 11
28.85811781497101
 21
1.508371501143527
 31
0.0
  0
LINE
  5
B67B
330
B63B
100
AcDbEntity
  8
0
  6
CONTINUOUS
100
AcDbLine
 10
25.34654446954838
 20
5.01994484656616
 30
0.0
 11
22.88610233943479
 21
7.480386976679748
 31
0.0
  0
LINE
  5
B67C
330
B63B
100
AcDbEntity
  8
0
  6
CONTINUOUS
100
AcDbLine
 10
30.17865975401872
 20
0.8613487711760022
 30
0.0
 11
29.18888744090175
 21
1.851121084292977
 31
0.0
  0
LINE
  5
B67D
330
B63B
100
AcDbEntity
  8
0
  6
CONTINUOUS
100
AcDbLine
 10
24.80129345677369
 20
6.238715068421037
 30
0.0
 11
23.09430544490542
 21
7.945703080289305
 31
0.0
  0
LINE
  5
B67E
330
B63B
100
AcDbEntity
  8
0
  6
CONTINUOUS
100
AcDbLine
 10
30.45496647202376
 20
1.258561262251155
 30
0.0
 11
29.30199999996933
 21
2.411527734305588
 31
0.0
  0
LINE
  5
B67F
330
B63B
100
AcDbEntity
  8
0
  6
CONTINUOUS
100
AcDbLine
 10
24.256042443999
 20
7.457485290275915
 30
0.0
 11
23.30250855037605
 21
8.411019183898862
 31
0.0
  0
LINE
  5
B680
330
B63B
100
AcDbEntity
  8
0
  6
CONTINUOUS
100
AcDbLine
 10
30.64868582078271
 20
1.738361122572387
 30
0.0
 11
29.30199999996933
 21
3.085046943385775
 31
0.0
  0
LINE
  5
B681
330
B63B
100
AcDbEntity
  8
0
  6
CONTINUOUS
100
AcDbLine
 10
23.71079143122431
 20
8.676255512130794
 30
0.0
 11
23.51071165584668
 21
8.876335287508416
 31
0.0
  0
LINE
  5
B682
330
B63B
100
AcDbEntity
  8
0
  6
CONTINUOUS
100
AcDbLine
 10
30.73802122914428
 20
2.322544923291007
 30
0.0
 11
29.30199999996933
 21
3.758566152465961
 31
0.0
  0
LINE
  5
B683
330
B63B
100
AcDbEntity
  8
0
  6
CONTINUOUS
100
AcDbLine
 10
30.74199999996924
 20
2.992085361546236
 30
0.0
 11
29.30199999996933
 21
4.432085361546148
 31
0.0
  0
LINE
  5
B684
330
B63B
100
AcDbEntity
  8
0
  6
CONTINUOUS
100
AcDbLine
 10
30.74199999996924
 20
3.665604570626419
 30
0.0
 11
29.30199999996933
 21
5.105604570626333
 31
0.0
  0
LINE
  5
B685
330
B63B
100
AcDbEntity
  8
0
  6
CONTINUOUS
100
AcDbLine
 10
30.74199999996925
 20
4.339123779706602
 30
0.0
 11
29.30199999996933
 21
5.77912377970652
 31
0.0
  0
LINE
  5
B686
330
B63B
100
AcDbEntity
  8
0
  6
CONTINUOUS
100
AcDbLine
 10
30.74199999996925
 20
5.012642988786785
 30
0.0
 11
29.30199999996933
 21
6.452642988786707
 31
0.0
  0
LINE
  5
B687
330
B63B
100
AcDbEntity
  8
0
  6
CONTINUOUS
100
AcDbLine
 10
30.74199999996925
 20
5.68616219786697
 30
0.0
 11
29.30199999996933
 21
7.126162197866894
 31
0.0
  0
LINE
  5
B688
330
B63B
100
AcDbEntity
  8
0
  6
CONTINUOUS
100
AcDbLine
 10
30.74199999996925
 20
6.359681406947153
 30
0.0
 11
29.30199999996933
 21
7.799681406947081
 31
0.0
  0
LINE
  5
B689
330
B63B
100
AcDbEntity
  8
0
  6
CONTINUOUS
100
AcDbLine
 10
30.74199999996926
 20
7.033200616027337
 30
0.0
 11
29.30199999996933
 21
8.473200616027269
 31
0.0
  0
LINE
  5
B68A
330
B63B
100
AcDbEntity
  8
0
  6
CONTINUOUS
100
AcDbLine
 10
30.74199999996926
 20
7.706719825107518
 30
0.0
 11
29.68561982508552
 21
8.763099999991255
 31
0.0
  0
LINE
  5
B68B
330
B63B
100
AcDbEntity
  8
0
  6
CONTINUOUS
100
AcDbLine
 10
30.74199999996926
 20
8.380239034187703
 30
0.0
 11
30.35913903416571
 21
8.763099999991255
 31
0.0
  0
ENDBLK
  5
B72E
330
B63B
100
AcDbEntity
  8
0
100
AcDbBlockEnd
  0
BLOCK
  5
B72F
330
B68C
100
AcDbEntity
  8
0
100
AcDbBlockBegin
  2
*X26
 70
     1
 10
0.0
 20
0.0
 30
0.0
  3
*X26
  1

  0
LINE
  5
B68D
330
B68C
100
AcDbEntity
  8
0
  6
CONTINUOUS
100
AcDbLine
 10
31.64199999996833
 20
8.535058289913598
 30
0.0
 11
31.87004171004599
 21
8.763099999991255
 31
0.0
  0
LINE
  5
B68E
330
B68C
100
AcDbEntity
  8
0
  6
CONTINUOUS
100
AcDbLine
 10
31.64199999996833
 20
7.861539080833412
 30
0.0
 11
32.54356091912618
 21
8.763099999991255
 31
0.0
  0
LINE
  5
B68F
330
B68C
100
AcDbEntity
  8
0
  6
CONTINUOUS
100
AcDbLine
 10
31.64199999996833
 20
7.188019871753226
 30
0.0
 11
33.08199999996839
 21
8.628019871753281
 31
0.0
  0
LINE
  5
B690
330
B68C
100
AcDbEntity
  8
0
  6
CONTINUOUS
100
AcDbLine
 10
31.64199999996833
 20
6.51450066267304
 30
0.0
 11
33.08199999996839
 21
7.954500662673095
 31
0.0
  0
LINE
  5
B691
330
B68C
100
AcDbEntity
  8
0
  6
CONTINUOUS
100
AcDbLine
 10
31.64199999996833
 20
5.840981453592853
 30
0.0
 11
33.08199999996839
 21
7.280981453592908
 31
0.0
  0
LINE
  5
B692
330
B68C
100
AcDbEntity
  8
0
  6
CONTINUOUS
100
AcDbLine
 10
31.64199999996833
 20
5.167462244512667
 30
0.0
 11
33.08199999996839
 21
6.607462244512721
 31
0.0
  0
LINE
  5
B693
330
B68C
100
AcDbEntity
  8
0
  6
CONTINUOUS
100
AcDbLine
 10
31.64199999996833
 20
4.493943035432481
 30
0.0
 11
33.08199999996839
 21
5.933943035432535
 31
0.0
  0
LINE
  5
B694
330
B68C
100
AcDbEntity
  8
0
  6
CONTINUOUS
100
AcDbLine
 10
31.64199999996833
 20
3.820423826352293
 30
0.0
 11
33.08199999996839
 21
5.260423826352348
 31
0.0
  0
LINE
  5
B695
330
B68C
100
AcDbEntity
  8
0
  6
CONTINUOUS
100
AcDbLine
 10
31.64199999996833
 20
3.146904617272106
 30
0.0
 11
33.08199999996839
 21
4.586904617272161
 31
0.0
  0
LINE
  5
B696
330
B68C
100
AcDbEntity
  8
0
  6
CONTINUOUS
100
AcDbLine
 10
36.23199999996837
 20
8.410423826352325
 30
0.0
 11
36.5846761736073
 21
8.763099999991255
 31
0.0
  0
LINE
  5
B697
330
B68C
100
AcDbEntity
  8
0
  6
CONTINUOUS
100
AcDbLine
 10
36.23199999996837
 20
7.73690461727214
 30
0.0
 11
37.25819538268748
 21
8.763099999991255
 31
0.0
  0
LINE
  5
B698
330
B68C
100
AcDbEntity
  8
0
  6
CONTINUOUS
100
AcDbLine
 10
31.64257403601376
 20
2.473959444237348
 30
0.0
 11
33.08199999996839
 21
3.913385408191974
 31
0.0
  0
LINE
  5
B699
330
B68C
100
AcDbEntity
  8
0
  6
CONTINUOUS
100
AcDbLine
 10
36.23199999996837
 20
7.063385408191953
 30
0.0
 11
37.67199999996831
 21
8.503385408191894
 31
0.0
  0
LINE
  5
B69A
330
B68C
100
AcDbEntity
  8
0
  6
CONTINUOUS
100
AcDbLine
 10
31.72013636841932
 20
1.87800256756272
 30
0.0
 11
33.08199999996839
 21
3.239866199111788
 31
0.0
  0
LINE
  5
B69B
330
B68C
100
AcDbEntity
  8
0
  6
CONTINUOUS
100
AcDbLine
 10
36.23199999996837
 20
6.389866199111767
 30
0.0
 11
37.67199999996831
 21
7.829866199111708
 31
0.0
  0
LINE
  5
B69C
330
B68C
100
AcDbEntity
  8
0
  6
CONTINUOUS
100
AcDbLine
 10
31.89042734314753
 20
1.374774333210744
 30
0.0
 11
33.08199999996839
 21
2.566346990031601
 31
0.0
  0
LINE
  5
B69D
330
B68C
100
AcDbEntity
  8
0
  6
CONTINUOUS
100
AcDbLine
 10
36.23199999996837
 20
5.71634699003158
 30
0.0
 11
37.67199999996831
 21
7.156346990031521
 31
0.0
  0
LINE
  5
B69E
330
B68C
100
AcDbEntity
  8
0
  6
CONTINUOUS
100
AcDbLine
 10
32.14210568064475
 20
0.952933461627778
 30
0.0
 11
33.18745552475986
 21
1.998283305742888
 31
0.0
  0
LINE
  5
B69F
330
B68C
100
AcDbEntity
  8
0
  6
CONTINUOUS
100
AcDbLine
 10
36.23199999996837
 20
5.042827780951393
 30
0.0
 11
37.67199999996831
 21
6.482827780951334
 31
0.0
  0
LINE
  5
B6A0
330
B68C
100
AcDbEntity
  8
0
  6
CONTINUOUS
100
AcDbLine
 10
32.45820639400955
 20
0.5955149659123915
 30
0.0
 11
33.47242681921943
 21
1.60973539112227
 31
0.0
  0
LINE
  5
B6A1
330
B68C
100
AcDbEntity
  8
0
  6
CONTINUOUS
100
AcDbLine
 10
36.23199999996837
 20
4.369308571871207
 30
0.0
 11
37.67199999996831
 21
5.809308571871147
 31
0.0
  0
LINE
  5
B6A2
330
B68C
100
AcDbEntity
  8
0
  6
CONTINUOUS
100
AcDbLine
 10
32.83432456621412
 20
0.2981139290367771
 30
0.0
 11
33.89722476612215
 21
1.361014128944803
 31
0.0
  0
LINE
  5
B6A3
330
B68C
100
AcDbEntity
  8
0
  6
CONTINUOUS
100
AcDbLine
 10
36.23199999996837
 20
3.69578936279102
 30
0.0
 11
37.67199999996831
 21
5.135789362790962
 31
0.0
  0
LINE
  5
B6A4
330
B68C
100
AcDbEntity
  8
0
  6
CONTINUOUS
100
AcDbLine
 10
33.2711633111245
 20
0.0614334648669672
 30
0.0
 11
34.43247338014423
 21
1.222743533886696
 31
0.0
  0
LINE
  5
B6A5
330
B68C
100
AcDbEntity
  8
0
  6
CONTINUOUS
100
AcDbLine
 10
36.23199999996837
 20
3.022270153710834
 30
0.0
 11
37.67199999996831
 21
4.462270153710775
 31
0.0
  0
LINE
  5
B6A6
330
B68C
100
AcDbEntity
  8
0
  6
CONTINUOUS
100
AcDbLine
 10
33.76515245874577
 20
-0.1180965965919523
 30
0.0
 11
35.1587445516215
 21
1.27549549628378
 31
0.0
  0
LINE
  5
B6A7
330
B68C
100
AcDbEntity
  8
0
  6
CONTINUOUS
100
AcDbLine
 10
36.21639478609585
 20
2.333145730758136
 30
0.0
 11
37.67199999996831
 21
3.788750944630588
 31
0.0
  0
LINE
  5
B6A8
330
B68C
100
AcDbEntity
  8
0
  6
CONTINUOUS
100
AcDbLine
 10
34.34060583368432
 20
-0.2161624307335863
 30
0.0
 11
37.67199999996831
 21
3.115231735550401
 31
0.0
  0
LINE
  5
B6A9
330
B68C
100
AcDbEntity
  8
0
  6
CONTINUOUS
100
AcDbLine
 10
35.01698193613905
 20
-0.2133055373590427
 30
0.0
 11
37.66876712070525
 21
2.438479647207154
 31
0.0
  0
LINE
  5
B6AA
330
B68C
100
AcDbEntity
  8
0
  6
CONTINUOUS
100
AcDbLine
 10
35.90743367693304
 20
0.0036269943547609
 30
0.0
 11
37.51723902192366
 21
1.613432339345381
 31
0.0
  0
LINE
  5
B6AB
330
B68C
100
AcDbEntity
  8
0
  6
CONTINUOUS
100
AcDbLine
 10
32.55309425579761
 20
0.5074718966376706
 30
0.0
 11
32.27784730925847
 21
0.7827188431768102
 31
0.0
  0
LINE
  5
B6AC
330
B68C
100
AcDbEntity
  8
0
  6
CONTINUOUS
100
AcDbLine
 10
33.87496468909684
 20
-0.1408793275813673
 30
0.0
 11
31.67993083278052
 21
2.054154528734943
 31
0.0
  0
LINE
  5
B6AD
330
B68C
100
AcDbEntity
  8
0
  6
CONTINUOUS
100
AcDbLine
 10
34.64362813207632
 20
-0.2360235614806649
 30
0.0
 11
31.64199999996833
 21
2.765604570627322
 31
0.0
  0
LINE
  5
B6AE
330
B68C
100
AcDbEntity
  8
0
  6
CONTINUOUS
100
AcDbLine
 10
35.25801106796118
 20
-0.1768872882853429
 30
0.0
 11
31.64199999996833
 21
3.439123779707508
 31
0.0
  0
LINE
  5
B6AF
330
B68C
100
AcDbEntity
  8
0
  6
CONTINUOUS
100
AcDbLine
 10
35.79065650332146
 20
-0.0360135145654361
 30
0.0
 11
34.54143210838231
 21
1.213210880373721
 31
0.0
  0
LINE
  5
B6B0
330
B68C
100
AcDbEntity
  8
0
  6
CONTINUOUS
100
AcDbLine
 10
33.08199999996839
 20
2.67264298878764
 30
0.0
 11
31.64199999996833
 21
4.112642988787695
 31
0.0
  0
LINE
  5
B6B1
330
B68C
100
AcDbEntity
  8
0
  6
CONTINUOUS
100
AcDbLine
 10
36.25975597779143
 20
0.1684062200447833
 30
0.0
 11
35.15395110240023
 21
1.274211095435983
 31
0.0
  0
LINE
  5
B6B2
330
B68C
100
AcDbEntity
  8
0
  6
CONTINUOUS
100
AcDbLine
 10
33.08199999996839
 20
3.346162197867826
 30
0.0
 11
31.64199999996833
 21
4.786162197867881
 31
0.0
  0
LINE
  5
B6B3
330
B68C
100
AcDbEntity
  8
0
  6
CONTINUOUS
100
AcDbLine
 10
36.67226329638774
 20
0.4294181105286579
 30
0.0
 11
35.63766478748767
 21
1.464016619428737
 31
0.0
  0
LINE
  5
B6B4
330
B68C
100
AcDbEntity
  8
0
  6
CONTINUOUS
100
AcDbLine
 10
33.08199999996839
 20
4.019681406948012
 30
0.0
 11
31.64199999996833
 21
5.459681406948068
 31
0.0
  0
LINE
  5
B6B5
330
B68C
100
AcDbEntity
  8
0
  6
CONTINUOUS
100
AcDbLine
 10
37.01677749710036
 20
0.7584231188962329
 30
0.0
 11
35.99563422741351
 21
1.779566388583076
 31
0.0
  0
LINE
  5
B6B6
330
B68C
100
AcDbEntity
  8
0
  6
CONTINUOUS
100
AcDbLine
 10
33.08199999996839
 20
4.693200616028199
 30
0.0
 11
31.64199999996833
 21
6.133200616028255
 31
0.0
  0
LINE
  5
B6B7
330
B68C
100
AcDbEntity
  8
0
  6
CONTINUOUS
100
AcDbLine
 10
37.29859977568887
 20
1.1501200493879
 30
0.0
 11
36.20680593341555
 21
2.241913891661226
 31
0.0
  0
LINE
  5
B6B8
330
B68C
100
AcDbEntity
  8
0
  6
CONTINUOUS
100
AcDbLine
 10
33.08199999996839
 20
5.366719825108386
 30
0.0
 11
31.64199999996833
 21
6.80671982510844
 31
0.0
  0
LINE
  5
B6B9
330
B68C
100
AcDbEntity
  8
0
  6
CONTINUOUS
100
AcDbLine
 10
37.5148623517228
 20
1.607376682434161
 30
0.0
 11
36.23199999996837
 21
2.890239034188594
 31
0.0
  0
LINE
  5
B6BA
330
B68C
100
AcDbEntity
  8
0
  6
CONTINUOUS
100
AcDbLine
 10
33.08199999996839
 20
6.040239034188573
 30
0.0
 11
31.64199999996833
 21
7.480239034188627
 31
0.0
  0
LINE
  5
B6BB
330
B68C
100
AcDbEntity
  8
0
  6
CONTINUOUS
100
AcDbLine
 10
37.64705163358367
 20
2.148706609653477
 30
0.0
 11
36.23199999996837
 21
3.56375824326878
 31
0.0
  0
LINE
  5
B6BC
330
B68C
100
AcDbEntity
  8
0
  6
CONTINUOUS
100
AcDbLine
 10
33.08199999996839
 20
6.713758243268758
 30
0.0
 11
31.64199999996833
 21
8.153758243268815
 31
0.0
  0
LINE
  5
B6BD
330
B68C
100
AcDbEntity
  8
0
  6
CONTINUOUS
100
AcDbLine
 10
37.67199999996831
 20
2.797277452349026
 30
0.0
 11
36.23199999996837
 21
4.237277452348967
 31
0.0
  0
LINE
  5
B6BE
330
B68C
100
AcDbEntity
  8
0
  6
CONTINUOUS
100
AcDbLine
 10
37.67199999996831
 20
3.470796661429213
 30
0.0
 11
36.23199999996837
 21
4.910796661429154
 31
0.0
  0
LINE
  5
B6BF
330
B68C
100
AcDbEntity
  8
0
  6
CONTINUOUS
100
AcDbLine
 10
37.67199999996831
 20
4.144315870509399
 30
0.0
 11
36.23199999996837
 21
5.58431587050934
 31
0.0
  0
LINE
  5
B6C0
330
B68C
100
AcDbEntity
  8
0
  6
CONTINUOUS
100
AcDbLine
 10
33.08199999996839
 20
7.387277452348945
 30
0.0
 11
31.70617745232608
 21
8.763099999991255
 31
0.0
  0
LINE
  5
B6C1
330
B68C
100
AcDbEntity
  8
0
  6
CONTINUOUS
100
AcDbLine
 10
33.08199999996839
 20
8.060796661429132
 30
0.0
 11
32.37969666140626
 21
8.763099999991255
 31
0.0
  0
LINE
  5
B6C2
330
B68C
100
AcDbEntity
  8
0
  6
CONTINUOUS
100
AcDbLine
 10
33.08199999996839
 20
8.734315870509318
 30
0.0
 11
33.05321587048645
 21
8.763099999991255
 31
0.0
  0
LINE
  5
B6C3
330
B68C
100
AcDbEntity
  8
0
  6
CONTINUOUS
100
AcDbLine
 10
37.67199999996831
 20
4.817835079589585
 30
0.0
 11
36.23199999996837
 21
6.257835079589526
 31
0.0
  0
LINE
  5
B6C4
330
B68C
100
AcDbEntity
  8
0
  6
CONTINUOUS
100
AcDbLine
 10
37.67199999996831
 20
5.491354288669771
 30
0.0
 11
36.23199999996837
 21
6.931354288669713
 31
0.0
  0
LINE
  5
B6C5
330
B68C
100
AcDbEntity
  8
0
  6
CONTINUOUS
100
AcDbLine
 10
37.67199999996831
 20
6.164873497749958
 30
0.0
 11
36.23199999996837
 21
7.6048734977499
 31
0.0
  0
LINE
  5
B6C6
330
B68C
100
AcDbEntity
  8
0
  6
CONTINUOUS
100
AcDbLine
 10
37.67199999996831
 20
6.838392706830144
 30
0.0
 11
36.23199999996837
 21
8.278392706830086
 31
0.0
  0
LINE
  5
B6C7
330
B68C
100
AcDbEntity
  8
0
  6
CONTINUOUS
100
AcDbLine
 10
37.67199999996831
 20
7.511911915910332
 30
0.0
 11
36.42081191588738
 21
8.763099999991255
 31
0.0
  0
LINE
  5
B6C8
330
B68C
100
AcDbEntity
  8
0
  6
CONTINUOUS
100
AcDbLine
 10
37.67199999996831
 20
8.185431124990519
 30
0.0
 11
37.09433112496757
 21
8.763099999991255
 31
0.0
  0
ENDBLK
  5
B730
330
B68C
100
AcDbEntity
  8
0
100
AcDbBlockEnd
  0
BLOCK
  5
B731
330
B6C9
100
AcDbEntity
  8
0
100
AcDbBlockBegin
  2
*X27
 70
     1
 10
0.0
 20
0.0
 30
0.0
  3
*X27
  1

  0
LINE
  5
B6CA
330
B6C9
100
AcDbEntity
  8
0
  6
CONTINUOUS
100
AcDbLine
 10
38.60499999996136
 20
8.762866199104765
 30
0.0
 11
38.71672554182345
 21
8.874591740966855
 31
0.0
  0
LINE
  5
B6CB
330
B6C9
100
AcDbEntity
  8
0
  6
CONTINUOUS
100
AcDbLine
 10
38.60499999996136
 20
8.089346990024577
 30
0.0
 11
39.03418785440363
 21
8.518534844466847
 31
0.0
  0
LINE
  5
B6CC
330
B6C9
100
AcDbEntity
  8
0
  6
CONTINUOUS
100
AcDbLine
 10
38.60499999996136
 20
7.41582778094439
 30
0.0
 11
39.35165016698382
 21
8.16247794796684
 31
0.0
  0
LINE
  5
B6CD
330
B6C9
100
AcDbEntity
  8
0
  6
CONTINUOUS
100
AcDbLine
 10
38.60499999996136
 20
6.742308571864204
 30
0.0
 11
39.66911247956399
 21
7.806421051466834
 31
0.0
  0
LINE
  5
B6CE
330
B6C9
100
AcDbEntity
  8
0
  6
CONTINUOUS
100
AcDbLine
 10
38.60499999996136
 20
6.068789362784018
 30
0.0
 11
39.98657479214418
 21
7.450364154966827
 31
0.0
  0
LINE
  5
B6CF
330
B6C9
100
AcDbEntity
  8
0
  6
CONTINUOUS
100
AcDbLine
 10
38.60499999996136
 20
5.395270153703832
 30
0.0
 11
40.30403710472435
 21
7.09430725846682
 31
0.0
  0
LINE
  5
B6D0
330
B6C9
100
AcDbEntity
  8
0
  6
CONTINUOUS
100
AcDbLine
 10
38.60499999996136
 20
4.721750944623645
 30
0.0
 11
40.62149941730453
 21
6.738250361966813
 31
0.0
  0
LINE
  5
B6D1
330
B6C9
100
AcDbEntity
  8
0
  6
CONTINUOUS
100
AcDbLine
 10
38.60499999996136
 20
4.048231735543458
 30
0.0
 11
40.93896172988471
 21
6.382193465466806
 31
0.0
  0
LINE
  5
B6D2
330
B6C9
100
AcDbEntity
  8
0
  6
CONTINUOUS
100
AcDbLine
 10
38.60499999996136
 20
3.374712526463272
 30
0.0
 11
40.02599999995994
 21
4.795712526461843
 31
0.0
  0
LINE
  5
B6D3
330
B6C9
100
AcDbEntity
  8
0
  6
CONTINUOUS
100
AcDbLine
 10
38.60499999996136
 20
2.701193317383085
 30
0.0
 11
40.02599999995994
 21
4.122193317381657
 31
0.0
  0
LINE
  5
B6D4
330
B6C9
100
AcDbEntity
  8
0
  6
CONTINUOUS
100
AcDbLine
 10
40.28339754687704
 20
5.053110073378947
 30
0.0
 11
41.25642404246489
 21
6.026136568966799
 31
0.0
  0
LINE
  5
B6D5
330
B6C9
100
AcDbEntity
  8
0
  6
CONTINUOUS
100
AcDbLine
 10
40.60085985945722
 20
4.697053176878939
 30
0.0
 11
41.57388635504507
 21
5.670079672466793
 31
0.0
  0
LINE
  5
B6D6
330
B6C9
100
AcDbEntity
  8
0
  6
CONTINUOUS
100
AcDbLine
 10
43.57899999995641
 20
8.348712526458318
 30
0.0
 11
43.99338747348935
 21
8.763099999991255
 31
0.0
  0
LINE
  5
B6D7
330
B6C9
100
AcDbEntity
  8
0
  6
CONTINUOUS
100
AcDbLine
 10
43.57899999995641
 20
7.675193317378131
 30
0.0
 11
44.66690668256953
 21
8.763099999991255
 31
0.0
  0
LINE
  5
B6D8
330
B6C9
100
AcDbEntity
  8
0
  6
CONTINUOUS
100
AcDbLine
 10
38.60499999996136
 20
2.027674108302898
 30
0.0
 11
40.02599999995994
 21
3.44867410830147
 31
0.0
  0
LINE
  5
B6D9
330
B6C9
100
AcDbEntity
  8
0
  6
CONTINUOUS
100
AcDbLine
 10
38.60499999996136
 20
1.354154899222712
 30
0.0
 11
40.02599999995994
 21
2.775154899221284
 31
0.0
  0
LINE
  5
B6DA
330
B6C9
100
AcDbEntity
  8
0
  6
CONTINUOUS
100
AcDbLine
 10
38.60499999996136
 20
0.6806356901425255
 30
0.0
 11
40.02599999995994
 21
2.101635690141098
 31
0.0
  0
LINE
  5
B6DB
330
B6C9
100
AcDbEntity
  8
0
  6
CONTINUOUS
100
AcDbLine
 10
38.60499999996136
 20
0.0071164810623383
 30
0.0
 11
40.02599999995994
 21
1.428116481060911
 31
0.0
  0
LINE
  5
B6DC
330
B6C9
100
AcDbEntity
  8
0
  6
CONTINUOUS
100
AcDbLine
 10
40.9183221720374
 20
4.340996280378933
 30
0.0
 11
41.89134866762525
 21
5.314022775966786
 31
0.0
  0
LINE
  5
B6DD
330
B6C9
100
AcDbEntity
  8
0
  6
CONTINUOUS
100
AcDbLine
 10
41.23578448461758
 20
3.984939383878926
 30
0.0
 11
42.20881098020543
 21
4.957965879466778
 31
0.0
  0
LINE
  5
B6DE
330
B6C9
100
AcDbEntity
  8
0
  6
CONTINUOUS
100
AcDbLine
 10
41.55324679719776
 20
3.628882487378919
 30
0.0
 11
42.52627329278561
 21
4.601908982966772
 31
0.0
  0
LINE
  5
B6DF
330
B6C9
100
AcDbEntity
  8
0
  6
CONTINUOUS
100
AcDbLine
 10
41.87070910977793
 20
3.272825590878912
 30
0.0
 11
42.84373560536579
 21
4.245852086466765
 31
0.0
  0
LINE
  5
B6E0
330
B6C9
100
AcDbEntity
  8
0
  6
CONTINUOUS
100
AcDbLine
 10
43.57899999995641
 20
7.001674108297943
 30
0.0
 11
44.99999999995498
 21
8.422674108296516
 31
0.0
  0
LINE
  5
B6E1
330
B6C9
100
AcDbEntity
  8
0
  6
CONTINUOUS
100
AcDbLine
 10
43.57899999995641
 20
6.328154899217758
 30
0.0
 11
44.99999999995498
 21
7.749154899216329
 31
0.0
  0
LINE
  5
B6E2
330
B6C9
100
AcDbEntity
  8
0
  6
CONTINUOUS
100
AcDbLine
 10
43.57899999995641
 20
5.654635690137571
 30
0.0
 11
44.99999999995498
 21
7.075635690136142
 31
0.0
  0
LINE
  5
B6E3
330
B6C9
100
AcDbEntity
  8
0
  6
CONTINUOUS
100
AcDbLine
 10
43.57899999995641
 20
4.981116481057384
 30
0.0
 11
44.99999999995498
 21
6.402116481055955
 31
0.0
  0
LINE
  5
B6E4
330
B6C9
100
AcDbEntity
  8
0
  6
CONTINUOUS
100
AcDbLine
 10
39.27140272797921
 20
-0.0000000000000009
 30
0.0
 11
40.02599999995994
 21
0.7545972719807246
 31
0.0
  0
LINE
  5
B6E5
330
B6C9
100
AcDbEntity
  8
0
  6
CONTINUOUS
100
AcDbLine
 10
39.9449219370594
 20
-0.0000000000000009
 30
0.0
 11
40.02599999995994
 21
0.0810780629005379
 31
0.0
  0
LINE
  5
B6E6
330
B6C9
100
AcDbEntity
  8
0
  6
CONTINUOUS
100
AcDbLine
 10
42.18817142235812
 20
2.916768694378905
 30
0.0
 11
43.16119791794597
 21
3.889795189966758
 31
0.0
  0
LINE
  5
B6E7
330
B6C9
100
AcDbEntity
  8
0
  6
CONTINUOUS
100
AcDbLine
 10
42.50563373493829
 20
2.560711797878898
 30
0.0
 11
43.47866023052615
 21
3.533738293466751
 31
0.0
  0
LINE
  5
B6E8
330
B6C9
100
AcDbEntity
  8
0
  6
CONTINUOUS
100
AcDbLine
 10
43.57899999995641
 20
4.307597271977198
 30
0.0
 11
44.99999999995498
 21
5.728597271975769
 31
0.0
  0
LINE
  5
B6E9
330
B6C9
100
AcDbEntity
  8
0
  6
CONTINUOUS
100
AcDbLine
 10
43.57899999995641
 20
3.634078062897011
 30
0.0
 11
44.99999999995498
 21
5.055078062895582
 31
0.0
  0
LINE
  5
B6EA
330
B6C9
100
AcDbEntity
  8
0
  6
CONTINUOUS
100
AcDbLine
 10
42.82309604751848
 20
2.204654901378891
 30
0.0
 11
44.99999999995498
 21
4.381558853815395
 31
0.0
  0
LINE
  5
B6EB
330
B6C9
100
AcDbEntity
  8
0
  6
CONTINUOUS
100
AcDbLine
 10
43.14055836009865
 20
1.848598004878885
 30
0.0
 11
44.99999999995498
 21
3.70803964473521
 31
0.0
  0
LINE
  5
B6EC
330
B6C9
100
AcDbEntity
  8
0
  6
CONTINUOUS
100
AcDbLine
 10
43.45802067267883
 20
1.492541108378878
 30
0.0
 11
44.99999999995498
 21
3.034520435655023
 31
0.0
  0
LINE
  5
B6ED
330
B6C9
100
AcDbEntity
  8
0
  6
CONTINUOUS
100
AcDbLine
 10
43.77548298525902
 20
1.136484211878871
 30
0.0
 11
44.99999999995498
 21
2.361001226574837
 31
0.0
  0
LINE
  5
B6EE
330
B6C9
100
AcDbEntity
  8
0
  6
CONTINUOUS
100
AcDbLine
 10
44.09294529783919
 20
0.7804273153788639
 30
0.0
 11
44.99999999995498
 21
1.687482017494649
 31
0.0
  0
LINE
  5
B6EF
330
B6C9
100
AcDbEntity
  8
0
  6
CONTINUOUS
100
AcDbLine
 10
44.41040761041938
 20
0.4243704188788566
 30
0.0
 11
44.99999999995498
 21
1.013962808414463
 31
0.0
  0
LINE
  5
B6F0
330
B6C9
100
AcDbEntity
  8
0
  6
CONTINUOUS
100
AcDbLine
 10
44.72786992299955
 20
0.0683135223788494
 30
0.0
 11
44.99999999995498
 21
0.340443599334276
 31
0.0
  0
LINE
  5
B6F1
330
B6C9
100
AcDbEntity
  8
0
  6
CONTINUOUS
100
AcDbLine
 10
39.12223903415696
 20
-0.0000000000000009
 30
0.0
 11
38.60499999996136
 21
0.5172390341955961
 31
0.0
  0
LINE
  5
B6F2
330
B6C9
100
AcDbEntity
  8
0
  6
CONTINUOUS
100
AcDbLine
 10
39.79575824323715
 20
-0.0000000000000009
 30
0.0
 11
38.60499999996136
 21
1.190758243275783
 31
0.0
  0
LINE
  5
B6F3
330
B6C9
100
AcDbEntity
  8
0
  6
CONTINUOUS
100
AcDbLine
 10
40.02599999995994
 20
0.443277452357397
 30
0.0
 11
38.60499999996136
 21
1.864277452355969
 31
0.0
  0
LINE
  5
B6F4
330
B6C9
100
AcDbEntity
  8
0
  6
CONTINUOUS
100
AcDbLine
 10
40.02599999995994
 20
1.116796661437583
 30
0.0
 11
38.60499999996136
 21
2.537796661436155
 31
0.0
  0
LINE
  5
B6F5
330
B6C9
100
AcDbEntity
  8
0
  6
CONTINUOUS
100
AcDbLine
 10
40.02599999995994
 20
1.79031587051777
 30
0.0
 11
38.60499999996136
 21
3.211315870516341
 31
0.0
  0
LINE
  5
B6F6
330
B6C9
100
AcDbEntity
  8
0
  6
CONTINUOUS
100
AcDbLine
 10
40.02599999995994
 20
2.463835079597956
 30
0.0
 11
38.60499999996136
 21
3.884835079596527
 31
0.0
  0
LINE
  5
B6F7
330
B6C9
100
AcDbEntity
  8
0
  6
CONTINUOUS
100
AcDbLine
 10
40.02599999995994
 20
3.137354288678143
 30
0.0
 11
38.60499999996136
 21
4.558354288676714
 31
0.0
  0
LINE
  5
B6F8
330
B6C9
100
AcDbEntity
  8
0
  6
CONTINUOUS
100
AcDbLine
 10
40.02599999995994
 20
3.810873497758329
 30
0.0
 11
38.60499999996136
 21
5.2318734977569
 31
0.0
  0
LINE
  5
B6F9
330
B6C9
100
AcDbEntity
  8
0
  6
CONTINUOUS
100
AcDbLine
 10
40.02599999995994
 20
4.484392706838515
 30
0.0
 11
38.60499999996136
 21
5.905392706837086
 31
0.0
  0
LINE
  5
B6FA
330
B6C9
100
AcDbEntity
  8
0
  6
CONTINUOUS
100
AcDbLine
 10
44.99999999995498
 20
0.183911915923658
 30
0.0
 11
41.53858364506288
 21
3.64532827081576
 31
0.0
  0
LINE
  5
B6FB
330
B6C9
100
AcDbEntity
  8
0
  6
CONTINUOUS
100
AcDbLine
 10
40.02599999995994
 20
5.157911915918703
 30
0.0
 11
38.60499999996136
 21
6.578911915917274
 31
0.0
  0
LINE
  5
B6FC
330
B6C9
100
AcDbEntity
  8
0
  6
CONTINUOUS
100
AcDbLine
 10
44.99999999995498
 20
0.8574311250038447
 30
0.0
 11
38.60499999996136
 21
7.25243112499746
 31
0.0
  0
LINE
  5
B6FD
330
B6C9
100
AcDbEntity
  8
0
  6
CONTINUOUS
100
AcDbLine
 10
44.99999999995498
 20
1.530950334084031
 30
0.0
 11
38.60499999996136
 21
7.925950334077647
 31
0.0
  0
LINE
  5
B6FE
330
B6C9
100
AcDbEntity
  8
0
  6
CONTINUOUS
100
AcDbLine
 10
44.99999999995498
 20
2.204469543164218
 30
0.0
 11
43.57899999995641
 21
3.625469543162789
 31
0.0
  0
LINE
  5
B6FF
330
B6C9
100
AcDbEntity
  8
0
  6
CONTINUOUS
100
AcDbLine
 10
41.89876730984767
 20
5.305702233271528
 30
0.0
 11
38.60499999996136
 21
8.599469543157834
 31
0.0
  0
LINE
  5
B700
330
B6C9
100
AcDbEntity
  8
0
  6
CONTINUOUS
100
AcDbLine
 10
44.99999999995498
 20
2.877988752244405
 30
0.0
 11
43.57899999995641
 21
4.298988752242975
 31
0.0
  0
LINE
  5
B701
330
B6C9
100
AcDbEntity
  8
0
  6
CONTINUOUS
100
AcDbLine
 10
44.99999999995498
 20
3.551507961324591
 30
0.0
 11
43.57899999995641
 21
4.972507961323163
 31
0.0
  0
LINE
  5
B702
330
B6C9
100
AcDbEntity
  8
0
  6
CONTINUOUS
100
AcDbLine
 10
44.99999999995498
 20
4.225027170404777
 30
0.0
 11
43.57899999995641
 21
5.646027170403348
 31
0.0
  0
LINE
  5
B703
330
B6C9
100
AcDbEntity
  8
0
  6
CONTINUOUS
100
AcDbLine
 10
44.99999999995498
 20
4.898546379484964
 30
0.0
 11
43.57899999995641
 21
6.319546379483535
 31
0.0
  0
LINE
  5
B704
330
B6C9
100
AcDbEntity
  8
0
  6
CONTINUOUS
100
AcDbLine
 10
44.99999999995498
 20
5.572065588565151
 30
0.0
 11
43.57899999995641
 21
6.993065588563722
 31
0.0
  0
LINE
  5
B705
330
B6C9
100
AcDbEntity
  8
0
  6
CONTINUOUS
100
AcDbLine
 10
44.99999999995498
 20
6.245584797645336
 30
0.0
 11
43.57899999995641
 21
7.666584797643908
 31
0.0
  0
LINE
  5
B706
330
B6C9
100
AcDbEntity
  8
0
  6
CONTINUOUS
100
AcDbLine
 10
44.99999999995498
 20
6.919104006725522
 30
0.0
 11
43.57899999995641
 21
8.340104006724093
 31
0.0
  0
LINE
  5
B707
330
B6C9
100
AcDbEntity
  8
0
  6
CONTINUOUS
100
AcDbLine
 10
44.99999999995498
 20
7.592623215805709
 30
0.0
 11
43.82952321576943
 21
8.763099999991255
 31
0.0
  0
LINE
  5
B708
330
B6C9
100
AcDbEntity
  8
0
  6
CONTINUOUS
100
AcDbLine
 10
44.99999999995498
 20
8.266142424885896
 30
0.0
 11
44.50304242484962
 21
8.763099999991255
 31
0.0
  0
ENDBLK
  5
B732
330
B6C9
100
AcDbEntity
  8
0
100
AcDbBlockEnd
  0
BLOCK
  5
B733
330
B709
100
AcDbEntity
  8
0
100
AcDbBlockBegin
  2
*X28
 70
     1
 10
0.0
 20
0.0
 30
0.0
  3
*X28
  1

  0
LINE
  5
B70A
330
B709
100
AcDbEntity
  8
0
  6
CONTINUOUS
100
AcDbLine
 10
0.0
 20
8.548461116714023
 30
0.0
 11
0.2146388832772324
 21
8.763099999991255
 31
0.0
  0
LINE
  5
B70B
330
B709
100
AcDbEntity
  8
0
  6
CONTINUOUS
100
AcDbLine
 10
-0.0000000000000002
 20
7.874941907633837
 30
0.0
 11
0.8881580923574184
 21
8.763099999991255
 31
0.0
  0
LINE
  5
B70C
330
B709
100
AcDbEntity
  8
0
  6
CONTINUOUS
100
AcDbLine
 10
0.0
 20
7.20142269855365
 30
0.0
 11
1.420999999998572
 21
8.622422698552223
 31
0.0
  0
LINE
  5
B70D
330
B709
100
AcDbEntity
  8
0
  6
CONTINUOUS
100
AcDbLine
 10
-0.0000000000000001
 20
6.527903489473465
 30
0.0
 11
1.420999999998571
 21
7.948903489472036
 31
0.0
  0
LINE
  5
B70E
330
B709
100
AcDbEntity
  8
0
  6
CONTINUOUS
100
AcDbLine
 10
-0.0000000000000002
 20
5.854384280393278
 30
0.0
 11
1.420999999998571
 21
7.275384280391849
 31
0.0
  0
LINE
  5
B70F
330
B709
100
AcDbEntity
  8
0
  6
CONTINUOUS
100
AcDbLine
 10
-0.0000000000000002
 20
5.180865071313091
 30
0.0
 11
1.420999999998571
 21
6.601865071311663
 31
0.0
  0
LINE
  5
B710
330
B709
100
AcDbEntity
  8
0
  6
CONTINUOUS
100
AcDbLine
 10
0.0
 20
4.507345862232905
 30
0.0
 11
1.420999999998571
 21
5.928345862231477
 31
0.0
  0
LINE
  5
B711
330
B709
100
AcDbEntity
  8
0
  6
CONTINUOUS
100
AcDbLine
 10
-0.0000000000000003
 20
3.833826653152718
 30
0.0
 11
1.420999999998571
 21
5.25482665315129
 31
0.0
  0
LINE
  5
B712
330
B709
100
AcDbEntity
  8
0
  6
CONTINUOUS
100
AcDbLine
 10
-0.0000000000000002
 20
3.160307444072532
 30
0.0
 11
1.420999999998571
 21
4.581307444071103
 31
0.0
  0
LINE
  5
B713
330
B709
100
AcDbEntity
  8
0
  6
CONTINUOUS
100
AcDbLine
 10
-0.0000000000000001
 20
2.486788234992345
 30
0.0
 11
1.420999999998571
 21
3.907788234990917
 31
0.0
  0
LINE
  5
B714
330
B709
100
AcDbEntity
  8
0
  6
CONTINUOUS
100
AcDbLine
 10
-0.0000000000000006
 20
1.813269025912159
 30
0.0
 11
1.420999999998571
 21
3.234269025910731
 31
0.0
  0
LINE
  5
B715
330
B709
100
AcDbEntity
  8
0
  6
CONTINUOUS
100
AcDbLine
 10
0.0
 20
1.139749816831973
 30
0.0
 11
1.420999999998571
 21
2.560749816830544
 31
0.0
  0
LINE
  5
B716
330
B709
100
AcDbEntity
  8
0
  6
CONTINUOUS
100
AcDbLine
 10
0.0000000000000002
 20
0.466230607751787
 30
0.0
 11
1.420999999998571
 21
1.887230607750358
 31
0.0
  0
LINE
  5
B717
330
B709
100
AcDbEntity
  8
0
  6
CONTINUOUS
100
AcDbLine
 10
0.2072886013284003
 20
-0.0000000000000009
 30
0.0
 11
1.420999999998571
 21
1.213711398670171
 31
0.0
  0
LINE
  5
B718
330
B709
100
AcDbEntity
  8
0
  6
CONTINUOUS
100
AcDbLine
 10
0.8808078104085864
 20
-0.0000000000000009
 30
0.0
 11
1.420999999998571
 21
0.5401921895899839
 31
0.0
  0
LINE
  5
B719
330
B709
100
AcDbEntity
  8
0
  6
CONTINUOUS
100
AcDbLine
 10
0.0581249075061505
 20
-0.0000000000000009
 30
0.0
 11
-0.0000000000000002
 21
0.0581249075061496
 31
0.0
  0
LINE
  5
B71A
330
B709
100
AcDbEntity
  8
0
  6
CONTINUOUS
100
AcDbLine
 10
0.7316441165863372
 20
-0.0000000000000009
 30
0.0
 11
-0.0000000000000002
 21
0.7316441165863363
 31
0.0
  0
LINE
  5
B71B
330
B709
100
AcDbEntity
  8
0
  6
CONTINUOUS
100
AcDbLine
 10
1.405163325666523
 20
-0.0000000000000009
 30
0.0
 11
-0.0000000000000002
 21
1.405163325666523
 31
0.0
  0
LINE
  5
B71C
330
B709
100
AcDbEntity
  8
0
  6
CONTINUOUS
100
AcDbLine
 10
1.420999999998572
 20
0.6576825347481381
 30
0.0
 11
-0.0000000000000001
 21
2.07868253474671
 31
0.0
  0
LINE
  5
B71D
330
B709
100
AcDbEntity
  8
0
  6
CONTINUOUS
100
AcDbLine
 10
1.420999999998571
 20
1.331201743828324
 30
0.0
 11
-0.0000000000000001
 21
2.752201743826896
 31
0.0
  0
LINE
  5
B71E
330
B709
100
AcDbEntity
  8
0
  6
CONTINUOUS
100
AcDbLine
 10
1.420999999998571
 20
2.004720952908511
 30
0.0
 11
-0.0000000000000002
 21
3.425720952907082
 31
0.0
  0
LINE
  5
B71F
330
B709
100
AcDbEntity
  8
0
  6
CONTINUOUS
100
AcDbLine
 10
1.420999999998571
 20
2.678240161988697
 30
0.0
 11
-0.0000000000000001
 21
4.099240161987269
 31
0.0
  0
LINE
  5
B720
330
B709
100
AcDbEntity
  8
0
  6
CONTINUOUS
100
AcDbLine
 10
1.420999999998572
 20
3.351759371068884
 30
0.0
 11
0.0
 21
4.772759371067455
 31
0.0
  0
LINE
  5
B721
330
B709
100
AcDbEntity
  8
0
  6
CONTINUOUS
100
AcDbLine
 10
1.420999999998571
 20
4.02527858014907
 30
0.0
 11
-0.0000000000000003
 21
5.446278580147642
 31
0.0
  0
LINE
  5
B722
330
B709
100
AcDbEntity
  8
0
  6
CONTINUOUS
100
AcDbLine
 10
1.420999999998571
 20
4.698797789229257
 30
0.0
 11
0.0
 21
6.119797789227828
 31
0.0
  0
LINE
  5
B723
330
B709
100
AcDbEntity
  8
0
  6
CONTINUOUS
100
AcDbLine
 10
1.420999999998571
 20
5.372316998309444
 30
0.0
 11
-0.0000000000000001
 21
6.793316998308015
 31
0.0
  0
LINE
  5
B724
330
B709
100
AcDbEntity
  8
0
  6
CONTINUOUS
100
AcDbLine
 10
1.420999999998572
 20
6.045836207389629
 30
0.0
 11
-0.0000000000000004
 21
7.466836207388202
 31
0.0
  0
LINE
  5
B725
330
B709
100
AcDbEntity
  8
0
  6
CONTINUOUS
100
AcDbLine
 10
1.420999999998571
 20
6.719355416469816
 30
0.0
 11
0.0
 21
8.140355416468388
 31
0.0
  0
LINE
  5
B726
330
B709
100
AcDbEntity
  8
0
  6
CONTINUOUS
100
AcDbLine
 10
1.420999999998571
 20
7.392874625550003
 30
0.0
 11
0.0507746255573185
 21
8.763099999991255
 31
0.0
  0
LINE
  5
B727
330
B709
100
AcDbEntity
  8
0
  6
CONTINUOUS
100
AcDbLine
 10
1.420999999998571
 20
8.06639383463019
 30
0.0
 11
0.7242938346375052
 21
8.763099999991255
 31
0.0
  0
LINE
  5
B728
330
B709
100
AcDbEntity
  8
0
  6
CONTINUOUS
100
AcDbLine
 10
1.420999999998571
 20
8.739913043710375
 30
0.0
 11
1.397813043717691
 21
8.763099999991255
 31
0.0
  0
ENDBLK
  5
B734
330
B709
100
AcDbEntity
  8
0
100
AcDbBlockEnd
  0
ENDSEC
  0
SECTION
  2
ENTITIES
  0
TEXT
  5
349B
330
18
100
AcDbEntity
  8
1TEXT
100
AcDbText
 10
-241.5807076787317
 20
-2069.480602302047
 30
0.0
 40
8.0
  1
PC-096-XXM
100
AcDbText
  0
LINE
  5
A81C
330
18
100
AcDbEntity
  8
1CENTER
100
AcDbLine
 10
-64.90442889188887
 20
-2199.861489824604
 30
0.0
 11
-64.90442889188887
 21
-2211.861489824604
 31
0.0
  0
LINE
  5
A81D
330
18
100
AcDbEntity
  8
1CENTER
100
AcDbLine
 10
-115.8569988918888
 20
-2199.861489824604
 30
0.0
 11
-115.8569988918888
 21
-2211.861489824604
 31
0.0
  0
LINE
  5
A81E
330
18
100
AcDbEntity
  8
1CENTER
100
AcDbLine
 10
-235.8569988918888
 20
-2199.861489824604
 30
0.0
 11
-235.8569988918888
 21
-2211.861489824604
 31
0.0
  0
LINE
  5
A81F
330
18
100
AcDbEntity
  8
1CENTER
100
AcDbLine
 10
-115.8569988918888
 20
-2114.861489824604
 30
0.0
 11
-115.8569988918888
 21
-2108.861489824604
 31
0.0
  0
LINE
  5
A820
330
18
100
AcDbEntity
  8
1CENTER
100
AcDbLine
 10
-118.8569988918888
 20
-2111.861489824604
 30
0.0
 11
-112.8569988918888
 21
-2111.861489824604
 31
0.0
  0
LINE
  5
A821
330
18
100
AcDbEntity
  8
1CENTER
100
AcDbLine
 10
-235.8569988918888
 20
-2114.861489824604
 30
0.0
 11
-235.8569988918888
 21
-2108.861489824604
 31
0.0
  0
LINE
  5
A822
330
18
100
AcDbEntity
  8
1CENTER
100
AcDbLine
 10
-238.8569988918888
 20
-2111.861489824604
 30
0.0
 11
-232.8569988918888
 21
-2111.861489824604
 31
0.0
  0
LINE
  5
A826
330
18
100
AcDbEntity
  8
01
100
AcDbLine
 10
-120.3569988918888
 20
-2177.861489824604
 30
0.0
 11
-120.3569988918888
 21
-2209.861489824604
 31
0.0
  0
LINE
  5
A827
330
18
100
AcDbEntity
  8
01
100
AcDbLine
 10
-111.3569988918888
 20
-2178.661469824604
 30
0.0
 11
-111.3569988918888
 21
-2209.861489824604
 31
0.0
  0
LINE
  5
A828
330
18
100
AcDbEntity
  8
01
100
AcDbLine
 10
-110.9044288918889
 20
-2184.661469824604
 30
0.0
 11
-110.9044288918889
 21
-2209.861489824604
 31
0.0
  0
LINE
  5
A82A
330
18
100
AcDbEntity
  8
01
100
AcDbLine
 10
-111.910068891889
 20
-2177.861489824604
 30
0.0
 11
-119.8569988918888
 21
-2177.861489824604
 31
0.0
  0
ARC
  5
A82B
330
18
100
AcDbEntity
  8
01
100
AcDbCircle
 10
-111.910068891889
 20
-2178.361489824604
 30
0.0
 40
0.5
100
AcDbArc
 50
9.177499999992628
 51
89.99999699999987
  0
ARC
  5
A82C
330
18
100
AcDbEntity
  8
01
100
AcDbCircle
 10
-150.9044288918889
 20
-2184.661469824604
 30
0.0
 40
40.0
100
AcDbArc
 50
359.999989999999
 51
9.177499999992628
  0
ARC
  5
A82D
330
18
100
AcDbEntity
  8
01
100
AcDbCircle
 10
-119.8569988918888
 20
-2178.361489824604
 30
0.0
 40
0.5
100
AcDbArc
 50
89.99999699999987
 51
180.0
  0
LINE
  5
A82E
330
18
100
AcDbEntity
  8
01
100
AcDbLine
 10
-110.9044288918889
 20
-2209.861489824604
 30
0.0
 11
-120.3569988918888
 21
-2209.861489824604
 31
0.0
  0
LINE
  5
A82F
330
18
100
AcDbEntity
  8
01
100
AcDbLine
 10
-231.3569988918888
 20
-2177.861489824604
 30
0.0
 11
-231.3569988918888
 21
-2209.861489824604
 31
0.0
  0
LINE
  5
A830
330
18
100
AcDbEntity
  8
01
100
AcDbLine
 10
-240.3569988918888
 20
-2178.661469824604
 30
0.0
 11
-240.3569988918888
 21
-2209.861489824604
 31
0.0
  0
LINE
  5
A831
330
18
100
AcDbEntity
  8
01
100
AcDbLine
 10
-240.8096388918888
 20
-2184.661469824604
 30
0.0
 11
-240.8096388918888
 21
-2209.861489824604
 31
0.0
  0
LINE
  5
A833
330
18
100
AcDbEntity
  8
01
100
AcDbLine
 10
-239.8038988918887
 20
-2177.861489824604
 30
0.0
 11
-231.8569988918888
 21
-2177.861489824604
 31
0.0
  0
ARC
  5
A834
330
18
100
AcDbEntity
  8
01
100
AcDbCircle
 10
-231.8569988918888
 20
-2178.361489824604
 30
0.0
 40
0.5
100
AcDbArc
 50
359.999989999999
 51
90.0000039999991
  0
ARC
  5
A835
330
18
100
AcDbEntity
  8
01
100
AcDbCircle
 10
-239.8038988918887
 20
-2178.361489824604
 30
0.0
 40
0.5
100
AcDbArc
 50
90.0000039999991
 51
170.8224984999905
  0
ARC
  5
A836
330
18
100
AcDbEntity
  8
01
100
AcDbCircle
 10
-200.8096388918888
 20
-2184.661469824604
 30
0.0
 40
40.0
100
AcDbArc
 50
170.8224984999901
 51
180.000010000001
  0
LINE
  5
A837
330
18
100
AcDbEntity
  8
01
100
AcDbLine
 10
-240.8096388918888
 20
-2209.861489824604
 30
0.0
 11
-231.3569988918888
 21
-2209.861489824604
 31
0.0
  0
LINE
  5
A838
330
18
100
AcDbEntity
  8
01
100
AcDbLine
 10
-119.8569988918888
 20
-2117.861489824604
 30
0.0
 11
-231.3569988918888
 21
-2117.861489824604
 31
0.0
  0
LINE
  5
A839
330
18
100
AcDbEntity
  8
01
100
AcDbLine
 10
-111.7892188918887
 20
-2105.861489824604
 30
0.0
 11
-231.3569988918888
 21
-2105.861489824604
 31
0.0
  0
LINE
  5
A83B
330
18
100
AcDbEntity
  8
01
100
AcDbLine
 10
-120.3569988918888
 20
-2117.861489824604
 30
0.0
 11
-120.3569988918888
 21
-2105.861489824604
 31
0.0
  0
LINE
  5
A83D
330
18
100
AcDbEntity
  8
01
100
AcDbLine
 10
-111.3569988918888
 20
-2117.459669824604
 30
0.0
 11
-111.3569988918888
 21
-2106.263319824604
 31
0.0
  0
ARC
  5
A83E
330
18
100
AcDbEntity
  8
01
100
AcDbCircle
 10
-150.9044288918889
 20
-2111.861489824604
 30
0.0
 40
40.0
100
AcDbArc
 50
351.996099999998
 51
8.003890000006956
  0
LINE
  5
A83F
330
18
100
AcDbEntity
  8
01
100
AcDbLine
 10
-111.7892188918887
 20
-2105.861489824604
 30
0.0
 11
-119.8569988918888
 21
-2105.861489824604
 31
0.0
  0
ARC
  5
A840
330
18
100
AcDbEntity
  8
01
100
AcDbCircle
 10
-111.7892188918887
 20
-2106.361489824604
 30
0.0
 40
0.5
100
AcDbArc
 50
8.003900000001938
 51
90.0
  0
ARC
  5
A841
330
18
100
AcDbEntity
  8
01
100
AcDbCircle
 10
-119.8569988918888
 20
-2106.361489824604
 30
0.0
 40
0.5
100
AcDbArc
 50
90.0
 51
180.0
  0
LINE
  5
A842
330
18
100
AcDbEntity
  8
01
100
AcDbLine
 10
-111.7892188918887
 20
-2117.861489824604
 30
0.0
 11
-119.8569988918888
 21
-2117.861489824604
 31
0.0
  0
ARC
  5
A843
330
18
100
AcDbEntity
  8
01
100
AcDbCircle
 10
-111.7892188918887
 20
-2117.361489824604
 30
0.0
 40
0.5
100
AcDbArc
 50
270.0000030000001
 51
351.996099999998
  0
ARC
  5
A844
330
18
100
AcDbEntity
  8
01
100
AcDbCircle
 10
-119.8569988918888
 20
-2117.361489824604
 30
0.0
 40
0.5
100
AcDbArc
 50
180.0
 51
270.0000030000001
  0
LINE
  5
A845
330
18
100
AcDbEntity
  8
01
100
AcDbLine
 10
-240.3569988918888
 20
-2117.459669824604
 30
0.0
 11
-240.3569988918888
 21
-2106.263319824604
 31
0.0
  0
ARC
  5
A846
330
18
100
AcDbEntity
  8
01
100
AcDbCircle
 10
-200.8096388918888
 20
-2111.861489824604
 30
0.0
 40
40.0
100
AcDbArc
 50
171.9961099999929
 51
188.003897399987
  0
LINE
  5
A848
330
18
100
AcDbEntity
  8
01
100
AcDbLine
 10
-231.3569988918888
 20
-2117.861489824604
 30
0.0
 11
-231.3569988918888
 21
-2105.861489824604
 31
0.0
  0
LINE
  5
A849
330
18
100
AcDbEntity
  8
01
100
AcDbLine
 10
-239.9247488918887
 20
-2105.861489824604
 30
0.0
 11
-231.8569988918888
 21
-2105.861489824604
 31
0.0
  0
ARC
  5
A84A
330
18
100
AcDbEntity
  8
01
100
AcDbCircle
 10
-231.8569988918888
 20
-2106.361489824604
 30
0.0
 40
0.5
100
AcDbArc
 50
359.999989999999
 51
90.0
  0
ARC
  5
A84B
330
18
100
AcDbEntity
  8
01
100
AcDbCircle
 10
-239.9247488918887
 20
-2106.361489824604
 30
0.0
 40
0.5
100
AcDbArc
 50
90.0
 51
171.9960999999979
  0
LINE
  5
A84C
330
18
100
AcDbEntity
  8
01
100
AcDbLine
 10
-239.9247488918887
 20
-2117.861489824604
 30
0.0
 11
-231.8569988918888
 21
-2117.861489824604
 31
0.0
  0
ARC
  5
A84D
330
18
100
AcDbEntity
  8
01
100
AcDbCircle
 10
-231.8569988918888
 20
-2117.361489824604
 30
0.0
 40
0.5
100
AcDbArc
 50
269.9999960000009
 51
0.0000100000010064
  0
ARC
  5
A84E
330
18
100
AcDbEntity
  8
01
100
AcDbCircle
 10
-239.9247488918887
 20
-2117.361489824604
 30
0.0
 40
0.5
100
AcDbArc
 50
188.0038974000126
 51
269.9999960000009
  0
LINE
  5
A84F
330
18
100
AcDbEntity
  8
01
100
AcDbLine
 10
-58.90442889188887
 20
-2209.861489824604
 30
0.0
 11
-70.90442889188887
 21
-2209.861489824604
 31
0.0
  0
ARC
  5
A850
330
18
100
AcDbEntity
  8
01
100
AcDbCircle
 10
-64.90442889188887
 20
-2183.861489824604
 30
0.0
 40
6.0
100
AcDbArc
 50
0.0
 51
180.000010000001
  0
ARC
  5
A851
330
18
100
AcDbEntity
  8
1HIDDEN
100
AcDbCircle
 10
-64.90442889188887
 20
-2183.861489824604
 30
0.0
 40
6.0
100
AcDbArc
 50
180.0
 51
0.0
  0
LINE
  5
A853
330
18
100
AcDbEntity
  8
01
100
AcDbLine
 10
-70.90442889188887
 20
-2183.861489824604
 30
0.0
 11
-70.90442889188887
 21
-2209.861489824604
 31
0.0
  0
LINE
  5
A855
330
18
100
AcDbEntity
  8
01
100
AcDbLine
 10
-58.90442889188886
 20
-2183.861489824604
 30
0.0
 11
-58.90442889188887
 21
-2209.861489824604
 31
0.0
  0
LINE
  5
A87B
330
18
100
AcDbEntity
  8
1DIM
100
AcDbLine
 10
-240.7873988542076
 20
-2081.572734433272
 30
0.0
 11
-170.7873988542077
 21
-2081.572734433272
 31
0.0
  0
TEXT
  5
A87C
330
18
100
AcDbEntity
  8
1TEXT
100
AcDbText
 10
-239.8540655208741
 20
-2080.072734433272
 30
0.0
 40
4.0
  1
表面処理：脚部
 72
     1
 11
-223.3873988542075
 21
-2080.072734433272
 31
0.0
100
AcDbText
  0
LINE
  5
A87D
330
18
100
AcDbEntity
  8
1DIM
100
AcDbLine
 10
-240.7873988542076
 20
-2074.572734433272
 30
0.0
 11
-170.7873988542077
 21
-2074.572734433272
 31
0.0
  0
TEXT
  5
A87E
330
18
100
AcDbEntity
  8
1TEXT
100
AcDbText
 10
-195.2540655208747
 20
-2080.072734433272
 30
0.0
 40
4.0
  1
コード
 72
     1
 11
-188.387398854208
 21
-2080.072734433272
 31
0.0
100
AcDbText
  0
LINE
  5
A880
330
18
100
AcDbEntity
  8
1DIM
100
AcDbLine
 10
-240.7873988542076
 20
-2081.572734433272
 30
0.0
 11
-170.7873988542076
 21
-2081.572734433272
 31
0.0
  0
LINE
  5
A883
330
18
100
AcDbEntity
  8
1DIM
100
AcDbLine
 10
-205.7873988542076
 20
-2074.572734433272
 30
0.0
 11
-205.7873988542076
 21
-2081.572734433272
 31
0.0
  0
LINE
  5
A884
330
18
100
AcDbEntity
  8
1DIM
100
AcDbLine
 10
-170.7873988542077
 20
-2074.572734433272
 30
0.0
 11
-170.7873988542076
 21
-2081.572734433272
 31
0.0
  0
LINE
  5
A886
330
18
100
AcDbEntity
  8
1DIM
100
AcDbLine
 10
-240.7873988542081
 20
-2088.572734433272
 30
0.0
 11
-170.7873988542076
 21
-2088.572734433272
 31
0.0
  0
LINE
  5
A888
330
18
100
AcDbEntity
  8
1DIM
100
AcDbLine
 10
-240.787398854208
 20
-2088.572734433272
 30
0.0
 11
-240.787398854208
 21
-2081.572734433272
 31
0.0
  0
TEXT
  5
A889
330
18
100
AcDbEntity
  8
1TEXT
100
AcDbText
 10
-232.8540655208741
 20
-2087.050629453257
 30
0.0
 40
4.0
  1
クローム
 72
     1
 11
-223.3873988542075
 21
-2087.050629453257
 31
0.0
100
AcDbText
  0
TEXT
  5
A88A
330
18
100
AcDbEntity
  8
1TEXT
100
AcDbText
 10
-203.5992507060595
 20
-2087.072734433273
 30
0.0
 40
4.0
  1
PC-096-XCM
 41
0.8
 72
     1
 11
-188.3873988542076
 21
-2087.072734433273
 31
0.0
100
AcDbText
  0
LINE
  5
AB24
330
18
100
AcDbEntity
  8
1DIM
100
AcDbLine
 10
-170.7873988542076
 20
-2081.572734433272
 30
0.0
 11
-170.7873988542076
 21
-2088.572734433272
 31
0.0
  0
LINE
  5
AB25
330
18
100
AcDbEntity
  8
1DIM
100
AcDbLine
 10
-240.787398854208
 20
-2081.572734433272
 30
0.0
 11
-240.787398854208
 21
-2074.572734433272
 31
0.0
  0
LINE
  5
AB26
330
18
100
AcDbEntity
  8
1DIM
100
AcDbLine
 10
-205.7873988542076
 20
-2081.572734433272
 30
0.0
 11
-205.7873988542077
 21
-2088.572734433272
 31
0.0
  0
LINE
  5
B3E5
330
18
100
AcDbEntity
  8
1CENTER
100
AcDbLine
 10
-235.8569988918888
 20
-2114.861489824604
 30
0.0
 11
-235.8569988918888
 21
-2108.861489824604
 31
0.0
  0
LINE
  5
B3E6
330
18
100
AcDbEntity
  8
01
100
AcDbLine
 10
-119.8569988918888
 20
-2177.861489824604
 30
0.0
 11
-231.3569988918888
 21
-2177.861489824604
 31
0.0
  0
LINE
  5
B3E7
330
18
100
AcDbEntity
  8
01
100
AcDbLine
 10
-110.9044288918888
 20
-2189.861489824604
 30
0.0
 11
-231.3569988918888
 21
-2189.861489824604
 31
0.0
  0
LINE
  5
B50F
330
18
100
AcDbEntity
  8
1DIM
100
AcDbLine
 10
-235.8569988918888
 20
-2211.861489824604
 30
0.0
 11
-235.8569988918888
 21
-2240.861489824605
 31
0.0
  0
LINE
  5
B510
330
18
100
AcDbEntity
  8
1DIM
100
AcDbLine
 10
-115.8569988918888
 20
-2211.861489824604
 30
0.0
 11
-115.8569988918888
 21
-2240.861489824605
 31
0.0
  0
LINE
  5
B511
330
18
100
AcDbEntity
  8
1DIM
100
AcDbLine
 10
-233.8569988918888
 20
-2239.861489824605
 30
0.0
 11
-117.8569988918888
 21
-2239.861489824605
 31
0.0
  0
LINE
  5
B515
330
18
100
AcDbEntity
  8
1DIM
100
AcDbLine
 10
-240.8096388918888
 20
-2111.861489824604
 30
0.0
 11
-240.8096388918888
 21
-2138.861489824604
 31
0.0
1001
ACAD
1000
DSTYLE
1002
{
1070
   271
1070
     0
1002
}
  0
LINE
  5
B516
330
18
100
AcDbEntity
  8
1DIM
100
AcDbLine
 10
-110.904428891889
 20
-2111.861493315261
 30
0.0
 11
-110.904428891889
 21
-2138.861489824604
 31
0.0
1001
ACAD
1000
DSTYLE
1002
{
1070
   271
1070
     0
1002
}
  0
LINE
  5
B517
330
18
100
AcDbEntity
  8
1DIM
100
AcDbLine
 10
-238.8096388918888
 20
-2137.861489824604
 30
0.0
 11
-112.904428891889
 21
-2137.861489824604
 31
0.0
1001
ACAD
1000
DSTYLE
1002
{
1070
   271
1070
     0
1002
}
  0
LINE
  5
B51B
330
18
100
AcDbEntity
  8
1DIM
100
AcDbLine
 10
-111.7892188657088
 20
-2117.861489824604
 30
0.0
 11
-89.90442889188887
 21
-2117.861489824604
 31
0.0
  0
LINE
  5
B51C
330
18
100
AcDbEntity
  8
1DIM
100
AcDbLine
 10
-111.7892188918887
 20
-2105.861489824604
 30
0.0
 11
-89.90442889188887
 21
-2105.861489824604
 31
0.0
  0
LINE
  5
B51D
330
18
100
AcDbEntity
  8
1DIM
100
AcDbLine
 10
-90.90442889188887
 20
-2115.861489824604
 30
0.0
 11
-90.90442889188887
 21
-2107.861489824604
 31
0.0
  0
LINE
  5
B521
330
18
100
AcDbEntity
  8
1DIM
100
AcDbLine
 10
-110.9044288918889
 20
-2209.861489824605
 30
0.0
 11
-79.90442889188888
 21
-2209.861489824605
 31
0.0
  0
LINE
  5
B522
330
18
100
AcDbEntity
  8
1DIM
100
AcDbLine
 10
-111.910068865709
 20
-2177.861489824604
 30
0.0
 11
-79.90442889188887
 21
-2177.861489824604
 31
0.0
  0
LINE
  5
B523
330
18
100
AcDbEntity
  8
1DIM
100
AcDbLine
 10
-80.90442889188887
 20
-2207.861489824605
 30
0.0
 11
-80.90442889188887
 21
-2179.861489824604
 31
0.0
  0
LINE
  5
B527
330
18
100
AcDbEntity
  8
1DIM
100
AcDbLine
 10
-110.9044288918889
 20
-2209.861489824605
 30
0.0
 11
-89.90442889188888
 21
-2209.861489824605
 31
0.0
  0
LINE
  5
B528
330
18
100
AcDbEntity
  8
1DIM
100
AcDbLine
 10
-120.3569988918888
 20
-2189.861489824604
 30
0.0
 11
-89.90442889188887
 21
-2189.861489824604
 31
0.0
  0
LINE
  5
B529
330
18
100
AcDbEntity
  8
1DIM
100
AcDbLine
 10
-90.90442889188887
 20
-2207.861489824605
 30
0.0
 11
-90.90442889188887
 21
-2191.861489824604
 31
0.0
  0
LINE
  5
B52D
330
18
100
AcDbEntity
  8
1DIM
100
AcDbLine
 10
-217.4044288918889
 20
-2189.861489824604
 30
0.0
 11
-218.4044288918896
 21
-2189.861489824604
 31
0.0
1001
ACAD
1000
DSTYLE
1002
{
1070
     3
1000
φ<>
1002
}
  0
LINE
  5
B52E
330
18
100
AcDbEntity
  8
1DIM
100
AcDbLine
 10
-217.4044288918892
 20
-2177.861489824604
 30
0.0
 11
-218.4044288918896
 21
-2177.861489824604
 31
0.0
1001
ACAD
1000
DSTYLE
1002
{
1070
     3
1000
φ<>
1002
}
  0
LINE
  5
B52F
330
18
100
AcDbEntity
  8
1DIM
100
AcDbLine
 10
-217.4044288918896
 20
-2187.861489824604
 30
0.0
 11
-217.4044288918896
 21
-2179.861489824604
 31
0.0
1001
ACAD
1000
DSTYLE
1002
{
1070
     3
1000
φ<>
1002
}
  0
LINE
  5
B530
330
18
100
AcDbEntity
  8
1DIM
100
AcDbLine
 10
-217.4044288918896
 20
-2177.861489824604
 30
0.0
 11
-217.4044288918896
 21
-2164.794823157938
 31
0.0
1001
ACAD
1000
DSTYLE
1002
{
1070
     3
1000
φ<>
1002
}
  0
LINE
  5
B534
330
18
100
AcDbEntity
  8
1DIM
100
AcDbLine
 10
-231.3569988918888
 20
-2209.861489824604
 30
0.0
 11
-231.3569988918888
 21
-2230.861489824604
 31
0.0
1001
ACAD
1000
DSTYLE
1002
{
1070
   271
1070
     2
1002
}
  0
LINE
  5
B535
330
18
100
AcDbEntity
  8
1DIM
100
AcDbLine
 10
-120.3569988918888
 20
-2209.861489824604
 30
0.0
 11
-120.3569988918888
 21
-2230.861489824604
 31
0.0
1001
ACAD
1000
DSTYLE
1002
{
1070
   271
1070
     2
1002
}
  0
LINE
  5
B536
330
18
100
AcDbEntity
  8
1DIM
100
AcDbLine
 10
-229.3569988918888
 20
-2229.861489824604
 30
0.0
 11
-122.3569988918888
 21
-2229.861489824604
 31
0.0
1001
ACAD
1000
DSTYLE
1002
{
1070
   271
1070
     2
1002
}
  0
LINE
  5
B53A
330
18
100
AcDbEntity
  8
1DIM
100
AcDbLine
 10
-115.8569988918888
 20
-2211.861489824604
 30
0.0
 11
-115.8569988918888
 21
-2240.861489824605
 31
0.0
1001
ACAD
1000
DSTYLE
1002
{
1070
   172
1070
     1
1070
   271
1070
     0
1070
   279
1070
     2
1070
   289
1070
     3
1002
}
  0
LINE
  5
B53B
330
18
100
AcDbEntity
  8
1DIM
100
AcDbLine
 10
-110.9044288918889
 20
-2209.861489824604
 30
0.0
 11
-110.9044288918889
 21
-2240.861489824605
 31
0.0
1001
ACAD
1000
DSTYLE
1002
{
1070
   172
1070
     1
1070
   271
1070
     0
1070
   279
1070
     2
1070
   289
1070
     3
1002
}
  0
LINE
  5
B53C
330
18
100
AcDbEntity
  8
1DIM
100
AcDbLine
 10
-117.8569988918888
 20
-2239.861489824605
 30
0.0
 11
-119.8569988918888
 21
-2239.861489824605
 31
0.0
1001
ACAD
1000
DSTYLE
1002
{
1070
   172
1070
     1
1070
   271
1070
     0
1070
   279
1070
     2
1070
   289
1070
     3
1002
}
  0
LINE
  5
B53D
330
18
100
AcDbEntity
  8
1DIM
100
AcDbLine
 10
-108.9044288918889
 20
-2239.861489824605
 30
0.0
 11
-106.9044288918889
 21
-2239.861489824605
 31
0.0
1001
ACAD
1000
DSTYLE
1002
{
1070
   172
1070
     1
1070
   271
1070
     0
1070
   279
1070
     2
1070
   289
1070
     3
1002
}
  0
LINE
  5
B53E
330
18
100
AcDbEntity
  8
1DIM
100
AcDbLine
 10
-115.8569988918888
 20
-2239.861489824605
 30
0.0
 11
-110.9044288918889
 21
-2239.861489824605
 31
0.0
1001
ACAD
1000
DSTYLE
1002
{
1070
   172
1070
     1
1070
   271
1070
     0
1070
   279
1070
     2
1070
   289
1070
     3
1002
}
  0
LINE
  5
B542
330
18
100
AcDbEntity
  8
1DIM
100
AcDbLine
 10
-235.8569988918888
 20
-2211.861489824604
 30
0.0
 11
-235.8569988918888
 21
-2240.861489824605
 31
0.0
1001
ACAD
1000
DSTYLE
1002
{
1070
   172
1070
     1
1070
   271
1070
     0
1070
   279
1070
     2
1070
   289
1070
     3
1002
}
  0
LINE
  5
B543
330
18
100
AcDbEntity
  8
1DIM
100
AcDbLine
 10
-240.8096388918888
 20
-2209.861489824605
 30
0.0
 11
-240.8096388918888
 21
-2240.861489824605
 31
0.0
1001
ACAD
1000
DSTYLE
1002
{
1070
   172
1070
     1
1070
   271
1070
     0
1070
   279
1070
     2
1070
   289
1070
     3
1002
}
  0
LINE
  5
B544
330
18
100
AcDbEntity
  8
1DIM
100
AcDbLine
 10
-235.8569988918888
 20
-2239.861489824605
 30
0.0
 11
-240.8096388918888
 21
-2239.861489824605
 31
0.0
1001
ACAD
1000
DSTYLE
1002
{
1070
   172
1070
     1
1070
   271
1070
     0
1070
   279
1070
     2
1070
   289
1070
     3
1002
}
  0
LINE
  5
B545
330
18
100
AcDbEntity
  8
1DIM
100
AcDbLine
 10
-233.8569988918888
 20
-2239.861489824605
 30
0.0
 11
-231.8569988918888
 21
-2239.861489824605
 31
0.0
1001
ACAD
1000
DSTYLE
1002
{
1070
   172
1070
     1
1070
   271
1070
     0
1070
   279
1070
     2
1070
   289
1070
     3
1002
}
  0
LINE
  5
B546
330
18
100
AcDbEntity
  8
1DIM
100
AcDbLine
 10
-242.8096388918888
 20
-2239.861489824605
 30
0.0
 11
-244.8096388918888
 21
-2239.861489824605
 31
0.0
1001
ACAD
1000
DSTYLE
1002
{
1070
   172
1070
     1
1070
   271
1070
     0
1070
   279
1070
     2
1070
   289
1070
     3
1002
}
  0
SOLID
  5
B54A
330
18
100
AcDbEntity
  8
1DIM
100
AcDbTrace
 10
-66.26038438917122
 20
-2211.368969774886
 30
0.0
 11
-64.90442889188888
 21
-2209.861489824604
 31
0.0
 12
-65.69817708111869
 22
-2211.727253722638
 32
0.0
 13
-65.69817708111869
 23
-2211.727253722638
 33
0.0
  0
LINE
  5
B54B
330
18
100
AcDbEntity
  8
1DIM
100
AcDbLine
 10
-65.97928073514495
 20
-2211.548111748762
 30
0.0
 11
-78.0961423617072
 21
-2230.561489824604
 31
0.0
  0
LINE
  5
B54C
330
18
100
AcDbEntity
  8
1DIM
100
AcDbLine
 10
-78.0961423617072
 20
-2230.561489824604
 30
0.0
 11
-97.96280902837385
 21
-2230.561489824604
 31
0.0
  0
TEXT
  5
B54D
330
18
100
AcDbEntity
  8
1DIM
  6
CONTINUOUS
100
AcDbText
 10
-95.52530902837368
 20
-2229.861489824604
 30
0.0
 40
3.5
  1
M4-10
 50
0.0000000000000418
100
AcDbText
  0
SOLID
  5
B54E
330
18
100
AcDbEntity
  8
1HATCH
100
AcDbTrace
 10
-114.9120127602101
 20
-2176.269166267757
 30
0.0
 11
-116.466420770615
 21
-2177.571059830342
 31
0.0
 12
-115.4182705648542
 22
-2175.835406565063
 32
0.0
 13
-115.4182705648542
 23
-2175.835406565063
 33
0.0
  0
LINE
  5
B54F
330
18
100
AcDbEntity
  8
1HATCH
100
AcDbLine
 10
-115.1651416625322
 20
-2176.05228641641
 30
0.0
 11
-106.2781681691601
 21
-2165.679954310088
 31
0.0
  0
LINE
  5
B550
330
18
100
AcDbEntity
  8
1HATCH
100
AcDbLine
 10
-106.2781681691601
 20
-2165.679954310088
 30
0.0
 11
-58.31150150249341
 21
-2165.679954310088
 31
0.0
  0
TEXT
  5
B551
330
18
100
AcDbEntity
  8
1HATCH
  6
CONTINUOUS
100
AcDbText
 10
-103.8115015024936
 20
-2159.146620976755
 30
0.0
 40
3.5
  1
材質：亜鉛ダイキャスト
100
AcDbText
1001
ACADANNOTATIVE
1000
AnnotativeData
1002
{
1070
     1
1070
     0
1002
}
  0
TEXT
  5
B552
330
18
100
AcDbEntity
  8
1HATCH
  6
CONTINUOUS
100
AcDbText
 10
-103.6948348358269
 20
-2164.979954310088
 30
0.0
 40
3.5
  1
仕上げ：各種メッキ
100
AcDbText
1001
ACADANNOTATIVE
1000
AnnotativeData
1002
{
1070
     1
1070
     0
1002
}
  0
SOLID
  5
B553
330
18
100
AcDbEntity
  8
1HATCH
100
AcDbTrace
 10
-180.7437971625111
 20
-2177.004453019867
 30
0.0
 11
-182.3427186801563
 21
-2178.251273412515
 31
0.0
 12
-181.2345995340534
 22
-2176.553279575909
 32
0.0
 13
-181.2345995340534
 23
-2176.553279575909
 33
0.0
  0
LINE
  5
B554
330
18
100
AcDbEntity
  8
1HATCH
100
AcDbLine
 10
-180.9891983482823
 20
-2176.778866297888
 30
0.0
 11
-169.8821018525179
 21
-2164.696175319345
 31
0.0
  0
LINE
  5
B555
330
18
100
AcDbEntity
  8
1HATCH
100
AcDbLine
 10
-169.8821018525179
 20
-2164.696175319345
 30
0.0
 11
-134.5154351858513
 21
-2164.696175319345
 31
0.0
  0
TEXT
  5
B556
330
18
100
AcDbEntity
  8
1HATCH
  6
CONTINUOUS
100
AcDbText
 10
-169.1664276175158
 20
-2157.93749038145
 30
0.0
 40
3.5
  1
材質：ステンレス
100
AcDbText
1001
ACADANNOTATIVE
1000
AnnotativeData
1002
{
1070
     1
1070
     0
1002
}
  0
TEXT
  5
B557
330
18
100
AcDbEntity
  8
1HATCH
  6
CONTINUOUS
100
AcDbText
 10
-169.0497609508491
 20
-2163.770823714784
 30
0.0
 40
3.5
  1
仕上げ：鏡面
100
AcDbText
1001
ACADANNOTATIVE
1000
AnnotativeData
1002
{
1070
     1
1070
     0
1002
}
  0
LINE
  5
B558
330
18
100
AcDbEntity
  8
0
  6
BYBLOCK
100
AcDbLine
 10
-233.8569988918888
 20
-2240.397388204605
 30
0.0
 11
-235.8569988918888
 21
-2239.861489824605
 31
0.0
  0
LINE
  5
B559
330
18
100
AcDbEntity
  8
0
  6
BYBLOCK
100
AcDbLine
 10
-235.8569988918888
 20
-2239.861489824605
 30
0.0
 11
-233.8569988918888
 21
-2239.325591444604
 31
0.0
  0
LINE
  5
B55A
330
18
100
AcDbEntity
  8
0
  6
BYBLOCK
100
AcDbLine
 10
-235.8569988918888
 20
-2239.861489824605
 30
0.0
 11
-233.8569988918888
 21
-2239.861489824605
 31
0.0
  0
LINE
  5
B55B
330
18
100
AcDbEntity
  8
0
  6
BYBLOCK
100
AcDbLine
 10
-117.8569988918888
 20
-2239.325591444604
 30
0.0
 11
-115.8569988918888
 21
-2239.861489824605
 31
0.0
  0
LINE
  5
B55C
330
18
100
AcDbEntity
  8
0
  6
BYBLOCK
100
AcDbLine
 10
-115.8569988918888
 20
-2239.861489824605
 30
0.0
 11
-117.8569988918888
 21
-2240.397388204605
 31
0.0
  0
LINE
  5
B55D
330
18
100
AcDbEntity
  8
0
  6
BYBLOCK
100
AcDbLine
 10
-115.8569988918888
 20
-2239.861489824605
 30
0.0
 11
-117.8569988918888
 21
-2239.861489824605
 31
0.0
  0
TEXT
  5
B55E
330
18
100
AcDbEntity
  8
1DIM
  6
CONTINUOUS
100
AcDbText
 10
-181.4715822252221
 20
-2239.161489824605
 30
0.0
 40
3.5
  1
P120
100
AcDbText
  0
LINE
  5
B55F
330
18
100
AcDbEntity
  8
0
  6
BYBLOCK
100
AcDbLine
 10
-238.8096388918888
 20
-2138.397388204604
 30
0.0
 11
-240.8096388918888
 21
-2137.861489824604
 31
0.0
  0
LINE
  5
B560
330
18
100
AcDbEntity
  8
0
  6
BYBLOCK
100
AcDbLine
 10
-240.8096388918888
 20
-2137.861489824604
 30
0.0
 11
-238.8096388918888
 21
-2137.325591444604
 31
0.0
  0
LINE
  5
B561
330
18
100
AcDbEntity
  8
0
  6
BYBLOCK
100
AcDbLine
 10
-240.8096388918888
 20
-2137.861489824604
 30
0.0
 11
-238.8096388918888
 21
-2137.861489824604
 31
0.0
  0
LINE
  5
B562
330
18
100
AcDbEntity
  8
0
  6
BYBLOCK
100
AcDbLine
 10
-112.904428891889
 20
-2137.325591444604
 30
0.0
 11
-110.904428891889
 21
-2137.861489824604
 31
0.0
  0
LINE
  5
B563
330
18
100
AcDbEntity
  8
0
  6
BYBLOCK
100
AcDbLine
 10
-110.904428891889
 20
-2137.861489824604
 30
0.0
 11
-112.904428891889
 21
-2138.397388204604
 31
0.0
  0
LINE
  5
B564
330
18
100
AcDbEntity
  8
0
  6
BYBLOCK
100
AcDbLine
 10
-110.904428891889
 20
-2137.861489824604
 30
0.0
 11
-112.904428891889
 21
-2137.861489824604
 31
0.0
  0
TEXT
  5
B565
330
18
100
AcDbEntity
  8
1DIM
  6
CONTINUOUS
100
AcDbText
 10
-179.7216172252222
 20
-2137.161489824604
 30
0.0
 40
3.5
  1
130
100
AcDbText
1001
ACAD
1000
DSTYLE
1002
{
1070
   271
1070
     0
1002
}
  0
LINE
  5
B566
330
18
100
AcDbEntity
  8
0
  6
BYBLOCK
100
AcDbLine
 10
-90.36853051188886
 20
-2115.861489824604
 30
0.0
 11
-90.90442889188887
 21
-2117.861489824604
 31
0.0
  0
LINE
  5
B567
330
18
100
AcDbEntity
  8
0
  6
BYBLOCK
100
AcDbLine
 10
-90.90442889188887
 20
-2117.861489824604
 30
0.0
 11
-91.44032727188888
 21
-2115.861489824604
 31
0.0
  0
LINE
  5
B568
330
18
100
AcDbEntity
  8
0
  6
BYBLOCK
100
AcDbLine
 10
-90.90442889188887
 20
-2117.861489824604
 30
0.0
 11
-90.90442889188887
 21
-2115.861489824604
 31
0.0
  0
LINE
  5
B569
330
18
100
AcDbEntity
  8
0
  6
BYBLOCK
100
AcDbLine
 10
-91.44032727188888
 20
-2107.861489824604
 30
0.0
 11
-90.90442889188887
 21
-2105.861489824604
 31
0.0
  0
LINE
  5
B56A
330
18
100
AcDbEntity
  8
0
  6
BYBLOCK
100
AcDbLine
 10
-90.90442889188887
 20
-2105.861489824604
 30
0.0
 11
-90.36853051188886
 21
-2107.861489824604
 31
0.0
  0
LINE
  5
B56B
330
18
100
AcDbEntity
  8
0
  6
BYBLOCK
100
AcDbLine
 10
-90.90442889188887
 20
-2105.861489824604
 30
0.0
 11
-90.90442889188887
 21
-2107.861489824604
 31
0.0
  0
TEXT
  5
B56C
330
18
100
AcDbEntity
  8
1DIM
  6
CONTINUOUS
100
AcDbText
 10
-91.60442889188835
 20
-2114.194823157938
 30
0.0
 40
3.5
  1
12
 50
90.0
100
AcDbText
  0
LINE
  5
B56D
330
18
100
AcDbEntity
  8
0
  6
BYBLOCK
100
AcDbLine
 10
-80.36853051188888
 20
-2207.861489824605
 30
0.0
 11
-80.90442889188888
 21
-2209.861489824605
 31
0.0
  0
LINE
  5
B56E
330
18
100
AcDbEntity
  8
0
  6
BYBLOCK
100
AcDbLine
 10
-80.90442889188888
 20
-2209.861489824605
 30
0.0
 11
-81.44032727188889
 21
-2207.861489824605
 31
0.0
  0
LINE
  5
B56F
330
18
100
AcDbEntity
  8
0
  6
BYBLOCK
100
AcDbLine
 10
-80.90442889188888
 20
-2209.861489824605
 30
0.0
 11
-80.90442889188888
 21
-2207.861489824605
 31
0.0
  0
LINE
  5
B570
330
18
100
AcDbEntity
  8
0
  6
BYBLOCK
100
AcDbLine
 10
-81.44032727188888
 20
-2179.861489824604
 30
0.0
 11
-80.90442889188887
 21
-2177.861489824604
 31
0.0
  0
LINE
  5
B571
330
18
100
AcDbEntity
  8
0
  6
BYBLOCK
100
AcDbLine
 10
-80.90442889188887
 20
-2177.861489824604
 30
0.0
 11
-80.36853051188886
 21
-2179.861489824604
 31
0.0
  0
LINE
  5
B572
330
18
100
AcDbEntity
  8
0
  6
BYBLOCK
100
AcDbLine
 10
-80.90442889188887
 20
-2177.861489824604
 30
0.0
 11
-80.90442889188887
 21
-2179.861489824604
 31
0.0
  0
TEXT
  5
B573
330
18
100
AcDbEntity
  8
1DIM
  6
CONTINUOUS
100
AcDbText
 10
-81.60442889188835
 20
-2196.778156491271
 30
0.0
 40
3.5
  1
32
 50
90.0
100
AcDbText
  0
LINE
  5
B574
330
18
100
AcDbEntity
  8
0
  6
BYBLOCK
100
AcDbLine
 10
-90.36853051188888
 20
-2207.861489824605
 30
0.0
 11
-90.90442889188888
 21
-2209.861489824605
 31
0.0
  0
LINE
  5
B575
330
18
100
AcDbEntity
  8
0
  6
BYBLOCK
100
AcDbLine
 10
-90.90442889188888
 20
-2209.861489824605
 30
0.0
 11
-91.44032727188889
 21
-2207.861489824605
 31
0.0
  0
LINE
  5
B576
330
18
100
AcDbEntity
  8
0
  6
BYBLOCK
100
AcDbLine
 10
-90.90442889188888
 20
-2209.861489824605
 30
0.0
 11
-90.90442889188888
 21
-2207.861489824605
 31
0.0
  0
LINE
  5
B577
330
18
100
AcDbEntity
  8
0
  6
BYBLOCK
100
AcDbLine
 10
-91.44032727188888
 20
-2191.861489824604
 30
0.0
 11
-90.90442889188887
 21
-2189.861489824604
 31
0.0
  0
LINE
  5
B578
330
18
100
AcDbEntity
  8
0
  6
BYBLOCK
100
AcDbLine
 10
-90.90442889188887
 20
-2189.861489824604
 30
0.0
 11
-90.36853051188886
 21
-2191.861489824604
 31
0.0
  0
LINE
  5
B579
330
18
100
AcDbEntity
  8
0
  6
BYBLOCK
100
AcDbLine
 10
-90.90442889188887
 20
-2189.861489824604
 30
0.0
 11
-90.90442889188887
 21
-2191.861489824604
 31
0.0
  0
TEXT
  5
B57A
330
18
100
AcDbEntity
  8
1DIM
  6
CONTINUOUS
100
AcDbText
 10
-91.60442889188835
 20
-2202.559406491271
 30
0.0
 40
3.5
  1
20
 50
90.0
100
AcDbText
  0
LINE
  5
B57B
330
18
100
AcDbEntity
  8
0
  6
BYBLOCK
100
AcDbLine
 10
-216.8685305118896
 20
-2187.861489824604
 30
0.0
 11
-217.4044288918896
 21
-2189.861489824604
 31
0.0
  0
LINE
  5
B57C
330
18
100
AcDbEntity
  8
0
  6
BYBLOCK
100
AcDbLine
 10
-217.4044288918896
 20
-2189.861489824604
 30
0.0
 11
-217.9403272718895
 21
-2187.861489824604
 31
0.0
  0
LINE
  5
B57D
330
18
100
AcDbEntity
  8
0
  6
BYBLOCK
100
AcDbLine
 10
-217.4044288918896
 20
-2189.861489824604
 30
0.0
 11
-217.4044288918896
 21
-2187.861489824604
 31
0.0
  0
LINE
  5
B57E
330
18
100
AcDbEntity
  8
0
  6
BYBLOCK
100
AcDbLine
 10
-217.9403272718895
 20
-2179.861489824604
 30
0.0
 11
-217.4044288918896
 21
-2177.861489824604
 31
0.0
  0
LINE
  5
B57F
330
18
100
AcDbEntity
  8
0
  6
BYBLOCK
100
AcDbLine
 10
-217.4044288918896
 20
-2177.861489824604
 30
0.0
 11
-216.8685305118896
 21
-2179.861489824604
 31
0.0
  0
LINE
  5
B580
330
18
100
AcDbEntity
  8
0
  6
BYBLOCK
100
AcDbLine
 10
-217.4044288918896
 20
-2177.861489824604
 30
0.0
 11
-217.4044288918896
 21
-2179.861489824604
 31
0.0
  0
TEXT
  5
B581
330
18
100
AcDbEntity
  8
1DIM
  6
CONTINUOUS
100
AcDbText
 10
-218.1044288918893
 20
-2175.228156491271
 30
0.0
 40
3.5
  1
φ12
 50
90.0
100
AcDbText
1001
ACAD
1000
DSTYLE
1002
{
1070
     3
1000
φ<>
1002
}
  0
LINE
  5
B582
330
18
100
AcDbEntity
  8
0
  6
BYBLOCK
100
AcDbLine
 10
-229.3569988918888
 20
-2230.397388204604
 30
0.0
 11
-231.3569988918888
 21
-2229.861489824604
 31
0.0
  0
LINE
  5
B583
330
18
100
AcDbEntity
  8
0
  6
BYBLOCK
100
AcDbLine
 10
-231.3569988918888
 20
-2229.861489824604
 30
0.0
 11
-229.3569988918888
 21
-2229.325591444604
 31
0.0
  0
LINE
  5
B584
330
18
100
AcDbEntity
  8
0
  6
BYBLOCK
100
AcDbLine
 10
-231.3569988918888
 20
-2229.861489824604
 30
0.0
 11
-229.3569988918888
 21
-2229.861489824604
 31
0.0
  0
LINE
  5
B585
330
18
100
AcDbEntity
  8
0
  6
BYBLOCK
100
AcDbLine
 10
-122.3569988918888
 20
-2229.325591444604
 30
0.0
 11
-120.3569988918888
 21
-2229.861489824604
 31
0.0
  0
LINE
  5
B586
330
18
100
AcDbEntity
  8
0
  6
BYBLOCK
100
AcDbLine
 10
-120.3569988918888
 20
-2229.861489824604
 30
0.0
 11
-122.3569988918888
 21
-2230.397388204604
 31
0.0
  0
LINE
  5
B587
330
18
100
AcDbEntity
  8
0
  6
BYBLOCK
100
AcDbLine
 10
-120.3569988918888
 20
-2229.861489824604
 30
0.0
 11
-122.3569988918888
 21
-2229.861489824604
 31
0.0
  0
TEXT
  5
B588
330
18
100
AcDbEntity
  8
1DIM
  6
CONTINUOUS
100
AcDbText
 10
-178.7736655585555
 20
-2229.161489824604
 30
0.0
 40
3.5
  1
111
100
AcDbText
1001
ACAD
1000
DSTYLE
1002
{
1070
   271
1070
     2
1002
}
  0
LINE
  5
B589
330
18
100
AcDbEntity
  8
0
  6
BYBLOCK
100
AcDbLine
 10
-117.8569988918888
 20
-2239.325591444604
 30
0.0
 11
-115.8569988918888
 21
-2239.861489824605
 31
0.0
  0
LINE
  5
B58A
330
18
100
AcDbEntity
  8
0
  6
BYBLOCK
100
AcDbLine
 10
-115.8569988918888
 20
-2239.861489824605
 30
0.0
 11
-117.8569988918888
 21
-2240.397388204605
 31
0.0
  0
LINE
  5
B58B
330
18
100
AcDbEntity
  8
0
  6
BYBLOCK
100
AcDbLine
 10
-115.8569988918888
 20
-2239.861489824605
 30
0.0
 11
-117.8569988918888
 21
-2239.861489824605
 31
0.0
  0
LINE
  5
B58C
330
18
100
AcDbEntity
  8
0
  6
BYBLOCK
100
AcDbLine
 10
-108.9044288918889
 20
-2240.397388204605
 30
0.0
 11
-110.9044288918889
 21
-2239.861489824605
 31
0.0
  0
LINE
  5
B58D
330
18
100
AcDbEntity
  8
0
  6
BYBLOCK
100
AcDbLine
 10
-110.9044288918889
 20
-2239.861489824605
 30
0.0
 11
-108.9044288918889
 21
-2239.325591444604
 31
0.0
  0
LINE
  5
B58E
330
18
100
AcDbEntity
  8
0
  6
BYBLOCK
100
AcDbLine
 10
-110.9044288918889
 20
-2239.861489824605
 30
0.0
 11
-108.9044288918889
 21
-2239.861489824605
 31
0.0
  0
TEXT
  5
B58F
330
18
100
AcDbEntity
  8
1DIM
  6
CONTINUOUS
100
AcDbText
 10
-114.5473805585555
 20
-2239.161489824604
 30
0.0
 40
3.5
  1
5
100
AcDbText
1001
ACAD
1000
DSTYLE
1002
{
1070
   172
1070
     1
1070
   271
1070
     0
1070
   279
1070
     2
1070
   289
1070
     3
1002
}
  0
LINE
  5
B590
330
18
100
AcDbEntity
  8
0
  6
BYBLOCK
100
AcDbLine
 10
-233.8569988918888
 20
-2240.397388204605
 30
0.0
 11
-235.8569988918888
 21
-2239.861489824605
 31
0.0
  0
LINE
  5
B591
330
18
100
AcDbEntity
  8
0
  6
BYBLOCK
100
AcDbLine
 10
-235.8569988918888
 20
-2239.861489824605
 30
0.0
 11
-233.8569988918888
 21
-2239.325591444604
 31
0.0
  0
LINE
  5
B592
330
18
100
AcDbEntity
  8
0
  6
BYBLOCK
100
AcDbLine
 10
-235.8569988918888
 20
-2239.861489824605
 30
0.0
 11
-233.8569988918888
 21
-2239.861489824605
 31
0.0
  0
LINE
  5
B593
330
18
100
AcDbEntity
  8
0
  6
BYBLOCK
100
AcDbLine
 10
-242.8096388918888
 20
-2239.325591444604
 30
0.0
 11
-240.8096388918888
 21
-2239.861489824605
 31
0.0
  0
LINE
  5
B594
330
18
100
AcDbEntity
  8
0
  6
BYBLOCK
100
AcDbLine
 10
-240.8096388918888
 20
-2239.861489824605
 30
0.0
 11
-242.8096388918888
 21
-2240.397388204605
 31
0.0
  0
LINE
  5
B595
330
18
100
AcDbEntity
  8
0
  6
BYBLOCK
100
AcDbLine
 10
-240.8096388918888
 20
-2239.861489824605
 30
0.0
 11
-242.8096388918888
 21
-2239.861489824605
 31
0.0
  0
TEXT
  5
B596
330
18
100
AcDbEntity
  8
1DIM
  6
CONTINUOUS
100
AcDbText
 10
-239.4999855585554
 20
-2239.161489824604
 30
0.0
 40
3.5
  1
5
100
AcDbText
1001
ACAD
1000
DSTYLE
1002
{
1070
   172
1070
     1
1070
   271
1070
     0
1070
   279
1070
     2
1070
   289
1070
     3
1002
}
  0
VIEWPORT
  5
57
330
15
100
AcDbEntity
 67
     1
  8
0
100
AcDbViewport
 68
     1
 10
0.0
 20
0.0
 30
0.0
 40
663.4332925336597
 41
297.0
 68
     1
 69
     1
1001
ACAD
1000
MVIEW
1002
{
1070
    16
1010
0.0
1020
0.0
1030
0.0
1010
0.0
1020
0.0
1030
1.0
1040
0.0
1040
297.0
1040
-4.386435243687714
1040
24.72393390145244
1040
50.0
1040
0.0
1040
0.0
1070
    16
1070
   100
1070
     0
1070
     1
1070
     0
1070
     0
1070
     0
1070
     0
1040
0.0
1040
0.0
1040
0.0
1040
10.0
1040
10.0
1040
10.0
1040
10.0
1070
     0
1002
{
1002
}
1002
}
  0
ENDSEC
  0
SECTION
  2
OBJECTS
  0
DICTIONARY
  5
C
330
0
100
AcDbDictionary
  3
ACAD_COLOR
350
2D0
  3
ACAD_GROUP
350
D
  3
ACAD_LAYOUT
350
2D1
  3
ACAD_MATERIAL
350
2CF
  3
ACAD_MLEADERSTYLE
350
AAC4
  3
ACAD_MLINESTYLE
350
1B
  3
ACAD_PLOTSETTINGS
350
2D2
  3
ACAD_SCALELIST
350
AA9F
  3
ACAD_VISUALSTYLE
350
AA86
  3
ACDBHEADERROUNDTRIPXREC
350
B597
  3
ACDBVARIABLEDICTIONARY
350
37
  3
CONTENTDICTIONARY
350
D8
  3
DRAWINGVARIABLESDICT
350
20
  3
DWGPROPS
350
B59A
1001
ACAD
1000
TREAT_AS_HARD
1070
     0
  0
DICTIONARY
  5
B28E
330
2
100
AcDbDictionary
  3
ACAD_LAYERSTATES
360
B28F
1001
ACAD
1000
TREAT_AS_HARD
1070
     1
  0
DICTIONARY
  5
6E9
330
18
100
AcDbDictionary
  3
ACAD_SORTENTS
360
6EA
1001
ACAD
1000
TREAT_AS_HARD
1070
     1
  0
DICTIONARY
  5
59B
330
15
100
AcDbDictionary
  3
ACAD_SORTENTS
360
59C
1001
ACAD
1000
TREAT_AS_HARD
1070
     1
  0
DICTIONARY
  5
2D0
102
{ACAD_REACTORS
330
C
102
}
330
C
100
AcDbDictionary
1001
ACAD
1000
TREAT_AS_HARD
1070
     0
  0
DICTIONARY
  5
D
102
{ACAD_REACTORS
330
C
102
}
330
C
100
AcDbDictionary
1001
ACAD
1000
TREAT_AS_HARD
1070
     0
  0
DICTIONARY
  5
2D1
102
{ACAD_REACTORS
330
C
102
}
330
C
100
AcDbDictionary
1001
ACAD
1000
TREAT_AS_HARD
1070
     0
  0
DICTIONARY
  5
2CF
102
{ACAD_REACTORS
330
C
102
}
330
C
100
AcDbDictionary
  3
BYBLOCK
350
AAC2
  3
BYLAYER
350
AAC1
  3
GLOBAL
350
AAC3
1001
ACAD
1000
TREAT_AS_HARD
1070
     0
  0
DICTIONARY
  5
AAC4
102
{ACAD_REACTORS
330
C
102
}
330
C
100
AcDbDictionary
  3
STANDARD
350
AAC5
1001
ACAD
1000
TREAT_AS_HARD
1070
     0
  0
DICTIONARY
  5
1B
102
{ACAD_REACTORS
330
C
102
}
330
C
100
AcDbDictionary
  3
STANDARD
350
1C
1001
ACAD
1000
TREAT_AS_HARD
1070
     0
  0
DICTIONARY
  5
2D2
102
{ACAD_REACTORS
330
C
102
}
330
C
100
AcDbDictionary
1001
ACAD
1000
TREAT_AS_HARD
1070
     0
  0
DICTIONARY
  5
AA9F
102
{ACAD_REACTORS
330
C
102
}
330
C
100
AcDbDictionary
  3
A0
350
AAA0
  3
A1
350
AAA1
  3
A2
350
AAA2
  3
A3
350
AAA3
  3
A4
350
AAA4
  3
A5
350
AAA5
  3
A6
350
AAA6
  3
A7
350
AAA7
  3
A8
350
AAA8
  3
A9
350
AAA9
  3
B0
350
AAAA
  3
B1
350
AAAB
  3
B2
350
AAAC
  3
B3
350
AAAD
  3
B4
350
AAAE
  3
B5
350
AAAF
  3
B6
350
AAB0
  3
B7
350
AAB1
  3
B8
350
AAB2
  3
B9
350
AAB3
  3
C0
350
AAB4
  3
C1
350
AAB5
  3
C2
350
AAB6
  3
C3
350
AAB7
  3
C4
350
AAB8
  3
C5
350
AAB9
  3
C6
350
AABA
  3
C7
350
AABB
  3
C8
350
AABC
  3
C9
350
AABD
  3
D0
350
AABE
  3
D1
350
AABF
  3
D2
350
AAC0
1001
ACAD
1000
TREAT_AS_HARD
1070
     0
  0
DICTIONARY
  5
AA86
102
{ACAD_REACTORS
330
C
102
}
330
C
100
AcDbDictionary
  3
2DWIREFRAME
350
AA8B
  3
BASIC
350
AA8E
  3
BRIGHTEN
350
AA92
  3
COLORCHANGE
350
AA96
  3
CONCEPTUAL
350
AA90
  3
DIM
350
AA91
  3
EDGECOLOROFF
350
AA99
  3
FACEPATTERN
350
AA95
  3
FLAT
350
AA87
  3
FLATWITHEDGES
350
AA88
  3
GOURAUD
350
AA89
  3
GOURAUDWITHEDGES
350
AA8A
  3
HIDDEN
350
AA8D
  3
JITTEROFF
350
AA97
  3
LINEPATTERN
350
AA94
  3
MODELING
350
AAC6
  3
OVERHANGOFF
350
AA98
  3
REALISTIC
350
AA8F
  3
SHADED
350
AA9E
  3
SHADED_WITH_EDGES
350
AA9D
  3
SHADES_OF_GRAY
350
AA9A
  3
SKETCHY
350
AA9B
  3
THICKEN
350
AA93
  3
WIREFRAME
350
AA8C
  3
X-RAY
350
AA9C
1001
ACAD
1000
TREAT_AS_HARD
1070
     0
  0
DICTIONARY
  5
B597
102
{ACAD_REACTORS
330
C
102
}
330
C
100
AcDbDictionary
  3
COLORDICT
350
B598
  3
MATERIALDICT
350
B599
1001
ACAD
1000
TREAT_AS_HARD
1070
     0
  0
DICTIONARY
  5
37
102
{ACAD_REACTORS
330
C
102
}
330
C
100
AcDbDictionary
  3
CANNOSCALE
350
AB1F
  3
CMLEADERSTYLE
350
AB20
  3
CTABLESTYLE
350
4F1
  3
DIMADEC
350
38
  3
DIMASSOC
350
408
  3
HIDETEXT
350
1891
  3
INTERSECTIONCOLOR
350
1895
  3
INTERSECTIONDISPLAY
350
1894
  3
MSLTSCALE
350
AB21
  3
OBSCOLOR
350
1892
  3
OBSLTYPE
350
1893
  3
PROJECTNAME
350
409
  3
XCLIPFRAME
350
B314
1001
ACAD
1000
TREAT_AS_HARD
1070
     0
  0
DICTIONARY
  5
D8
102
{ACAD_REACTORS
330
C
102
}
330
C
100
AcDbDictionary
1001
CONTENTTABDATA
1070
    11
1000
Child
1000
D:\ACLT\TABset\CHILDREN.dwg
1070
     0
1070
     0
1070
     1
1000
PK
1000
D:\ACLT\TABset\PK.dwg
1070
     0
1070
     0
1070
     1
1000
Lev1
1000
D:\ACLT\TABset\Lever01.dwg
1070
     0
1070
     0
1070
     1
1000
Lev2
1000
D:\ACLT\TABset\Lever02.dwg
1070
     0
1070
     0
1070
     1
1000
L3
1000
D:\Aclt\TABset\Lever03.dwg
1070
     0
1070
     0
1070
     1
1000
Form
1000
D:\ACLT\FORMAT
1070
     1
1070
     0
1070
     1
1000
Jnt
1000
D:\ACLT\TABset\JOINTPARTS.dwg
1070
     0
1070
     0
1070
     1
1000
ISO
1000
D:\ACLT\TABset\Isome01.dwg
1070
     0
1070
     0
1070
     1
1000
R
1000
D:\ACLT\TABset\REGION.dwg
1070
     0
1070
     0
1070
     1
1000
std
1000
D:\ACLT\TABset\std_sym_all.dwg
1070
     0
1070
     0
1070
     1
1000
丸
1000
D:\Aclt\TABset\MARU.dwg
1070
     0
1070
     0
1070
     1
1001
CONTENTCURRENTTAB
1070
     0
1001
ACAD
1000
TREAT_AS_HARD
1070
     0
  0
DICTIONARY
  5
20
102
{ACAD_REACTORS
330
C
102
}
330
C
100
AcDbDictionary
1001
DRAWINGVARIABLESXDATA
1000
POLARANG
1000
0.261799387799149410000000
1000
POLARMODE
1000
1
1000
POLARSTYLE
1000
1
1001
ACAD
1000
TREAT_AS_HARD
1070
     0
  0
XRECORD
  5
B59A
102
{ACAD_REACTORS
330
C
102
}
330
C
100
AcDbXrecord
  1
DWGPROPS COOKIE
  2

  3

  4

  6

  7

  8
3684
  9

300
=
301
=
302
=
303
=
304
=
305
=
306
=
307
=
308
=
309
=
 40
0.0
 41
2453033.357663484
 42
2458149.341514144
  1

 90
        0
  0
DICTIONARY
  5
B28F
102
{ACAD_REACTORS
330
B28E
102
}
330
B28E
100
AcDbDictionary
1001
ACAD
1000
TREAT_AS_HARD
1070
     0
  0
SORTENTSTABLE
  5
6EA
102
{ACAD_REACTORS
330
6E9
102
}
330
6E9
100
AcDbSortentsTable
330
18
331
0
  5
B54B
331
A81C
  5
B556
331
A81D
  5
B557
331
A81E
  5
B558
331
A81F
  5
B559
331
A820
  5
B55A
331
A821
  5
B55B
331
A822
  5
B55C
331
A826
  5
B55D
331
A827
  5
B55E
331
A828
  5
B55F
331
A82A
  5
B560
331
A82B
  5
B561
331
A82C
  5
B562
331
A82D
  5
B563
331
A82E
  5
B564
331
A82F
  5
B565
331
A830
  5
B566
331
A831
  5
B567
331
A833
  5
B568
331
A834
  5
B569
331
A835
  5
B56A
331
A836
  5
B56B
331
A837
  5
B56C
331
A838
  5
B56D
331
A839
  5
B56E
331
A83B
  5
B56F
331
A83D
  5
B570
331
A83E
  5
B571
331
A83F
  5
B572
331
A840
  5
B573
331
A841
  5
B574
331
A842
  5
B575
331
A843
  5
B576
331
A844
  5
B577
331
A845
  5
B578
331
A846
  5
B579
331
A848
  5
B57A
331
A849
  5
B57B
331
A84A
  5
B57C
331
A84B
  5
B57D
331
A84C
  5
B57E
331
A84D
  5
B57F
331
A84E
  5
B580
331
A84F
  5
B581
331
A850
  5
B582
331
A851
  5
B583
331
A853
  5
B584
331
A855
  5
B585
331
A87B
  5
B586
331
A87C
  5
B587
331
A87D
  5
B588
331
A87E
  5
B589
331
A880
  5
B58A
331
A883
  5
B58B
331
A884
  5
B58C
331
A886
  5
B58D
331
A888
  5
B58E
331
A889
  5
B58F
331
A88A
  5
B590
331
AB24
  5
B591
331
AB25
  5
B592
331
AB26
  5
B593
331
B3E5
  5
B594
331
B3E6
  5
B595
331
B3E7
  5
B596
331
B50F
  5
8239
331
B510
  5
A81C
331
B511
  5
A81D
331
0
  5
A81E
331
0
  5
A81F
331
0
  5
A820
331
B515
  5
A833
331
B516
  5
A834
331
B517
  5
A838
331
0
  5
A827
331
0
  5
A828
331
0
  5
A82A
331
B51B
  5
A849
331
B51C
  5
A84A
331
B51D
  5
A84E
331
0
  5
A82E
331
0
  5
A82F
331
0
  5
A830
331
B521
  5
A883
331
B522
  5
A884
331
B523
  5
A88A
331
0
  5
A835
331
0
  5
A836
331
0
  5
A837
331
B527
  5
B510
331
B528
  5
B511
331
B529
  5
B512
331
0
  5
A83D
331
0
  5
A83E
331
0
  5
A83F
331
B52D
  5
B51A
331
B52E
  5
B51B
331
B52F
  5
B51C
331
B530
  5
B51D
331
0
  5
A844
331
0
  5
A845
331
0
  5
A846
331
B534
  5
B525
331
B535
  5
B526
331
B536
  5
B527
331
0
  5
A84B
331
0
  5
A84C
331
0
  5
A84D
331
B53A
  5
B52F
331
B53B
  5
B530
331
B53C
  5
B531
331
B53D
  5
B532
331
B53E
  5
B533
331
0
  5
A855
331
0
  5
A87B
331
0
  5
A87C
331
B542
  5
B53B
331
B543
  5
B53C
331
B544
  5
B53D
331
B545
  5
B53E
331
B546
  5
B53F
331
0
  5
A886
331
0
  5
A888
331
0
  5
A889
331
B54A
  5
B547
331
B54B
  5
B548
331
B54C
  5
B549
331
B54D
  5
B54A
331
B54E
  5
B54C
331
B54F
  5
B54D
331
B550
  5
B54E
331
B551
  5
B54F
331
B552
  5
B550
331
B553
  5
B551
331
B554
  5
B552
331
B555
  5
B553
331
B556
  5
B554
331
B557
  5
B555
331
B558
  5
A821
331
B559
  5
A822
331
B55A
  5
A826
331
B55B
  5
A82B
331
B55C
  5
A82C
331
B55D
  5
A82D
331
B55E
  5
A831
331
B55F
  5
A839
331
B560
  5
A83B
331
B561
  5
A840
331
B562
  5
A841
331
B563
  5
A842
331
B564
  5
A843
331
B565
  5
A848
331
B566
  5
A84F
331
B567
  5
A850
331
B568
  5
A851
331
B569
  5
A853
331
B56A
  5
A87D
331
B56B
  5
A87E
331
B56C
  5
A880
331
B56D
  5
AB24
331
B56E
  5
AB25
331
B56F
  5
AB26
331
B570
  5
B3E5
331
B571
  5
B3E6
331
B572
  5
B3E7
331
B573
  5
B50F
331
B574
  5
B513
331
B575
  5
B514
331
B576
  5
B515
331
B577
  5
B516
331
B578
  5
B517
331
B579
  5
B518
331
B57A
  5
B519
331
B57B
  5
B51E
331
B57C
  5
B51F
331
B57D
  5
B520
331
B57E
  5
B521
331
B57F
  5
B522
331
B580
  5
B523
331
B581
  5
B524
331
B582
  5
B528
331
B583
  5
B529
331
B584
  5
B52A
331
B585
  5
B52B
331
B586
  5
B52C
331
B587
  5
B52D
331
B588
  5
B52E
331
B589
  5
B534
331
B58A
  5
B535
331
B58B
  5
B536
331
B58C
  5
B537
331
B58D
  5
B538
331
B58E
  5
B539
331
B58F
  5
B53A
331
B590
  5
B540
331
B591
  5
B541
331
B592
  5
B542
331
B593
  5
B543
331
B594
  5
B544
331
B595
  5
B545
331
B596
  5
B546
  0
SORTENTSTABLE
  5
59C
102
{ACAD_REACTORS
330
59B
102
}
330
59B
100
AcDbSortentsTable
330
15
331
57
  5
57
331
0
  5
70
  0
MATERIAL
  5
AAC2
102
{ACAD_REACTORS
330
2CF
102
}
102
{ACAD_XDICTIONARY
360
B737
102
}
330
2CF
100
AcDbMaterial
  1
BYBLOCK
  0
MATERIAL
  5
AAC1
102
{ACAD_REACTORS
330
2CF
102
}
102
{ACAD_XDICTIONARY
360
B735
102
}
330
2CF
100
AcDbMaterial
  1
BYLAYER
  0
MATERIAL
  5
AAC3
102
{ACAD_REACTORS
330
2CF
102
}
102
{ACAD_XDICTIONARY
360
B739
102
}
330
2CF
100
AcDbMaterial
  1
GLOBAL
  0
ACAD_PROXY_OBJECT
  5
AAC5
102
{ACAD_REACTORS
330
AAC4
102
}
330
AAC4
100
AcDbZombieObject
 90
      499
 91
      512
 93
      610
310
40901902A4063FBFFFFFE0000000000000020400000000000020404214DD185B99185C990000000000000104090141901A00000000000004100000000000000041025764000000000000039000
340
12
340
0
340
F
340
0
 94
        0
1001
ACAD_MLEADERVER
1070
     2
  0
MLINESTYLE
  5
1C
102
{ACAD_REACTORS
330
1B
102
}
330
1B
100
AcDbMlineStyle
  2
STANDARD
 70
     0
  3

 62
   256
 51
90.0
 52
90.0
 71
     2
 49
0.5
 62
   256
  6
BYLAYER
 49
-0.5
 62
   256
  6
BYLAYER
  0
ACAD_PROXY_OBJECT
  5
AAA0
102
{ACAD_REACTORS
330
AA9F
102
}
330
AA9F
100
AcDbZombieObject
 90
      499
 91
      510
 93
       41
310
903313A31580
  0
ACAD_PROXY_OBJECT
  5
AAA1
102
{ACAD_REACTORS
330
AA9F
102
}
330
AA9F
100
AcDbZombieObject
 90
      499
 91
      510
 93
      105
310
903313A324000000000000004000
  0
ACAD_PROXY_OBJECT
  5
AAA2
102
{ACAD_REACTORS
330
AA9F
102
}
330
AA9F
100
AcDbZombieObject
 90
      499
 91
      510
 93
      105
310
903313A344000000000000104000
  0
ACAD_PROXY_OBJECT
  5
AAA3
102
{ACAD_REACTORS
330
AA9F
102
}
330
AA9F
100
AcDbZombieObject
 90
      499
 91
      510
 93
      105
310
903313A354000000000000144000
  0
ACAD_PROXY_OBJECT
  5
AAA4
102
{ACAD_REACTORS
330
AA9F
102
}
330
AA9F
100
AcDbZombieObject
 90
      499
 91
      510
 93
      105
310
903313A384000000000000204000
  0
ACAD_PROXY_OBJECT
  5
AAA5
102
{ACAD_REACTORS
330
AA9F
102
}
330
AA9F
100
AcDbZombieObject
 90
      499
 91
      510
 93
      113
310
904313A31304000000000000244000
  0
ACAD_PROXY_OBJECT
  5
AAA6
102
{ACAD_REACTORS
330
AA9F
102
}
330
AA9F
100
AcDbZombieObject
 90
      499
 91
      510
 93
      113
310
904313A31364000000000000304000
  0
ACAD_PROXY_OBJECT
  5
AAA7
102
{ACAD_REACTORS
330
AA9F
102
}
330
AA9F
100
AcDbZombieObject
 90
      499
 91
      510
 93
      113
310
904313A32304000000000000344000
  0
ACAD_PROXY_OBJECT
  5
AAA8
102
{ACAD_REACTORS
330
AA9F
102
}
330
AA9F
100
AcDbZombieObject
 90
      499
 91
      510
 93
      113
310
904313A333040000000000003E4000
  0
ACAD_PROXY_OBJECT
  5
AAA9
102
{ACAD_REACTORS
330
AA9F
102
}
330
AA9F
100
AcDbZombieObject
 90
      499
 91
      510
 93
      113
310
904313A34304000000000000444000
  0
ACAD_PROXY_OBJECT
  5
AAAA
102
{ACAD_REACTORS
330
AA9F
102
}
330
AA9F
100
AcDbZombieObject
 90
      499
 91
      510
 93
      113
310
904313A35304000000000000494000
  0
ACAD_PROXY_OBJECT
  5
AAAB
102
{ACAD_REACTORS
330
AA9F
102
}
330
AA9F
100
AcDbZombieObject
 90
      499
 91
      510
 93
      121
310
905313A3130304000000000000594000
  0
ACAD_PROXY_OBJECT
  5
AAAC
102
{ACAD_REACTORS
330
AA9F
102
}
330
AA9F
100
AcDbZombieObject
 90
      499
 91
      510
 93
      105
310
903323A310000000000000010100
  0
ACAD_PROXY_OBJECT
  5
AAAD
102
{ACAD_REACTORS
330
AA9F
102
}
330
AA9F
100
AcDbZombieObject
 90
      499
 91
      510
 93
      105
310
903343A310000000000000410100
  0
ACAD_PROXY_OBJECT
  5
AAAE
102
{ACAD_REACTORS
330
AA9F
102
}
330
AA9F
100
AcDbZombieObject
 90
      499
 91
      510
 93
      105
310
903383A310000000000000810100
  0
ACAD_PROXY_OBJECT
  5
AAAF
102
{ACAD_REACTORS
330
AA9F
102
}
330
AA9F
100
AcDbZombieObject
 90
      499
 91
      510
 93
      113
310
90431303A310000000000000910100
  0
ACAD_PROXY_OBJECT
  5
AAB0
102
{ACAD_REACTORS
330
AA9F
102
}
330
AA9F
100
AcDbZombieObject
 90
      499
 91
      510
 93
      121
310
9053130303A310000000000001650100
  0
ACAD_PROXY_OBJECT
  5
AAB1
102
{ACAD_REACTORS
330
AA9F
102
}
330
AA9F
100
AcDbZombieObject
 90
      499
 91
      510
 93
      257
310
90E312F31323822203D2031272D3022000000000000200FC000000000000284000
  0
ACAD_PROXY_OBJECT
  5
AAB2
102
{ACAD_REACTORS
330
AA9F
102
}
330
AA9F
100
AcDbZombieObject
 90
      499
 91
      510
 93
      249
310
90D312F363422203D2031272D3022000000000000240FC000000000000284000
  0
ACAD_PROXY_OBJECT
  5
AAB3
102
{ACAD_REACTORS
330
AA9F
102
}
330
AA9F
100
AcDbZombieObject
 90
      499
 91
      510
 93
      249
310
90D312F333222203D2031272D3022000000000000280FC000000000000284000
  0
ACAD_PROXY_OBJECT
  5
AAB4
102
{ACAD_REACTORS
330
AA9F
102
}
330
AA9F
100
AcDbZombieObject
 90
      499
 91
      510
 93
      249
310
90D312F313622203D2031272D30220000000000002C0FC000000000000284000
  0
ACAD_PROXY_OBJECT
  5
AAB5
102
{ACAD_REACTORS
330
AA9F
102
}
330
AA9F
100
AcDbZombieObject
 90
      499
 91
      510
 93
      249
310
90D332F333222203D2031272D30220000000000002E0FC000000000000284000
  0
ACAD_PROXY_OBJECT
  5
AAB6
102
{ACAD_REACTORS
330
AA9F
102
}
330
AA9F
100
AcDbZombieObject
 90
      499
 91
      510
 93
      241
310
90C312F3822203D2031272D3022000000000000300FC000000000000284000
  0
ACAD_PROXY_OBJECT
  5
AAB7
102
{ACAD_REACTORS
330
AA9F
102
}
330
AA9F
100
AcDbZombieObject
 90
      499
 91
      510
 93
      249
310
90D332F313622203D2031272D3022000000000000320FC000000000000284000
  0
ACAD_PROXY_OBJECT
  5
AAB8
102
{ACAD_REACTORS
330
AA9F
102
}
330
AA9F
100
AcDbZombieObject
 90
      499
 91
      510
 93
      241
310
90C312F3422203D2031272D3022000000000000340FC000000000000284000
  0
ACAD_PROXY_OBJECT
  5
AAB9
102
{ACAD_REACTORS
330
AA9F
102
}
330
AA9F
100
AcDbZombieObject
 90
      499
 91
      510
 93
      241
310
90C332F3822203D2031272D3022000000000000360FC000000000000284000
  0
ACAD_PROXY_OBJECT
  5
AABA
102
{ACAD_REACTORS
330
AA9F
102
}
330
AA9F
100
AcDbZombieObject
 90
      499
 91
      510
 93
      241
310
90C312F3222203D2031272D3022000000000000380FC000000000000284000
  0
ACAD_PROXY_OBJECT
  5
AABB
102
{ACAD_REACTORS
330
AA9F
102
}
330
AA9F
100
AcDbZombieObject
 90
      499
 91
      510
 93
      241
310
90C332F3422203D2031272D30220000000000003A0FC000000000000284000
  0
ACAD_PROXY_OBJECT
  5
AABC
102
{ACAD_REACTORS
330
AA9F
102
}
330
AA9F
100
AcDbZombieObject
 90
      499
 91
      510
 93
      161
310
90A3122203D2031272D30224000000000000284000
  0
ACAD_PROXY_OBJECT
  5
AABD
102
{ACAD_REACTORS
330
AA9F
102
}
330
AA9F
100
AcDbZombieObject
 90
      499
 91
      510
 93
      257
310
90E312D312F3222203D2031272D30220000000000003E0FC000000000000284000
  0
ACAD_PROXY_OBJECT
  5
AABE
102
{ACAD_REACTORS
330
AA9F
102
}
330
AA9F
100
AcDbZombieObject
 90
      499
 91
      510
 93
      225
310
90A3322203D2031272D302200000000000002100000000000000284000
  0
ACAD_PROXY_OBJECT
  5
AABF
102
{ACAD_REACTORS
330
AA9F
102
}
330
AA9F
100
AcDbZombieObject
 90
      499
 91
      510
 93
      225
310
90A3622203D2031272D302200000000000006100000000000000284000
  0
ACAD_PROXY_OBJECT
  5
AAC0
102
{ACAD_REACTORS
330
AA9F
102
}
330
AA9F
100
AcDbZombieObject
 90
      499
 91
      510
 93
      249
310
90D31272D3022203D2031272D30220000000000000A100000000000000284000
  0
ACAD_PROXY_OBJECT
  5
AA8B
102
{ACAD_REACTORS
330
AA86
102
}
330
AA86
100
AcDbZombieObject
 90
      499
 91
      509
 93
      436
310
42CC9915DA5C99599C985B595049028333333333333E33F0000000000000F90107901411070040501600405405064090741402480A0340
1001
ACAD
1000
AcDbSavedByObjectVersion
1070
     0
  0
ACAD_PROXY_OBJECT
  5
AA8E
102
{ACAD_REACTORS
330
AA86
102
}
330
AA86
100
AcDbZombieObject
 90
      499
 91
      509
 93
      388
310
4150985CDA58D07406404333333333333E33F0000000000000F90107A41107004050150841D405064090741402480A0350
1001
ACAD
1000
AcDbSavedByObjectVersion
1070
     0
  0
ACAD_PROXY_OBJECT
  5
AA92
102
{ACAD_REACTORS
330
AA86
102
}
330
AA86
100
AcDbZombieObject
 90
      499
 91
      509
 93
      428
310
42109C9A59DA1D195B90C409028333333333333E33F0000000000000F9010790141107004050150841D405064090741402480A029950
1001
ACAD
1000
AcDbSavedByObjectVersion
1070
     0
  0
ACAD_PROXY_OBJECT
  5
AA96
102
{ACAD_REACTORS
330
AA86
102
}
330
AA86
100
AcDbZombieObject
 90
      499
 91
      509
 93
      452
310
42D0DBDB1BDC90DA185B99D95104090240C333333333333E33F0000000000000F90108901411070040501508421405064090741402480A0350
1001
ACAD
1000
AcDbSavedByObjectVersion
1070
     0
  0
ACAD_PROXY_OBJECT
  5
AA90
102
{ACAD_REACTORS
330
AA86
102
}
330
AA86
100
AcDbZombieObject
 90
      499
 91
      509
 93
      500
310
4290DBDB98D95C1D1D585B10940D028333333333333E33F0000000000000F90107902409070040501000000000018199010841D405064090740C02480A0340
1001
ACAD
1000
AcDbSavedByObjectVersion
1070
     0
  0
ACAD_PROXY_OBJECT
  5
AA91
102
{ACAD_REACTORS
330
AA86
102
}
330
AA86
100
AcDbZombieObject
 90
      499
 91
      509
 93
      412
310
40D11A5B50B409028333333333333E33F0000000000000F9010790141107004050150841D405064090741402480A02677FFFFFD0
1001
ACAD
1000
AcDbSavedByObjectVersion
1070
     0
  0
ACAD_PROXY_OBJECT
  5
AA99
102
{ACAD_REACTORS
330
AA86
102
}
330
AA86
100
AcDbZombieObject
 90
      499
 91
      509
 93
      452
310
43115919D950DBDB1BDC93D999916409028333333333333E33F0000000000000F9010790141107004050150841D405064090741402480A0350
1001
ACAD
1000
AcDbSavedByObjectVersion
1070
     0
  0
ACAD_PROXY_OBJECT
  5
AA95
102
{ACAD_REACTORS
330
AA86
102
}
330
AA86
100
AcDbZombieObject
 90
      499
 91
      509
 93
      444
310
42D19858D95C185D1D195C9B90F409028333333333333E33F0000000000000F9010790141107004050150841D405064090741402480A0350
1001
ACAD
1000
AcDbSavedByObjectVersion
1070
     0
  0
ACAD_PROXY_OBJECT
  5
AA87
102
{ACAD_REACTORS
330
AA86
102
}
330
AA86
100
AcDbZombieObject
 90
      499
 91
      509
 93
      380
310
41119B185D240901404333333333333E33F0000000000000F9010740A907004050150841D405064090741402480A1B50
1001
ACAD
1000
AcDbSavedByObjectVersion
1070
     0
  0
ACAD_PROXY_OBJECT
  5
AA88
102
{ACAD_REACTORS
330
AA86
102
}
330
AA86
100
AcDbZombieObject
 90
      499
 91
      509
 93
      468
310
43519B185D15DA5D1A115919D95CD0140901404333333333333E33F0000000000000F90107409019070040501600405405064090741402480A1B50
1001
ACAD
1000
AcDbSavedByObjectVersion
1070
     0
  0
ACAD_PROXY_OBJECT
  5
AA89
102
{ACAD_REACTORS
330
AA86
102
}
330
AA86
100
AcDbZombieObject
 90
      499
 91
      509
 93
      404
310
41D1DBDD5C985D5910240902404333333333333E33F0000000000000F9010740A9070040501641D405064090741402480A1B50
1001
ACAD
1000
AcDbSavedByObjectVersion
1070
     0
  0
ACAD_PROXY_OBJECT
  5
AA8A
102
{ACAD_REACTORS
330
AA86
102
}
330
AA86
100
AcDbZombieObject
 90
      499
 91
      509
 93
      492
310
4411DBDD5C985D5915DA5D1A115919D95CD0340902404333333333333E33F0000000000000F90107409019070040501600405405064090741402480A1B50
1001
ACAD
1000
AcDbSavedByObjectVersion
1070
     0
  0
ACAD_PROXY_OBJECT
  5
AA8D
102
{ACAD_REACTORS
330
AA86
102
}
330
AA86
100
AcDbZombieObject
 90
      499
 91
      509
 93
      476
310
41921A5919195B90640502408333333333333E33F0000000000000F901079024090700405020000000000001110200405405064090740C02480A0340
1001
ACAD
1000
AcDbSavedByObjectVersion
1070
     0
  0
ACAD_PROXY_OBJECT
  5
AA97
102
{ACAD_REACTORS
330
AA86
102
}
330
AA86
100
AcDbZombieObject
 90
      499
 91
      509
 93
      428
310
42529A5D1D195C93D999914409028333333333333E33F0000000000000F9010790141107004050150A41D405064090741402480A0350
1001
ACAD
1000
AcDbSavedByObjectVersion
1070
     0
  0
ACAD_PROXY_OBJECT
  5
AA94
102
{ACAD_REACTORS
330
AA86
102
}
330
AA86
100
AcDbZombieObject
 90
      499
 91
      509
 93
      444
310
42D31A5B995C185D1D195C9B90E409028333333333333E33F0000000000000F9010790141107004050750841D405064090741402483A0350
1001
ACAD
1000
AcDbSavedByObjectVersion
1070
     0
  0
ACAD_PROXY_OBJECT
  5
AAC6
102
{ACAD_REACTORS
330
AA86
102
}
330
AA86
100
AcDbZombieObject
 90
      499
 91
      509
 93
      484
310
42135BD9195B1A5B99D0A409038333333333333E33F0000000000000F901074090290700405010000000000201990108421405064090741402480A1B40
1001
ACAD
1000
AcDbSavedByObjectVersion
1070
     0
  0
ACAD_PROXY_OBJECT
  5
AA98
102
{ACAD_REACTORS
330
AA86
102
}
330
AA86
100
AcDbZombieObject
 90
      499
 91
      509
 93
      444
310
42D3DD995C9A185B99D3D999915409028333333333333E33F0000000000000F9010790141107004050150941D405064090741402480A0350
1001
ACAD
1000
AcDbSavedByObjectVersion
1070
     0
  0
ACAD_PROXY_OBJECT
  5
AA8F
102
{ACAD_REACTORS
330
AA86
102
}
330
AA86
100
AcDbZombieObject
 90
      499
 91
      509
 93
      428
310
425499585B1A5CDD1A58D08409038333333333333E33F0000000000000F9010740A907004050150800405405064090740C02480A1B40
1001
ACAD
1000
AcDbSavedByObjectVersion
1070
     0
  0
ACAD_PROXY_OBJECT
  5
AA9E
102
{ACAD_REACTORS
330
AA86
102
}
330
AA86
100
AcDbZombieObject
 90
      499
 91
      509
 93
      420
310
4194DA1859195911B40902404333333333333E33F0000000000000F9010740A41107004050150800405405064090840C02480A0B40
1001
ACAD
1000
AcDbSavedByObjectVersion
1070
     0
  0
ACAD_PROXY_OBJECT
  5
AA9D
102
{ACAD_REACTORS
330
AA86
102
}
330
AA86
100
AcDbZombieObject
 90
      499
 91
      509
 93
      516
310
4454DA18591959081DDA5D1A08195919D95CD1A40902404333333333333E33F0000000000000F901074090142907004050250800405405064090740C02480A0B40
1001
ACAD
1000
AcDbSavedByObjectVersion
1070
     0
  0
ACAD_PROXY_OBJECT
  5
AA9A
102
{ACAD_REACTORS
330
AA86
102
}
330
AA86
100
AcDbZombieObject
 90
      499
 91
      509
 93
      532
310
4394DA1859195CC81BD98811DC985E5174090240C333333333333E33F0000000000000F901079024090741D01000000000000111010841D405064090740C02480A0340
1001
ACAD
1000
AcDbSavedByObjectVersion
1070
     0
  0
ACAD_PROXY_OBJECT
  5
AA9B
102
{ACAD_REACTORS
330
AA86
102
}
330
AA86
100
AcDbZombieObject
 90
      499
 91
      509
 93
      476
310
41D4DAD95D18DA1E51840502408333333333333E33F0000000000000F901079024090741D01000000000000111010B41D405064090741802480A0340
1001
ACAD
1000
AcDbSavedByObjectVersion
1070
     0
  0
ACAD_PROXY_OBJECT
  5
AA93
102
{ACAD_REACTORS
330
AA86
102
}
330
AA86
100
AcDbZombieObject
 90
      499
 91
      509
 93
      412
310
41D51A1A58DAD95B90D409028333333333333E33F0000000000000F9010790141107004050150C41D405064090741402480A0350
1001
ACAD
1000
AcDbSavedByObjectVersion
1070
     0
  0
ACAD_PROXY_OBJECT
  5
AA8C
102
{ACAD_REACTORS
330
AA86
102
}
330
AA86
100
AcDbZombieObject
 90
      499
 91
      509
 93
      420
310
4255DA5C99599C985B595059028333333333333E33F0000000000000F90107901411070040501600405405064090740C02480A0340
1001
ACAD
1000
AcDbSavedByObjectVersion
1070
     0
  0
ACAD_PROXY_OBJECT
  5
AA9C
102
{ACAD_REACTORS
330
AA86
102
}
330
AA86
100
AcDbZombieObject
 90
      499
 91
      509
 93
      404
310
41560B54985E51940902404000000000000E03F0000000000000F9010740501907004050150841D405064090740C02480A1B40
1001
ACAD
1000
AcDbSavedByObjectVersion
1070
     0
  0
XRECORD
  5
B598
102
{ACAD_REACTORS
330
B597
102
}
330
B597
100
AcDbXrecord
340
2D0
  0
XRECORD
  5
B599
102
{ACAD_REACTORS
330
B597
102
}
330
B597
100
AcDbXrecord
340
2CF
  0
DICTIONARYVAR
  5
AB1F
102
{ACAD_REACTORS
330
37
102
}
330
37
100
DictionaryVariables
280
     0
  1
1:1
  0
DICTIONARYVAR
  5
AB20
102
{ACAD_REACTORS
330
37
102
}
330
37
100
DictionaryVariables
280
     0
  1
Standard
  0
DICTIONARYVAR
  5
4F1
102
{ACAD_REACTORS
330
37
102
}
330
37
100
DictionaryVariables
280
     0
  1
Standard
  0
DICTIONARYVAR
  5
38
102
{ACAD_REACTORS
330
37
102
}
330
37
100
DictionaryVariables
280
     0
  1
-1
  0
DICTIONARYVAR
  5
408
102
{ACAD_REACTORS
330
37
102
}
330
37
100
DictionaryVariables
280
     0
  1
2
  0
DICTIONARYVAR
  5
1891
102
{ACAD_REACTORS
330
37
102
}
330
37
100
DictionaryVariables
280
     0
  1
1
  0
DICTIONARYVAR
  5
1895
102
{ACAD_REACTORS
330
37
102
}
330
37
100
DictionaryVariables
280
     0
  1
8
  0
DICTIONARYVAR
  5
1894
102
{ACAD_REACTORS
330
37
102
}
330
37
100
DictionaryVariables
280
     0
  1
1
  0
DICTIONARYVAR
  5
AB21
102
{ACAD_REACTORS
330
37
102
}
330
37
100
DictionaryVariables
280
     0
  1
0
  0
DICTIONARYVAR
  5
1892
102
{ACAD_REACTORS
330
37
102
}
330
37
100
DictionaryVariables
280
     0
  1
8
  0
DICTIONARYVAR
  5
1893
102
{ACAD_REACTORS
330
37
102
}
330
37
100
DictionaryVariables
280
     0
  1
2
  0
DICTIONARYVAR
  5
409
102
{ACAD_REACTORS
330
37
102
}
330
37
100
DictionaryVariables
280
     0
  1

  0
DICTIONARYVAR
  5
B314
102
{ACAD_REACTORS
330
37
102
}
330
37
100
DictionaryVariables
280
     0
  1
2
  0
DICTIONARY
  5
B737
330
AAC2
100
AcDbDictionary
  3
ACAD_XREC_ROUNDTRIP
360
B738
1001
ACAD
1000
TREAT_AS_HARD
1070
     1
  0
DICTIONARY
  5
B735
330
AAC1
100
AcDbDictionary
  3
ACAD_XREC_ROUNDTRIP
360
B736
1001
ACAD
1000
TREAT_AS_HARD
1070
     1
  0
DICTIONARY
  5
B739
330
AAC3
100
AcDbDictionary
  3
ACAD_XREC_ROUNDTRIP
360
B73A
1001
ACAD
1000
TREAT_AS_HARD
1070
     1
  0
XRECORD
  5
B738
102
{ACAD_REACTORS
330
B737
102
}
330
B737
100
AcDbXrecord
102
MATERIAL
148
0.0
149
0.0
149
0.0
 93
        0
 94
      127
282
     0
 72
     1
 77
     1
171
     1
175
     1
179
     1
273
     0
  0
XRECORD
  5
B736
102
{ACAD_REACTORS
330
B735
102
}
330
B735
100
AcDbXrecord
102
MATERIAL
148
0.0
149
0.0
149
0.0
 93
        0
 94
      127
282
     0
 72
     1
 77
     1
171
     1
175
     1
179
     1
273
     0
  0
XRECORD
  5
B73A
102
{ACAD_REACTORS
330
B739
102
}
330
B739
100
AcDbXrecord
102
MATERIAL
148
0.0
149
0.0
149
0.0
 93
        0
 94
      127
282
     0
 72
     1
 77
     1
171
     1
175
     1
179
     1
273
     0
  0
ENDSEC
  0
EOF
