  0
SECTION
  2
HEADER
  9
$ACADVER
  1
AC1009
  9
$INSBASE
 10
0.0
 20
0.0
 30
0.0
  9
$EXTMIN
 10
-419.31148295896082
 20
-2297.8614898246051
 30
0.0
  9
$EXTMAX
 10
-57.90442889188887
 20
-2081.8614708246041
 30
0.0
  9
$LIMMIN
 10
0.0
 20
0.0
  9
$LIMMAX
 10
420.0
 20
297.0
  9
$ORTHOMODE
 70
     0
  9
$REGENMODE
 70
     1
  9
$FILLMODE
 70
     1
  9
$QTEXTMODE
 70
     0
  9
$MIRRTEXT
 70
     0
  9
$DRAGMODE
 70
     2
  9
$LTSCALE
 40
0.5
  9
$OSMODE
 70
    63
  9
$ATTMODE
 70
     1
  9
$TEXTSIZE
 40
4.0
  9
$TRACEWID
 40
1.0
  9
$TEXTSTYLE
  7
STANDARD
  9
$CLAYER
  8
1TEXT
  9
$CELTYPE
  6
BYLAYER
  9
$CECOLOR
 62
   256
  9
$DIMSCALE
 40
1.0
  9
$DIMASZ
 40
2.0
  9
$DIMEXO
 40
0.0
  9
$DIMDLI
 40
7.0
  9
$DIMRND
 40
0.0
  9
$DIMDLE
 40
0.0
  9
$DIMEXE
 40
1.0
  9
$DIMTP
 40
0.0
  9
$DIMTM
 40
0.0
  9
$DIMTXT
 40
3.5
  9
$DIMCEN
 40
0.0
  9
$DIMTSZ
 40
0.0
  9
$DIMTOL
 70
     0
  9
$DIMLIM
 70
     0
  9
$DIMTIH
 70
     0
  9
$DIMTOH
 70
     0
  9
$DIMSE1
 70
     0
  9
$DIMSE2
 70
     0
  9
$DIMTAD
 70
     1
  9
$DIMZIN
 70
     8
  9
$DIMBLK
  1

  9
$DIMASO
 70
     1
  9
$DIMSHO
 70
     1
  9
$DIMPOST
  1
 
  9
$DIMAPOST
  1

  9
$DIMALT
 70
     0
  9
$DIMALTD
 70
     2
  9
$DIMALTF
 40
25.399999999999999
  9
$DIMLFAC
 40
1.0
  9
$DIMTOFL
 70
     1
  9
$DIMTVP
 40
0.0
  9
$DIMTIX
 70
     0
  9
$DIMSOXD
 70
     0
  9
$DIMSAH
 70
     1
  9
$DIMBLK1
  1
OPEN30
  9
$DIMBLK2
  1
OPEN30
  9
$DIMSTYLE
  2
NEWX10
  9
$DIMCLRD
 70
   256
  9
$DIMCLRE
 70
   256
  9
$DIMCLRT
 70
   201
  9
$DIMTFAC
 40
0.7
  9
$DIMGAP
 40
0.7
  9
$LUNITS
 70
     2
  9
$LUPREC
 70
     4
  9
$SKETCHINC
 40
1.0
  9
$FILLETRAD
 40
0.0
  9
$AUNITS
 70
     0
  9
$AUPREC
 70
     2
  9
$MENU
  1
acad
  9
$ELEVATION
 40
0.0
  9
$PELEVATION
 40
0.0
  9
$THICKNESS
 40
0.0
  9
$LIMCHECK
 70
     0
  9
$BLIPMODE
 70
     0
  9
$CHAMFERA
 40
10.0
  9
$CHAMFERB
 40
10.0
  9
$SKPOLY
 70
     0
  9
$TDCREATE
 40
2453033.7326634838
  9
$TDUPDATE
 40
2457014.7272052201
  9
$TDINDWG
 40
0.4387353356
  9
$TDUSRTIMER
 40
0.4387353356
  9
$USRTIMER
 70
     1
  9
$ANGBASE
 50
0.0
  9
$ANGDIR
 70
     0
  9
$PDMODE
 70
     0
  9
$PDSIZE
 40
0.0
  9
$PLINEWID
 40
0.0
  9
$COORDS
 70
     0
  9
$SPLFRAME
 70
     0
  9
$SPLINETYPE
 70
     6
  9
$SPLINESEGS
 70
     8
  9
$ATTDIA
 70
     0
  9
$ATTREQ
 70
     1
  9
$HANDLING
 70
     1
  9
$HANDSEED
  5
B66B
  9
$SURFTAB1
 70
     6
  9
$SURFTAB2
 70
     6
  9
$SURFTYPE
 70
     6
  9
$SURFU
 70
     6
  9
$SURFV
 70
     6
  9
$UCSNAME
  2

  9
$UCSORG
 10
0.0
 20
0.0
 30
0.0
  9
$UCSXDIR
 10
1.0
 20
0.0
 30
0.0
  9
$UCSYDIR
 10
0.0
 20
1.0
 30
0.0
  9
$PUCSNAME
  2

  9
$PUCSORG
 10
0.0
 20
0.0
 30
0.0
  9
$PUCSXDIR
 10
1.0
 20
0.0
 30
0.0
  9
$PUCSYDIR
 10
0.0
 20
1.0
 30
0.0
  9
$USERI1
 70
     0
  9
$USERI2
 70
     0
  9
$USERI3
 70
     0
  9
$USERI4
 70
     0
  9
$USERI5
 70
     0
  9
$USERR1
 40
0.0
  9
$USERR2
 40
0.0
  9
$USERR3
 40
0.0
  9
$USERR4
 40
0.0
  9
$USERR5
 40
0.0
  9
$WORLDVIEW
 70
     1
  9
$SHADEDGE
 70
     3
  9
$SHADEDIF
 70
    70
  9
$TILEMODE
 70
     1
  9
$MAXACTVP
 70
    48
  9
$PLIMCHECK
 70
     0
  9
$PEXTMIN
 10
1.0000000000000000E+020
 20
1.0000000000000000E+020
 30
1.0000000000000000E+020
  9
$PEXTMAX
 10
-1.0000000000000000E+020
 20
-1.0000000000000000E+020
 30
-1.0000000000000000E+020
  9
$PLIMMIN
 10
0.0
 20
0.0
  9
$PLIMMAX
 10
420.0
 20
297.0
  9
$UNITMODE
 70
     0
  9
$VISRETAIN
 70
     1
  9
$PLINEGEN
 70
     0
  9
$PSLTSCALE
 70
     1
  0
ENDSEC
  0
SECTION
  2
TABLES
  0
TABLE
  2
VPORT
 70
     1
  0
VPORT
  2
*ACTIVE
 70
     0
 10
0.0
 20
0.0
 11
1.0
 21
1.0
 12
-238.60458250287371
 22
-2189.8478416092639
 13
0.0
 23
0.0
 14
10.0
 24
10.0
 15
10.0
 25
10.0
 16
0.0
 26
0.0
 36
1.0
 17
0.0
 27
0.0
 37
0.0
 40
229.25577943895891
 41
2.1749379652605461
 42
50.0
 43
0.0
 44
0.0
 50
0.0
 51
0.0
 71
     0
 72
   100
 73
     1
 74
     1
 75
     0
 76
     0
 77
     0
 78
     0
  0
ENDTAB
  0
TABLE
  2
LTYPE
 70
    17
  0
LTYPE
  2
CONTINUOUS
 70
     0
  3
Solid line
 72
    65
 73
     0
 40
0.0
  0
LTYPE
  2
CENTER2
 70
     0
  3
Center (.5x) ___ _ ___ _ ___ _ ___ _ ___ _ ___
 72
    65
 73
     4
 40
28.574999999999999
 49
19.050000000000001
 49
-3.1749999999999989
 49
3.1749999999999989
 49
-3.1749999999999989
  0
LTYPE
  2
XREF1|CENTER2
 70
    48
  3
Center (.5x) ___ _ ___ _ ___ _ ___ _ ___ _ ___
 72
    65
 73
     4
 40
28.574999999999999
 49
19.050000000000001
 49
-3.1749999999999989
 49
3.1749999999999989
 49
-3.1749999999999989
  0
LTYPE
  2
HIDDEN
 70
     0
  3
Hidden __ __ __ __ __ __ __ __ __ __ __ __ __ _
 72
    65
 73
     2
 40
9.5249999999999986
 49
6.3499999999999988
 49
-3.1749999999999989
  0
LTYPE
  2
A3WAKUDAKE|CENTER2
 70
    48
  3
Center (.5x) ___ _ ___ _ ___ _ ___ _ ___ _ ___
 72
    65
 73
     4
 40
28.574999999999999
 49
19.050000000000001
 49
-3.1749999999999989
 49
3.1749999999999989
 49
-3.1749999999999989
  0
ENDTAB
  0
TABLE
  2
LAYER
 70
    49
  0
LAYER
  2
0
 70
     0
 62
     7
  6
CONTINUOUS
  0
LAYER
  2
1CENTER
 70
     0
 62
     7
  6
CENTER2
  0
LAYER
  2
1TEXT
 70
     0
 62
     7
  6
CONTINUOUS
  0
LAYER
  2
1DIM
 70
     0
 62
     7
  6
CONTINUOUS
  0
LAYER
  2
1HIDDEN
 70
     0
 62
     7
  6
HIDDEN
  0
LAYER
  2
01
 70
     0
 62
     1
  6
CONTINUOUS
  0
LAYER
  2
A3WAKUDAKE|THICK
 70
    48
 62
     7
  6
CONTINUOUS
  0
LAYER
  2
A3WAKUDAKE|POINT
 70
    48
 62
     7
  6
CONTINUOUS
  0
LAYER
  2
A3WAKUDAKE|1CENTER
 70
    48
 62
     7
  6
A3WAKUDAKE|CENTER2
  0
LAYER
  2
A3WAKUDAKE|0-6
 70
    48
 62
     7
  6
CONTINUOUS
  0
LAYER
  2
A3WAKUDAKE|1DIM
 70
    48
 62
     7
  6
CONTINUOUS
  0
LAYER
  2
XREF1|1CENTER
 70
    48
 62
     7
  6
XREF1|CENTER2
  0
ENDTAB
  0
TABLE
  2
STYLE
 70
    23
  0
STYLE
  2
STANDARD
 70
     0
 40
0.0
 41
1.0
 50
0.0
 71
     0
 42
4.0
  3
txt.shx
  4
extfont.shx
  0
ENDTAB
  0
TABLE
  2
VIEW
 70
     5
  0
ENDTAB
  0
TABLE
  2
UCS
 70
     0
  0
ENDTAB
  0
TABLE
  2
APPID
 70
    14
  0
APPID
  2
ACAD
 70
     0
  0
APPID
  2
DRAWINGVARIABLESXDATA
 70
     0
  0
APPID
  2
CONTENTTABDATA
 70
     0
  0
APPID
  2
CONTENTCURRENTTAB
 70
     0
  0
APPID
  2
CONTENTBLOCKDESCRIPTION
 70
     0
  0
APPID
  2
CONTENTBLOCKICON
 70
     0
  0
APPID
  2
CONTENTLONGBLOCKNAME
 70
     0
  0
APPID
  2
ACAD_PSEXT
 70
     0
  0
APPID
  2
ACAD_DSTYLE_DIMTEXT_FILL
 70
     0
  0
APPID
  2
ACAD_DSTYLE_DIMRADIAL_EXTENSION
 70
     0
  0
APPID
  2
ACLAYERTOOLS
 70
     0
  0
APPID
  2
ACAD_MLEADERVER
 70
     0
  0
APPID
  2
ACAD_EXEMPT_FROM_CAD_STANDARDS
 70
     0
  0
APPID
  2
ACAD_NAV_VCDISPLAY
 70
     0
  0
ENDTAB
  0
TABLE
  2
DIMSTYLE
 70
     8
  0
DIMSTYLE
  2
NEWX10
 70
     0
  3
 
  4

  5

  6
OPEN30
  7
OPEN30
 40
1.0
 41
2.0
 42
0.0
 43
7.0
 44
1.0
 45
0.0
 46
0.0
 47
0.0
 48
0.0
140
3.5
141
0.0
142
0.0
143
25.399999999999999
144
1.0
145
0.0
146
0.7
147
0.7
 71
     0
 72
     0
 73
     0
 74
     0
 75
     0
 76
     0
 77
     1
 78
     8
170
     0
171
     2
172
     1
173
     1
174
     0
175
     0
176
   256
177
   256
178
   201
  0
ENDTAB
  0
ENDSEC
  0
SECTION
  2
BLOCKS
  0
BLOCK
  8
0
  2
$MODEL_SPACE
 70
     0
 10
0.0
 20
0.0
 30
0.0
  3
$MODEL_SPACE
  1

  0
ENDBLK
  5
1A
  8
0
  0
BLOCK
 67
     1
  8
0
  2
$PAPER_SPACE
 70
     0
 10
0.0
 20
0.0
 30
0.0
  3
$PAPER_SPACE
  1

  0
ENDBLK
  5
17
 67
     1
  8
0
  0
BLOCK
  8
0
  2
_OPEN30
 70
     0
 10
0.0
 20
0.0
 30
0.0
  3
_OPEN30
  1

  0
LINE
  5
44
  8
0
  6
BYBLOCK
 62
     0
 10
-1.0
 20
0.26794919
 30
0.0
 11
0.0
 21
0.0
 31
0.0
  0
LINE
  5
45
  8
0
  6
BYBLOCK
 62
     0
 10
0.0
 20
0.0
 30
0.0
 11
-1.0
 21
-0.26794919
 31
0.0
  0
LINE
  5
46
  8
0
  6
BYBLOCK
 62
     0
 10
0.0
 20
0.0
 30
0.0
 11
-1.0
 21
0.0
 31
0.0
  0
ENDBLK
  5
47
  8
0
  0
BLOCK
  8
0
  2
XREF1
 70
    36
 10
0.0
 20
0.0
 30
0.0
  3
XREF1
  1
D:\ACLT\FORMAT\KAWAJUN(9)図面用.dwg
  0
ENDBLK
  5
5D
  8
0
  0
BLOCK
  8
0
  2
A3WAKUDAKE
 70
    36
 10
0.0
 20
0.0
 30
0.0
  3
A3WAKUDAKE
  1
D:\ACLT\FORMAT\A3WAKUdake.dwg
  0
ENDBLK
  5
6DC
  8
0
  0
ENDSEC
  0
SECTION
  2
ENTITIES
  0
TEXT
  5
349B
  8
1TEXT
 10
-411.74895189188879
 20
-2089.861470824605
 30
0.0
 40
8.0
  1
PC-107-XL
  0
LINE
  5
A81C
  8
1CENTER
 10
-64.404428891889452
 20
-2199.8614898246042
 30
0.0
 11
-64.404428891889452
 21
-2211.8614898246042
 31
0.0
  0
LINE
  5
A81D
  8
1CENTER
 10
-136.23952889188911
 20
-2199.8614898246042
 30
0.0
 11
-136.23952889188911
 21
-2211.8614898246042
 31
0.0
  0
LINE
  5
A81E
  8
1CENTER
 10
-386.23987889188891
 20
-2199.8614898246042
 30
0.0
 11
-386.23987889188891
 21
-2211.8614898246042
 31
0.0
  0
LINE
  5
A81F
  8
1CENTER
 10
-136.41355889188901
 20
-2116.361470824605
 30
0.0
 11
-136.41355889188901
 21
-2110.361470824605
 31
0.0
  0
LINE
  5
A820
  8
1CENTER
 10
-139.41355889188901
 20
-2113.361470824605
 30
0.0
 11
-133.41355889188901
 21
-2113.361470824605
 31
0.0
  0
LINE
  5
A821
  8
1CENTER
 10
-386.41390889188892
 20
-2116.361470824605
 30
0.0
 11
-386.41390889188892
 21
-2110.361470824605
 31
0.0
  0
LINE
  5
A822
  8
1CENTER
 10
-389.41390889188892
 20
-2113.361470824605
 30
0.0
 11
-383.41390889188892
 21
-2113.361470824605
 31
0.0
  0
LINE
  5
B172
  8
01
 10
-380.23987889188891
 20
-2209.8614898246051
 30
0.0
 11
-411.57483889188899
 21
-2209.8614898246051
 31
0.0
  0
ARC
  5
B173
  8
01
 10
-261.23962889188891
 20
-2579.861470824605
 30
0.0
 40
400.0
 50
68.020570000003019
 51
111.979429999997
  0
ARC
  5
B174
  8
01
 10
-410.57483889188899
 20
-2209.8614898246051
 30
0.0
 40
1.0
 50
111.979429999997
 51
180.00001000000091
  0
ARC
  5
B175
  8
01
 10
-195.9121740942013
 20
-2294.2370257053958
 30
0.0
 40
100.0
 50
57.53882708171264
 51
77.11701717066633
  0
ARC
  5
B176
  8
01
 10
-261.23962889188891
 20
-2579.861470824605
 30
0.0
 40
393.0
 50
77.11701717066633
 51
102.8829828293337
  0
ARC
  5
B177
  8
01
 10
-326.56708368957641
 20
-2294.2370257053958
 30
0.0
 40
100.0
 50
102.8829828293337
 51
122.4611729182873
  0
LINE
  5
B179
  8
01
 10
-110.9044288918888
 20
-2209.8614898246051
 30
0.0
 11
-142.23952889188911
 21
-2209.8614898246051
 31
0.0
  0
ARC
  5
B17B
  8
01
 10
-111.9044288918888
 20
-2209.8614898246051
 30
0.0
 40
1.0
 50
0.0
 51
68.020570000003019
  0
ARC
  5
B17E
  8
01
 10
-59.404428891888863
 20
-2181.7367238246052
 30
0.0
 40
1.5
 50
0.0
 51
81.41631900000101
  0
ARC
  5
B17F
  8
01
 10
-69.404428891888855
 20
-2181.7367238246052
 30
0.0
 40
1.5
 50
98.583679000000544
 51
180.0
  0
ARC
  5
B180
  8
01
 10
-64.404428891888855
 20
-2214.861488624605
 30
0.0
 40
35.0
 50
81.41631900000101
 51
98.583679000000544
  0
LINE
  5
B181
  8
01
 10
-57.90442889188899
 20
-2181.7367238246052
 30
0.0
 11
-57.90442889188899
 21
-2209.8614898246051
 31
0.0
  0
LINE
  5
B182
  8
01
 10
-70.90442889188887
 20
-2181.7367238246052
 30
0.0
 11
-70.90442889188887
 21
-2209.8614898246051
 31
0.0
  0
ARC
  5
B183
  8
1HIDDEN
 10
-64.404428891888855
 20
-2180.1006098246048
 30
0.0
 40
6.7608823999999998
 50
195.96852589792459
 51
344.0314741020714
  0
LINE
  5
B184
  8
01
 10
-70.90442889188887
 20
-2209.8614898246051
 30
0.0
 11
-57.90442889188899
 21
-2209.8614898246051
 31
0.0
  0
LINE
  5
B189
  8
01
 10
-409.93270889188881
 20
-2106.8614678246049
 30
0.0
 11
-112.5784588918888
 21
-2106.8614678246049
 31
0.0
  0
LINE
  5
B18A
  8
01
 10
-409.93270889188881
 20
-2119.861470824605
 30
0.0
 11
-112.5784588918888
 21
-2119.861470824605
 31
0.0
  0
ARC
  5
B18B
  8
01
 10
-396.91561889188893
 20
-2113.361470824605
 30
0.0
 40
14.833333
 50
155.2534800000075
 51
204.74651999999239
  0
ARC
  5
B18C
  8
01
 10
-409.93270889188881
 20
-2107.361467824604
 30
0.0
 40
0.5
 50
90.000003000000945
 51
155.2534800000075
  0
ARC
  5
B18D
  8
01
 10
-409.93270889188881
 20
-2119.361470824605
 30
0.0
 40
0.5
 50
204.74651999999239
 51
270.0
  0
ARC
  5
B190
  8
01
 10
-124.3597588918889
 20
-2113.361470824605
 30
0.0
 40
13.45533
 50
0.0
 51
28.886752000002659
  0
ARC
  5
B191
  8
01
 10
-124.3597588918889
 20
-2113.361470824605
 30
0.0
 40
13.45533
 50
331.11325000000659
 51
0.0
  0
LINE
  5
B4FA
  8
1DIM
 10
-411.74895189188879
 20
-2297.8614898246051
 30
0.0
 11
-341.74895189188879
 21
-2297.8614898246051
 31
0.0
  0
TEXT
  5
B4FB
  8
1TEXT
 10
-404.99657093950782
 20
-2275.3614898246051
 30
0.0
 40
4.0
  1
表面処理：
 72
     1
 11
-394.34895189188882
 21
-2275.3614898246051
 31
0.0
  0
TEXT
  5
B4FC
  8
1TEXT
 10
-403.68228522522202
 20
-2289.196778484129
 30
0.0
 40
4.0
  1
クローム
 72
     1
 11
-394.34895189188882
 21
-2289.196778484129
 31
0.0
  0
TEXT
  5
B4FD
  8
1TEXT
 10
-405.54895189188869
 20
-2282.3393848445889
 30
0.0
 40
4.0
  1
本金メッキ
 72
     1
 11
-394.34895189188882
 21
-2282.3393848445889
 31
0.0
  0
LINE
  5
B4FE
  8
1DIM
 10
-411.74895189188879
 20
-2269.8614898246051
 30
0.0
 11
-341.74895189188879
 21
-2269.8614898246051
 31
0.0
  0
LINE
  5
B4FF
  8
1DIM
 10
-411.74895189188879
 20
-2283.8614898246051
 30
0.0
 11
-341.74895189188879
 21
-2283.8614898246051
 31
0.0
  0
LINE
  5
B500
  8
1DIM
 10
-411.74895189188879
 20
-2276.8614898246051
 30
0.0
 11
-341.74895189188879
 21
-2276.8614898246051
 31
0.0
  0
LINE
  5
B501
  8
1DIM
 10
-411.74895189188879
 20
-2290.8614898246051
 30
0.0
 11
-341.74895189188879
 21
-2290.8614898246051
 31
0.0
  0
LINE
  5
B502
  8
1DIM
 10
-411.74895189188879
 20
-2290.8614898246051
 30
0.0
 11
-341.74895189188879
 21
-2290.8614898246051
 31
0.0
  0
LINE
  5
B503
  8
1DIM
 10
-376.74895189188891
 20
-2269.8614898246051
 30
0.0
 11
-376.74895189188891
 21
-2297.8614898246051
 31
0.0
  0
TEXT
  5
B504
  8
1TEXT
 10
-366.14895189188883
 20
-2275.3614898246051
 30
0.0
 40
4.0
  1
コード
 72
     1
 11
-359.34895189188882
 21
-2275.3614898246051
 31
0.0
  0
TEXT
  5
B505
  8
1TEXT
 10
-410.61561855855541
 20
-2296.172403436175
 30
0.0
 40
4.0
  1
サテンニッケル
 72
     1
 11
-394.34895189188882
 21
-2296.172403436175
 31
0.0
  0
LINE
  5
B506
  8
1DIM
 10
-411.74895189188879
 20
-2297.8614898246051
 30
0.0
 11
-411.74895189188879
 21
-2269.8614898246051
 31
0.0
  0
LINE
  5
B507
  8
1DIM
 10
-341.74895189188879
 20
-2297.8614898246051
 30
0.0
 11
-341.74895189188879
 21
-2269.8614898246051
 31
0.0
  0
TEXT
  5
B508
  8
1TEXT
 10
-374.0156185585559
 20
-2282.3614898246051
 30
0.0
 40
4.0
  1
PC-107-XGL
 41
0.8
 72
     1
 11
-359.34895189188921
 21
-2282.3614898246051
 31
0.0
  0
TEXT
  5
B509
  8
1TEXT
 10
-374.0156185585559
 20
-2289.3614898246051
 30
0.0
 40
4.0
  1
PC-107-XCL
 41
0.8
 72
     1
 11
-359.34895189188921
 21
-2289.3614898246051
 31
0.0
  0
TEXT
  5
B50A
  8
1TEXT
 10
-374.0156185585559
 20
-2296.3614898246042
 30
0.0
 40
4.0
  1
PC-107-XNL
 41
0.8
 72
     1
 11
-359.34895189188921
 21
-2296.3614898246042
 31
0.0
  0
TEXT
  5
B5A6
  8
01
 10
-419.31148295896082
 20
-2165.828624832649
 30
0.0
 40
3.5
  1
材質：亜鉛ダイキャスト
  0
TEXT
  5
B5A7
  8
01
 10
-411.14481629229408
 20
-2171.661958165982
 30
0.0
 40
3.5
  1
仕上げ：各種メッキ
  0
SOLID
  5
B5A8
  8
1DIM
 10
-357.86117666414123
 20
-2189.7293870701578
 30
0.0
 11
-356.76542333853928
 21
-2191.4353869999768
 31
0.0
 12
-358.35524402918531
 22
-2190.1769827395319
 32
0.0
 13
-358.35524402918531
 23
-2190.1769827395319
 33
0.0
1001
ACAD
1000
DSTYLE
1002
{
1070
    45
1040
0.5
1002
}
  0
TEXT
  5
B5AC
  8
1TEXT
 10
-89.520520646257481
 20
-2227.784198437907
 30
0.0
 40
3.4999999999999991
  1
M4-6
  0
SOLID
  5
B5AD
  8
1DIM
 10
-65.712905655539956
 20
-2211.410355239158
 30
0.0
 11
-64.404426899385953
 21
-2209.8614864726692
 31
0.0
 12
-65.139841257967674
 22
-2211.751004091614
 32
0.0
 13
-65.139841257967674
 23
-2211.751004091614
 33
0.0
  0
LINE
  5
B5AF
  8
1DIM
 10
-386.23987889188891
 20
-2211.8614898246042
 30
0.0
 11
-386.23987889188891
 21
-2240.8614898246051
 31
0.0
  0
LINE
  5
B5B0
  8
1DIM
 10
-411.57483889188899
 20
-2209.861489999138
 30
0.0
 11
-411.57483889188899
 21
-2240.8614898246051
 31
0.0
  0
LINE
  5
B5B1
  8
1DIM
 10
-388.23987889188891
 20
-2239.8614898246051
 30
0.0
 11
-409.57483889188899
 21
-2239.8614898246051
 31
0.0
  0
LINE
  5
B5B5
  8
1DIM
 10
-136.23952889188911
 20
-2211.8614898246042
 30
0.0
 11
-136.23952889188911
 21
-2240.8614898246051
 31
0.0
  0
LINE
  5
B5B6
  8
1DIM
 10
-110.9044288918888
 20
-2209.8614898246042
 30
0.0
 11
-110.9044288918888
 21
-2240.8614898246051
 31
0.0
  0
LINE
  5
B5B7
  8
1DIM
 10
-134.23952889188911
 20
-2239.8614898246051
 30
0.0
 11
-112.9044288918888
 21
-2239.8614898246051
 31
0.0
  0
LINE
  5
B5BB
  8
1DIM
 10
-380.23987889189652
 20
-2209.8614898246101
 30
0.0
 11
-380.23987889189652
 21
-2230.8614898246042
 31
0.0
  0
LINE
  5
B5BC
  8
1DIM
 10
-142.23937889188119
 20
-2209.8614898246101
 30
0.0
 11
-142.23937889188119
 21
-2230.8614898246042
 31
0.0
  0
LINE
  5
B5BD
  8
1DIM
 10
-378.23987889189652
 20
-2229.8614898246042
 30
0.0
 11
-144.23937889188119
 21
-2229.8614898246042
 31
0.0
  0
LINE
  5
B5C1
  8
1DIM
 10
-110.9044288918888
 20
-2209.8614898246051
 30
0.0
 11
-89.904428891888884
 21
-2209.8614898246051
 31
0.0
  0
LINE
  5
B5C2
  8
1DIM
 10
-261.23962889188891
 20
-2186.861470824605
 30
0.0
 11
-89.90442889188887
 21
-2186.861470824605
 31
0.0
  0
LINE
  5
B5C3
  8
1DIM
 10
-90.90442889188887
 20
-2207.8614898246051
 30
0.0
 11
-90.90442889188887
 21
-2188.861470824605
 31
0.0
  0
LINE
  5
B5C7
  8
1DIM
 10
-110.9044288918888
 20
-2209.8614898246051
 30
0.0
 11
-79.904428891888884
 21
-2209.8614898246051
 31
0.0
  0
LINE
  5
B5C8
  8
1DIM
 10
-261.23962889188891
 20
-2179.8614708246041
 30
0.0
 11
-79.90442889188887
 21
-2179.8614708246041
 31
0.0
  0
LINE
  5
B5C9
  8
1DIM
 10
-80.90442889188887
 20
-2207.8614898246051
 30
0.0
 11
-80.90442889188887
 21
-2181.861470824605
 31
0.0
  0
LINE
  5
B5CD
  8
1DIM
 10
-112.5784588918888
 20
-2119.861470824605
 30
0.0
 11
-89.90442889188887
 21
-2119.861470824605
 31
0.0
  0
LINE
  5
B5CE
  8
1DIM
 10
-112.5785915249525
 20
-2106.8614707568249
 30
0.0
 11
-89.90442889188887
 21
-2106.8614707568249
 31
0.0
  0
LINE
  5
B5CF
  8
1DIM
 10
-90.90442889188887
 20
-2117.861470824605
 30
0.0
 11
-90.90442889188887
 21
-2108.8614707568249
 31
0.0
  0
LINE
  5
B5D3
  8
1DIM
 10
-411.74895189188879
 20
-2113.361470824605
 30
0.0
 11
-411.74895189188879
 21
-2140.861470824605
 31
0.0
  0
LINE
  5
B5D4
  8
1DIM
 10
-110.9044288918889
 20
-2113.361470824605
 30
0.0
 11
-110.9044288918889
 21
-2140.861470824605
 31
0.0
  0
LINE
  5
B5D5
  8
1DIM
 10
-409.74895189188879
 20
-2139.861470824605
 30
0.0
 11
-112.9044288918889
 21
-2139.861470824605
 31
0.0
  0
LINE
  5
B5D9
  8
1DIM
 10
-386.23987889188891
 20
-2211.8614898246042
 30
0.0
 11
-386.23987889188891
 21
-2240.8614898246051
 31
0.0
  0
LINE
  5
B5DA
  8
1DIM
 10
-136.23952889188911
 20
-2211.8614898246042
 30
0.0
 11
-136.23952889188911
 21
-2240.8614898246051
 31
0.0
  0
LINE
  5
B5DB
  8
1DIM
 10
-384.23987889188891
 20
-2239.8614898246051
 30
0.0
 11
-138.23952889188911
 21
-2239.8614898246051
 31
0.0
  0
TEXT
  5
B5DF
  8
1DIM
 10
-267.36470389188901
 20
-2239.1614898246048
 30
0.0
 40
3.5
  1
P250
  0
LINE
  5
B5E0
  8
0
  6
BYBLOCK
 10
-138.23952889188911
 20
-2239.325591444604
 30
0.0
 11
-136.23952889188911
 21
-2239.8614898246051
 31
0.0
  0
LINE
  5
B5E1
  8
0
  6
BYBLOCK
 10
-136.23952889188911
 20
-2239.8614898246051
 30
0.0
 11
-138.23952889188911
 21
-2240.3973882046048
 31
0.0
  0
LINE
  5
B5E2
  8
0
  6
BYBLOCK
 10
-136.23952889188911
 20
-2239.8614898246051
 30
0.0
 11
-138.23952889188911
 21
-2239.8614898246051
 31
0.0
  0
LINE
  5
B5E3
  8
0
  6
BYBLOCK
 10
-384.23987889188891
 20
-2240.3973882046048
 30
0.0
 11
-386.23987889188891
 21
-2239.8614898246051
 31
0.0
  0
LINE
  5
B5E4
  8
0
  6
BYBLOCK
 10
-386.23987889188891
 20
-2239.8614898246051
 30
0.0
 11
-384.23987889188891
 21
-2239.325591444604
 31
0.0
  0
LINE
  5
B5E5
  8
0
  6
BYBLOCK
 10
-386.23987889188891
 20
-2239.8614898246051
 30
0.0
 11
-384.23987889188891
 21
-2239.8614898246051
 31
0.0
  0
TEXT
  5
B5E6
  8
1DIM
 10
-265.11835705855549
 20
-2139.1614708246052
 30
0.0
 40
3.5
  1
301
  0
LINE
  5
B5E7
  8
0
  6
BYBLOCK
 10
-112.9044288918889
 20
-2139.3255724446039
 30
0.0
 11
-110.9044288918889
 21
-2139.861470824605
 31
0.0
  0
LINE
  5
B5E8
  8
0
  6
BYBLOCK
 10
-110.9044288918889
 20
-2139.861470824605
 30
0.0
 11
-112.9044288918889
 21
-2140.3973692046052
 31
0.0
  0
LINE
  5
B5E9
  8
0
  6
BYBLOCK
 10
-110.9044288918889
 20
-2139.861470824605
 30
0.0
 11
-112.9044288918889
 21
-2139.861470824605
 31
0.0
  0
LINE
  5
B5EA
  8
0
  6
BYBLOCK
 10
-409.74895189188879
 20
-2140.3973692046052
 30
0.0
 11
-411.74895189188879
 21
-2139.861470824605
 31
0.0
  0
LINE
  5
B5EB
  8
0
  6
BYBLOCK
 10
-411.74895189188879
 20
-2139.861470824605
 30
0.0
 11
-409.74895189188879
 21
-2139.3255724446039
 31
0.0
  0
LINE
  5
B5EC
  8
0
  6
BYBLOCK
 10
-411.74895189188879
 20
-2139.861470824605
 30
0.0
 11
-409.74895189188879
 21
-2139.861470824605
 31
0.0
  0
TEXT
  5
B5ED
  8
1DIM
 10
-91.604428891888531
 20
-2115.694804124048
 30
0.0
 40
3.5
  1
13
 50
90.0
  0
LINE
  5
B5EE
  8
0
  6
BYBLOCK
 10
-91.440327271888876
 20
-2108.8614707568249
 30
0.0
 11
-90.90442889188887
 21
-2106.8614707568249
 31
0.0
  0
LINE
  5
B5EF
  8
0
  6
BYBLOCK
 10
-90.90442889188887
 20
-2106.8614707568249
 30
0.0
 11
-90.368530511888864
 21
-2108.8614707568249
 31
0.0
  0
LINE
  5
B5F0
  8
0
  6
BYBLOCK
 10
-90.90442889188887
 20
-2106.8614707568249
 30
0.0
 11
-90.90442889188887
 21
-2108.8614707568249
 31
0.0
  0
LINE
  5
B5F1
  8
0
  6
BYBLOCK
 10
-90.368530511888864
 20
-2117.861470824605
 30
0.0
 11
-90.90442889188887
 21
-2119.861470824605
 31
0.0
  0
LINE
  5
B5F2
  8
0
  6
BYBLOCK
 10
-90.90442889188887
 20
-2119.861470824605
 30
0.0
 11
-91.440327271888876
 21
-2117.861470824605
 31
0.0
  0
LINE
  5
B5F3
  8
0
  6
BYBLOCK
 10
-90.90442889188887
 20
-2119.861470824605
 30
0.0
 11
-90.90442889188887
 21
-2117.861470824605
 31
0.0
  0
TEXT
  5
B5F4
  8
1DIM
 10
-81.604428891888517
 20
-2197.4864803246051
 30
0.0
 40
3.5
  1
30
 50
90.0
  0
LINE
  5
B5F5
  8
0
  6
BYBLOCK
 10
-81.440327271888876
 20
-2181.861470824605
 30
0.0
 11
-80.90442889188887
 21
-2179.8614708246041
 31
0.0
  0
LINE
  5
B5F6
  8
0
  6
BYBLOCK
 10
-80.90442889188887
 20
-2179.8614708246041
 30
0.0
 11
-80.368530511888864
 21
-2181.861470824605
 31
0.0
  0
LINE
  5
B5F7
  8
0
  6
BYBLOCK
 10
-80.90442889188887
 20
-2179.8614708246041
 30
0.0
 11
-80.90442889188887
 21
-2181.861470824605
 31
0.0
  0
LINE
  5
B5F8
  8
0
  6
BYBLOCK
 10
-80.368530511888878
 20
-2207.8614898246051
 30
0.0
 11
-80.904428891888884
 21
-2209.8614898246051
 31
0.0
  0
LINE
  5
B5F9
  8
0
  6
BYBLOCK
 10
-80.904428891888884
 20
-2209.8614898246051
 30
0.0
 11
-81.44032727188889
 21
-2207.8614898246051
 31
0.0
  0
LINE
  5
B5FA
  8
0
  6
BYBLOCK
 10
-80.904428891888884
 20
-2209.8614898246051
 30
0.0
 11
-80.904428891888884
 21
-2207.8614898246051
 31
0.0
  0
TEXT
  5
B5FB
  8
1DIM
 10
-91.604428891888517
 20
-2201.2781469912711
 30
0.0
 40
3.5
  1
23
 50
90.0
  0
LINE
  5
B5FC
  8
0
  6
BYBLOCK
 10
-91.440327271888876
 20
-2188.861470824605
 30
0.0
 11
-90.90442889188887
 21
-2186.861470824605
 31
0.0
  0
LINE
  5
B5FD
  8
0
  6
BYBLOCK
 10
-90.90442889188887
 20
-2186.861470824605
 30
0.0
 11
-90.368530511888864
 21
-2188.861470824605
 31
0.0
  0
LINE
  5
B5FE
  8
0
  6
BYBLOCK
 10
-90.90442889188887
 20
-2186.861470824605
 30
0.0
 11
-90.90442889188887
 21
-2188.861470824605
 31
0.0
  0
LINE
  5
B5FF
  8
0
  6
BYBLOCK
 10
-90.368530511888878
 20
-2207.8614898246051
 30
0.0
 11
-90.904428891888884
 21
-2209.8614898246051
 31
0.0
  0
LINE
  5
B600
  8
0
  6
BYBLOCK
 10
-90.904428891888884
 20
-2209.8614898246051
 30
0.0
 11
-91.44032727188889
 21
-2207.8614898246051
 31
0.0
  0
LINE
  5
B601
  8
0
  6
BYBLOCK
 10
-90.904428891888884
 20
-2209.8614898246051
 30
0.0
 11
-90.904428891888884
 21
-2207.8614898246051
 31
0.0
  0
TEXT
  5
B602
  8
1DIM
 10
-265.9062955585556
 20
-2229.1614898246048
 30
0.0
 40
3.5
  1
238
  0
LINE
  5
B603
  8
0
  6
BYBLOCK
 10
-144.23937889188119
 20
-2229.325591444604
 30
0.0
 11
-142.23937889188119
 21
-2229.8614898246042
 31
0.0
  0
LINE
  5
B604
  8
0
  6
BYBLOCK
 10
-142.23937889188119
 20
-2229.8614898246042
 30
0.0
 11
-144.23937889188119
 21
-2230.3973882046039
 31
0.0
  0
LINE
  5
B605
  8
0
  6
BYBLOCK
 10
-142.23937889188119
 20
-2229.8614898246042
 30
0.0
 11
-144.23937889188119
 21
-2229.8614898246042
 31
0.0
  0
LINE
  5
B606
  8
0
  6
BYBLOCK
 10
-378.23987889189652
 20
-2230.3973882046039
 30
0.0
 11
-380.23987889189652
 21
-2229.8614898246042
 31
0.0
  0
LINE
  5
B607
  8
0
  6
BYBLOCK
 10
-380.23987889189652
 20
-2229.8614898246042
 30
0.0
 11
-378.23987889189652
 21
-2229.325591444604
 31
0.0
  0
LINE
  5
B608
  8
0
  6
BYBLOCK
 10
-380.23987889189652
 20
-2229.8614898246042
 30
0.0
 11
-378.23987889189652
 21
-2229.8614898246042
 31
0.0
  0
TEXT
  5
B609
  8
1DIM
 10
-128.82197889188899
 20
-2239.1614898246048
 30
0.0
 40
3.5
  1
25.5
  0
LINE
  5
B60A
  8
0
  6
BYBLOCK
 10
-112.9044288918888
 20
-2239.325591444604
 30
0.0
 11
-110.9044288918888
 21
-2239.8614898246051
 31
0.0
  0
LINE
  5
B60B
  8
0
  6
BYBLOCK
 10
-110.9044288918888
 20
-2239.8614898246051
 30
0.0
 11
-112.9044288918888
 21
-2240.3973882046048
 31
0.0
  0
LINE
  5
B60C
  8
0
  6
BYBLOCK
 10
-110.9044288918888
 20
-2239.8614898246051
 30
0.0
 11
-112.9044288918888
 21
-2239.8614898246051
 31
0.0
  0
LINE
  5
B60D
  8
0
  6
BYBLOCK
 10
-134.23952889188911
 20
-2240.3973882046048
 30
0.0
 11
-136.23952889188911
 21
-2239.8614898246051
 31
0.0
  0
LINE
  5
B60E
  8
0
  6
BYBLOCK
 10
-136.23952889188911
 20
-2239.8614898246051
 30
0.0
 11
-134.23952889188911
 21
-2239.325591444604
 31
0.0
  0
LINE
  5
B60F
  8
0
  6
BYBLOCK
 10
-136.23952889188911
 20
-2239.8614898246051
 30
0.0
 11
-134.23952889188911
 21
-2239.8614898246051
 31
0.0
  0
TEXT
  5
B610
  8
1DIM
 10
-404.15735889188898
 20
-2239.1614898246048
 30
0.0
 40
3.5
  1
25.5
  0
LINE
  5
B611
  8
0
  6
BYBLOCK
 10
-409.57483889188899
 20
-2240.3973882046048
 30
0.0
 11
-411.57483889188899
 21
-2239.8614898246051
 31
0.0
  0
LINE
  5
B612
  8
0
  6
BYBLOCK
 10
-411.57483889188899
 20
-2239.8614898246051
 30
0.0
 11
-409.57483889188899
 21
-2239.325591444604
 31
0.0
  0
LINE
  5
B613
  8
0
  6
BYBLOCK
 10
-411.57483889188899
 20
-2239.8614898246051
 30
0.0
 11
-409.57483889188899
 21
-2239.8614898246051
 31
0.0
  0
LINE
  5
B614
  8
0
  6
BYBLOCK
 10
-388.23987889188891
 20
-2239.325591444604
 30
0.0
 11
-386.23987889188891
 21
-2239.8614898246051
 31
0.0
  0
LINE
  5
B615
  8
0
  6
BYBLOCK
 10
-386.23987889188891
 20
-2239.8614898246051
 30
0.0
 11
-388.23987889188891
 21
-2240.3973882046048
 31
0.0
  0
LINE
  5
B616
  8
0
  6
BYBLOCK
 10
-386.23987889188891
 20
-2239.8614898246051
 30
0.0
 11
-388.23987889188891
 21
-2239.8614898246051
 31
0.0
  0
LINE
  5
B617
  8
1DIM
 10
-65.426373456753822
 20
-2211.580679665386
 30
0.0
 11
-75.474396500447483
 21
-2228.4841984379059
 31
0.0
  0
LINE
  5
B618
  8
1DIM
 10
-75.474396500447483
 20
-2228.4841984379059
 30
0.0
 11
-78.174396500447486
 21
-2228.4841984379059
 31
0.0
  0
LINE
  5
B619
  8
1DIM
 10
-358.10821034666321
 20
-2189.9531849048458
 30
0.0
 11
-374.04481629229412
 21
-2172.3619581659818
 31
0.0
1001
ACAD
1000
DSTYLE
1002
{
1070
    45
1040
0.5
1002
}
  0
VIEWPORT
  5
57
 67
     1
  8
0
 10
81.100760799948006
 20
9.8414732014601896
 30
0.0
 40
583.45600014608817
 41
268.263283581145
 68
     1
 69
     1
1001
ACAD
1000
MVIEW
1002
{
1070
    16
1010
0.0
1020
0.0
1030
0.0
1010
0.0
1020
0.0
1030
1.0
1040
0.0
1040
268.263283581145
1040
81.100760799948006
1040
9.8414732014601896
1040
50.0
1040
0.0
1040
0.0
1070
     0
1070
   100
1070
     1
1070
     1
1070
     0
1070
     0
1070
     0
1070
     0
1040
0.0
1040
0.0
1040
0.0
1040
10.0
1040
10.0
1040
10.0
1040
10.0
1070
     0
1002
{
1002
}
1002
}
  0
ENDSEC
  0
EOF
