  0
SECTION
  2
HEADER
  9
$ACADVER
  1
AC1009
  9
$INSBASE
 10
0.0
 20
0.0
 30
0.0
  9
$EXTMIN
 10
-280.4669599589605
 20
-2297.8614898246051
 30
0.0
  9
$EXTMAX
 10
-39.788337137520877
 20
-2083.8426202205378
 30
0.0
  9
$LIMMIN
 10
0.0
 20
0.0
  9
$LIMMAX
 10
420.0
 20
297.0
  9
$ORTHOMODE
 70
     0
  9
$REGENMODE
 70
     1
  9
$FILLMODE
 70
     1
  9
$QTEXTMODE
 70
     0
  9
$MIRRTEXT
 70
     0
  9
$DRAGMODE
 70
     2
  9
$LTSCALE
 40
0.5
  9
$OSMODE
 70
    63
  9
$ATTMODE
 70
     1
  9
$TEXTSIZE
 40
4.0
  9
$TRACEWID
 40
1.0
  9
$TEXTSTYLE
  7
STANDARD
  9
$CLAYER
  8
1TEXT
  9
$CELTYPE
  6
BYLAYER
  9
$CECOLOR
 62
   256
  9
$DIMSCALE
 40
1.0
  9
$DIMASZ
 40
2.0
  9
$DIMEXO
 40
0.0
  9
$DIMDLI
 40
7.0
  9
$DIMRND
 40
0.0
  9
$DIMDLE
 40
0.0
  9
$DIMEXE
 40
1.0
  9
$DIMTP
 40
0.0
  9
$DIMTM
 40
0.0
  9
$DIMTXT
 40
3.5
  9
$DIMCEN
 40
0.0
  9
$DIMTSZ
 40
0.0
  9
$DIMTOL
 70
     0
  9
$DIMLIM
 70
     0
  9
$DIMTIH
 70
     0
  9
$DIMTOH
 70
     0
  9
$DIMSE1
 70
     0
  9
$DIMSE2
 70
     0
  9
$DIMTAD
 70
     1
  9
$DIMZIN
 70
     8
  9
$DIMBLK
  1

  9
$DIMASO
 70
     1
  9
$DIMSHO
 70
     1
  9
$DIMPOST
  1
 
  9
$DIMAPOST
  1

  9
$DIMALT
 70
     0
  9
$DIMALTD
 70
     2
  9
$DIMALTF
 40
25.399999999999999
  9
$DIMLFAC
 40
1.0
  9
$DIMTOFL
 70
     1
  9
$DIMTVP
 40
0.0
  9
$DIMTIX
 70
     0
  9
$DIMSOXD
 70
     0
  9
$DIMSAH
 70
     1
  9
$DIMBLK1
  1
OPEN30
  9
$DIMBLK2
  1
OPEN30
  9
$DIMSTYLE
  2
NEWX10
  9
$DIMCLRD
 70
   256
  9
$DIMCLRE
 70
   256
  9
$DIMCLRT
 70
   201
  9
$DIMTFAC
 40
0.7
  9
$DIMGAP
 40
0.7
  9
$LUNITS
 70
     2
  9
$LUPREC
 70
     4
  9
$SKETCHINC
 40
1.0
  9
$FILLETRAD
 40
0.0
  9
$AUNITS
 70
     0
  9
$AUPREC
 70
     2
  9
$MENU
  1
acad
  9
$ELEVATION
 40
0.0
  9
$PELEVATION
 40
0.0
  9
$THICKNESS
 40
0.0
  9
$LIMCHECK
 70
     0
  9
$BLIPMODE
 70
     0
  9
$CHAMFERA
 40
10.0
  9
$CHAMFERB
 40
10.0
  9
$SKPOLY
 70
     0
  9
$TDCREATE
 40
2453033.7326634838
  9
$TDUPDATE
 40
2457014.7271520491
  9
$TDINDWG
 40
0.4438277662
  9
$TDUSRTIMER
 40
0.4438277662
  9
$USRTIMER
 70
     1
  9
$ANGBASE
 50
0.0
  9
$ANGDIR
 70
     0
  9
$PDMODE
 70
     0
  9
$PDSIZE
 40
0.0
  9
$PLINEWID
 40
0.0
  9
$COORDS
 70
     0
  9
$SPLFRAME
 70
     0
  9
$SPLINETYPE
 70
     6
  9
$SPLINESEGS
 70
     8
  9
$ATTDIA
 70
     0
  9
$ATTREQ
 70
     1
  9
$HANDLING
 70
     1
  9
$HANDSEED
  5
B714
  9
$SURFTAB1
 70
     6
  9
$SURFTAB2
 70
     6
  9
$SURFTYPE
 70
     6
  9
$SURFU
 70
     6
  9
$SURFV
 70
     6
  9
$UCSNAME
  2

  9
$UCSORG
 10
0.0
 20
0.0
 30
0.0
  9
$UCSXDIR
 10
1.0
 20
0.0
 30
0.0
  9
$UCSYDIR
 10
0.0
 20
1.0
 30
0.0
  9
$PUCSNAME
  2

  9
$PUCSORG
 10
0.0
 20
0.0
 30
0.0
  9
$PUCSXDIR
 10
1.0
 20
0.0
 30
0.0
  9
$PUCSYDIR
 10
0.0
 20
1.0
 30
0.0
  9
$USERI1
 70
     0
  9
$USERI2
 70
     0
  9
$USERI3
 70
     0
  9
$USERI4
 70
     0
  9
$USERI5
 70
     0
  9
$USERR1
 40
0.0
  9
$USERR2
 40
0.0
  9
$USERR3
 40
0.0
  9
$USERR4
 40
0.0
  9
$USERR5
 40
0.0
  9
$WORLDVIEW
 70
     1
  9
$SHADEDGE
 70
     3
  9
$SHADEDIF
 70
    70
  9
$TILEMODE
 70
     1
  9
$MAXACTVP
 70
    48
  9
$PLIMCHECK
 70
     0
  9
$PEXTMIN
 10
1.0000000000000000E+020
 20
1.0000000000000000E+020
 30
1.0000000000000000E+020
  9
$PEXTMAX
 10
-1.0000000000000000E+020
 20
-1.0000000000000000E+020
 30
-1.0000000000000000E+020
  9
$PLIMMIN
 10
0.0
 20
0.0
  9
$PLIMMAX
 10
420.0
 20
297.0
  9
$UNITMODE
 70
     0
  9
$VISRETAIN
 70
     1
  9
$PLINEGEN
 70
     0
  9
$PSLTSCALE
 70
     1
  0
ENDSEC
  0
SECTION
  2
TABLES
  0
TABLE
  2
VPORT
 70
     1
  0
VPORT
  2
*ACTIVE
 70
     0
 10
0.0
 20
0.0
 11
1.0
 21
1.0
 12
-160.12963837246869
 22
-2190.837702713407
 13
0.0
 23
0.0
 14
10.0
 24
10.0
 15
10.0
 25
10.0
 16
0.0
 26
0.0
 36
1.0
 17
0.0
 27
0.0
 37
0.0
 40
227.15636750999889
 41
2.1749379652605461
 42
50.0
 43
0.0
 44
0.0
 50
0.0
 51
0.0
 71
     0
 72
   100
 73
     1
 74
     1
 75
     0
 76
     0
 77
     0
 78
     0
  0
ENDTAB
  0
TABLE
  2
LTYPE
 70
    17
  0
LTYPE
  2
CONTINUOUS
 70
     0
  3
Solid line
 72
    65
 73
     0
 40
0.0
  0
LTYPE
  2
CENTER2
 70
     0
  3
Center (.5x) ___ _ ___ _ ___ _ ___ _ ___ _ ___
 72
    65
 73
     4
 40
28.574999999999999
 49
19.050000000000001
 49
-3.1749999999999989
 49
3.1749999999999989
 49
-3.1749999999999989
  0
LTYPE
  2
XREF1|CENTER2
 70
    48
  3
Center (.5x) ___ _ ___ _ ___ _ ___ _ ___ _ ___
 72
    65
 73
     4
 40
28.574999999999999
 49
19.050000000000001
 49
-3.1749999999999989
 49
3.1749999999999989
 49
-3.1749999999999989
  0
LTYPE
  2
HIDDEN
 70
     0
  3
Hidden __ __ __ __ __ __ __ __ __ __ __ __ __ _
 72
    65
 73
     2
 40
9.5249999999999986
 49
6.3499999999999988
 49
-3.1749999999999989
  0
LTYPE
  2
A3WAKUDAKE|CENTER2
 70
    48
  3
Center (.5x) ___ _ ___ _ ___ _ ___ _ ___ _ ___
 72
    65
 73
     4
 40
28.574999999999999
 49
19.050000000000001
 49
-3.1749999999999989
 49
3.1749999999999989
 49
-3.1749999999999989
  0
ENDTAB
  0
TABLE
  2
LAYER
 70
    49
  0
LAYER
  2
0
 70
     0
 62
     7
  6
CONTINUOUS
  0
LAYER
  2
1CENTER
 70
     0
 62
     7
  6
CENTER2
  0
LAYER
  2
1TEXT
 70
     0
 62
     7
  6
CONTINUOUS
  0
LAYER
  2
1DIM
 70
     0
 62
     7
  6
CONTINUOUS
  0
LAYER
  2
1HIDDEN
 70
     0
 62
     7
  6
HIDDEN
  0
LAYER
  2
01
 70
     0
 62
     1
  6
CONTINUOUS
  0
LAYER
  2
A3WAKUDAKE|THICK
 70
    48
 62
     7
  6
CONTINUOUS
  0
LAYER
  2
A3WAKUDAKE|POINT
 70
    48
 62
     7
  6
CONTINUOUS
  0
LAYER
  2
A3WAKUDAKE|1CENTER
 70
    48
 62
     7
  6
A3WAKUDAKE|CENTER2
  0
LAYER
  2
A3WAKUDAKE|0-6
 70
    48
 62
     7
  6
CONTINUOUS
  0
LAYER
  2
A3WAKUDAKE|1DIM
 70
    48
 62
     7
  6
CONTINUOUS
  0
LAYER
  2
XREF1|1CENTER
 70
    48
 62
     7
  6
XREF1|CENTER2
  0
ENDTAB
  0
TABLE
  2
STYLE
 70
    23
  0
STYLE
  2
STANDARD
 70
     0
 40
0.0
 41
1.0
 50
0.0
 71
     0
 42
4.0
  3
txt.shx
  4
extfont.shx
  0
ENDTAB
  0
TABLE
  2
VIEW
 70
     5
  0
ENDTAB
  0
TABLE
  2
UCS
 70
     0
  0
ENDTAB
  0
TABLE
  2
APPID
 70
    14
  0
APPID
  2
ACAD
 70
     0
  0
APPID
  2
DRAWINGVARIABLESXDATA
 70
     0
  0
APPID
  2
CONTENTTABDATA
 70
     0
  0
APPID
  2
CONTENTCURRENTTAB
 70
     0
  0
APPID
  2
CONTENTBLOCKDESCRIPTION
 70
     0
  0
APPID
  2
CONTENTBLOCKICON
 70
     0
  0
APPID
  2
CONTENTLONGBLOCKNAME
 70
     0
  0
APPID
  2
ACAD_PSEXT
 70
     0
  0
APPID
  2
ACAD_DSTYLE_DIMTEXT_FILL
 70
     0
  0
APPID
  2
ACAD_DSTYLE_DIMRADIAL_EXTENSION
 70
     0
  0
APPID
  2
ACLAYERTOOLS
 70
     0
  0
APPID
  2
ACAD_MLEADERVER
 70
     0
  0
APPID
  2
ACAD_EXEMPT_FROM_CAD_STANDARDS
 70
     0
  0
APPID
  2
ACAD_NAV_VCDISPLAY
 70
     0
  0
ENDTAB
  0
TABLE
  2
DIMSTYLE
 70
     8
  0
DIMSTYLE
  2
NEWX10
 70
     0
  3
 
  4

  5

  6
OPEN30
  7
OPEN30
 40
1.0
 41
2.0
 42
0.0
 43
7.0
 44
1.0
 45
0.0
 46
0.0
 47
0.0
 48
0.0
140
3.5
141
0.0
142
0.0
143
25.399999999999999
144
1.0
145
0.0
146
0.7
147
0.7
 71
     0
 72
     0
 73
     0
 74
     0
 75
     0
 76
     0
 77
     1
 78
     8
170
     0
171
     2
172
     1
173
     1
174
     0
175
     0
176
   256
177
   256
178
   201
  0
ENDTAB
  0
ENDSEC
  0
SECTION
  2
BLOCKS
  0
BLOCK
  8
0
  2
$MODEL_SPACE
 70
     0
 10
0.0
 20
0.0
 30
0.0
  3
$MODEL_SPACE
  1

  0
ENDBLK
  5
1A
  8
0
  0
BLOCK
 67
     1
  8
0
  2
$PAPER_SPACE
 70
     0
 10
0.0
 20
0.0
 30
0.0
  3
$PAPER_SPACE
  1

  0
ENDBLK
  5
17
 67
     1
  8
0
  0
BLOCK
  8
0
  2
_OPEN30
 70
     0
 10
0.0
 20
0.0
 30
0.0
  3
_OPEN30
  1

  0
LINE
  5
44
  8
0
  6
BYBLOCK
 62
     0
 10
-1.0
 20
0.26794919
 30
0.0
 11
0.0
 21
0.0
 31
0.0
  0
LINE
  5
45
  8
0
  6
BYBLOCK
 62
     0
 10
0.0
 20
0.0
 30
0.0
 11
-1.0
 21
-0.26794919
 31
0.0
  0
LINE
  5
46
  8
0
  6
BYBLOCK
 62
     0
 10
0.0
 20
0.0
 30
0.0
 11
-1.0
 21
0.0
 31
0.0
  0
ENDBLK
  5
47
  8
0
  0
BLOCK
  8
0
  2
XREF1
 70
    36
 10
0.0
 20
0.0
 30
0.0
  3
XREF1
  1
D:\ACLT\FORMAT\KAWAJUN(9)図面用.dwg
  0
ENDBLK
  5
5D
  8
0
  0
BLOCK
  8
0
  2
A3WAKUDAKE
 70
    36
 10
0.0
 20
0.0
 30
0.0
  3
A3WAKUDAKE
  1
D:\ACLT\FORMAT\A3WAKUdake.dwg
  0
ENDBLK
  5
6DC
  8
0
  0
ENDSEC
  0
SECTION
  2
ENTITIES
  0
TEXT
  5
349B
  8
1TEXT
 10
-272.90442889188841
 20
-2091.8426202205392
 30
0.0
 40
8.0
  1
PC-107-XM
  0
LINE
  5
A81C
  8
1CENTER
 10
-64.904428891888927
 20
-2199.8614898246042
 30
0.0
 11
-64.904428891888927
 21
-2211.8614898246042
 31
0.0
  0
LINE
  5
A81D
  8
1CENTER
 10
-131.90442889189191
 20
-2199.8614898246042
 30
0.0
 11
-131.90442889189191
 21
-2211.8614898246042
 31
0.0
  0
LINE
  5
A81E
  8
1CENTER
 10
-251.90442889189191
 20
-2199.8614898246042
 30
0.0
 11
-251.90442889189191
 21
-2211.8614898246042
 31
0.0
  0
LINE
  5
A81F
  8
1CENTER
 10
-131.9044288918918
 20
-2118.8426202205392
 30
0.0
 11
-131.9044288918918
 21
-2112.8426202205392
 31
0.0
  0
LINE
  5
A820
  8
1CENTER
 10
-134.9044288918918
 20
-2115.8426202205392
 30
0.0
 11
-128.9044288918918
 21
-2115.8426202205392
 31
0.0
  0
LINE
  5
A821
  8
1CENTER
 10
-251.9044288918918
 20
-2118.8426202205392
 30
0.0
 11
-251.9044288918918
 21
-2112.8426202205392
 31
0.0
  0
LINE
  5
A822
  8
1CENTER
 10
-254.9044288918918
 20
-2115.8426202205392
 30
0.0
 11
-248.9044288918918
 21
-2115.8426202205392
 31
0.0
  0
LINE
  5
B272
  8
01
 10
-271.40442889188841
 20
-2121.8426202205392
 30
0.0
 11
-112.4044288918886
 21
-2121.8426202205392
 31
0.0
  0
LINE
  5
B273
  8
01
 10
-271.40442889188819
 20
-2109.8426202205392
 30
0.0
 11
-112.4044288918886
 21
-2109.8426202205392
 31
0.0
  0
ARC
  5
B274
  8
01
 10
-191.9044288918883
 20
-2315.8426202205392
 30
0.0
 40
134.0
 50
53.230548467014501
 51
126.7694515329855
  0
ARC
  5
B275
  8
01
 10
-191.9044288918883
 20
-2315.8426202205392
 30
0.0
 40
127.0
 50
76.590432966202528
 51
103.4095670337974
  0
ARC
  5
B276
  8
01
 10
-212.08062766458579
 20
-2231.214486582342
 30
0.0
 40
40.0
 50
103.4095670337974
 51
147.73574464311429
  0
LINE
  5
B277
  8
01
 10
-245.9044288918885
 20
-2209.8614898246051
 30
0.0
 11
-272.90442889188847
 21
-2209.8614898246051
 31
0.0
  0
ARC
  5
B278
  8
01
 10
-270.91917829436261
 20
-2210.103935828949
 30
0.0
 40
2.0
 50
126.7694515329855
 51
173.03730924444221
  0
LINE
  5
B27A
  8
01
 10
-272.90442889188841
 20
-2111.3426202205392
 30
0.0
 11
-272.90442889188841
 21
-2120.3426202205392
 31
0.0
  0
ARC
  5
B27B
  8
01
 10
-271.40442889188802
 20
-2120.3426202205392
 30
0.0
 40
1.5
 50
180.0
 51
269.99999999998698
  0
ARC
  5
B27C
  8
01
 10
-271.40442889188819
 20
-2111.3426202205392
 30
0.0
 40
1.5
 50
90.0
 51
180.0
  0
ARC
  5
B27E
  8
01
 10
-171.72823011919121
 20
-2231.214486582342
 30
0.0
 40
40.0
 50
32.26425535688567
 51
76.590432966202528
  0
LINE
  5
B280
  8
01
 10
-58.90442889188887
 20
-2182.7622213050381
 30
0.0
 11
-58.90442889188887
 21
-2209.8614898246042
 31
0.0
  0
LINE
  5
B281
  8
01
 10
-70.90442889188887
 20
-2182.7622213050381
 30
0.0
 11
-70.90442889188887
 21
-2209.8614898246042
 31
0.0
  0
LINE
  5
B283
  8
01
 10
-137.9044288918885
 20
-2209.8614898246051
 30
0.0
 11
-110.9044288918887
 21
-2209.8614898246019
 31
0.0
  0
ARC
  5
B285
  8
01
 10
-112.88967948941441
 20
-2210.103935828949
 30
0.0
 40
2.0
 50
6.9626907555578228
 51
53.230548467014501
  0
LINE
  5
B286
  8
01
 10
-58.90442889188887
 20
-2209.8614898246042
 30
0.0
 11
-70.90442889188887
 21
-2209.8614898246042
 31
0.0
  0
LINE
  5
B287
  8
01
 10
-110.9044288918886
 20
-2111.3426202205392
 30
0.0
 11
-110.9044288918886
 21
-2120.3426202205392
 31
0.0
  0
ARC
  5
B288
  8
01
 10
-112.4044288918886
 20
-2120.3426202205392
 30
0.0
 40
1.5
 50
270.0
 51
0.0
  0
ARC
  5
B289
  8
01
 10
-112.4044288918886
 20
-2111.3426202205392
 30
0.0
 40
1.5
 50
0.0
 51
90.0
  0
ARC
  5
B28A
  8
01
 10
-64.90442889188887
 20
-2211.3426202205378
 30
0.0
 40
30.0
 50
80.071808159045943
 51
99.926631682389115
  0
ARC
  5
B28B
  8
01
 10
-69.903651047734797
 20
-2182.7767703673221
 30
0.0
 40
1.0
 50
99.926631682389115
 51
185.19285194139169
  0
ARC
  5
B28C
  8
01
 10
-59.904428892553483
 20
-2182.7769065062512
 30
0.0
 40
1.0
 50
354.80558789932792
 51
80.071808159045943
  0
ARC
  5
B28D
  8
1HIDDEN
 10
-64.904033782629654
 20
-2182.3223984494871
 30
0.0
 40
6.0202217710510961
 50
185.19285194141759
 51
354.80558789932792
  0
LINE
  5
B5A3
  8
1DIM
 10
-272.90442889188847
 20
-2297.8614898246051
 30
0.0
 11
-202.9044288918885
 21
-2297.8614898246051
 31
0.0
  0
TEXT
  5
B5A4
  8
1TEXT
 10
-266.1520479395075
 20
-2275.3614898246051
 30
0.0
 40
4.0
  1
表面処理：
 72
     1
 11
-255.50442889188841
 21
-2275.3614898246051
 31
0.0
  0
TEXT
  5
B5A5
  8
1TEXT
 10
-264.83776222522181
 20
-2289.196778484129
 30
0.0
 40
4.0
  1
クローム
 72
     1
 11
-255.50442889188841
 21
-2289.196778484129
 31
0.0
  0
TEXT
  5
B5A6
  8
1TEXT
 10
-266.70442889188843
 20
-2282.3393848445889
 30
0.0
 40
4.0
  1
本金メッキ
 72
     1
 11
-255.50442889188841
 21
-2282.3393848445889
 31
0.0
  0
LINE
  5
B5A7
  8
1DIM
 10
-272.90442889188847
 20
-2269.8614898246051
 30
0.0
 11
-202.9044288918885
 21
-2269.8614898246051
 31
0.0
  0
LINE
  5
B5A8
  8
1DIM
 10
-272.90442889188847
 20
-2283.8614898246051
 30
0.0
 11
-202.9044288918885
 21
-2283.8614898246051
 31
0.0
  0
LINE
  5
B5A9
  8
1DIM
 10
-272.90442889188847
 20
-2276.8614898246051
 30
0.0
 11
-202.9044288918885
 21
-2276.8614898246051
 31
0.0
  0
LINE
  5
B5AA
  8
1DIM
 10
-272.90442889188847
 20
-2290.8614898246051
 30
0.0
 11
-202.9044288918885
 21
-2290.8614898246051
 31
0.0
  0
LINE
  5
B5AB
  8
1DIM
 10
-272.90442889188847
 20
-2290.8614898246051
 30
0.0
 11
-202.9044288918885
 21
-2290.8614898246051
 31
0.0
  0
LINE
  5
B5AC
  8
1DIM
 10
-237.9044288918885
 20
-2269.8614898246051
 30
0.0
 11
-237.9044288918885
 21
-2297.8614898246051
 31
0.0
  0
TEXT
  5
B5AD
  8
1TEXT
 10
-227.30442889188839
 20
-2275.3614898246051
 30
0.0
 40
4.0
  1
コード
 72
     1
 11
-220.50442889188841
 21
-2275.3614898246051
 31
0.0
  0
TEXT
  5
B5AE
  8
1TEXT
 10
-271.77109555855509
 20
-2296.172403436175
 30
0.0
 40
4.0
  1
サテンニッケル
 72
     1
 11
-255.50442889188841
 21
-2296.172403436175
 31
0.0
  0
LINE
  5
B5AF
  8
1DIM
 10
-272.90442889188847
 20
-2297.8614898246051
 30
0.0
 11
-272.90442889188847
 21
-2269.8614898246051
 31
0.0
  0
LINE
  5
B5B0
  8
1DIM
 10
-202.9044288918885
 20
-2297.8614898246051
 30
0.0
 11
-202.9044288918885
 21
-2269.8614898246051
 31
0.0
  0
TEXT
  5
B5B1
  8
1TEXT
 10
-235.17109555855569
 20
-2282.3614898246051
 30
0.0
 40
4.0
  1
PC-107-XGM
 41
0.8
 72
     1
 11
-220.50442889188901
 21
-2282.3614898246051
 31
0.0
  0
TEXT
  5
B5B2
  8
1TEXT
 10
-235.17109555855569
 20
-2289.3614898246051
 30
0.0
 40
4.0
  1
PC-107-XCM
 41
0.8
 72
     1
 11
-220.50442889188901
 21
-2289.3614898246051
 31
0.0
  0
TEXT
  5
B5B3
  8
1TEXT
 10
-235.17109555855569
 20
-2296.3614898246042
 30
0.0
 40
4.0
  1
PC-107-XNM
 41
0.8
 72
     1
 11
-220.50442889188901
 21
-2296.3614898246042
 31
0.0
  0
TEXT
  5
B64F
  8
01
 10
-280.4669599589605
 20
-2158.2547276572759
 30
0.0
 40
3.5
  1
材質：亜鉛ダイキャスト
  0
TEXT
  5
B650
  8
01
 10
-272.30029329229382
 20
-2164.0880609906089
 30
0.0
 40
3.5
  1
仕上げ：各種メッキ
  0
SOLID
  5
B651
  8
1DIM
 10
-219.01665366414099
 20
-2182.1554898947852
 30
0.0
 11
-217.9209003385391
 21
-2183.8614898246042
 31
0.0
 12
-219.51072102918499
 22
-2182.6030855641588
 32
0.0
 13
-219.51072102918499
 23
-2182.6030855641588
 33
0.0
1001
ACAD
1000
DSTYLE
1002
{
1070
    45
1040
0.5
1002
}
  0
TEXT
  5
B655
  8
1TEXT
 10
-52.621670470854212
 20
-2227.784198437907
 30
0.0
 40
3.5
  1
M4-8
  0
SOLID
  5
B656
  8
1DIM
 10
-64.16901652581069
 20
-2211.751004091614
 30
0.0
 11
-64.904430884392411
 21
-2209.8614864726692
 31
0.0
 12
-63.595952128238402
 22
-2211.410355239158
 32
0.0
 13
-63.595952128238402
 23
-2211.410355239158
 33
0.0
  0
LINE
  5
B658
  8
1DIM
 10
-251.90442889189191
 20
-2211.8614898246042
 30
0.0
 11
-251.90442889189191
 21
-2240.8614898246051
 31
0.0
  0
LINE
  5
B659
  8
1DIM
 10
-272.90442889188847
 20
-2209.8614898246051
 30
0.0
 11
-272.90442889188847
 21
-2240.8614898246051
 31
0.0
  0
LINE
  5
B65A
  8
1DIM
 10
-253.90442889189191
 20
-2239.8614898246051
 30
0.0
 11
-270.90442889188847
 21
-2239.8614898246051
 31
0.0
  0
LINE
  5
B65E
  8
1DIM
 10
-131.90442889189191
 20
-2211.8614898246042
 30
0.0
 11
-131.90442889189191
 21
-2240.8614898246051
 31
0.0
  0
LINE
  5
B65F
  8
1DIM
 10
-110.9044288918888
 20
-2209.8614898246042
 30
0.0
 11
-110.9044288918888
 21
-2240.8614898246051
 31
0.0
  0
LINE
  5
B660
  8
1DIM
 10
-129.90442889189191
 20
-2239.8614898246051
 30
0.0
 11
-112.9044288918888
 21
-2239.8614898246051
 31
0.0
  0
LINE
  5
B664
  8
1DIM
 10
-245.9044288918885
 20
-2209.8614898246051
 30
0.0
 11
-245.9044288918885
 21
-2230.8614898246042
 31
0.0
  0
LINE
  5
B665
  8
1DIM
 10
-137.9044288918916
 20
-2209.8614898246001
 30
0.0
 11
-137.9044288918916
 21
-2230.8614898246042
 31
0.0
  0
LINE
  5
B666
  8
1DIM
 10
-243.9044288918885
 20
-2229.8614898246042
 30
0.0
 11
-139.9044288918916
 21
-2229.8614898246042
 31
0.0
  0
LINE
  5
B66A
  8
1DIM
 10
-110.9044288918888
 20
-2209.8614898246051
 30
0.0
 11
-89.904428891888884
 21
-2209.8614898246051
 31
0.0
  0
LINE
  5
B66B
  8
1DIM
 10
-191.9044288918883
 20
-2188.8426202205392
 30
0.0
 11
-89.90442889188887
 21
-2188.8426202205392
 31
0.0
  0
LINE
  5
B66C
  8
1DIM
 10
-90.90442889188887
 20
-2207.8614898246051
 30
0.0
 11
-90.90442889188887
 21
-2190.8426202205392
 31
0.0
  0
LINE
  5
B670
  8
1DIM
 10
-110.9044288918888
 20
-2209.8614898246051
 30
0.0
 11
-79.904428891888884
 21
-2209.8614898246051
 31
0.0
  0
LINE
  5
B671
  8
1DIM
 10
-191.9044288918883
 20
-2181.8426202205392
 30
0.0
 11
-79.90442889188887
 21
-2181.8426202205392
 31
0.0
  0
LINE
  5
B672
  8
1DIM
 10
-80.90442889188887
 20
-2207.8614898246051
 30
0.0
 11
-80.90442889188887
 21
-2183.8426202205392
 31
0.0
  0
LINE
  5
B676
  8
1DIM
 10
-112.4044288918885
 20
-2121.8426202205392
 30
0.0
 11
-89.904428891888728
 21
-2121.8426202205392
 31
0.0
  0
LINE
  5
B677
  8
1DIM
 10
-112.4044288918886
 20
-2109.8426202205392
 30
0.0
 11
-89.904428891888728
 21
-2109.8426202205392
 31
0.0
  0
LINE
  5
B678
  8
1DIM
 10
-90.904428891888728
 20
-2119.8426202205392
 30
0.0
 11
-90.904428891888728
 21
-2111.8426202205392
 31
0.0
  0
LINE
  5
B67C
  8
1DIM
 10
-272.90442889188841
 20
-2120.3426202205392
 30
0.0
 11
-272.90442889188841
 21
-2142.8426202205392
 31
0.0
  0
LINE
  5
B67D
  8
1DIM
 10
-110.9044288918886
 20
-2120.3426202205392
 30
0.0
 11
-110.9044288918886
 21
-2142.8426202205392
 31
0.0
  0
LINE
  5
B67E
  8
1DIM
 10
-270.90442889188841
 20
-2141.8426202205392
 30
0.0
 11
-112.9044288918886
 21
-2141.8426202205392
 31
0.0
  0
LINE
  5
B682
  8
1DIM
 10
-251.90442889189191
 20
-2211.8614898246042
 30
0.0
 11
-251.90442889189191
 21
-2240.8614898246051
 31
0.0
  0
LINE
  5
B683
  8
1DIM
 10
-131.90442889189191
 20
-2211.8614898246042
 30
0.0
 11
-131.90442889189191
 21
-2240.8614898246051
 31
0.0
  0
LINE
  5
B684
  8
1DIM
 10
-249.90442889189191
 20
-2239.8614898246051
 30
0.0
 11
-133.90442889189191
 21
-2239.8614898246051
 31
0.0
  0
TEXT
  5
B688
  8
1DIM
 10
-197.4460955585586
 20
-2239.1614898246048
 30
0.0
 40
3.5
  1
P120
  0
LINE
  5
B689
  8
0
  6
BYBLOCK
 10
-133.90442889189191
 20
-2239.325591444604
 30
0.0
 11
-131.90442889189191
 21
-2239.8614898246051
 31
0.0
  0
LINE
  5
B68A
  8
0
  6
BYBLOCK
 10
-131.90442889189191
 20
-2239.8614898246051
 30
0.0
 11
-133.90442889189191
 21
-2240.3973882046048
 31
0.0
  0
LINE
  5
B68B
  8
0
  6
BYBLOCK
 10
-131.90442889189191
 20
-2239.8614898246051
 30
0.0
 11
-133.90442889189191
 21
-2239.8614898246051
 31
0.0
  0
LINE
  5
B68C
  8
0
  6
BYBLOCK
 10
-249.90442889189191
 20
-2240.3973882046048
 30
0.0
 11
-251.90442889189191
 21
-2239.8614898246051
 31
0.0
  0
LINE
  5
B68D
  8
0
  6
BYBLOCK
 10
-251.90442889189191
 20
-2239.8614898246051
 30
0.0
 11
-249.90442889189191
 21
-2239.325591444604
 31
0.0
  0
LINE
  5
B68E
  8
0
  6
BYBLOCK
 10
-251.90442889189191
 20
-2239.8614898246051
 30
0.0
 11
-249.90442889189191
 21
-2239.8614898246051
 31
0.0
  0
TEXT
  5
B68F
  8
1DIM
 10
-195.98776222522179
 20
-2141.1426202205389
 30
0.0
 40
3.5
  1
162
  0
LINE
  5
B690
  8
0
  6
BYBLOCK
 10
-112.9044288918886
 20
-2141.306721840539
 30
0.0
 11
-110.9044288918886
 21
-2141.8426202205392
 31
0.0
  0
LINE
  5
B691
  8
0
  6
BYBLOCK
 10
-110.9044288918886
 20
-2141.8426202205392
 30
0.0
 11
-112.9044288918886
 21
-2142.3785186005389
 31
0.0
  0
LINE
  5
B692
  8
0
  6
BYBLOCK
 10
-110.9044288918886
 20
-2141.8426202205392
 30
0.0
 11
-112.9044288918886
 21
-2141.8426202205392
 31
0.0
  0
LINE
  5
B693
  8
0
  6
BYBLOCK
 10
-270.90442889188841
 20
-2142.3785186005389
 30
0.0
 11
-272.90442889188841
 21
-2141.8426202205392
 31
0.0
  0
LINE
  5
B694
  8
0
  6
BYBLOCK
 10
-272.90442889188841
 20
-2141.8426202205392
 30
0.0
 11
-270.90442889188841
 21
-2141.306721840539
 31
0.0
  0
LINE
  5
B695
  8
0
  6
BYBLOCK
 10
-272.90442889188841
 20
-2141.8426202205392
 30
0.0
 11
-270.90442889188841
 21
-2141.8426202205392
 31
0.0
  0
TEXT
  5
B696
  8
1DIM
 10
-91.604428891888389
 20
-2118.1759535538731
 30
0.0
 40
3.5
  1
12
 50
90.0
  0
LINE
  5
B697
  8
0
  6
BYBLOCK
 10
-91.440327271888734
 20
-2111.8426202205392
 30
0.0
 11
-90.904428891888728
 21
-2109.8426202205392
 31
0.0
  0
LINE
  5
B698
  8
0
  6
BYBLOCK
 10
-90.904428891888728
 20
-2109.8426202205392
 30
0.0
 11
-90.368530511888721
 21
-2111.8426202205392
 31
0.0
  0
LINE
  5
B699
  8
0
  6
BYBLOCK
 10
-90.904428891888728
 20
-2109.8426202205392
 30
0.0
 11
-90.904428891888728
 21
-2111.8426202205392
 31
0.0
  0
LINE
  5
B69A
  8
0
  6
BYBLOCK
 10
-90.368530511888721
 20
-2119.8426202205392
 30
0.0
 11
-90.904428891888728
 21
-2121.8426202205392
 31
0.0
  0
LINE
  5
B69B
  8
0
  6
BYBLOCK
 10
-90.904428891888728
 20
-2121.8426202205392
 30
0.0
 11
-91.440327271888734
 21
-2119.8426202205392
 31
0.0
  0
LINE
  5
B69C
  8
0
  6
BYBLOCK
 10
-90.904428891888728
 20
-2121.8426202205392
 30
0.0
 11
-90.904428891888728
 21
-2119.8426202205392
 31
0.0
  0
TEXT
  5
B69D
  8
1DIM
 10
-81.604428891888517
 20
-2198.7687216892382
 30
0.0
 40
3.5
  1
28
 50
90.0
  0
LINE
  5
B69E
  8
0
  6
BYBLOCK
 10
-81.440327271888876
 20
-2183.8426202205392
 30
0.0
 11
-80.90442889188887
 21
-2181.8426202205392
 31
0.0
  0
LINE
  5
B69F
  8
0
  6
BYBLOCK
 10
-80.90442889188887
 20
-2181.8426202205392
 30
0.0
 11
-80.368530511888864
 21
-2183.8426202205392
 31
0.0
  0
LINE
  5
B6A0
  8
0
  6
BYBLOCK
 10
-80.90442889188887
 20
-2181.8426202205392
 30
0.0
 11
-80.90442889188887
 21
-2183.8426202205392
 31
0.0
  0
LINE
  5
B6A1
  8
0
  6
BYBLOCK
 10
-80.368530511888878
 20
-2207.8614898246051
 30
0.0
 11
-80.904428891888884
 21
-2209.8614898246051
 31
0.0
  0
LINE
  5
B6A2
  8
0
  6
BYBLOCK
 10
-80.904428891888884
 20
-2209.8614898246051
 30
0.0
 11
-81.44032727188889
 21
-2207.8614898246051
 31
0.0
  0
LINE
  5
B6A3
  8
0
  6
BYBLOCK
 10
-80.904428891888884
 20
-2209.8614898246051
 30
0.0
 11
-80.904428891888884
 21
-2207.8614898246051
 31
0.0
  0
TEXT
  5
B6A4
  8
1DIM
 10
-91.604428891888517
 20
-2201.6853883559052
 30
0.0
 40
3.5
  1
21
 50
90.0
  0
LINE
  5
B6A5
  8
0
  6
BYBLOCK
 10
-91.440327271888876
 20
-2190.8426202205392
 30
0.0
 11
-90.90442889188887
 21
-2188.8426202205392
 31
0.0
  0
LINE
  5
B6A6
  8
0
  6
BYBLOCK
 10
-90.90442889188887
 20
-2188.8426202205392
 30
0.0
 11
-90.368530511888864
 21
-2190.8426202205392
 31
0.0
  0
LINE
  5
B6A7
  8
0
  6
BYBLOCK
 10
-90.90442889188887
 20
-2188.8426202205392
 30
0.0
 11
-90.90442889188887
 21
-2190.8426202205392
 31
0.0
  0
LINE
  5
B6A8
  8
0
  6
BYBLOCK
 10
-90.368530511888878
 20
-2207.8614898246051
 30
0.0
 11
-90.904428891888884
 21
-2209.8614898246051
 31
0.0
  0
LINE
  5
B6A9
  8
0
  6
BYBLOCK
 10
-90.904428891888884
 20
-2209.8614898246051
 30
0.0
 11
-91.44032727188889
 21
-2207.8614898246051
 31
0.0
  0
LINE
  5
B6AA
  8
0
  6
BYBLOCK
 10
-90.904428891888884
 20
-2209.8614898246051
 30
0.0
 11
-90.904428891888884
 21
-2207.8614898246051
 31
0.0
  0
TEXT
  5
B6AB
  8
1DIM
 10
-195.69609555855669
 20
-2229.1614898246048
 30
0.0
 40
3.5
  1
108
  0
LINE
  5
B6AC
  8
0
  6
BYBLOCK
 10
-139.9044288918916
 20
-2229.325591444604
 30
0.0
 11
-137.9044288918916
 21
-2229.8614898246042
 31
0.0
  0
LINE
  5
B6AD
  8
0
  6
BYBLOCK
 10
-137.9044288918916
 20
-2229.8614898246042
 30
0.0
 11
-139.9044288918916
 21
-2230.3973882046039
 31
0.0
  0
LINE
  5
B6AE
  8
0
  6
BYBLOCK
 10
-137.9044288918916
 20
-2229.8614898246042
 30
0.0
 11
-139.9044288918916
 21
-2229.8614898246042
 31
0.0
  0
LINE
  5
B6AF
  8
0
  6
BYBLOCK
 10
-243.9044288918885
 20
-2230.3973882046039
 30
0.0
 11
-245.9044288918885
 21
-2229.8614898246042
 31
0.0
  0
LINE
  5
B6B0
  8
0
  6
BYBLOCK
 10
-245.9044288918885
 20
-2229.8614898246042
 30
0.0
 11
-243.9044288918885
 21
-2229.325591444604
 31
0.0
  0
LINE
  5
B6B1
  8
0
  6
BYBLOCK
 10
-245.9044288918885
 20
-2229.8614898246042
 30
0.0
 11
-243.9044288918885
 21
-2229.8614898246042
 31
0.0
  0
TEXT
  5
B6B2
  8
1DIM
 10
-123.7377622252237
 20
-2239.1614898246048
 30
0.0
 40
3.5
  1
21
  0
LINE
  5
B6B3
  8
0
  6
BYBLOCK
 10
-112.9044288918888
 20
-2239.325591444604
 30
0.0
 11
-110.9044288918888
 21
-2239.8614898246051
 31
0.0
  0
LINE
  5
B6B4
  8
0
  6
BYBLOCK
 10
-110.9044288918888
 20
-2239.8614898246051
 30
0.0
 11
-112.9044288918888
 21
-2240.3973882046048
 31
0.0
  0
LINE
  5
B6B5
  8
0
  6
BYBLOCK
 10
-110.9044288918888
 20
-2239.8614898246051
 30
0.0
 11
-112.9044288918888
 21
-2239.8614898246051
 31
0.0
  0
LINE
  5
B6B6
  8
0
  6
BYBLOCK
 10
-129.90442889189191
 20
-2240.3973882046048
 30
0.0
 11
-131.90442889189191
 21
-2239.8614898246051
 31
0.0
  0
LINE
  5
B6B7
  8
0
  6
BYBLOCK
 10
-131.90442889189191
 20
-2239.8614898246051
 30
0.0
 11
-129.90442889189191
 21
-2239.325591444604
 31
0.0
  0
LINE
  5
B6B8
  8
0
  6
BYBLOCK
 10
-131.90442889189191
 20
-2239.8614898246051
 30
0.0
 11
-129.90442889189191
 21
-2239.8614898246051
 31
0.0
  0
TEXT
  5
B6B9
  8
1DIM
 10
-264.73776222522361
 20
-2239.1614898246048
 30
0.0
 40
3.5
  1
21
  0
LINE
  5
B6BA
  8
0
  6
BYBLOCK
 10
-270.90442889188847
 20
-2240.3973882046048
 30
0.0
 11
-272.90442889188847
 21
-2239.8614898246051
 31
0.0
  0
LINE
  5
B6BB
  8
0
  6
BYBLOCK
 10
-272.90442889188847
 20
-2239.8614898246051
 30
0.0
 11
-270.90442889188847
 21
-2239.325591444604
 31
0.0
  0
LINE
  5
B6BC
  8
0
  6
BYBLOCK
 10
-272.90442889188847
 20
-2239.8614898246051
 30
0.0
 11
-270.90442889188847
 21
-2239.8614898246051
 31
0.0
  0
LINE
  5
B6BD
  8
0
  6
BYBLOCK
 10
-253.90442889189191
 20
-2239.325591444604
 30
0.0
 11
-251.90442889189191
 21
-2239.8614898246051
 31
0.0
  0
LINE
  5
B6BE
  8
0
  6
BYBLOCK
 10
-251.90442889189191
 20
-2239.8614898246051
 30
0.0
 11
-253.90442889189191
 21
-2240.3973882046048
 31
0.0
  0
LINE
  5
B6BF
  8
0
  6
BYBLOCK
 10
-251.90442889189191
 20
-2239.8614898246051
 30
0.0
 11
-253.90442889189191
 21
-2239.8614898246051
 31
0.0
  0
LINE
  5
B6C0
  8
1DIM
 10
-63.882484327024542
 20
-2211.580679665386
 30
0.0
 11
-53.834461283330882
 21
-2228.4841984379059
 31
0.0
  0
LINE
  5
B6C1
  8
1DIM
 10
-53.834461283330882
 20
-2228.4841984379059
 30
0.0
 11
-51.134461283330872
 21
-2228.4841984379059
 31
0.0
  0
LINE
  5
B6C2
  8
1DIM
 10
-219.263687346663
 20
-2182.3792877294718
 30
0.0
 11
-235.20029329229379
 21
-2164.7880609906092
 31
0.0
1001
ACAD
1000
DSTYLE
1002
{
1070
    45
1040
0.5
1002
}
  0
VIEWPORT
  5
57
 67
     1
  8
0
 10
81.078623929536008
 20
9.8414732014601896
 30
0.0
 40
583.3500123587562
 41
268.21455217407731
 68
     1
 69
     1
1001
ACAD
1000
MVIEW
1002
{
1070
    16
1010
0.0
1020
0.0
1030
0.0
1010
0.0
1020
0.0
1030
1.0
1040
0.0
1040
268.21455217407731
1040
81.078623929536008
1040
9.8414732014601896
1040
50.0
1040
0.0
1040
0.0
1070
     0
1070
   100
1070
     1
1070
     1
1070
     0
1070
     0
1070
     0
1070
     0
1040
0.0
1040
0.0
1040
0.0
1040
10.0
1040
10.0
1040
10.0
1040
10.0
1070
     0
1002
{
1002
}
1002
}
  0
ENDSEC
  0
EOF
