  0
SECTION
  2
HEADER
  9
$ACADVER
  1
AC1009
  9
$INSBASE
 10
0.0
 20
0.0
 30
0.0
  9
$EXTMIN
 10
-278.44632827744329
 20
-2297.8614898246051
 30
0.0
  9
$EXTMAX
 10
-39.260793247392641
 20
-2085.8614898246042
 30
0.0
  9
$LIMMIN
 10
0.0
 20
0.0
  9
$LIMMAX
 10
420.0
 20
297.0
  9
$ORTHOMODE
 70
     0
  9
$REGENMODE
 70
     1
  9
$FILLMODE
 70
     1
  9
$QTEXTMODE
 70
     0
  9
$MIRRTEXT
 70
     0
  9
$DRAGMODE
 70
     2
  9
$LTSCALE
 40
0.5
  9
$OSMODE
 70
    63
  9
$ATTMODE
 70
     1
  9
$TEXTSIZE
 40
4.0
  9
$TRACEWID
 40
1.0
  9
$TEXTSTYLE
  7
STANDARD
  9
$CLAYER
  8
1TEXT
  9
$CELTYPE
  6
BYLAYER
  9
$CECOLOR
 62
   256
  9
$DIMSCALE
 40
1.0
  9
$DIMASZ
 40
2.0
  9
$DIMEXO
 40
0.0
  9
$DIMDLI
 40
7.0
  9
$DIMRND
 40
0.0
  9
$DIMDLE
 40
0.0
  9
$DIMEXE
 40
1.0
  9
$DIMTP
 40
0.0
  9
$DIMTM
 40
0.0
  9
$DIMTXT
 40
3.5
  9
$DIMCEN
 40
0.0
  9
$DIMTSZ
 40
0.0
  9
$DIMTOL
 70
     0
  9
$DIMLIM
 70
     0
  9
$DIMTIH
 70
     0
  9
$DIMTOH
 70
     0
  9
$DIMSE1
 70
     0
  9
$DIMSE2
 70
     0
  9
$DIMTAD
 70
     1
  9
$DIMZIN
 70
     8
  9
$DIMBLK
  1

  9
$DIMASO
 70
     1
  9
$DIMSHO
 70
     1
  9
$DIMPOST
  1
 
  9
$DIMAPOST
  1

  9
$DIMALT
 70
     0
  9
$DIMALTD
 70
     2
  9
$DIMALTF
 40
25.399999999999999
  9
$DIMLFAC
 40
1.0
  9
$DIMTOFL
 70
     1
  9
$DIMTVP
 40
0.0
  9
$DIMTIX
 70
     0
  9
$DIMSOXD
 70
     0
  9
$DIMSAH
 70
     1
  9
$DIMBLK1
  1
OPEN30
  9
$DIMBLK2
  1
OPEN30
  9
$DIMSTYLE
  2
NEWX10
  9
$DIMCLRD
 70
   256
  9
$DIMCLRE
 70
   256
  9
$DIMCLRT
 70
   201
  9
$DIMTFAC
 40
0.7
  9
$DIMGAP
 40
0.7
  9
$LUNITS
 70
     2
  9
$LUPREC
 70
     4
  9
$SKETCHINC
 40
1.0
  9
$FILLETRAD
 40
0.0
  9
$AUNITS
 70
     0
  9
$AUPREC
 70
     2
  9
$MENU
  1
acad
  9
$ELEVATION
 40
0.0
  9
$PELEVATION
 40
0.0
  9
$THICKNESS
 40
0.0
  9
$LIMCHECK
 70
     0
  9
$BLIPMODE
 70
     0
  9
$CHAMFERA
 40
10.0
  9
$CHAMFERB
 40
10.0
  9
$SKPOLY
 70
     0
  9
$TDCREATE
 40
2453033.7326634838
  9
$TDUPDATE
 40
2457014.7269901969
  9
$TDINDWG
 40
0.4478419676
  9
$TDUSRTIMER
 40
0.4478419676
  9
$USRTIMER
 70
     1
  9
$ANGBASE
 50
0.0
  9
$ANGDIR
 70
     0
  9
$PDMODE
 70
     0
  9
$PDSIZE
 40
0.0
  9
$PLINEWID
 40
0.0
  9
$COORDS
 70
     0
  9
$SPLFRAME
 70
     0
  9
$SPLINETYPE
 70
     6
  9
$SPLINESEGS
 70
     8
  9
$ATTDIA
 70
     0
  9
$ATTREQ
 70
     1
  9
$HANDLING
 70
     1
  9
$HANDSEED
  5
BE4B
  9
$SURFTAB1
 70
     6
  9
$SURFTAB2
 70
     6
  9
$SURFTYPE
 70
     6
  9
$SURFU
 70
     6
  9
$SURFV
 70
     6
  9
$UCSNAME
  2

  9
$UCSORG
 10
0.0
 20
0.0
 30
0.0
  9
$UCSXDIR
 10
1.0
 20
0.0
 30
0.0
  9
$UCSYDIR
 10
0.0
 20
1.0
 30
0.0
  9
$PUCSNAME
  2

  9
$PUCSORG
 10
0.0
 20
0.0
 30
0.0
  9
$PUCSXDIR
 10
1.0
 20
0.0
 30
0.0
  9
$PUCSYDIR
 10
0.0
 20
1.0
 30
0.0
  9
$USERI1
 70
     0
  9
$USERI2
 70
     0
  9
$USERI3
 70
     0
  9
$USERI4
 70
     0
  9
$USERI5
 70
     0
  9
$USERR1
 40
0.0
  9
$USERR2
 40
0.0
  9
$USERR3
 40
0.0
  9
$USERR4
 40
0.0
  9
$USERR5
 40
0.0
  9
$WORLDVIEW
 70
     1
  9
$SHADEDGE
 70
     3
  9
$SHADEDIF
 70
    70
  9
$TILEMODE
 70
     1
  9
$MAXACTVP
 70
    48
  9
$PLIMCHECK
 70
     0
  9
$PEXTMIN
 10
1.0000000000000000E+020
 20
1.0000000000000000E+020
 30
1.0000000000000000E+020
  9
$PEXTMAX
 10
-1.0000000000000000E+020
 20
-1.0000000000000000E+020
 30
-1.0000000000000000E+020
  9
$PLIMMIN
 10
0.0
 20
0.0
  9
$PLIMMAX
 10
420.0
 20
297.0
  9
$UNITMODE
 70
     0
  9
$VISRETAIN
 70
     1
  9
$PLINEGEN
 70
     0
  9
$PSLTSCALE
 70
     1
  0
ENDSEC
  0
SECTION
  2
TABLES
  0
TABLE
  2
VPORT
 70
     1
  0
VPORT
  2
*ACTIVE
 70
     0
 10
0.0
 20
0.0
 11
1.0
 21
1.0
 12
-158.85786829086271
 22
-2191.8275638175501
 13
0.0
 23
0.0
 14
10.0
 24
10.0
 15
10.0
 25
10.0
 16
0.0
 26
0.0
 36
1.0
 17
0.0
 27
0.0
 37
0.0
 40
225.0569555810398
 41
2.1749379652605461
 42
50.0
 43
0.0
 44
0.0
 50
0.0
 51
0.0
 71
     0
 72
   100
 73
     1
 74
     1
 75
     0
 76
     0
 77
     0
 78
     0
  0
ENDTAB
  0
TABLE
  2
LTYPE
 70
    17
  0
LTYPE
  2
CONTINUOUS
 70
     0
  3
Solid line
 72
    65
 73
     0
 40
0.0
  0
LTYPE
  2
CENTER2
 70
     0
  3
Center (.5x) ___ _ ___ _ ___ _ ___ _ ___ _ ___
 72
    65
 73
     4
 40
28.574999999999999
 49
19.050000000000001
 49
-3.1749999999999989
 49
3.1749999999999989
 49
-3.1749999999999989
  0
LTYPE
  2
XREF1|CENTER2
 70
    48
  3
Center (.5x) ___ _ ___ _ ___ _ ___ _ ___ _ ___
 72
    65
 73
     4
 40
28.574999999999999
 49
19.050000000000001
 49
-3.1749999999999989
 49
3.1749999999999989
 49
-3.1749999999999989
  0
LTYPE
  2
A3WAKUDAKE|CENTER2
 70
    48
  3
Center (.5x) ___ _ ___ _ ___ _ ___ _ ___ _ ___
 72
    65
 73
     4
 40
28.574999999999999
 49
19.050000000000001
 49
-3.1749999999999989
 49
3.1749999999999989
 49
-3.1749999999999989
  0
ENDTAB
  0
TABLE
  2
LAYER
 70
    49
  0
LAYER
  2
0
 70
     0
 62
     7
  6
CONTINUOUS
  0
LAYER
  2
1CENTER
 70
     0
 62
     7
  6
CENTER2
  0
LAYER
  2
1TEXT
 70
     0
 62
     7
  6
CONTINUOUS
  0
LAYER
  2
1DIM
 70
     0
 62
     7
  6
CONTINUOUS
  0
LAYER
  2
01
 70
     0
 62
     1
  6
CONTINUOUS
  0
LAYER
  2
A3WAKUDAKE|THICK
 70
    48
 62
     7
  6
CONTINUOUS
  0
LAYER
  2
A3WAKUDAKE|POINT
 70
    48
 62
     7
  6
CONTINUOUS
  0
LAYER
  2
A3WAKUDAKE|1CENTER
 70
    48
 62
     7
  6
A3WAKUDAKE|CENTER2
  0
LAYER
  2
A3WAKUDAKE|0-6
 70
    48
 62
     7
  6
CONTINUOUS
  0
LAYER
  2
A3WAKUDAKE|1DIM
 70
    48
 62
     7
  6
CONTINUOUS
  0
LAYER
  2
XREF1|1CENTER
 70
    48
 62
     7
  6
XREF1|CENTER2
  0
ENDTAB
  0
TABLE
  2
STYLE
 70
    23
  0
STYLE
  2
STANDARD
 70
     0
 40
0.0
 41
1.0
 50
0.0
 71
     0
 42
4.0
  3
txt.shx
  4
extfont.shx
  0
ENDTAB
  0
TABLE
  2
VIEW
 70
     5
  0
ENDTAB
  0
TABLE
  2
UCS
 70
     0
  0
ENDTAB
  0
TABLE
  2
APPID
 70
    14
  0
APPID
  2
ACAD
 70
     0
  0
APPID
  2
DRAWINGVARIABLESXDATA
 70
     0
  0
APPID
  2
CONTENTTABDATA
 70
     0
  0
APPID
  2
CONTENTCURRENTTAB
 70
     0
  0
APPID
  2
CONTENTBLOCKDESCRIPTION
 70
     0
  0
APPID
  2
CONTENTBLOCKICON
 70
     0
  0
APPID
  2
CONTENTLONGBLOCKNAME
 70
     0
  0
APPID
  2
ACAD_PSEXT
 70
     0
  0
APPID
  2
ACAD_DSTYLE_DIMTEXT_FILL
 70
     0
  0
APPID
  2
ACAD_DSTYLE_DIMRADIAL_EXTENSION
 70
     0
  0
APPID
  2
ACLAYERTOOLS
 70
     0
  0
APPID
  2
ACAD_MLEADERVER
 70
     0
  0
APPID
  2
ACAD_EXEMPT_FROM_CAD_STANDARDS
 70
     0
  0
APPID
  2
ACAD_NAV_VCDISPLAY
 70
     0
  0
ENDTAB
  0
TABLE
  2
DIMSTYLE
 70
     8
  0
DIMSTYLE
  2
NEWX10
 70
     0
  3
 
  4

  5

  6
OPEN30
  7
OPEN30
 40
1.0
 41
2.0
 42
0.0
 43
7.0
 44
1.0
 45
0.0
 46
0.0
 47
0.0
 48
0.0
140
3.5
141
0.0
142
0.0
143
25.399999999999999
144
1.0
145
0.0
146
0.7
147
0.7
 71
     0
 72
     0
 73
     0
 74
     0
 75
     0
 76
     0
 77
     1
 78
     8
170
     0
171
     2
172
     1
173
     1
174
     0
175
     0
176
   256
177
   256
178
   201
  0
ENDTAB
  0
ENDSEC
  0
SECTION
  2
BLOCKS
  0
BLOCK
  8
0
  2
$MODEL_SPACE
 70
     0
 10
0.0
 20
0.0
 30
0.0
  3
$MODEL_SPACE
  1

  0
ENDBLK
  5
1A
  8
0
  0
BLOCK
 67
     1
  8
0
  2
$PAPER_SPACE
 70
     0
 10
0.0
 20
0.0
 30
0.0
  3
$PAPER_SPACE
  1

  0
ENDBLK
  5
17
 67
     1
  8
0
  0
BLOCK
  8
0
  2
_OPEN30
 70
     0
 10
0.0
 20
0.0
 30
0.0
  3
_OPEN30
  1

  0
LINE
  5
44
  8
0
  6
BYBLOCK
 62
     0
 10
-1.0
 20
0.26794919
 30
0.0
 11
0.0
 21
0.0
 31
0.0
  0
LINE
  5
45
  8
0
  6
BYBLOCK
 62
     0
 10
0.0
 20
0.0
 30
0.0
 11
-1.0
 21
-0.26794919
 31
0.0
  0
LINE
  5
46
  8
0
  6
BYBLOCK
 62
     0
 10
0.0
 20
0.0
 30
0.0
 11
-1.0
 21
0.0
 31
0.0
  0
ENDBLK
  5
47
  8
0
  0
BLOCK
  8
0
  2
XREF1
 70
    36
 10
0.0
 20
0.0
 30
0.0
  3
XREF1
  1
D:\ACLT\FORMAT\KAWAJUN(9)図面用.dwg
  0
ENDBLK
  5
5D
  8
0
  0
BLOCK
  8
0
  2
A3WAKUDAKE
 70
    36
 10
0.0
 20
0.0
 30
0.0
  3
A3WAKUDAKE
  1
D:\ACLT\FORMAT\A3WAKUdake.dwg
  0
ENDBLK
  5
6DC
  8
0
  0
ENDSEC
  0
SECTION
  2
ENTITIES
  0
TEXT
  5
349B
  8
1TEXT
 10
-270.9044288918887
 20
-2093.8614898246042
 30
0.0
 40
8.0
  1
PC-113-XM
  0
LINE
  5
A81C
  8
1CENTER
 10
-64.376885001760684
 20
-2199.8615014585789
 30
0.0
 11
-64.376885001760684
 21
-2211.8615014585789
 31
0.0
  0
LINE
  5
A81D
  8
1CENTER
 10
-130.9044288918887
 20
-2199.8614898246042
 30
0.0
 11
-130.9044288918887
 21
-2211.8614898246042
 31
0.0
  0
LINE
  5
A81E
  8
1CENTER
 10
-250.9044288918885
 20
-2199.8614898246051
 30
0.0
 11
-250.9044288918885
 21
-2211.8614898246051
 31
0.0
  0
LINE
  5
A81F
  8
1CENTER
 10
-130.90442889188881
 20
-2120.3330763697782
 30
0.0
 11
-130.90442889188881
 21
-2114.3330763697791
 31
0.0
  0
LINE
  5
A820
  8
1CENTER
 10
-133.90442889188881
 20
-2117.3330763697791
 30
0.0
 11
-127.9044288918888
 21
-2117.3330763697791
 31
0.0
  0
LINE
  5
A821
  8
1CENTER
 10
-250.90442889188861
 20
-2120.3330763697782
 30
0.0
 11
-250.90442889188861
 21
-2114.3330763697791
 31
0.0
  0
LINE
  5
A822
  8
1CENTER
 10
-253.9044288918887
 20
-2117.3330763697791
 30
0.0
 11
-247.9044288918887
 21
-2117.3330763697791
 31
0.0
  0
ARC
  5
B8FC
  8
01
 10
-190.9044288918885
 20
-1373.861489824603
 30
0.0
 40
750.0
 50
264.04894060704618
 51
275.95105939295382
  0
ARC
  5
B8FD
  8
01
 10
-190.90442889188421
 20
-2860.804662914954
 30
0.0
 40
750.0
 50
84.048940607046177
 51
95.951059392953823
  0
ARC
  5
B8FF
  8
01
 10
-113.4044288918888
 20
-2117.3330763697791
 30
0.0
 40
2.5
 50
275.95105939295541
 51
84.048940607044571
  0
ARC
  5
B902
  8
01
 10
-268.4044288918887
 20
-2117.3330763697791
 30
0.0
 40
2.5
 50
95.951059392955415
 51
264.04894060704459
  0
ARC
  5
B904
  8
01
 10
-190.9044288918885
 20
-2370.3614898246028
 30
0.0
 40
180.0
 50
74.562387936497274
 51
105.43761206350111
  0
ARC
  5
B905
  8
01
 10
-190.9044288918885
 20
-2333.8614898246042
 30
0.0
 40
150.0
 50
58.852182959259729
 51
121.14781704074019
  0
ARC
  5
B906
  8
01
 10
-115.9035037978758
 20
-2209.7653124659018
 30
0.0
 40
5.0
 50
358.89782067687759
 51
58.852182959259729
  0
ARC
  5
B908
  8
01
 10
-145.65230826881091
 20
-2206.4949417462531
 30
0.0
 40
10.0
 50
10.000000000004739
 51
74.562387936497274
  0
LINE
  5
B909
  8
01
 10
-135.8042307386888
 20
-2204.7584599695838
 30
0.0
 11
-134.9044288918887
 21
-2209.8614898246042
 31
0.0
  0
LINE
  5
B90B
  8
01
 10
-134.9044288918887
 20
-2209.8614898246042
 30
0.0
 11
-110.9044288918887
 21
-2209.8614898246042
 31
0.0
  0
LINE
  5
B90D
  8
01
 10
-246.9044288918885
 20
-2209.8614898246042
 30
0.0
 11
-270.90442889188847
 21
-2209.8614898246042
 31
0.0
  0
LINE
  5
B90E
  8
01
 10
-246.0046270450876
 20
-2204.7584599695838
 30
0.0
 11
-246.9044288918885
 21
-2209.8614898246042
 31
0.0
  0
ARC
  5
B90F
  8
01
 10
-236.15654951496521
 20
-2206.4949417462522
 30
0.0
 40
10.0
 50
105.4376120635027
 51
169.9999999999952
  0
ARC
  5
B911
  8
01
 10
-265.9053539859006
 20
-2209.7653124659018
 30
0.0
 40
5.0
 50
121.14781704074019
 51
181.10217932312241
  0
ARC
  5
B912
  8
01
 10
-60.531090637226256
 20
-2187.1117108701192
 30
0.0
 40
2.6826190902907441
 50
347.31634814982033
 51
73.215064536026603
  0
ARC
  5
B913
  8
01
 10
-68.221456800338501
 20
-2187.1117108701192
 30
0.0
 40
2.6829720915503779
 50
106.7798995421052
 51
192.6793458136614
  0
ARC
  5
B915
  8
01
 10
-64.376885001760684
 20
-2199.8617108701201
 30
0.0
 40
16.0
 50
73.215064536024258
 51
106.7798995421044
  0
LINE
  5
B916
  8
01
 10
-70.839001214032805
 20
-2187.7006085576468
 30
0.0
 11
-66.876885001760684
 21
-2209.8614898246042
 31
0.0
  0
LINE
  5
B917
  8
01
 10
-68.376885001760684
 20
-2209.8614828442201
 30
0.0
 11
-70.839001214061
 21
-2187.7006085573898
 31
0.0
  0
LINE
  5
B918
  8
01
 10
-57.913934876196649
 20
-2187.7007277682969
 30
0.0
 11
-60.376885001760677
 21
-2209.8615200729391
 31
0.0
  0
LINE
  5
B919
  8
01
 10
-61.876885001760691
 20
-2209.8615130925541
 30
0.0
 11
-57.913934876153
 21
-2187.7007277679008
 31
0.0
  0
LINE
  5
B91A
  8
01
 10
-60.376885001760677
 20
-2209.8615200729391
 30
0.0
 11
-68.376885001760684
 21
-2209.8614828442201
 31
0.0
  0
LINE
  5
BCDA
  8
1DIM
 10
-270.9044288918887
 20
-2297.8614898246051
 30
0.0
 11
-200.90442889188861
 21
-2297.8614898246051
 31
0.0
  0
TEXT
  5
BCDB
  8
1TEXT
 10
-264.15204793950761
 20
-2275.3614898246051
 30
0.0
 40
4.0
  1
表面処理：
 72
     1
 11
-253.50442889188861
 21
-2275.3614898246051
 31
0.0
  0
TEXT
  5
BCDC
  8
1TEXT
 10
-262.83776222522192
 20
-2289.196778484129
 30
0.0
 40
4.0
  1
クローム
 72
     1
 11
-253.50442889188861
 21
-2289.196778484129
 31
0.0
  0
TEXT
  5
BCDD
  8
1TEXT
 10
-264.70442889188848
 20
-2282.3393848445889
 30
0.0
 40
4.0
  1
本金メッキ
 72
     1
 11
-253.50442889188861
 21
-2282.3393848445889
 31
0.0
  0
LINE
  5
BCDE
  8
1DIM
 10
-270.9044288918887
 20
-2269.8614898246051
 30
0.0
 11
-200.90442889188861
 21
-2269.8614898246051
 31
0.0
  0
LINE
  5
BCDF
  8
1DIM
 10
-270.9044288918887
 20
-2283.8614898246051
 30
0.0
 11
-200.90442889188861
 21
-2283.8614898246051
 31
0.0
  0
LINE
  5
BCE0
  8
1DIM
 10
-270.9044288918887
 20
-2276.8614898246051
 30
0.0
 11
-200.90442889188861
 21
-2276.8614898246051
 31
0.0
  0
LINE
  5
BCE1
  8
1DIM
 10
-270.9044288918887
 20
-2290.8614898246051
 30
0.0
 11
-200.90442889188861
 21
-2290.8614898246051
 31
0.0
  0
LINE
  5
BCE2
  8
1DIM
 10
-270.9044288918887
 20
-2290.8614898246051
 30
0.0
 11
-200.90442889188861
 21
-2290.8614898246051
 31
0.0
  0
LINE
  5
BCE3
  8
1DIM
 10
-235.90442889188861
 20
-2269.8614898246051
 30
0.0
 11
-235.90442889188861
 21
-2297.8614898246051
 31
0.0
  0
TEXT
  5
BCE4
  8
1TEXT
 10
-225.30442889188859
 20
-2275.3614898246051
 30
0.0
 40
4.0
  1
コード
 72
     1
 11
-218.50442889188861
 21
-2275.3614898246051
 31
0.0
  0
TEXT
  5
BCE5
  8
1TEXT
 10
-269.7710955585552
 20
-2296.172403436175
 30
0.0
 40
4.0
  1
サテンニッケル
 72
     1
 11
-253.50442889188861
 21
-2296.172403436175
 31
0.0
  0
LINE
  5
BCE6
  8
1DIM
 10
-270.9044288918887
 20
-2297.8614898246051
 30
0.0
 11
-270.9044288918887
 21
-2269.8614898246051
 31
0.0
  0
LINE
  5
BCE7
  8
1DIM
 10
-200.90442889188861
 20
-2297.8614898246051
 30
0.0
 11
-200.90442889188861
 21
-2269.8614898246051
 31
0.0
  0
TEXT
  5
BCE8
  8
1TEXT
 10
-232.9044288918891
 20
-2282.3614898246051
 30
0.0
 40
4.0
  1
PC-113-XGM
 41
0.8
 72
     1
 11
-218.50442889188909
 21
-2282.3614898246051
 31
0.0
  0
TEXT
  5
BCE9
  8
1TEXT
 10
-232.9044288918891
 20
-2289.3614898246051
 30
0.0
 40
4.0
  1
PC-113-XCM
 41
0.8
 72
     1
 11
-218.50442889188909
 21
-2289.3614898246051
 31
0.0
  0
TEXT
  5
BCEA
  8
1TEXT
 10
-232.9044288918891
 20
-2296.3614898246042
 30
0.0
 40
4.0
  1
PC-113-XNM
 41
0.8
 72
     1
 11
-218.50442889188909
 21
-2296.3614898246042
 31
0.0
  0
TEXT
  5
BD86
  8
01
 10
-278.44632827744329
 20
-2160.3520299319271
 30
0.0
 40
3.5
  1
材質：亜鉛ダイキャスト
  0
TEXT
  5
BD87
  8
01
 10
-270.27966161077671
 20
-2166.185363265261
 30
0.0
 40
3.5
  1
仕上げ：各種メッキ
  0
SOLID
  5
BD88
  8
1DIM
 10
-216.9960219826238
 20
-2184.2527921694359
 30
0.0
 11
-215.90026865702191
 21
-2185.9587920992549
 31
0.0
 12
-217.4900893476678
 22
-2184.7003878388109
 32
0.0
 13
-217.4900893476678
 23
-2184.7003878388109
 33
0.0
1001
ACAD
1000
DSTYLE
1002
{
1070
    45
1040
0.5
1002
}
  0
LINE
  5
BD8C
  8
1DIM
 10
-250.9044288918885
 20
-2211.8614898246051
 30
0.0
 11
-250.9044288918885
 21
-2240.8614898246051
 31
0.0
  0
LINE
  5
BD8D
  8
1DIM
 10
-270.90442889188847
 20
-2209.8614898246042
 30
0.0
 11
-270.90442889188847
 21
-2240.8614898246051
 31
0.0
  0
LINE
  5
BD8E
  8
1DIM
 10
-252.9044288918885
 20
-2239.8614898246051
 30
0.0
 11
-268.90442889188847
 21
-2239.8614898246051
 31
0.0
  0
LINE
  5
BD92
  8
1DIM
 10
-130.9044288918887
 20
-2211.8614898246042
 30
0.0
 11
-130.9044288918887
 21
-2240.8614898246051
 31
0.0
  0
LINE
  5
BD93
  8
1DIM
 10
-110.9044288918888
 20
-2209.8614898246051
 30
0.0
 11
-110.9044288918888
 21
-2240.8614898246051
 31
0.0
  0
LINE
  5
BD94
  8
1DIM
 10
-128.9044288918887
 20
-2239.8614898246051
 30
0.0
 11
-112.9044288918888
 21
-2239.8614898246051
 31
0.0
  0
LINE
  5
BD98
  8
1DIM
 10
-190.90442889188409
 20
-2110.804662914954
 30
0.0
 11
-89.904428891888884
 21
-2110.804662914954
 31
0.0
  0
LINE
  5
BD99
  8
1DIM
 10
-190.9044288918887
 20
-2123.8614898246042
 30
0.0
 11
-89.904428891888884
 21
-2123.8614898246042
 31
0.0
  0
LINE
  5
BD9A
  8
1DIM
 10
-90.904428891888898
 20
-2112.804662914954
 30
0.0
 11
-90.904428891888898
 21
-2121.8614898246042
 31
0.0
  0
TEXT
  5
BD9E
  8
1TEXT
 10
-52.09412658072597
 20
-2227.7842100718808
 30
0.0
 40
3.5
  1
M4-6
  0
SOLID
  5
BD9F
  8
1DIM
 10
-63.641472635682447
 20
-2211.7510157255888
 30
0.0
 11
-64.376886994264154
 21
-2209.8614981066439
 31
0.0
 12
-63.068408238110159
 22
-2211.4103668731332
 32
0.0
 13
-63.068408238110159
 23
-2211.4103668731332
 33
0.0
  0
LINE
  5
BDA1
  8
1DIM
 10
-246.90442889188881
 20
-2209.8614898246051
 30
0.0
 11
-246.90442889188881
 21
-2230.8614898246042
 31
0.0
  0
LINE
  5
BDA2
  8
1DIM
 10
-134.9044288918887
 20
-2209.8614898246042
 30
0.0
 11
-134.9044288918887
 21
-2230.8614898246042
 31
0.0
  0
LINE
  5
BDA3
  8
1DIM
 10
-244.90442889188881
 20
-2229.8614898246042
 30
0.0
 11
-136.9044288918887
 21
-2229.8614898246042
 31
0.0
  0
LINE
  5
BDA7
  8
1DIM
 10
-110.9044288918888
 20
-2209.8614898246051
 30
0.0
 11
-89.904428891888884
 21
-2209.8614898246051
 31
0.0
  0
LINE
  5
BDA8
  8
1DIM
 10
-190.9044288918885
 20
-2190.3614898246028
 30
0.0
 11
-89.90442889188887
 21
-2190.3614898246028
 31
0.0
  0
LINE
  5
BDA9
  8
1DIM
 10
-90.90442889188887
 20
-2207.8614898246051
 30
0.0
 11
-90.90442889188887
 21
-2192.3614898246028
 31
0.0
  0
LINE
  5
BDAD
  8
1DIM
 10
-110.9044288918888
 20
-2209.8614898246051
 30
0.0
 11
-79.904428891888884
 21
-2209.8614898246051
 31
0.0
  0
LINE
  5
BDAE
  8
1DIM
 10
-190.9044288918885
 20
-2183.8614898246042
 30
0.0
 11
-79.90442889188887
 21
-2183.8614898246042
 31
0.0
  0
LINE
  5
BDAF
  8
1DIM
 10
-80.90442889188887
 20
-2207.8614898246051
 30
0.0
 11
-80.90442889188887
 21
-2185.8614898246042
 31
0.0
  0
LINE
  5
BDB3
  8
1DIM
 10
-270.9044288918887
 20
-2117.3330763697791
 30
0.0
 11
-270.9044288918887
 21
-2144.8614898246042
 31
0.0
  0
LINE
  5
BDB4
  8
1DIM
 10
-110.9044288918888
 20
-2117.3330763697791
 30
0.0
 11
-110.9044288918888
 21
-2144.8614898246042
 31
0.0
  0
LINE
  5
BDB5
  8
1DIM
 10
-268.9044288918887
 20
-2143.8614898246042
 30
0.0
 11
-112.9044288918888
 21
-2143.8614898246042
 31
0.0
  0
LINE
  5
BDB9
  8
1DIM
 10
-250.9044288918885
 20
-2211.8614898246051
 30
0.0
 11
-250.9044288918885
 21
-2240.8614898246051
 31
0.0
  0
LINE
  5
BDBA
  8
1DIM
 10
-130.9044288918887
 20
-2211.8614898246042
 30
0.0
 11
-130.9044288918887
 21
-2240.8614898246051
 31
0.0
  0
LINE
  5
BDBB
  8
1DIM
 10
-248.9044288918885
 20
-2239.8614898246051
 30
0.0
 11
-132.9044288918887
 21
-2239.8614898246051
 31
0.0
  0
TEXT
  5
BDBF
  8
1DIM
 10
-196.4460955585553
 20
-2239.1614898246048
 30
0.0
 40
3.5
  1
P120
  0
LINE
  5
BDC0
  8
0
  6
BYBLOCK
 10
-132.9044288918887
 20
-2239.325591444604
 30
0.0
 11
-130.9044288918887
 21
-2239.8614898246051
 31
0.0
  0
LINE
  5
BDC1
  8
0
  6
BYBLOCK
 10
-130.9044288918887
 20
-2239.8614898246051
 30
0.0
 11
-132.9044288918887
 21
-2240.3973882046048
 31
0.0
  0
LINE
  5
BDC2
  8
0
  6
BYBLOCK
 10
-130.9044288918887
 20
-2239.8614898246051
 30
0.0
 11
-132.9044288918887
 21
-2239.8614898246051
 31
0.0
  0
LINE
  5
BDC3
  8
0
  6
BYBLOCK
 10
-248.9044288918885
 20
-2240.3973882046048
 30
0.0
 11
-250.9044288918885
 21
-2239.8614898246051
 31
0.0
  0
LINE
  5
BDC4
  8
0
  6
BYBLOCK
 10
-250.9044288918885
 20
-2239.8614898246051
 30
0.0
 11
-248.9044288918885
 21
-2239.325591444604
 31
0.0
  0
LINE
  5
BDC5
  8
0
  6
BYBLOCK
 10
-250.9044288918885
 20
-2239.8614898246051
 30
0.0
 11
-248.9044288918885
 21
-2239.8614898246051
 31
0.0
  0
TEXT
  5
BDC6
  8
1DIM
 10
-194.69609555855541
 20
-2143.1614898246039
 30
0.0
 40
3.5
  1
160
  0
LINE
  5
BDC7
  8
0
  6
BYBLOCK
 10
-112.9044288918888
 20
-2143.325591444604
 30
0.0
 11
-110.9044288918888
 21
-2143.8614898246042
 31
0.0
  0
LINE
  5
BDC8
  8
0
  6
BYBLOCK
 10
-110.9044288918888
 20
-2143.8614898246042
 30
0.0
 11
-112.9044288918888
 21
-2144.3973882046039
 31
0.0
  0
LINE
  5
BDC9
  8
0
  6
BYBLOCK
 10
-110.9044288918888
 20
-2143.8614898246042
 30
0.0
 11
-112.9044288918888
 21
-2143.8614898246042
 31
0.0
  0
LINE
  5
BDCA
  8
0
  6
BYBLOCK
 10
-268.9044288918887
 20
-2144.3973882046039
 30
0.0
 11
-270.9044288918887
 21
-2143.8614898246042
 31
0.0
  0
LINE
  5
BDCB
  8
0
  6
BYBLOCK
 10
-270.9044288918887
 20
-2143.8614898246042
 30
0.0
 11
-268.9044288918887
 21
-2143.325591444604
 31
0.0
  0
LINE
  5
BDCC
  8
0
  6
BYBLOCK
 10
-270.9044288918887
 20
-2143.8614898246042
 30
0.0
 11
-268.9044288918887
 21
-2143.8614898246042
 31
0.0
  0
TEXT
  5
BDCD
  8
1DIM
 10
-81.604428891888517
 20
-2199.7781564912711
 30
0.0
 40
3.5
  1
26
 50
90.0
  0
LINE
  5
BDCE
  8
0
  6
BYBLOCK
 10
-81.440327271888876
 20
-2185.8614898246042
 30
0.0
 11
-80.90442889188887
 21
-2183.8614898246042
 31
0.0
  0
LINE
  5
BDCF
  8
0
  6
BYBLOCK
 10
-80.90442889188887
 20
-2183.8614898246042
 30
0.0
 11
-80.368530511888864
 21
-2185.8614898246042
 31
0.0
  0
LINE
  5
BDD0
  8
0
  6
BYBLOCK
 10
-80.90442889188887
 20
-2183.8614898246042
 30
0.0
 11
-80.90442889188887
 21
-2185.8614898246042
 31
0.0
  0
LINE
  5
BDD1
  8
0
  6
BYBLOCK
 10
-80.368530511888878
 20
-2207.8614898246051
 30
0.0
 11
-80.904428891888884
 21
-2209.8614898246051
 31
0.0
  0
LINE
  5
BDD2
  8
0
  6
BYBLOCK
 10
-80.904428891888884
 20
-2209.8614898246051
 30
0.0
 11
-81.44032727188889
 21
-2207.8614898246051
 31
0.0
  0
LINE
  5
BDD3
  8
0
  6
BYBLOCK
 10
-80.904428891888884
 20
-2209.8614898246051
 30
0.0
 11
-80.904428891888884
 21
-2207.8614898246051
 31
0.0
  0
TEXT
  5
BDD4
  8
1DIM
 10
-91.604428891888517
 20
-2204.7781564912711
 30
0.0
 40
3.5
  1
19.5
 50
90.0
  0
LINE
  5
BDD5
  8
0
  6
BYBLOCK
 10
-91.440327271888876
 20
-2192.3614898246028
 30
0.0
 11
-90.90442889188887
 21
-2190.3614898246028
 31
0.0
  0
LINE
  5
BDD6
  8
0
  6
BYBLOCK
 10
-90.90442889188887
 20
-2190.3614898246028
 30
0.0
 11
-90.368530511888864
 21
-2192.3614898246028
 31
0.0
  0
LINE
  5
BDD7
  8
0
  6
BYBLOCK
 10
-90.90442889188887
 20
-2190.3614898246028
 30
0.0
 11
-90.90442889188887
 21
-2192.3614898246028
 31
0.0
  0
LINE
  5
BDD8
  8
0
  6
BYBLOCK
 10
-90.368530511888878
 20
-2207.8614898246051
 30
0.0
 11
-90.904428891888884
 21
-2209.8614898246051
 31
0.0
  0
LINE
  5
BDD9
  8
0
  6
BYBLOCK
 10
-90.904428891888884
 20
-2209.8614898246051
 30
0.0
 11
-91.44032727188889
 21
-2207.8614898246051
 31
0.0
  0
LINE
  5
BDDA
  8
0
  6
BYBLOCK
 10
-90.904428891888884
 20
-2209.8614898246051
 30
0.0
 11
-90.904428891888884
 21
-2207.8614898246051
 31
0.0
  0
TEXT
  5
BDDB
  8
1DIM
 10
-194.4044288918887
 20
-2229.1614898246048
 30
0.0
 40
3.5
  1
112
  0
LINE
  5
BDDC
  8
0
  6
BYBLOCK
 10
-136.9044288918887
 20
-2229.325591444604
 30
0.0
 11
-134.9044288918887
 21
-2229.8614898246042
 31
0.0
  0
LINE
  5
BDDD
  8
0
  6
BYBLOCK
 10
-134.9044288918887
 20
-2229.8614898246042
 30
0.0
 11
-136.9044288918887
 21
-2230.3973882046039
 31
0.0
  0
LINE
  5
BDDE
  8
0
  6
BYBLOCK
 10
-134.9044288918887
 20
-2229.8614898246042
 30
0.0
 11
-136.9044288918887
 21
-2229.8614898246042
 31
0.0
  0
LINE
  5
BDDF
  8
0
  6
BYBLOCK
 10
-244.90442889188881
 20
-2230.3973882046039
 30
0.0
 11
-246.90442889188881
 21
-2229.8614898246042
 31
0.0
  0
LINE
  5
BDE0
  8
0
  6
BYBLOCK
 10
-246.90442889188881
 20
-2229.8614898246042
 30
0.0
 11
-244.90442889188881
 21
-2229.325591444604
 31
0.0
  0
LINE
  5
BDE1
  8
0
  6
BYBLOCK
 10
-246.90442889188881
 20
-2229.8614898246042
 30
0.0
 11
-244.90442889188881
 21
-2229.8614898246042
 31
0.0
  0
LINE
  5
BDE2
  8
1DIM
 10
-63.3549404368963
 20
-2211.5806912993612
 30
0.0
 11
-53.306917393202639
 21
-2228.4842100718811
 31
0.0
  0
LINE
  5
BDE3
  8
1DIM
 10
-53.306917393202639
 20
-2228.4842100718811
 30
0.0
 11
-50.606917393202629
 21
-2228.4842100718811
 31
0.0
  0
TEXT
  5
BDE4
  8
1DIM
 10
-91.604428891888546
 20
-2119.6664097031121
 30
0.0
 40
3.5
  1
13
 50
90.0
  0
LINE
  5
BDE5
  8
0
  6
BYBLOCK
 10
-90.368530511888906
 20
-2121.8614898246042
 30
0.0
 11
-90.904428891888898
 21
-2123.8614898246042
 31
0.0
  0
LINE
  5
BDE6
  8
0
  6
BYBLOCK
 10
-90.904428891888898
 20
-2123.8614898246042
 30
0.0
 11
-91.440327271888904
 21
-2121.8614898246042
 31
0.0
  0
LINE
  5
BDE7
  8
0
  6
BYBLOCK
 10
-90.904428891888898
 20
-2123.8614898246042
 30
0.0
 11
-90.904428891888898
 21
-2121.8614898246042
 31
0.0
  0
LINE
  5
BDE8
  8
0
  6
BYBLOCK
 10
-91.440327271888904
 20
-2112.804662914954
 30
0.0
 11
-90.904428891888898
 21
-2110.804662914954
 31
0.0
  0
LINE
  5
BDE9
  8
0
  6
BYBLOCK
 10
-90.904428891888898
 20
-2110.804662914954
 30
0.0
 11
-90.368530511888906
 21
-2112.804662914954
 31
0.0
  0
LINE
  5
BDEA
  8
0
  6
BYBLOCK
 10
-90.904428891888898
 20
-2110.804662914954
 30
0.0
 11
-90.904428891888898
 21
-2112.804662914954
 31
0.0
  0
TEXT
  5
BDEB
  8
1DIM
 10
-123.5294288918888
 20
-2239.1614898246048
 30
0.0
 40
3.5
  1
20
  0
LINE
  5
BDEC
  8
0
  6
BYBLOCK
 10
-112.9044288918888
 20
-2239.325591444604
 30
0.0
 11
-110.9044288918888
 21
-2239.8614898246051
 31
0.0
  0
LINE
  5
BDED
  8
0
  6
BYBLOCK
 10
-110.9044288918888
 20
-2239.8614898246051
 30
0.0
 11
-112.9044288918888
 21
-2240.3973882046048
 31
0.0
  0
LINE
  5
BDEE
  8
0
  6
BYBLOCK
 10
-110.9044288918888
 20
-2239.8614898246051
 30
0.0
 11
-112.9044288918888
 21
-2239.8614898246051
 31
0.0
  0
LINE
  5
BDEF
  8
0
  6
BYBLOCK
 10
-128.9044288918887
 20
-2240.3973882046048
 30
0.0
 11
-130.9044288918887
 21
-2239.8614898246051
 31
0.0
  0
LINE
  5
BDF0
  8
0
  6
BYBLOCK
 10
-130.9044288918887
 20
-2239.8614898246051
 30
0.0
 11
-128.9044288918887
 21
-2239.325591444604
 31
0.0
  0
LINE
  5
BDF1
  8
0
  6
BYBLOCK
 10
-130.9044288918887
 20
-2239.8614898246051
 30
0.0
 11
-128.9044288918887
 21
-2239.8614898246051
 31
0.0
  0
TEXT
  5
BDF2
  8
1DIM
 10
-263.52942889188847
 20
-2239.1614898246048
 30
0.0
 40
3.5
  1
20
  0
LINE
  5
BDF3
  8
0
  6
BYBLOCK
 10
-268.90442889188847
 20
-2240.3973882046048
 30
0.0
 11
-270.90442889188847
 21
-2239.8614898246051
 31
0.0
  0
LINE
  5
BDF4
  8
0
  6
BYBLOCK
 10
-270.90442889188847
 20
-2239.8614898246051
 30
0.0
 11
-268.90442889188847
 21
-2239.325591444604
 31
0.0
  0
LINE
  5
BDF5
  8
0
  6
BYBLOCK
 10
-270.90442889188847
 20
-2239.8614898246051
 30
0.0
 11
-268.90442889188847
 21
-2239.8614898246051
 31
0.0
  0
LINE
  5
BDF6
  8
0
  6
BYBLOCK
 10
-252.9044288918885
 20
-2239.325591444604
 30
0.0
 11
-250.9044288918885
 21
-2239.8614898246051
 31
0.0
  0
LINE
  5
BDF7
  8
0
  6
BYBLOCK
 10
-250.9044288918885
 20
-2239.8614898246051
 30
0.0
 11
-252.9044288918885
 21
-2240.3973882046048
 31
0.0
  0
LINE
  5
BDF8
  8
0
  6
BYBLOCK
 10
-250.9044288918885
 20
-2239.8614898246051
 30
0.0
 11
-252.9044288918885
 21
-2239.8614898246051
 31
0.0
  0
LINE
  5
BDF9
  8
1DIM
 10
-217.24305566514579
 20
-2184.476590004123
 30
0.0
 11
-233.17966161077669
 21
-2166.8853632652599
 31
0.0
1001
ACAD
1000
DSTYLE
1002
{
1070
    45
1040
0.5
1002
}
  0
VIEWPORT
  5
57
 67
     1
  8
0
 10
81.078623929536008
 20
9.8414732014601896
 30
0.0
 40
583.08311701539378
 41
268.09183817136761
 68
     1
 69
     1
1001
ACAD
1000
MVIEW
1002
{
1070
    16
1010
0.0
1020
0.0
1030
0.0
1010
0.0
1020
0.0
1030
1.0
1040
0.0
1040
268.09183817136761
1040
81.078623929536008
1040
9.8414732014601896
1040
50.0
1040
0.0
1040
0.0
1070
     0
1070
   100
1070
     1
1070
     1
1070
     0
1070
     0
1070
     0
1070
     0
1040
0.0
1040
0.0
1040
0.0
1040
10.0
1040
10.0
1040
10.0
1040
10.0
1070
     0
1002
{
1002
}
1002
}
  0
ENDSEC
  0
EOF
