  0
SECTION
  2
HEADER
  9
$ACADVER
  1
AC1009
  9
$INSBASE
 10
0.0
 20
0.0
 30
0.0
  9
$EXTMIN
 10
-411.57483889188859
 20
-2297.8614898246051
 30
0.0
  9
$EXTMAX
 10
-56.404430550195997
 20
-2081.8614788246041
 30
0.0
  9
$LIMMIN
 10
0.0
 20
0.0
  9
$LIMMAX
 10
420.0
 20
297.0
  9
$ORTHOMODE
 70
     0
  9
$REGENMODE
 70
     1
  9
$FILLMODE
 70
     1
  9
$QTEXTMODE
 70
     0
  9
$MIRRTEXT
 70
     0
  9
$DRAGMODE
 70
     2
  9
$LTSCALE
 40
0.5
  9
$OSMODE
 70
    63
  9
$ATTMODE
 70
     1
  9
$TEXTSIZE
 40
4.0
  9
$TRACEWID
 40
1.0
  9
$TEXTSTYLE
  7
STANDARD
  9
$CLAYER
  8
1TEXT
  9
$CELTYPE
  6
BYLAYER
  9
$CECOLOR
 62
   256
  9
$DIMSCALE
 40
1.0
  9
$DIMASZ
 40
2.0
  9
$DIMEXO
 40
0.0
  9
$DIMDLI
 40
7.0
  9
$DIMRND
 40
0.0
  9
$DIMDLE
 40
0.0
  9
$DIMEXE
 40
1.0
  9
$DIMTP
 40
0.0
  9
$DIMTM
 40
0.0
  9
$DIMTXT
 40
3.5
  9
$DIMCEN
 40
0.0
  9
$DIMTSZ
 40
0.0
  9
$DIMTOL
 70
     0
  9
$DIMLIM
 70
     0
  9
$DIMTIH
 70
     0
  9
$DIMTOH
 70
     0
  9
$DIMSE1
 70
     0
  9
$DIMSE2
 70
     0
  9
$DIMTAD
 70
     1
  9
$DIMZIN
 70
     8
  9
$DIMBLK
  1

  9
$DIMASO
 70
     1
  9
$DIMSHO
 70
     1
  9
$DIMPOST
  1
 
  9
$DIMAPOST
  1

  9
$DIMALT
 70
     0
  9
$DIMALTD
 70
     2
  9
$DIMALTF
 40
25.399999999999999
  9
$DIMLFAC
 40
1.0
  9
$DIMTOFL
 70
     1
  9
$DIMTVP
 40
0.0
  9
$DIMTIX
 70
     0
  9
$DIMSOXD
 70
     0
  9
$DIMSAH
 70
     1
  9
$DIMBLK1
  1
OPEN30
  9
$DIMBLK2
  1
OPEN30
  9
$DIMSTYLE
  2
NEWX10
  9
$DIMCLRD
 70
   256
  9
$DIMCLRE
 70
   256
  9
$DIMCLRT
 70
   201
  9
$DIMTFAC
 40
0.7
  9
$DIMGAP
 40
0.7
  9
$LUNITS
 70
     2
  9
$LUPREC
 70
     4
  9
$SKETCHINC
 40
1.0
  9
$FILLETRAD
 40
0.0
  9
$AUNITS
 70
     0
  9
$AUPREC
 70
     2
  9
$MENU
  1
acad
  9
$ELEVATION
 40
0.0
  9
$PELEVATION
 40
0.0
  9
$THICKNESS
 40
0.0
  9
$LIMCHECK
 70
     0
  9
$BLIPMODE
 70
     0
  9
$CHAMFERA
 40
10.0
  9
$CHAMFERB
 40
10.0
  9
$SKPOLY
 70
     0
  9
$TDCREATE
 40
2453033.7326634838
  9
$TDUPDATE
 40
2457014.7270433558
  9
$TDINDWG
 40
0.4455226505
  9
$TDUSRTIMER
 40
0.4455226505
  9
$USRTIMER
 70
     1
  9
$ANGBASE
 50
0.0
  9
$ANGDIR
 70
     0
  9
$PDMODE
 70
     0
  9
$PDSIZE
 40
0.0
  9
$PLINEWID
 40
0.0
  9
$COORDS
 70
     0
  9
$SPLFRAME
 70
     0
  9
$SPLINETYPE
 70
     6
  9
$SPLINESEGS
 70
     8
  9
$ATTDIA
 70
     0
  9
$ATTREQ
 70
     1
  9
$HANDLING
 70
     1
  9
$HANDSEED
  5
BD4F
  9
$SURFTAB1
 70
     6
  9
$SURFTAB2
 70
     6
  9
$SURFTYPE
 70
     6
  9
$SURFU
 70
     6
  9
$SURFV
 70
     6
  9
$UCSNAME
  2

  9
$UCSORG
 10
0.0
 20
0.0
 30
0.0
  9
$UCSXDIR
 10
1.0
 20
0.0
 30
0.0
  9
$UCSYDIR
 10
0.0
 20
1.0
 30
0.0
  9
$PUCSNAME
  2

  9
$PUCSORG
 10
0.0
 20
0.0
 30
0.0
  9
$PUCSXDIR
 10
1.0
 20
0.0
 30
0.0
  9
$PUCSYDIR
 10
0.0
 20
1.0
 30
0.0
  9
$USERI1
 70
     0
  9
$USERI2
 70
     0
  9
$USERI3
 70
     0
  9
$USERI4
 70
     0
  9
$USERI5
 70
     0
  9
$USERR1
 40
0.0
  9
$USERR2
 40
0.0
  9
$USERR3
 40
0.0
  9
$USERR4
 40
0.0
  9
$USERR5
 40
0.0
  9
$WORLDVIEW
 70
     1
  9
$SHADEDGE
 70
     3
  9
$SHADEDIF
 70
    70
  9
$TILEMODE
 70
     1
  9
$MAXACTVP
 70
    48
  9
$PLIMCHECK
 70
     0
  9
$PEXTMIN
 10
1.0000000000000000E+020
 20
1.0000000000000000E+020
 30
1.0000000000000000E+020
  9
$PEXTMAX
 10
-1.0000000000000000E+020
 20
-1.0000000000000000E+020
 30
-1.0000000000000000E+020
  9
$PLIMMIN
 10
0.0
 20
0.0
  9
$PLIMMAX
 10
420.0
 20
297.0
  9
$UNITMODE
 70
     0
  9
$VISRETAIN
 70
     1
  9
$PLINEGEN
 70
     0
  9
$PSLTSCALE
 70
     1
  0
ENDSEC
  0
SECTION
  2
TABLES
  0
TABLE
  2
VPORT
 70
     1
  0
VPORT
  2
*ACTIVE
 70
     0
 10
0.0
 20
0.0
 11
1.0
 21
1.0
 12
-233.9883861571108
 22
-2189.8478416092639
 13
0.0
 23
0.0
 14
10.0
 24
10.0
 15
10.0
 25
10.0
 16
0.0
 26
0.0
 36
1.0
 17
0.0
 27
0.0
 37
0.0
 40
229.25577943895891
 41
2.1749379652605461
 42
50.0
 43
0.0
 44
0.0
 50
0.0
 51
0.0
 71
     0
 72
   100
 73
     1
 74
     1
 75
     0
 76
     0
 77
     0
 78
     0
  0
ENDTAB
  0
TABLE
  2
LTYPE
 70
    17
  0
LTYPE
  2
CONTINUOUS
 70
     0
  3
Solid line
 72
    65
 73
     0
 40
0.0
  0
LTYPE
  2
CENTER2
 70
     0
  3
Center (.5x) ___ _ ___ _ ___ _ ___ _ ___ _ ___
 72
    65
 73
     4
 40
28.574999999999999
 49
19.050000000000001
 49
-3.1749999999999989
 49
3.1749999999999989
 49
-3.1749999999999989
  0
LTYPE
  2
XREF1|CENTER2
 70
    48
  3
Center (.5x) ___ _ ___ _ ___ _ ___ _ ___ _ ___
 72
    65
 73
     4
 40
28.574999999999999
 49
19.050000000000001
 49
-3.1749999999999989
 49
3.1749999999999989
 49
-3.1749999999999989
  0
LTYPE
  2
A3WAKUDAKE|CENTER2
 70
    48
  3
Center (.5x) ___ _ ___ _ ___ _ ___ _ ___ _ ___
 72
    65
 73
     4
 40
28.574999999999999
 49
19.050000000000001
 49
-3.1749999999999989
 49
3.1749999999999989
 49
-3.1749999999999989
  0
ENDTAB
  0
TABLE
  2
LAYER
 70
    49
  0
LAYER
  2
0
 70
     0
 62
     7
  6
CONTINUOUS
  0
LAYER
  2
1CENTER
 70
     0
 62
     7
  6
CENTER2
  0
LAYER
  2
1TEXT
 70
     0
 62
     7
  6
CONTINUOUS
  0
LAYER
  2
1DIM
 70
     0
 62
     7
  6
CONTINUOUS
  0
LAYER
  2
01
 70
     0
 62
     1
  6
CONTINUOUS
  0
LAYER
  2
A3WAKUDAKE|THICK
 70
    48
 62
     7
  6
CONTINUOUS
  0
LAYER
  2
A3WAKUDAKE|POINT
 70
    48
 62
     7
  6
CONTINUOUS
  0
LAYER
  2
A3WAKUDAKE|1CENTER
 70
    48
 62
     7
  6
A3WAKUDAKE|CENTER2
  0
LAYER
  2
A3WAKUDAKE|0-6
 70
    48
 62
     7
  6
CONTINUOUS
  0
LAYER
  2
A3WAKUDAKE|1DIM
 70
    48
 62
     7
  6
CONTINUOUS
  0
LAYER
  2
XREF1|1CENTER
 70
    48
 62
     7
  6
XREF1|CENTER2
  0
ENDTAB
  0
TABLE
  2
STYLE
 70
    23
  0
STYLE
  2
STANDARD
 70
     0
 40
0.0
 41
1.0
 50
0.0
 71
     0
 42
4.0
  3
txt.shx
  4
extfont.shx
  0
ENDTAB
  0
TABLE
  2
VIEW
 70
     5
  0
ENDTAB
  0
TABLE
  2
UCS
 70
     0
  0
ENDTAB
  0
TABLE
  2
APPID
 70
    14
  0
APPID
  2
ACAD
 70
     0
  0
APPID
  2
DRAWINGVARIABLESXDATA
 70
     0
  0
APPID
  2
CONTENTTABDATA
 70
     0
  0
APPID
  2
CONTENTCURRENTTAB
 70
     0
  0
APPID
  2
CONTENTBLOCKDESCRIPTION
 70
     0
  0
APPID
  2
CONTENTBLOCKICON
 70
     0
  0
APPID
  2
CONTENTLONGBLOCKNAME
 70
     0
  0
APPID
  2
ACAD_PSEXT
 70
     0
  0
APPID
  2
ACAD_DSTYLE_DIMTEXT_FILL
 70
     0
  0
APPID
  2
ACAD_DSTYLE_DIMRADIAL_EXTENSION
 70
     0
  0
APPID
  2
ACLAYERTOOLS
 70
     0
  0
APPID
  2
ACAD_MLEADERVER
 70
     0
  0
APPID
  2
ACAD_EXEMPT_FROM_CAD_STANDARDS
 70
     0
  0
APPID
  2
ACAD_NAV_VCDISPLAY
 70
     0
  0
ENDTAB
  0
TABLE
  2
DIMSTYLE
 70
     8
  0
DIMSTYLE
  2
NEWX10
 70
     0
  3
 
  4

  5

  6
OPEN30
  7
OPEN30
 40
1.0
 41
2.0
 42
0.0
 43
7.0
 44
1.0
 45
0.0
 46
0.0
 47
0.0
 48
0.0
140
3.5
141
0.0
142
0.0
143
25.399999999999999
144
1.0
145
0.0
146
0.7
147
0.7
 71
     0
 72
     0
 73
     0
 74
     0
 75
     0
 76
     0
 77
     1
 78
     8
170
     0
171
     2
172
     1
173
     1
174
     0
175
     0
176
   256
177
   256
178
   201
  0
ENDTAB
  0
ENDSEC
  0
SECTION
  2
BLOCKS
  0
BLOCK
  8
0
  2
$MODEL_SPACE
 70
     0
 10
0.0
 20
0.0
 30
0.0
  3
$MODEL_SPACE
  1

  0
ENDBLK
  5
1A
  8
0
  0
BLOCK
 67
     1
  8
0
  2
$PAPER_SPACE
 70
     0
 10
0.0
 20
0.0
 30
0.0
  3
$PAPER_SPACE
  1

  0
ENDBLK
  5
17
 67
     1
  8
0
  0
BLOCK
  8
0
  2
_OPEN30
 70
     0
 10
0.0
 20
0.0
 30
0.0
  3
_OPEN30
  1

  0
LINE
  5
44
  8
0
  6
BYBLOCK
 62
     0
 10
-1.0
 20
0.26794919
 30
0.0
 11
0.0
 21
0.0
 31
0.0
  0
LINE
  5
45
  8
0
  6
BYBLOCK
 62
     0
 10
0.0
 20
0.0
 30
0.0
 11
-1.0
 21
-0.26794919
 31
0.0
  0
LINE
  5
46
  8
0
  6
BYBLOCK
 62
     0
 10
0.0
 20
0.0
 30
0.0
 11
-1.0
 21
0.0
 31
0.0
  0
ENDBLK
  5
47
  8
0
  0
BLOCK
  8
0
  2
XREF1
 70
    36
 10
0.0
 20
0.0
 30
0.0
  3
XREF1
  1
D:\ACLT\FORMAT\KAWAJUN(9)図面用.dwg
  0
ENDBLK
  5
5D
  8
0
  0
BLOCK
  8
0
  2
A3WAKUDAKE
 70
    36
 10
0.0
 20
0.0
 30
0.0
  3
A3WAKUDAKE
  1
D:\ACLT\FORMAT\A3WAKUdake.dwg
  0
ENDBLK
  5
6DC
  8
0
  0
ENDSEC
  0
SECTION
  2
ENTITIES
  0
TEXT
  5
349B
  8
1TEXT
 10
-411.57483889188859
 20
-2089.8614788246032
 30
0.0
 40
8.0
  1
PC-113-X
  0
LINE
  5
A81C
  8
1CENTER
 10
-63.654370820296258
 20
-2199.8615047163621
 30
0.0
 11
-63.654370820296258
 21
-2211.8615047163621
 31
0.0
  0
LINE
  5
A81D
  8
1CENTER
 10
-136.23962889188829
 20
-2199.8614898246042
 30
0.0
 11
-136.23962889188829
 21
-2211.8614898246042
 31
0.0
  0
LINE
  5
A81E
  8
1CENTER
 10
-386.23962889188829
 20
-2199.8614898246028
 30
0.0
 11
-386.23962889188829
 21
-2211.8614898246028
 31
0.0
  0
LINE
  5
A81F
  8
1CENTER
 10
-136.2396288918884
 20
-2115.6115288246042
 30
0.0
 11
-136.2396288918884
 21
-2109.6115288246042
 31
0.0
  0
LINE
  5
A820
  8
1CENTER
 10
-139.2396288918884
 20
-2112.6115288246042
 30
0.0
 11
-133.2396288918884
 21
-2112.6115288246042
 31
0.0
  0
LINE
  5
A821
  8
1CENTER
 10
-386.2396288918884
 20
-2115.6115288246042
 30
0.0
 11
-386.2396288918884
 21
-2109.6115288246042
 31
0.0
  0
LINE
  5
A822
  8
1CENTER
 10
-389.2396288918884
 20
-2112.6115288246042
 30
0.0
 11
-383.2396288918884
 21
-2112.6115288246042
 31
0.0
  0
ARC
  5
B7C0
  8
01
 10
-68.208056207843185
 20
-2183.361468633374
 30
0.0
 40
2.696372684045683
 50
110.01635369387451
 51
190.7195622793688
  0
ARC
  5
B7C1
  8
01
 10
-59.100915869734131
 20
-2183.36151101427
 30
0.0
 40
2.6964853195381289
 50
349.74637054457583
 51
69.984444686494356
  0
ARC
  5
B7C2
  8
01
 10
-63.65437967246077
 20
-2195.861489824279
 30
0.0
 40
16.0
 50
69.984444686494754
 51
110.0163536938753
  0
LINE
  5
B7C4
  8
01
 10
-70.861264370105857
 20
-2183.8415012567698
 30
0.0
 11
-66.154379672460763
 21
-2209.861501458578
 31
0.0
  0
LINE
  5
B7C5
  8
01
 10
-70.886781895495275
 20
-2183.6694529537231
 30
0.0
 11
-67.654379672460777
 21
-2209.861508438963
 31
0.0
  0
LINE
  5
B7C6
  8
01
 10
-56.44749497481569
 20
-2183.8415012567698
 30
0.0
 11
-61.15437967246077
 21
-2209.8615014585789
 31
0.0
  0
LINE
  5
B7C7
  8
01
 10
-56.447494974815598
 20
-2183.8415012567689
 30
0.0
 11
-59.654379672460777
 21
-2209.861508438963
 31
0.0
  0
LINE
  5
B7C8
  8
01
 10
-59.654379672460777
 20
-2209.861508438963
 30
0.0
 11
-67.654379672460777
 21
-2209.8614712102449
 31
0.0
  0
ARC
  5
B7C9
  8
01
 10
-406.57458889188831
 20
-2209.263436824604
 30
0.0
 40
5.0
 50
109.06226299999921
 51
180.0
  0
ARC
  5
B7CB
  8
01
 10
-261.23962889188829
 20
-2686.8614788246041
 30
0.0
 40
500.0
 50
76.986900000000659
 51
103.0130790000027
  0
ARC
  5
B7CC
  8
01
 10
-261.23962889188829
 20
-2629.8614788246041
 30
0.0
 40
450.0
 50
70.937700000000049
 51
89.999997000000675
  0
LINE
  5
B7CD
  8
01
 10
-110.9044288918887
 20
-2209.8614898246042
 30
0.0
 11
-140.90442889188881
 21
-2209.8614898246042
 31
0.0
  0
LINE
  5
B7CE
  8
01
 10
-110.9044288918887
 20
-2209.2634978246042
 30
0.0
 11
-110.9044288918887
 21
-2209.8614898246042
 31
0.0
  0
ARC
  5
B7CF
  8
01
 10
-115.9044288918887
 20
-2209.2634978246042
 30
0.0
 40
5.0
 50
359.999989999999
 51
70.937700000000049
  0
ARC
  5
B7D1
  8
01
 10
-150.9044288918887
 20
-2209.4453818246038
 30
0.0
 40
10.0
 50
0.0
 51
76.986900000000659
  0
LINE
  5
B7D3
  8
01
 10
-140.9044288918887
 20
-2209.4453818246052
 30
0.0
 11
-140.90442889188881
 21
-2209.8614898246042
 31
0.0
  0
ARC
  5
B7D4
  8
01
 10
-261.23962889188829
 20
-2629.8614788246041
 30
0.0
 40
450.0
 50
89.999997000000675
 51
109.06226299999921
  0
LINE
  5
B7D6
  8
01
 10
-381.57483889188848
 20
-2209.8614898246042
 30
0.0
 11
-411.57483889188842
 21
-2209.8614898246042
 31
0.0
  0
ARC
  5
B7D7
  8
01
 10
-371.57458889188842
 20
-2209.4453518246041
 30
0.0
 40
10.0
 50
103.0130790000027
 51
180.0
  0
LINE
  5
B7D8
  8
01
 10
-381.57483889188848
 20
-2209.4453818246038
 30
0.0
 11
-381.57483889188848
 21
-2209.8614898246042
 31
0.0
  0
LINE
  5
B7DA
  8
01
 10
-411.57483889188842
 20
-2209.2634978246042
 30
0.0
 11
-411.57483889188842
 21
-2209.8614898246042
 31
0.0
  0
ARC
  5
B7DC
  8
01
 10
-261.16467889188789
 20
1080.1385211753959
 30
0.0
 40
3200.0
 50
269.99865699999918
 51
272.21677500000033
  0
ARC
  5
B7DD
  8
01
 10
-261.16894889188899
 20
-5305.3614788246032
 30
0.0
 40
3200.0
 50
87.783180000000684
 51
90.001269999999266
  0
ARC
  5
B7DE
  8
01
 10
-148.9914588918885
 20
-1817.6913688246029
 30
0.0
 40
300.0
 50
272.21677500000033
 51
276.78467499999869
  0
ARC
  5
B7DF
  8
01
 10
-148.99341889188821
 20
-2407.5314988246041
 30
0.0
 40
300.0
 50
83.214959999999294
 51
87.784930000000287
  0
ARC
  5
B7E0
  8
01
 10
-113.9044288918888
 20
-2112.6115288246042
 30
0.0
 40
3.0
 50
276.78467499999869
 51
83.214950000000456
  0
ARC
  5
B7E2
  8
01
 10
-261.31030889188861
 20
-5305.3614788246032
 30
0.0
 40
3200.0
 50
89.998730000000734
 51
92.216819999999274
  0
ARC
  5
B7E3
  8
01
 10
-261.31457889188817
 20
1080.1385211753959
 30
0.0
 40
3200.0
 50
267.78322400000019
 51
270.00134099999963
  0
ARC
  5
B7E4
  8
01
 10
-373.48767889188861
 20
-1817.6913688246029
 30
0.0
 40
300.0
 50
263.2153300000017
 51
267.78322400000019
  0
ARC
  5
B7E5
  8
01
 10
-373.48584889188839
 20
-2407.5314988246041
 30
0.0
 40
300.0
 50
92.215069999999699
 51
96.785049999999544
  0
ARC
  5
B7E7
  8
01
 10
-408.57483889188859
 20
-2112.6115288246042
 30
0.0
 40
3.0
 50
96.785049999999544
 51
263.2153300000017
  0
LINE
  5
BB66
  8
1DIM
 10
-411.57483889188859
 20
-2297.8614898246051
 30
0.0
 11
-341.57483889188859
 21
-2297.8614898246051
 31
0.0
  0
TEXT
  5
BB67
  8
1TEXT
 10
-404.8224579395075
 20
-2275.3614898246051
 30
0.0
 40
4.0
  1
表面処理：
 72
     1
 11
-394.1748388918885
 21
-2275.3614898246051
 31
0.0
  0
TEXT
  5
BB68
  8
1TEXT
 10
-403.5081722252217
 20
-2289.196778484129
 30
0.0
 40
4.0
  1
クローム
 72
     1
 11
-394.1748388918885
 21
-2289.196778484129
 31
0.0
  0
TEXT
  5
BB69
  8
1TEXT
 10
-405.37483889188849
 20
-2282.3393848445889
 30
0.0
 40
4.0
  1
本金メッキ
 72
     1
 11
-394.1748388918885
 21
-2282.3393848445889
 31
0.0
  0
LINE
  5
BB6A
  8
1DIM
 10
-411.57483889188859
 20
-2269.8614898246051
 30
0.0
 11
-341.57483889188859
 21
-2269.8614898246051
 31
0.0
  0
LINE
  5
BB6B
  8
1DIM
 10
-411.57483889188859
 20
-2283.8614898246051
 30
0.0
 11
-341.57483889188859
 21
-2283.8614898246051
 31
0.0
  0
LINE
  5
BB6C
  8
1DIM
 10
-411.57483889188859
 20
-2276.8614898246051
 30
0.0
 11
-341.57483889188859
 21
-2276.8614898246051
 31
0.0
  0
LINE
  5
BB6D
  8
1DIM
 10
-411.57483889188859
 20
-2290.8614898246051
 30
0.0
 11
-341.57483889188859
 21
-2290.8614898246051
 31
0.0
  0
LINE
  5
BB6E
  8
1DIM
 10
-411.57483889188859
 20
-2290.8614898246051
 30
0.0
 11
-341.57483889188859
 21
-2290.8614898246051
 31
0.0
  0
LINE
  5
BB6F
  8
1DIM
 10
-376.57483889188859
 20
-2269.8614898246051
 30
0.0
 11
-376.57483889188859
 21
-2297.8614898246051
 31
0.0
  0
TEXT
  5
BB70
  8
1TEXT
 10
-365.97483889188851
 20
-2275.3614898246051
 30
0.0
 40
4.0
  1
コード
 72
     1
 11
-359.1748388918885
 21
-2275.3614898246051
 31
0.0
  0
TEXT
  5
BB71
  8
1TEXT
 10
-410.44150555855509
 20
-2296.172403436175
 30
0.0
 40
4.0
  1
サテンニッケル
 72
     1
 11
-394.1748388918885
 21
-2296.172403436175
 31
0.0
  0
LINE
  5
BB72
  8
1DIM
 10
-411.57483889188859
 20
-2297.8614898246051
 30
0.0
 11
-411.57483889188859
 21
-2269.8614898246051
 31
0.0
  0
LINE
  5
BB73
  8
1DIM
 10
-341.57483889188859
 20
-2297.8614898246051
 30
0.0
 11
-341.57483889188859
 21
-2269.8614898246051
 31
0.0
  0
TEXT
  5
BB74
  8
1TEXT
 10
-373.57483889188899
 20
-2282.3614898246051
 30
0.0
 40
4.0
  1
PC-113-XG
 41
0.9
 72
     1
 11
-359.17483889188912
 21
-2282.3614898246051
 31
0.0
  0
TEXT
  5
BB75
  8
1TEXT
 10
-373.57483889188899
 20
-2289.3614898246051
 30
0.0
 40
4.0
  1
PC-113-XC
 41
0.9
 72
     1
 11
-359.17483889188912
 21
-2289.3614898246051
 31
0.0
  0
TEXT
  5
BB76
  8
1TEXT
 10
-373.57483889188899
 20
-2296.3614898246042
 30
0.0
 40
4.0
  1
PC-113-XN
 41
0.9
 72
     1
 11
-359.17483889188912
 21
-2296.3614898246042
 31
0.0
  0
TEXT
  5
BC8A
  8
01
 10
-397.61254485888111
 20
-2160.3520299319271
 30
0.0
 40
3.5
  1
材質：亜鉛ダイキャスト
  0
TEXT
  5
BC8B
  8
01
 10
-389.44587819221442
 20
-2166.185363265261
 30
0.0
 40
3.5
  1
仕上げ：各種メッキ
  0
SOLID
  5
BC8C
  8
1DIM
 10
-336.16223856406151
 20
-2184.2527921694359
 30
0.0
 11
-335.06648523845968
 21
-2185.9587920992549
 31
0.0
 12
-336.6563059291056
 22
-2184.7003878388109
 32
0.0
 13
-336.6563059291056
 23
-2184.7003878388109
 33
0.0
1001
ACAD
1000
DSTYLE
1002
{
1070
    45
1040
0.5
1002
}
  0
LINE
  5
BC90
  8
1DIM
 10
-261.31030889188838
 20
-2105.3614788246032
 30
0.0
 11
-89.904428891888884
 21
-2105.3614788246032
 31
0.0
  0
LINE
  5
BC91
  8
1DIM
 10
-261.31457889188869
 20
-2119.8614788246041
 30
0.0
 11
-89.904428891888884
 21
-2119.8614788246041
 31
0.0
  0
LINE
  5
BC92
  8
1DIM
 10
-90.904428891888898
 20
-2107.3614788246041
 30
0.0
 11
-90.904428891888898
 21
-2117.8614788246041
 31
0.0
  0
LINE
  5
BC96
  8
1DIM
 10
-386.23962889188829
 20
-2211.8614898246028
 30
0.0
 11
-386.23962889188829
 21
-2240.8614898246051
 31
0.0
  0
LINE
  5
BC97
  8
1DIM
 10
-411.57483889188842
 20
-2209.8614898246042
 30
0.0
 11
-411.57483889188842
 21
-2240.8614898246051
 31
0.0
  0
LINE
  5
BC98
  8
1DIM
 10
-388.23962889188829
 20
-2239.8614898246051
 30
0.0
 11
-409.57483889188848
 21
-2239.8614898246051
 31
0.0
  0
LINE
  5
BC9C
  8
1DIM
 10
-136.23962889188829
 20
-2211.8614898246042
 30
0.0
 11
-136.23962889188829
 21
-2240.8614898246051
 31
0.0
  0
LINE
  5
BC9D
  8
1DIM
 10
-110.9044288918887
 20
-2209.8614898246042
 30
0.0
 11
-110.9044288918887
 21
-2240.8614898246051
 31
0.0
  0
LINE
  5
BC9E
  8
1DIM
 10
-134.23962889188829
 20
-2239.8614898246051
 30
0.0
 11
-112.9044288918887
 21
-2239.8614898246051
 31
0.0
  0
TEXT
  5
BCA2
  8
1TEXT
 10
-88.770462574664322
 20
-2227.784213329664
 30
0.0
 40
3.5000000000000009
  1
M4-6
  0
SOLID
  5
BCA3
  8
1DIM
 10
-64.962847583946782
 20
-2211.4103701309159
 30
0.0
 11
-63.654368827792773
 21
-2209.8615013644271
 31
0.0
 12
-64.389783186374501
 22
-2211.751018983372
 32
0.0
 13
-64.389783186374501
 23
-2211.751018983372
 33
0.0
  0
LINE
  5
BCA5
  8
1DIM
 10
-381.57483889188848
 20
-2209.8614898246042
 30
0.0
 11
-381.57483889188848
 21
-2230.8614898246042
 31
0.0
  0
LINE
  5
BCA6
  8
1DIM
 10
-140.90442889188881
 20
-2209.8614898246042
 30
0.0
 11
-140.90442889188881
 21
-2230.8614898246042
 31
0.0
  0
LINE
  5
BCA7
  8
1DIM
 10
-379.57483889188848
 20
-2229.8614898246042
 30
0.0
 11
-142.90442889188881
 21
-2229.8614898246042
 31
0.0
  0
LINE
  5
BCAB
  8
1DIM
 10
-110.9044288918888
 20
-2209.8614898246051
 30
0.0
 11
-89.904428891888884
 21
-2209.8614898246051
 31
0.0
  0
LINE
  5
BCAC
  8
1DIM
 10
-261.23962889188829
 20
-2186.8614788246041
 30
0.0
 11
-89.90442889188887
 21
-2186.8614788246041
 31
0.0
  0
LINE
  5
BCAD
  8
1DIM
 10
-90.90442889188887
 20
-2207.8614898246051
 30
0.0
 11
-90.90442889188887
 21
-2188.8614788246041
 31
0.0
  0
LINE
  5
BCB1
  8
1DIM
 10
-110.9044288918888
 20
-2209.8614898246051
 30
0.0
 11
-79.904428891888884
 21
-2209.8614898246051
 31
0.0
  0
LINE
  5
BCB2
  8
1DIM
 10
-261.23962889188829
 20
-2179.8614788246041
 30
0.0
 11
-79.90442889188887
 21
-2179.8614788246041
 31
0.0
  0
LINE
  5
BCB3
  8
1DIM
 10
-80.90442889188887
 20
-2207.8614898246051
 30
0.0
 11
-80.90442889188887
 21
-2181.8614788246041
 31
0.0
  0
LINE
  5
BCB7
  8
1DIM
 10
-411.57483889188859
 20
-2112.6115288246042
 30
0.0
 11
-411.57483889188859
 21
-2140.8614788246041
 31
0.0
  0
LINE
  5
BCB8
  8
1DIM
 10
-110.9044288918888
 20
-2112.6115288246042
 30
0.0
 11
-110.9044288918888
 21
-2140.8614788246041
 31
0.0
  0
LINE
  5
BCB9
  8
1DIM
 10
-409.57483889188848
 20
-2139.8614788246041
 30
0.0
 11
-112.9044288918888
 21
-2139.8614788246041
 31
0.0
  0
LINE
  5
BCBD
  8
1DIM
 10
-386.23962889188829
 20
-2211.8614898246028
 30
0.0
 11
-386.23962889188829
 21
-2240.8614898246051
 31
0.0
  0
LINE
  5
BCBE
  8
1DIM
 10
-136.23962889188829
 20
-2211.8614898246042
 30
0.0
 11
-136.23962889188829
 21
-2240.8614898246051
 31
0.0
  0
LINE
  5
BCBF
  8
1DIM
 10
-384.23962889188829
 20
-2239.8614898246051
 30
0.0
 11
-138.23962889188829
 21
-2239.8614898246051
 31
0.0
  0
TEXT
  5
BCC3
  8
1DIM
 10
-267.36462889188829
 20
-2239.1614898246048
 30
0.0
 40
3.5
  1
P250
  0
LINE
  5
BCC4
  8
0
  6
BYBLOCK
 10
-138.23962889188829
 20
-2239.325591444604
 30
0.0
 11
-136.23962889188829
 21
-2239.8614898246051
 31
0.0
  0
LINE
  5
BCC5
  8
0
  6
BYBLOCK
 10
-136.23962889188829
 20
-2239.8614898246051
 30
0.0
 11
-138.23962889188829
 21
-2240.3973882046048
 31
0.0
  0
LINE
  5
BCC6
  8
0
  6
BYBLOCK
 10
-136.23962889188829
 20
-2239.8614898246051
 30
0.0
 11
-138.23962889188829
 21
-2239.8614898246051
 31
0.0
  0
LINE
  5
BCC7
  8
0
  6
BYBLOCK
 10
-384.23962889188829
 20
-2240.3973882046048
 30
0.0
 11
-386.23962889188829
 21
-2239.8614898246051
 31
0.0
  0
LINE
  5
BCC8
  8
0
  6
BYBLOCK
 10
-386.23962889188829
 20
-2239.8614898246051
 30
0.0
 11
-384.23962889188829
 21
-2239.325591444604
 31
0.0
  0
LINE
  5
BCC9
  8
0
  6
BYBLOCK
 10
-386.23962889188829
 20
-2239.8614898246051
 30
0.0
 11
-384.23962889188829
 21
-2239.8614898246051
 31
0.0
  0
TEXT
  5
BCCA
  8
1DIM
 10
-265.03130055855542
 20
-2139.1614788246038
 30
0.0
 40
3.5
  1
301
  0
LINE
  5
BCCB
  8
0
  6
BYBLOCK
 10
-112.9044288918888
 20
-2139.325580444603
 30
0.0
 11
-110.9044288918888
 21
-2139.8614788246041
 31
0.0
  0
LINE
  5
BCCC
  8
0
  6
BYBLOCK
 10
-110.9044288918888
 20
-2139.8614788246041
 30
0.0
 11
-112.9044288918888
 21
-2140.3973772046038
 31
0.0
  0
LINE
  5
BCCD
  8
0
  6
BYBLOCK
 10
-110.9044288918888
 20
-2139.8614788246041
 30
0.0
 11
-112.9044288918888
 21
-2139.8614788246041
 31
0.0
  0
LINE
  5
BCCE
  8
0
  6
BYBLOCK
 10
-409.57483889188848
 20
-2140.3973772046038
 30
0.0
 11
-411.57483889188859
 21
-2139.8614788246041
 31
0.0
  0
LINE
  5
BCCF
  8
0
  6
BYBLOCK
 10
-411.57483889188859
 20
-2139.8614788246041
 30
0.0
 11
-409.57483889188848
 21
-2139.325580444603
 31
0.0
  0
LINE
  5
BCD0
  8
0
  6
BYBLOCK
 10
-411.57483889188859
 20
-2139.8614788246041
 30
0.0
 11
-409.57483889188848
 21
-2139.8614788246041
 31
0.0
  0
TEXT
  5
BCD1
  8
1DIM
 10
-81.604428891888517
 20
-2197.4864843246041
 30
0.0
 40
3.5
  1
30
 50
90.0
  0
LINE
  5
BCD2
  8
0
  6
BYBLOCK
 10
-81.440327271888876
 20
-2181.8614788246041
 30
0.0
 11
-80.90442889188887
 21
-2179.8614788246041
 31
0.0
  0
LINE
  5
BCD3
  8
0
  6
BYBLOCK
 10
-80.90442889188887
 20
-2179.8614788246041
 30
0.0
 11
-80.368530511888864
 21
-2181.8614788246041
 31
0.0
  0
LINE
  5
BCD4
  8
0
  6
BYBLOCK
 10
-80.90442889188887
 20
-2179.8614788246041
 30
0.0
 11
-80.90442889188887
 21
-2181.8614788246041
 31
0.0
  0
LINE
  5
BCD5
  8
0
  6
BYBLOCK
 10
-80.368530511888878
 20
-2207.8614898246051
 30
0.0
 11
-80.904428891888884
 21
-2209.8614898246051
 31
0.0
  0
LINE
  5
BCD6
  8
0
  6
BYBLOCK
 10
-80.904428891888884
 20
-2209.8614898246051
 30
0.0
 11
-81.44032727188889
 21
-2207.8614898246051
 31
0.0
  0
LINE
  5
BCD7
  8
0
  6
BYBLOCK
 10
-80.904428891888884
 20
-2209.8614898246051
 30
0.0
 11
-80.904428891888884
 21
-2207.8614898246051
 31
0.0
  0
TEXT
  5
BCD8
  8
1DIM
 10
-91.604428891888517
 20
-2201.2781509912711
 30
0.0
 40
3.5
  1
23
 50
90.0
  0
LINE
  5
BCD9
  8
0
  6
BYBLOCK
 10
-91.440327271888876
 20
-2188.8614788246041
 30
0.0
 11
-90.90442889188887
 21
-2186.8614788246041
 31
0.0
  0
LINE
  5
BCDA
  8
0
  6
BYBLOCK
 10
-90.90442889188887
 20
-2186.8614788246041
 30
0.0
 11
-90.368530511888864
 21
-2188.8614788246041
 31
0.0
  0
LINE
  5
BCDB
  8
0
  6
BYBLOCK
 10
-90.90442889188887
 20
-2186.8614788246041
 30
0.0
 11
-90.90442889188887
 21
-2188.8614788246041
 31
0.0
  0
LINE
  5
BCDC
  8
0
  6
BYBLOCK
 10
-90.368530511888878
 20
-2207.8614898246051
 30
0.0
 11
-90.904428891888884
 21
-2209.8614898246051
 31
0.0
  0
LINE
  5
BCDD
  8
0
  6
BYBLOCK
 10
-90.904428891888884
 20
-2209.8614898246051
 30
0.0
 11
-91.44032727188889
 21
-2207.8614898246051
 31
0.0
  0
LINE
  5
BCDE
  8
0
  6
BYBLOCK
 10
-90.904428891888884
 20
-2209.8614898246051
 30
0.0
 11
-90.904428891888884
 21
-2207.8614898246051
 31
0.0
  0
TEXT
  5
BCDF
  8
1DIM
 10
-265.32296722522187
 20
-2229.1614898246048
 30
0.0
 40
3.5
  1
241
  0
LINE
  5
BCE0
  8
0
  6
BYBLOCK
 10
-142.90442889188881
 20
-2229.325591444604
 30
0.0
 11
-140.90442889188881
 21
-2229.8614898246042
 31
0.0
  0
LINE
  5
BCE1
  8
0
  6
BYBLOCK
 10
-140.90442889188881
 20
-2229.8614898246042
 30
0.0
 11
-142.90442889188881
 21
-2230.3973882046039
 31
0.0
  0
LINE
  5
BCE2
  8
0
  6
BYBLOCK
 10
-140.90442889188881
 20
-2229.8614898246042
 30
0.0
 11
-142.90442889188881
 21
-2229.8614898246042
 31
0.0
  0
LINE
  5
BCE3
  8
0
  6
BYBLOCK
 10
-379.57483889188848
 20
-2230.3973882046039
 30
0.0
 11
-381.57483889188848
 21
-2229.8614898246042
 31
0.0
  0
LINE
  5
BCE4
  8
0
  6
BYBLOCK
 10
-381.57483889188848
 20
-2229.8614898246042
 30
0.0
 11
-379.57483889188848
 21
-2229.325591444604
 31
0.0
  0
LINE
  5
BCE5
  8
0
  6
BYBLOCK
 10
-381.57483889188848
 20
-2229.8614898246042
 30
0.0
 11
-379.57483889188848
 21
-2229.8614898246042
 31
0.0
  0
LINE
  5
BCE6
  8
1DIM
 10
-64.676315385160649
 20
-2211.5806945571439
 30
0.0
 11
-74.72433842885431
 21
-2228.4842133296638
 31
0.0
  0
LINE
  5
BCE7
  8
1DIM
 10
-74.72433842885431
 20
-2228.4842133296638
 30
0.0
 11
-77.424338428854313
 21
-2228.4842133296638
 31
0.0
  0
TEXT
  5
BCE8
  8
1DIM
 10
-128.82202889188849
 20
-2239.1614898246048
 30
0.0
 40
3.5
  1
25.5
  0
LINE
  5
BCE9
  8
0
  6
BYBLOCK
 10
-112.9044288918887
 20
-2239.325591444604
 30
0.0
 11
-110.9044288918887
 21
-2239.8614898246051
 31
0.0
  0
LINE
  5
BCEA
  8
0
  6
BYBLOCK
 10
-110.9044288918887
 20
-2239.8614898246051
 30
0.0
 11
-112.9044288918887
 21
-2240.3973882046048
 31
0.0
  0
LINE
  5
BCEB
  8
0
  6
BYBLOCK
 10
-110.9044288918887
 20
-2239.8614898246051
 30
0.0
 11
-112.9044288918887
 21
-2239.8614898246051
 31
0.0
  0
LINE
  5
BCEC
  8
0
  6
BYBLOCK
 10
-134.23962889188829
 20
-2240.3973882046048
 30
0.0
 11
-136.23962889188829
 21
-2239.8614898246051
 31
0.0
  0
LINE
  5
BCED
  8
0
  6
BYBLOCK
 10
-136.23962889188829
 20
-2239.8614898246051
 30
0.0
 11
-134.23962889188829
 21
-2239.325591444604
 31
0.0
  0
LINE
  5
BCEE
  8
0
  6
BYBLOCK
 10
-136.23962889188829
 20
-2239.8614898246051
 30
0.0
 11
-134.23962889188829
 21
-2239.8614898246051
 31
0.0
  0
TEXT
  5
BCEF
  8
1DIM
 10
-404.15723389188832
 20
-2239.1614898246048
 30
0.0
 40
3.5
  1
25.5
  0
LINE
  5
BCF0
  8
0
  6
BYBLOCK
 10
-409.57483889188848
 20
-2240.3973882046048
 30
0.0
 11
-411.57483889188842
 21
-2239.8614898246051
 31
0.0
  0
LINE
  5
BCF1
  8
0
  6
BYBLOCK
 10
-411.57483889188842
 20
-2239.8614898246051
 30
0.0
 11
-409.57483889188848
 21
-2239.325591444604
 31
0.0
  0
LINE
  5
BCF2
  8
0
  6
BYBLOCK
 10
-411.57483889188842
 20
-2239.8614898246051
 30
0.0
 11
-409.57483889188848
 21
-2239.8614898246051
 31
0.0
  0
LINE
  5
BCF3
  8
0
  6
BYBLOCK
 10
-388.23962889188829
 20
-2239.325591444604
 30
0.0
 11
-386.23962889188829
 21
-2239.8614898246051
 31
0.0
  0
LINE
  5
BCF4
  8
0
  6
BYBLOCK
 10
-386.23962889188829
 20
-2239.8614898246051
 30
0.0
 11
-388.23962889188829
 21
-2240.3973882046048
 31
0.0
  0
LINE
  5
BCF5
  8
0
  6
BYBLOCK
 10
-386.23962889188829
 20
-2239.8614898246051
 30
0.0
 11
-388.23962889188829
 21
-2239.8614898246051
 31
0.0
  0
TEXT
  5
BCF6
  8
1DIM
 10
-91.604428891888546
 20
-2117.2781454912702
 30
0.0
 40
3.5
  1
14.5
 50
90.0
  0
LINE
  5
BCF7
  8
0
  6
BYBLOCK
 10
-90.368530511888906
 20
-2117.8614788246041
 30
0.0
 11
-90.904428891888898
 21
-2119.8614788246041
 31
0.0
  0
LINE
  5
BCF8
  8
0
  6
BYBLOCK
 10
-90.904428891888898
 20
-2119.8614788246041
 30
0.0
 11
-91.440327271888904
 21
-2117.8614788246041
 31
0.0
  0
LINE
  5
BCF9
  8
0
  6
BYBLOCK
 10
-90.904428891888898
 20
-2119.8614788246041
 30
0.0
 11
-90.904428891888898
 21
-2117.8614788246041
 31
0.0
  0
LINE
  5
BCFA
  8
0
  6
BYBLOCK
 10
-91.440327271888904
 20
-2107.3614788246041
 30
0.0
 11
-90.904428891888898
 21
-2105.3614788246032
 31
0.0
  0
LINE
  5
BCFB
  8
0
  6
BYBLOCK
 10
-90.904428891888898
 20
-2105.3614788246032
 30
0.0
 11
-90.368530511888906
 21
-2107.3614788246041
 31
0.0
  0
LINE
  5
BCFC
  8
0
  6
BYBLOCK
 10
-90.904428891888898
 20
-2105.3614788246032
 30
0.0
 11
-90.904428891888898
 21
-2107.3614788246041
 31
0.0
  0
LINE
  5
BCFD
  8
1DIM
 10
-336.4092722465835
 20
-2184.476590004123
 30
0.0
 11
-352.3458781922144
 21
-2166.8853632652599
 31
0.0
1001
ACAD
1000
DSTYLE
1002
{
1070
    45
1040
0.5
1002
}
  0
VIEWPORT
  5
57
 67
     1
  8
0
 10
81.125646095252705
 20
9.8327104872672635
 30
0.0
 40
583.31824513765844
 41
268.19994613859251
 68
     1
 69
     1
1001
ACAD
1000
MVIEW
1002
{
1070
    16
1010
0.0
1020
0.0
1030
0.0
1010
0.0
1020
0.0
1030
1.0
1040
0.0
1040
268.19994613859251
1040
81.125646095252705
1040
9.8327104872672635
1040
50.0
1040
0.0
1040
0.0
1070
     0
1070
   100
1070
     1
1070
     1
1070
     0
1070
     0
1070
     0
1070
     0
1040
0.0
1040
0.0
1040
0.0
1040
10.0
1040
10.0
1040
10.0
1040
10.0
1070
     0
1002
{
1002
}
1002
}
  0
ENDSEC
  0
EOF
