  0
SECTION
  2
HEADER
  9
$ACADVER
  1
AC1009
  9
$INSBASE
 10
0.0
 20
0.0
 30
0.0
  9
$EXTMIN
 10
-987.19658740961597
 20
-1767.123657442329
 30
0.0
  9
$EXTMAX
 10
-762.54060421225893
 20
-1548.0210764423291
 30
0.0
  9
$LIMMIN
 10
0.0
 20
0.0
  9
$LIMMAX
 10
420.0
 20
297.0
  9
$ORTHOMODE
 70
     0
  9
$REGENMODE
 70
     1
  9
$FILLMODE
 70
     1
  9
$QTEXTMODE
 70
     0
  9
$MIRRTEXT
 70
     1
  9
$DRAGMODE
 70
     2
  9
$LTSCALE
 40
0.5
  9
$OSMODE
 70
    63
  9
$ATTMODE
 70
     1
  9
$TEXTSIZE
 40
4.0
  9
$TRACEWID
 40
1.0
  9
$TEXTSTYLE
  7
STANDARD
  9
$CLAYER
  8
1TEXT
  9
$CELTYPE
  6
BYLAYER
  9
$CECOLOR
 62
   256
  9
$DIMSCALE
 40
1.0
  9
$DIMASZ
 40
2.0
  9
$DIMEXO
 40
0.0
  9
$DIMDLI
 40
7.0
  9
$DIMRND
 40
0.0
  9
$DIMDLE
 40
0.0
  9
$DIMEXE
 40
1.0
  9
$DIMTP
 40
0.0
  9
$DIMTM
 40
0.0
  9
$DIMTXT
 40
3.5
  9
$DIMCEN
 40
0.0
  9
$DIMTSZ
 40
0.0
  9
$DIMTOL
 70
     0
  9
$DIMLIM
 70
     0
  9
$DIMTIH
 70
     0
  9
$DIMTOH
 70
     0
  9
$DIMSE1
 70
     0
  9
$DIMSE2
 70
     0
  9
$DIMTAD
 70
     1
  9
$DIMZIN
 70
     8
  9
$DIMBLK
  1

  9
$DIMASO
 70
     1
  9
$DIMSHO
 70
     1
  9
$DIMPOST
  1
 
  9
$DIMAPOST
  1

  9
$DIMALT
 70
     0
  9
$DIMALTD
 70
     2
  9
$DIMALTF
 40
25.399999999999999
  9
$DIMLFAC
 40
1.0
  9
$DIMTOFL
 70
     1
  9
$DIMTVP
 40
0.0
  9
$DIMTIX
 70
     0
  9
$DIMSOXD
 70
     0
  9
$DIMSAH
 70
     1
  9
$DIMBLK1
  1
OPEN30
  9
$DIMBLK2
  1
OPEN30
  9
$DIMSTYLE
  2
NEWX10
  9
$DIMCLRD
 70
   256
  9
$DIMCLRE
 70
   256
  9
$DIMCLRT
 70
   201
  9
$DIMTFAC
 40
0.7
  9
$DIMGAP
 40
0.7
  9
$LUNITS
 70
     2
  9
$LUPREC
 70
     4
  9
$SKETCHINC
 40
1.0
  9
$FILLETRAD
 40
0.0
  9
$AUNITS
 70
     0
  9
$AUPREC
 70
     2
  9
$MENU
  1
acad
  9
$ELEVATION
 40
0.0
  9
$PELEVATION
 40
0.0
  9
$THICKNESS
 40
0.0
  9
$LIMCHECK
 70
     0
  9
$BLIPMODE
 70
     0
  9
$CHAMFERA
 40
10.0
  9
$CHAMFERB
 40
10.0
  9
$SKPOLY
 70
     0
  9
$TDCREATE
 40
2453033.7326634838
  9
$TDUPDATE
 40
2457014.7267261581
  9
$TDINDWG
 40
0.2998730324
  9
$TDUSRTIMER
 40
0.2998730324
  9
$USRTIMER
 70
     1
  9
$ANGBASE
 50
0.0
  9
$ANGDIR
 70
     0
  9
$PDMODE
 70
     0
  9
$PDSIZE
 40
0.0
  9
$PLINEWID
 40
0.0
  9
$COORDS
 70
     0
  9
$SPLFRAME
 70
     0
  9
$SPLINETYPE
 70
     6
  9
$SPLINESEGS
 70
     8
  9
$ATTDIA
 70
     0
  9
$ATTREQ
 70
     1
  9
$HANDLING
 70
     1
  9
$HANDSEED
  5
88F2
  9
$SURFTAB1
 70
     6
  9
$SURFTAB2
 70
     6
  9
$SURFTYPE
 70
     6
  9
$SURFU
 70
     6
  9
$SURFV
 70
     6
  9
$UCSNAME
  2

  9
$UCSORG
 10
0.0
 20
0.0
 30
0.0
  9
$UCSXDIR
 10
1.0
 20
0.0
 30
0.0
  9
$UCSYDIR
 10
0.0
 20
1.0
 30
0.0
  9
$PUCSNAME
  2

  9
$PUCSORG
 10
0.0
 20
0.0
 30
0.0
  9
$PUCSXDIR
 10
1.0
 20
0.0
 30
0.0
  9
$PUCSYDIR
 10
0.0
 20
1.0
 30
0.0
  9
$USERI1
 70
     0
  9
$USERI2
 70
     0
  9
$USERI3
 70
     0
  9
$USERI4
 70
     0
  9
$USERI5
 70
     0
  9
$USERR1
 40
0.0
  9
$USERR2
 40
0.0
  9
$USERR3
 40
0.0
  9
$USERR4
 40
0.0
  9
$USERR5
 40
0.0
  9
$WORLDVIEW
 70
     1
  9
$SHADEDGE
 70
     3
  9
$SHADEDIF
 70
    70
  9
$TILEMODE
 70
     1
  9
$MAXACTVP
 70
    48
  9
$PLIMCHECK
 70
     0
  9
$PEXTMIN
 10
1.0000000000000000E+020
 20
1.0000000000000000E+020
 30
1.0000000000000000E+020
  9
$PEXTMAX
 10
-1.0000000000000000E+020
 20
-1.0000000000000000E+020
 30
-1.0000000000000000E+020
  9
$PLIMMIN
 10
0.0
 20
0.0
  9
$PLIMMAX
 10
420.0
 20
297.0
  9
$UNITMODE
 70
     0
  9
$VISRETAIN
 70
     1
  9
$PLINEGEN
 70
     0
  9
$PSLTSCALE
 70
     1
  0
ENDSEC
  0
SECTION
  2
TABLES
  0
TABLE
  2
VPORT
 70
     1
  0
VPORT
  2
*ACTIVE
 70
     0
 10
0.0
 20
0.0
 11
1.0
 21
1.0
 12
-874.88668262361364
 22
-1657.5804701077029
 13
0.0
 23
0.0
 14
10.0
 24
10.0
 15
10.0
 25
10.0
 16
0.0
 26
0.0
 36
1.0
 17
0.0
 27
0.0
 37
0.0
 40
232.46545343142131
 41
2.1749379652605461
 42
50.0
 43
0.0
 44
0.0
 50
0.0
 51
0.0
 71
     0
 72
   100
 73
     1
 74
     1
 75
     0
 76
     0
 77
     0
 78
     0
  0
ENDTAB
  0
TABLE
  2
LTYPE
 70
    15
  0
LTYPE
  2
CONTINUOUS
 70
     0
  3
Solid line
 72
    65
 73
     0
 40
0.0
  0
LTYPE
  2
CENTER2
 70
     0
  3
Center (.5x) ___ _ ___ _ ___ _ ___ _ ___ _ ___
 72
    65
 73
     4
 40
28.574999999999999
 49
19.050000000000001
 49
-3.1749999999999989
 49
3.1749999999999989
 49
-3.1749999999999989
  0
LTYPE
  2
XREF1|CENTER2
 70
    48
  3
Center (.5x) ___ _ ___ _ ___ _ ___ _ ___ _ ___
 72
    65
 73
     4
 40
28.574999999999999
 49
19.050000000000001
 49
-3.1749999999999989
 49
3.1749999999999989
 49
-3.1749999999999989
  0
LTYPE
  2
A3WAKUDAKE|CENTER2
 70
    48
  3
Center (.5x) ___ _ ___ _ ___ _ ___ _ ___ _ ___
 72
    65
 73
     4
 40
28.574999999999999
 49
19.050000000000001
 49
-3.1749999999999989
 49
3.1749999999999989
 49
-3.1749999999999989
  0
ENDTAB
  0
TABLE
  2
LAYER
 70
    49
  0
LAYER
  2
0
 70
     0
 62
     7
  6
CONTINUOUS
  0
LAYER
  2
1CENTER
 70
     0
 62
     7
  6
CENTER2
  0
LAYER
  2
1TEXT
 70
     0
 62
     7
  6
CONTINUOUS
  0
LAYER
  2
1DIM
 70
     0
 62
     7
  6
CONTINUOUS
  0
LAYER
  2
01
 70
     0
 62
     1
  6
CONTINUOUS
  0
LAYER
  2
1HATCH
 70
     0
 62
     7
  6
CONTINUOUS
  0
LAYER
  2
A3WAKUDAKE|THICK
 70
    48
 62
     7
  6
CONTINUOUS
  0
LAYER
  2
A3WAKUDAKE|POINT
 70
    48
 62
     7
  6
CONTINUOUS
  0
LAYER
  2
A3WAKUDAKE|1CENTER
 70
    48
 62
     7
  6
A3WAKUDAKE|CENTER2
  0
LAYER
  2
A3WAKUDAKE|0-6
 70
    48
 62
     7
  6
CONTINUOUS
  0
LAYER
  2
A3WAKUDAKE|1DIM
 70
    48
 62
     7
  6
CONTINUOUS
  0
LAYER
  2
XREF1|1CENTER
 70
    48
 62
     7
  6
XREF1|CENTER2
  0
ENDTAB
  0
TABLE
  2
STYLE
 70
    23
  0
STYLE
  2
STANDARD
 70
     0
 40
0.0
 41
1.0
 50
0.0
 71
     0
 42
4.0
  3
txt.shx
  4
extfont.shx
  0
ENDTAB
  0
TABLE
  2
VIEW
 70
     5
  0
ENDTAB
  0
TABLE
  2
UCS
 70
     0
  0
ENDTAB
  0
TABLE
  2
APPID
 70
    14
  0
APPID
  2
ACAD
 70
     0
  0
APPID
  2
DRAWINGVARIABLESXDATA
 70
     0
  0
APPID
  2
CONTENTTABDATA
 70
     0
  0
APPID
  2
CONTENTCURRENTTAB
 70
     0
  0
APPID
  2
CONTENTBLOCKDESCRIPTION
 70
     0
  0
APPID
  2
CONTENTBLOCKICON
 70
     0
  0
APPID
  2
CONTENTLONGBLOCKNAME
 70
     0
  0
APPID
  2
ACAD_PSEXT
 70
     0
  0
APPID
  2
ACAD_DSTYLE_DIMTEXT_FILL
 70
     0
  0
APPID
  2
ACAD_DSTYLE_DIMRADIAL_EXTENSION
 70
     0
  0
APPID
  2
ACLAYERTOOLS
 70
     0
  0
APPID
  2
ACAD_MLEADERVER
 70
     0
  0
APPID
  2
ACAD_EXEMPT_FROM_CAD_STANDARDS
 70
     0
  0
APPID
  2
ACAD_NAV_VCDISPLAY
 70
     0
  0
ENDTAB
  0
TABLE
  2
DIMSTYLE
 70
     8
  0
DIMSTYLE
  2
NEWX10
 70
     0
  3
 
  4

  5

  6
OPEN30
  7
OPEN30
 40
1.0
 41
2.0
 42
0.0
 43
7.0
 44
1.0
 45
0.0
 46
0.0
 47
0.0
 48
0.0
140
3.5
141
0.0
142
0.0
143
25.399999999999999
144
1.0
145
0.0
146
0.7
147
0.7
 71
     0
 72
     0
 73
     0
 74
     0
 75
     0
 76
     0
 77
     1
 78
     8
170
     0
171
     2
172
     1
173
     1
174
     0
175
     0
176
   256
177
   256
178
   201
  0
ENDTAB
  0
ENDSEC
  0
SECTION
  2
BLOCKS
  0
BLOCK
  8
0
  2
$MODEL_SPACE
 70
     0
 10
0.0
 20
0.0
 30
0.0
  3
$MODEL_SPACE
  1

  0
ENDBLK
  5
1A
  8
0
  0
BLOCK
 67
     1
  8
0
  2
$PAPER_SPACE
 70
     0
 10
0.0
 20
0.0
 30
0.0
  3
$PAPER_SPACE
  1

  0
ENDBLK
  5
17
 67
     1
  8
0
  0
BLOCK
  8
0
  2
_OPEN30
 70
     0
 10
0.0
 20
0.0
 30
0.0
  3
_OPEN30
  1

  0
LINE
  5
44
  8
0
  6
BYBLOCK
 62
     0
 10
-1.0
 20
0.26794919
 30
0.0
 11
0.0
 21
0.0
 31
0.0
  0
LINE
  5
45
  8
0
  6
BYBLOCK
 62
     0
 10
0.0
 20
0.0
 30
0.0
 11
-1.0
 21
-0.26794919
 31
0.0
  0
LINE
  5
46
  8
0
  6
BYBLOCK
 62
     0
 10
0.0
 20
0.0
 30
0.0
 11
-1.0
 21
0.0
 31
0.0
  0
ENDBLK
  5
47
  8
0
  0
BLOCK
  8
0
  2
XREF1
 70
    36
 10
0.0
 20
0.0
 30
0.0
  3
XREF1
  1
D:\ACLT\FORMAT\KAWAJUN(9)図面用.dwg
  0
ENDBLK
  5
5D
  8
0
  0
BLOCK
  8
0
  2
A3WAKUDAKE
 70
    36
 10
0.0
 20
0.0
 30
0.0
  3
A3WAKUDAKE
  1
D:\ACLT\FORMAT\A3WAKUdake.dwg
  0
ENDBLK
  5
6DC
  8
0
  0
ENDSEC
  0
SECTION
  2
ENTITIES
  0
TEXT
  5
30E6
  8
1TEXT
 10
-987.19658740961563
 20
-1555.0210764423291
 30
0.0
 40
7.0
  1
PC-119-XX
 41
1.0098214000000001
  0
LINE
  5
37CA
  8
1DIM
 10
-987.19658740961563
 20
-1746.123657442329
 30
0.0
 11
-882.19658740961518
 21
-1746.123657442329
 31
0.0
  0
TEXT
  5
37CB
  8
1TEXT
 10
-986.06325407628208
 20
-1744.623657442329
 30
0.0
 40
4.0
  1
表面処理：脚部
 72
     1
 11
-969.79658740961554
 21
-1744.623657442329
 31
0.0
  0
LINE
  5
37CC
  8
1DIM
 10
-987.19658740961563
 20
-1739.123657442329
 30
0.0
 11
-882.19658740961518
 21
-1739.123657442329
 31
0.0
  0
TEXT
  5
37CD
  8
1TEXT
 10
-906.59658740961549
 20
-1744.623657442329
 30
0.0
 40
4.0
  1
コード
 72
     1
 11
-899.79658740961565
 21
-1744.623657442329
 31
0.0
  0
TEXT
  5
37CE
  8
1TEXT
 10
-950.66325407628221
 20
-1744.623657442329
 30
0.0
 40
4.0
  1
表面処理：握り
 72
     1
 11
-934.79658740961554
 21
-1744.623657442329
 31
0.0
  0
LINE
  5
37CF
  8
1DIM
 10
-987.19658740961563
 20
-1767.123657442329
 30
0.0
 11
-882.19658740961518
 21
-1767.123657442329
 31
0.0
  0
LINE
  5
37D0
  8
1DIM
 10
-952.19658740961574
 20
-1753.123657442329
 30
0.0
 11
-882.19658740961518
 21
-1753.123657442329
 31
0.0
  0
LINE
  5
37D1
  8
1DIM
 10
-952.19658740961574
 20
-1760.1236574423301
 30
0.0
 11
-917.19658740961574
 21
-1760.1236574423301
 31
0.0
  0
LINE
  5
37D2
  8
1DIM
 10
-952.19658740961574
 20
-1760.1236574423301
 30
0.0
 11
-882.19658740961518
 21
-1760.1236574423301
 31
0.0
  0
LINE
  5
37D7
  8
1DIM
 10
-952.19658740961574
 20
-1739.123657442329
 30
0.0
 11
-952.19658740961574
 21
-1767.123657442329
 31
0.0
  0
LINE
  5
37D8
  8
1DIM
 10
-917.19658740961574
 20
-1739.123657442329
 30
0.0
 11
-917.19658740961574
 21
-1767.123657442329
 31
0.0
  0
LINE
  5
37D9
  8
1DIM
 10
-882.19658740961518
 20
-1739.123657442329
 30
0.0
 11
-882.19658740961518
 21
-1767.123657442329
 31
0.0
  0
LINE
  5
37DA
  8
1DIM
 10
-987.19658740961563
 20
-1739.123657442329
 30
0.0
 11
-987.19658740961597
 21
-1767.123657442329
 31
0.0
  0
TEXT
  5
37E1
  8
1TEXT
 10
-943.72992074294791
 20
-1751.8380144259791
 30
0.0
 40
4.0
  1
ホワイト
 72
     1
 11
-934.79658740961463
 21
-1751.8380144259791
 31
0.0
  0
TEXT
  5
37E2
  8
1TEXT
 10
-951.19658740961461
 20
-1765.8380144259791
 30
0.0
 40
4.0
  1
ダークブラウン
 72
     1
 11
-934.79658740961463
 21
-1765.8380144259791
 31
0.0
  0
TEXT
  5
37E3
  8
1TEXT
 10
-951.06325407628128
 20
-1758.8380144259791
 30
0.0
 40
4.0
  1
ライトブラウン
 72
     1
 11
-934.79658740961463
 21
-1758.8380144259791
 31
0.0
  0
TEXT
  5
37E4
  8
1TEXT
 10
-912.59658740961447
 20
-1751.8380144259791
 30
0.0
 40
4.0
  1
PC-119-SC
 41
0.8
 72
     1
 11
-899.79658740961474
 21
-1751.8380144259791
 31
0.0
  0
TEXT
  5
37E7
  8
1TEXT
 10
-979.12992074294891
 20
-1758.4589461018541
 30
0.0
 40
4.0
  1
クローム
 72
     1
 11
-969.79658740961554
 21
-1758.4589461018541
 31
0.0
  0
LINE
  5
744D
  8
1CENTER
 10
-854.19658740961563
 20
-1669.1236574423319
 30
0.0
 11
-854.19658740961563
 21
-1681.1236574423319
 31
0.0
  0
ARC
  5
83EE
  8
01
 10
-501.4961574096161
 20
-1698.1283574423301
 30
0.0
 40
300.0
 50
171.35900000000251
 51
176.26600000000141
  0
ARC
  5
83EF
  8
01
 10
-794.0940574096162
 20
-1652.1236674423301
 30
0.0
 40
5.0
 50
328.2280000000008
 51
211.77199999999911
  0
ARC
  5
83F0
  8
01
 10
-1086.6911574096159
 20
-1698.1283574423301
 30
0.0
 40
300.0
 50
3.7339799999964032
 51
8.6410300000006206
  0
ARC
  5
83F1
  8
01
 10
-794.0940574096162
 20
-1652.1236674423301
 30
0.0
 40
7.1025299999999998
 50
310.77900000000187
 51
229.22099999999801
  0
LINE
  5
83F3
  8
01
 10
-787.82715740961623
 20
-1679.1236574423301
 30
0.0
 11
-800.36075740961644
 21
-1679.1236574423301
 31
0.0
  0
ARC
  5
83F4
  8
01
 10
-800.36075740961644
 20
-1678.623657442329
 30
0.0
 40
0.5
 50
176.26600000000141
 51
270.0
  0
ARC
  5
83F5
  8
01
 10
-787.82715740961623
 20
-1678.6236574423301
 30
0.0
 40
0.5
 50
270.0
 51
3.7525099999971832
  0
LINE
  5
83F6
  8
01
 10
-966.19648740961566
 20
-1679.123657442331
 30
0.0
 11
-987.19658740961563
 21
-1679.123657442331
 31
0.0
  0
ARC
  5
83F7
  8
01
 10
-951.64198740961558
 20
-1682.1086574423309
 30
0.0
 40
35.0
 50
97.999999999999943
 51
165.12490000000491
  0
ARC
  5
83F8
  8
01
 10
-958.03098740961559
 20
-1667.692877442332
 30
0.0
 40
11.0
 50
82.000000000000043
 51
196.00000000000119
  0
LINE
  5
83F9
  8
01
 10
-954.19658740961563
 20
-1647.085357442332
 30
0.0
 11
-954.19658740961563
 21
-1657.1619374423319
 31
0.0
  0
LINE
  5
83FA
  8
01
 10
-954.19658740961563
 20
-1647.1236574423319
 30
0.0
 11
-954.19658740961563
 21
-1657.1236674423319
 31
0.0
  0
LINE
  5
83FB
  8
01
 10
-874.19658740961552
 20
-1647.1236574423319
 30
0.0
 11
-874.19658740961552
 21
-1657.123637442332
 31
0.0
  0
ARC
  5
83FC
  8
01
 10
-876.75108740961559
 20
-1682.1086574423309
 30
0.0
 40
35.0
 50
14.87500000000119
 51
82.000000000000043
  0
ARC
  5
83FD
  8
01
 10
-870.36218740961567
 20
-1667.692877442332
 30
0.0
 40
11.0
 50
343.99999999999881
 51
97.999999999999943
  0
ARC
  5
83FE
  8
01
 10
-914.19658740961563
 20
-2145.0210574423322
 30
0.0
 40
500.0
 50
85.464299999999824
 51
94.535599999997572
  0
LINE
  5
8400
  8
01
 10
-871.88001764821854
 20
-1647.449195137887
 30
0.0
 11
-874.19658740961552
 21
-1647.1236574423319
 31
0.0
  0
ARC
  5
8401
  8
01
 10
-874.69658740961563
 20
-1647.085357442332
 30
0.0
 40
0.5
 50
0.0
 51
85.464299999999824
  0
ARC
  5
8402
  8
01
 10
-953.69658740961552
 20
-1647.085357442332
 30
0.0
 40
0.5
 50
94.535599999997572
 51
180.0
  0
LINE
  5
8403
  8
01
 10
-956.51308740961565
 20
-1647.4492574423309
 30
0.0
 11
-954.19658740961563
 21
-1647.1236574423319
 31
0.0
  0
LINE
  5
8404
  8
01
 10
-862.19658740961563
 20
-1679.123657442331
 30
0.0
 11
-856.49658740961559
 21
-1679.123657442331
 31
0.0
  0
LINE
  5
8405
  8
01
 10
-859.78828740961546
 20
-1670.724857442332
 30
0.0
 11
-862.19658740961563
 21
-1679.123657442331
 31
0.0
  0
LINE
  5
8407
  8
01
 10
-851.89658740961556
 20
-1679.123657442331
 30
0.0
 11
-841.19658740961552
 21
-1679.123657442331
 31
0.0
  0
LINE
  5
8408
  8
01
 10
-841.19658740961552
 20
-1679.123657442331
 30
0.0
 11
-842.91708740961576
 21
-1673.1236574423319
 31
0.0
  0
LINE
  5
8409
  8
01
 10
-856.49658740961559
 20
-1679.123657442331
 30
0.0
 11
-851.89658740961556
 21
-1679.123657442331
 31
0.0
  0
ARC
  5
840A
  8
01
 10
-914.19658740961563
 20
-1159.2260574423319
 30
0.0
 40
500.0
 50
265.4640000000025
 51
274.53599999999739
  0
LINE
  5
840B
  8
01
 10
-874.19658740961552
 20
-1655.123647442331
 30
0.0
 11
-874.19658740961552
 21
-1656.123647442331
 31
0.0
  0
LINE
  5
840C
  8
01
 10
-871.89308740961565
 20
-1656.7998974423319
 30
0.0
 11
-874.19658740961552
 21
-1657.123637442332
 31
0.0
  0
ARC
  5
840D
  8
01
 10
-874.69658740961563
 20
-1657.1619474423319
 30
0.0
 40
0.5
 50
274.53599999999739
 51
0.0
  0
LINE
  5
840E
  8
01
 10
-956.50008740961562
 20
-1656.799907442331
 30
0.0
 11
-954.19658740961563
 21
-1657.123647442332
 31
0.0
  0
ARC
  5
840F
  8
01
 10
-953.69658740961552
 20
-1657.1619374423319
 30
0.0
 40
0.5
 50
179.9999913485851
 51
265.4640000000025
  0
LINE
  5
8410
  8
01
 10
-968.60488740961557
 20
-1670.724857442332
 30
0.0
 11
-966.19648740961566
 21
-1679.123657442331
 31
0.0
  0
LINE
  5
8412
  8
01
 10
-987.19658740961563
 20
-1679.123657442331
 30
0.0
 11
-985.47608740961562
 21
-1673.1236574423319
 31
0.0
  0
ARC
  5
8413
  8
01
 10
-851.69658740961563
 20
-1571.209976442329
 30
0.0
 40
13.5
 50
236.0890000000021
 51
311.81000000000222
  0
ARC
  5
8414
  8
01
 10
-851.69658740961563
 20
-1584.626376442329
 30
0.0
 40
13.5
 50
48.189599999997156
 51
123.9109999999979
  0
ARC
  5
8416
  8
01
 10
-963.33578740961548
 20
-1620.0072764423289
 30
0.0
 40
38.0
 50
82.000000000000043
 51
101.25500000000009
  0
ARC
  5
8417
  8
01
 10
-963.33578740961548
 20
-1535.8290764423291
 30
0.0
 40
38.0
 50
258.74499999999978
 51
277.99999999999989
  0
ARC
  5
8419
  8
01
 10
-982.69658740961563
 20
-1577.918176442329
 30
0.0
 40
4.5
 50
131.81000000000219
 51
228.18999999999781
  0
ARC
  5
841A
  8
01
 10
-976.69658740961563
 20
-1571.209976442329
 30
0.0
 40
13.5
 50
228.18999999999781
 51
303.9109999999979
  0
ARC
  5
841B
  8
01
 10
-976.69658740961563
 20
-1584.626376442329
 30
0.0
 40
13.5
 50
56.088899999997309
 51
131.81000000000219
  0
ARC
  5
841C
  8
01
 10
-914.19658740961563
 20
-2070.8160764423301
 30
0.0
 40
500.0
 50
85.411399999998238
 51
90.0
  0
ARC
  5
841D
  8
01
 10
-914.19658740961563
 20
-1085.0210764423291
 30
0.0
 40
500.0
 50
270.0
 51
274.53599999999739
  0
ARC
  5
841E
  8
01
 10
-914.19658740961563
 20
-2070.8160764423301
 30
0.0
 40
500.0
 50
90.0
 51
94.588600000001776
  0
ARC
  5
841F
  8
01
 10
-914.19658740961563
 20
-1085.0210764423291
 30
0.0
 40
500.0
 50
265.4640000000025
 51
270.0
  0
LINE
  5
8420
  8
01
 10
-954.19658740961563
 20
-1572.8799764423291
 30
0.0
 11
-954.19658740961563
 21
-1582.9564764423289
 31
0.0
  0
LINE
  5
8421
  8
01
 10
-954.19658740961563
 20
-1572.918176442329
 30
0.0
 11
-954.19658740961563
 21
-1582.918176442329
 31
0.0
  0
LINE
  5
8422
  8
01
 10
-958.04728740961548
 20
-1582.3770764423291
 30
0.0
 11
-954.19658740961563
 21
-1582.918176442329
 31
0.0
  0
ARC
  5
8423
  8
01
 10
-953.69658740961552
 20
-1582.9564764423289
 30
0.0
 40
0.5
 50
180.0
 51
265.4640000000025
  0
LINE
  5
8424
  8
01
 10
-954.19658740961563
 20
-1580.918176442329
 30
0.0
 11
-954.19658740961563
 21
-1581.918176442329
 31
0.0
  0
LINE
  5
8425
  8
01
 10
-954.19658740961563
 20
-1580.918176442329
 30
0.0
 11
-954.19658740961563
 21
-1581.918176442329
 31
0.0
  0
ARC
  5
8426
  8
01
 10
-953.69658740961552
 20
-1572.8799764423291
 30
0.0
 40
0.5
 50
94.535700000000176
 51
180.0
  0
LINE
  5
8427
  8
01
 10
-958.04728740961548
 20
-1573.4593764423289
 30
0.0
 11
-954.19658740961563
 21
-1572.918176442329
 31
0.0
  0
LINE
  5
8428
  8
01
 10
-874.19658740961552
 20
-1572.8799764423291
 30
0.0
 11
-874.19658740961552
 21
-1582.9564764423289
 31
0.0
  0
LINE
  5
8429
  8
01
 10
-874.19658740961552
 20
-1572.918176442329
 30
0.0
 11
-874.19658740961552
 21
-1582.918176442329
 31
0.0
  0
ARC
  5
842A
  8
01
 10
-865.05738740961579
 20
-1620.0072764423289
 30
0.0
 40
38.0
 50
78.744999999999877
 51
97.999999999999943
  0
ARC
  5
842B
  8
01
 10
-874.69658740961563
 20
-1582.9564764423289
 30
0.0
 40
0.5
 50
274.53599999999739
 51
0.0
  0
LINE
  5
842C
  8
01
 10
-874.19658740961552
 20
-1580.918176442329
 30
0.0
 11
-874.19658740961552
 21
-1581.918176442329
 31
0.0
  0
LINE
  5
842D
  8
01
 10
-874.19658740961552
 20
-1580.918176442329
 30
0.0
 11
-874.19658740961552
 21
-1581.918176442329
 31
0.0
  0
LINE
  5
842E
  8
01
 10
-870.34598740961553
 20
-1582.3770764423291
 30
0.0
 11
-874.19658740961552
 21
-1582.918176442329
 31
0.0
  0
ARC
  5
842F
  8
01
 10
-865.05738740961579
 20
-1535.8290764423291
 30
0.0
 40
38.0
 50
262.0
 51
281.25500000000022
  0
ARC
  5
8430
  8
01
 10
-874.69658740961563
 20
-1572.8799764423291
 30
0.0
 40
0.5
 50
0.0
 51
85.464400000002428
  0
LINE
  5
8431
  8
01
 10
-870.34598740961553
 20
-1573.4593764423289
 30
0.0
 11
-874.19658740961552
 21
-1572.918176442329
 31
0.0
  0
ARC
  5
8433
  8
01
 10
-845.69658740961552
 20
-1577.918176442329
 30
0.0
 40
4.5
 50
311.81000000000222
 51
48.189599999997156
  0
LINE
  5
8434
  8
1CENTER
 10
-794.09405740961495
 20
-1669.1236574423319
 30
0.0
 11
-794.09405740961495
 21
-1681.1236574423319
 31
0.0
  0
LINE
  5
8435
  8
1CENTER
 10
-974.19658740961427
 20
-1669.1236574423319
 30
0.0
 11
-974.19658740961427
 21
-1681.1236574423319
 31
0.0
  0
LINE
  5
8500
  8
1CENTER
 10
-854.19658740961563
 20
-1580.918176442329
 30
0.0
 11
-854.19658740961563
 21
-1574.918176442329
 31
0.0
  0
LINE
  5
8501
  8
1CENTER
 10
-857.19658740961552
 20
-1577.918176442329
 30
0.0
 11
-851.19658740961574
 21
-1577.918176442329
 31
0.0
  0
LINE
  5
8502
  8
1CENTER
 10
-974.19658740961552
 20
-1580.918176442329
 30
0.0
 11
-974.19658740961552
 21
-1574.918176442329
 31
0.0
  0
LINE
  5
8503
  8
1CENTER
 10
-977.19658740961574
 20
-1577.918176442329
 30
0.0
 11
-971.19658740961563
 21
-1577.918176442329
 31
0.0
  0
SOLID
  5
8508
  8
1HATCH
 10
-905.78138521854714
 20
-1652.3086813068551
 30
0.0
 11
-907.33579322895184
 21
-1653.6105748694399
 31
0.0
 12
-906.28764302319109
 22
-1651.8749216041599
 32
0.0
 13
-906.28764302319109
 23
-1651.8749216041599
 33
0.0
  0
TEXT
  5
8722
  8
1TEXT
 10
-912.5965874096147
 20
-1758.8380144259791
 30
0.0
 40
4.0
  1
PC-119-LC
 41
0.8
 72
     1
 11
-899.79658740961474
 21
-1758.8380144259791
 31
0.0
  0
TEXT
  5
8723
  8
1TEXT
 10
-912.59658740961447
 20
-1765.8380144259791
 30
0.0
 40
4.0
  1
PC-119-DC
 41
0.8
 72
     1
 11
-899.79658740961474
 21
-1765.8380144259791
 31
0.0
  0
TEXT
  5
8829
  8
01
 10
-943.3293846947023
 20
-1628.0038127021121
 30
0.0
 40
3.5
  1
材質：亜鉛ダイキャスト
  0
TEXT
  5
882A
  8
01
 10
-943.3293846947023
 20
-1633.8371460354449
 30
0.0
 40
3.5
  1
仕上げ：各種メッキ
  0
SOLID
  5
882B
  8
1DIM
 10
-962.33197335451086
 20
-1652.4706457177319
 30
0.0
 11
-964.00877764845723
 21
-1653.6105748694399
 31
0.0
 12
-962.79231817635912
 22
-1651.988435090057
 32
0.0
 13
-962.79231817635912
 23
-1651.988435090057
 33
0.0
1001
ACAD
1000
DSTYLE
1002
{
1070
    45
1040
0.5
1002
}
  0
LINE
  5
882F
  8
1HATCH
 10
-906.03451412086918
 20
-1652.0918014555079
 30
0.0
 11
-890.99375416407383
 21
-1634.5371460354449
 31
0.0
  0
LINE
  5
8830
  8
1HATCH
 10
-890.99375416407383
 20
-1634.5371460354449
 30
0.0
 11
-823.56797180870478
 21
-1634.5371460354449
 31
0.0
  0
TEXT
  5
8831
  8
1HATCH
 10
-888.29375416407413
 20
-1628.0038127021121
 30
0.0
 40
3.5
  1
材質：天然木（メープル/ケヤキ）
  0
TEXT
  5
8832
  8
1HATCH
 10
-888.29375416407413
 20
-1633.8371460354449
 30
0.0
 40
3.5
  1
仕上げ：各種仕上げ
  0
LINE
  5
8833
  8
1DIM
 10
-854.19658740961563
 20
-1681.1236574423319
 30
0.0
 11
-854.19658740961563
 21
-1710.1236574423301
 31
0.0
  0
LINE
  5
8834
  8
1DIM
 10
-841.19658740961552
 20
-1679.123657442331
 30
0.0
 11
-841.19658740961552
 21
-1710.1236574423301
 31
0.0
  0
LINE
  5
8835
  8
1DIM
 10
-852.19658740961574
 20
-1709.1236574423301
 30
0.0
 11
-843.19658740961574
 21
-1709.1236574423301
 31
0.0
  0
LINE
  5
8839
  8
1DIM
 10
-987.19658740961563
 20
-1679.123657442331
 30
0.0
 11
-987.19658740961563
 21
-1710.1236574423301
 31
0.0
  0
LINE
  5
883A
  8
1DIM
 10
-974.19658740961427
 20
-1681.1236574423319
 30
0.0
 11
-974.19658740961427
 21
-1710.1236574423301
 31
0.0
  0
LINE
  5
883B
  8
1DIM
 10
-985.19658740961574
 20
-1709.1236574423301
 30
0.0
 11
-976.19658740961427
 21
-1709.1236574423301
 31
0.0
  0
LINE
  5
883F
  8
1DIM
 10
-841.19658740961552
 20
-1679.123657442331
 30
0.0
 11
-810.1965874096162
 21
-1679.123657442331
 31
0.0
  0
LINE
  5
8840
  8
1DIM
 10
-914.19658740961563
 20
-1645.0210574423311
 30
0.0
 11
-810.1965874096162
 21
-1645.0210574423311
 31
0.0
  0
LINE
  5
8841
  8
1DIM
 10
-811.19658740961631
 20
-1677.123657442331
 30
0.0
 11
-811.19658740961631
 21
-1647.021057442332
 31
0.0
  0
LINE
  5
8845
  8
1DIM
 10
-841.19658740961552
 20
-1679.123657442331
 30
0.0
 11
-820.19658740961631
 21
-1679.123657442331
 31
0.0
  0
LINE
  5
8846
  8
1DIM
 10
-914.19658740961563
 20
-1659.2260574423319
 30
0.0
 11
-820.19658740961631
 21
-1659.2260574423319
 31
0.0
  0
LINE
  5
8847
  8
1DIM
 10
-821.19658740961631
 20
-1677.123657442331
 30
0.0
 11
-821.19658740961631
 21
-1661.2260574423319
 31
0.0
  0
LINE
  5
884B
  8
1DIM
 10
-974.19658740961427
 20
-1681.1236574423319
 30
0.0
 11
-974.19658740961427
 21
-1710.1236574423301
 31
0.0
  0
LINE
  5
884C
  8
1DIM
 10
-854.19658740961563
 20
-1681.1236574423319
 30
0.0
 11
-854.19658740961563
 21
-1710.1236574423301
 31
0.0
  0
LINE
  5
884D
  8
1DIM
 10
-972.19658740961415
 20
-1709.1236574423301
 30
0.0
 11
-856.19658740961563
 21
-1709.1236574423301
 31
0.0
  0
LINE
  5
8851
  8
1DIM
 10
-966.19648740961566
 20
-1679.123657442331
 30
0.0
 11
-966.19648740961566
 21
-1700.123657442329
 31
0.0
  0
LINE
  5
8852
  8
1DIM
 10
-862.19658740961506
 20
-1679.1236574423301
 30
0.0
 11
-862.19658740961506
 21
-1700.123657442329
 31
0.0
  0
LINE
  5
8853
  8
1DIM
 10
-964.19648740961566
 20
-1699.1236574423301
 30
0.0
 11
-864.19658740961495
 21
-1699.1236574423301
 31
0.0
  0
LINE
  5
8857
  8
1DIM
 10
-914.19658740961574
 20
-1585.0210764423291
 30
0.0
 11
-820.19658740961631
 21
-1585.0210764423291
 31
0.0
  0
LINE
  5
8858
  8
1DIM
 10
-914.19658740961563
 20
-1570.8160764423289
 30
0.0
 11
-820.19658740961631
 21
-1570.8160764423289
 31
0.0
  0
LINE
  5
8859
  8
1DIM
 10
-821.19658740961631
 20
-1583.0210764423291
 30
0.0
 11
-821.19658740961631
 21
-1572.8160764423289
 31
0.0
  0
LINE
  5
885D
  8
1DIM
 10
-987.19658740961563
 20
-1577.918176442329
 30
0.0
 11
-987.19658740961563
 21
-1606.0210764423291
 31
0.0
  0
LINE
  5
885E
  8
1DIM
 10
-841.1965874096162
 20
-1577.918176442329
 30
0.0
 11
-841.1965874096162
 21
-1606.0210764423291
 31
0.0
  0
LINE
  5
885F
  8
1DIM
 10
-985.19658740961574
 20
-1605.0210764423291
 30
0.0
 11
-843.1965874096162
 21
-1605.0210764423291
 31
0.0
  0
TEXT
  5
8863
  8
1DIM
 10
-777.12393754559207
 20
-1699.1236574423319
 30
0.0
 40
3.5
  1
M4-10
  0
SOLID
  5
8864
  8
1DIM
 10
-793.23334090577976
 20
-1680.959489191468
 30
0.0
 11
-794.09405740961495
 21
-1679.123657442331
 31
0.0
 12
-792.68446123059152
 22
-1680.581103744325
 32
0.0
 13
-792.68446123059152
 23
-1680.581103744325
 33
0.0
1001
ACAD
1000
DSTYLE
1002
{
1070
   271
1070
     0
1002
}
  0
LINE
  5
8866
  8
1DIM
 10
-792.95890106818558
 20
-1680.770296467897
 30
0.0
 11
-779.823937545592
 21
-1699.8236574423311
 31
0.0
1001
ACAD
1000
DSTYLE
1002
{
1070
   271
1070
     0
1002
}
  0
LINE
  5
8867
  8
1DIM
 10
-779.823937545592
 20
-1699.8236574423311
 30
0.0
 11
-777.12393754559196
 21
-1699.8236574423311
 31
0.0
1001
ACAD
1000
DSTYLE
1002
{
1070
   271
1070
     0
1002
}
  0
TEXT
  5
8868
  8
1DIM
 10
-918.27992074294934
 20
-1604.3210764423291
 30
0.0
 40
3.5
  1
146
  0
LINE
  5
8869
  8
0
  6
BYBLOCK
 10
-843.1965874096162
 20
-1604.4851780623289
 30
0.0
 11
-841.1965874096162
 21
-1605.0210764423291
 31
0.0
  0
LINE
  5
886A
  8
0
  6
BYBLOCK
 10
-841.1965874096162
 20
-1605.0210764423291
 30
0.0
 11
-843.1965874096162
 21
-1605.556974822329
 31
0.0
  0
LINE
  5
886B
  8
0
  6
BYBLOCK
 10
-841.1965874096162
 20
-1605.0210764423291
 30
0.0
 11
-843.1965874096162
 21
-1605.0210764423291
 31
0.0
  0
LINE
  5
886C
  8
0
  6
BYBLOCK
 10
-985.19658740961574
 20
-1605.556974822329
 30
0.0
 11
-987.19658740961563
 21
-1605.0210764423291
 31
0.0
  0
LINE
  5
886D
  8
0
  6
BYBLOCK
 10
-987.19658740961563
 20
-1605.0210764423291
 30
0.0
 11
-985.19658740961574
 21
-1604.4851780623289
 31
0.0
  0
LINE
  5
886E
  8
0
  6
BYBLOCK
 10
-987.19658740961563
 20
-1605.0210764423291
 30
0.0
 11
-985.19658740961574
 21
-1605.0210764423291
 31
0.0
  0
TEXT
  5
886F
  8
1DIM
 10
-821.89658740961613
 20
-1580.2519097756631
 30
0.0
 40
3.5
  1
14
 50
90.0
  0
LINE
  5
8870
  8
0
  6
BYBLOCK
 10
-821.73248578961636
 20
-1572.8160764423289
 30
0.0
 11
-821.19658740961631
 21
-1570.8160764423289
 31
0.0
  0
LINE
  5
8871
  8
0
  6
BYBLOCK
 10
-821.19658740961631
 20
-1570.8160764423289
 30
0.0
 11
-820.66068902961615
 21
-1572.8160764423289
 31
0.0
  0
LINE
  5
8872
  8
0
  6
BYBLOCK
 10
-821.19658740961631
 20
-1570.8160764423289
 30
0.0
 11
-821.19658740961631
 21
-1572.8160764423289
 31
0.0
  0
LINE
  5
8873
  8
0
  6
BYBLOCK
 10
-820.66068902961615
 20
-1583.0210764423291
 30
0.0
 11
-821.19658740961631
 21
-1585.0210764423291
 31
0.0
  0
LINE
  5
8874
  8
0
  6
BYBLOCK
 10
-821.19658740961631
 20
-1585.0210764423291
 30
0.0
 11
-821.73248578961636
 21
-1583.0210764423291
 31
0.0
  0
LINE
  5
8875
  8
0
  6
BYBLOCK
 10
-821.19658740961631
 20
-1585.0210764423291
 30
0.0
 11
-821.19658740961631
 21
-1583.0210764423291
 31
0.0
  0
TEXT
  5
8876
  8
1DIM
 10
-917.98820407628193
 20
-1698.4236574423289
 30
0.0
 40
3.5
  1
104
  0
LINE
  5
8877
  8
0
  6
BYBLOCK
 10
-864.19658740961495
 20
-1698.587759062329
 30
0.0
 11
-862.19658740961506
 21
-1699.1236574423301
 31
0.0
  0
LINE
  5
8878
  8
0
  6
BYBLOCK
 10
-862.19658740961506
 20
-1699.1236574423301
 30
0.0
 11
-864.19658740961495
 21
-1699.65955582233
 31
0.0
  0
LINE
  5
8879
  8
0
  6
BYBLOCK
 10
-862.19658740961506
 20
-1699.1236574423301
 30
0.0
 11
-864.19658740961495
 21
-1699.1236574423301
 31
0.0
  0
LINE
  5
887A
  8
0
  6
BYBLOCK
 10
-964.19648740961566
 20
-1699.65955582233
 30
0.0
 11
-966.19648740961566
 21
-1699.1236574423301
 31
0.0
  0
LINE
  5
887B
  8
0
  6
BYBLOCK
 10
-966.19648740961566
 20
-1699.1236574423301
 30
0.0
 11
-964.19648740961566
 21
-1698.587759062329
 31
0.0
  0
LINE
  5
887C
  8
0
  6
BYBLOCK
 10
-966.19648740961566
 20
-1699.1236574423301
 30
0.0
 11
-964.19648740961566
 21
-1699.1236574423301
 31
0.0
  0
TEXT
  5
887D
  8
1DIM
 10
-919.73825407628146
 20
-1708.4236574423289
 30
0.0
 40
3.5
  1
P120
  0
LINE
  5
887E
  8
0
  6
BYBLOCK
 10
-856.19658740961563
 20
-1708.58775906233
 30
0.0
 11
-854.19658740961563
 21
-1709.1236574423301
 31
0.0
  0
LINE
  5
887F
  8
0
  6
BYBLOCK
 10
-854.19658740961563
 20
-1709.1236574423301
 30
0.0
 11
-856.19658740961563
 21
-1709.6595558223289
 31
0.0
  0
LINE
  5
8880
  8
0
  6
BYBLOCK
 10
-854.19658740961563
 20
-1709.1236574423301
 30
0.0
 11
-856.19658740961563
 21
-1709.1236574423301
 31
0.0
  0
LINE
  5
8881
  8
0
  6
BYBLOCK
 10
-972.19658740961415
 20
-1709.6595558223289
 30
0.0
 11
-974.19658740961427
 21
-1709.1236574423301
 31
0.0
  0
LINE
  5
8882
  8
0
  6
BYBLOCK
 10
-974.19658740961427
 20
-1709.1236574423301
 30
0.0
 11
-972.19658740961415
 21
-1708.58775906233
 31
0.0
  0
LINE
  5
8883
  8
0
  6
BYBLOCK
 10
-974.19658740961427
 20
-1709.1236574423301
 30
0.0
 11
-972.19658740961415
 21
-1709.1236574423301
 31
0.0
  0
TEXT
  5
8884
  8
1DIM
 10
-821.89658740961613
 20
-1671.799857442332
 30
0.0
 40
3.5
  1
20
 50
90.0
  0
LINE
  5
8885
  8
0
  6
BYBLOCK
 10
-821.73248578961636
 20
-1661.2260574423319
 30
0.0
 11
-821.19658740961631
 21
-1659.2260574423319
 31
0.0
  0
LINE
  5
8886
  8
0
  6
BYBLOCK
 10
-821.19658740961631
 20
-1659.2260574423319
 30
0.0
 11
-820.66068902961615
 21
-1661.2260574423319
 31
0.0
  0
LINE
  5
8887
  8
0
  6
BYBLOCK
 10
-821.19658740961631
 20
-1659.2260574423319
 30
0.0
 11
-821.19658740961631
 21
-1661.2260574423319
 31
0.0
  0
LINE
  5
8888
  8
0
  6
BYBLOCK
 10
-820.66068902961615
 20
-1677.123657442331
 30
0.0
 11
-821.19658740961631
 21
-1679.123657442331
 31
0.0
  0
LINE
  5
8889
  8
0
  6
BYBLOCK
 10
-821.19658740961631
 20
-1679.123657442331
 30
0.0
 11
-821.73248578961636
 21
-1677.123657442331
 31
0.0
  0
LINE
  5
888A
  8
0
  6
BYBLOCK
 10
-821.19658740961631
 20
-1679.123657442331
 30
0.0
 11
-821.19658740961631
 21
-1677.123657442331
 31
0.0
  0
TEXT
  5
888B
  8
1DIM
 10
-811.89658740961613
 20
-1664.9890241089979
 30
0.0
 40
3.5
  1
34
 50
90.0
  0
LINE
  5
888C
  8
0
  6
BYBLOCK
 10
-811.73248578961625
 20
-1647.021057442332
 30
0.0
 11
-811.19658740961631
 21
-1645.0210574423311
 31
0.0
  0
LINE
  5
888D
  8
0
  6
BYBLOCK
 10
-811.19658740961631
 20
-1645.0210574423311
 30
0.0
 11
-810.66068902961626
 21
-1647.021057442332
 31
0.0
  0
LINE
  5
888E
  8
0
  6
BYBLOCK
 10
-811.19658740961631
 20
-1645.0210574423311
 30
0.0
 11
-811.19658740961631
 21
-1647.021057442332
 31
0.0
  0
LINE
  5
888F
  8
0
  6
BYBLOCK
 10
-810.66068902961626
 20
-1677.123657442331
 30
0.0
 11
-811.19658740961631
 21
-1679.123657442331
 31
0.0
  0
LINE
  5
8890
  8
0
  6
BYBLOCK
 10
-811.19658740961631
 20
-1679.123657442331
 30
0.0
 11
-811.73248578961625
 21
-1677.123657442331
 31
0.0
  0
LINE
  5
8891
  8
0
  6
BYBLOCK
 10
-811.19658740961631
 20
-1679.123657442331
 30
0.0
 11
-811.19658740961631
 21
-1677.123657442331
 31
0.0
  0
TEXT
  5
8892
  8
1DIM
 10
-983.02992074294832
 20
-1708.4236574423289
 30
0.0
 40
3.5
  1
13
  0
LINE
  5
8893
  8
0
  6
BYBLOCK
 10
-976.19658740961427
 20
-1708.58775906233
 30
0.0
 11
-974.19658740961427
 21
-1709.1236574423301
 31
0.0
  0
LINE
  5
8894
  8
0
  6
BYBLOCK
 10
-974.19658740961427
 20
-1709.1236574423301
 30
0.0
 11
-976.19658740961427
 21
-1709.6595558223289
 31
0.0
  0
LINE
  5
8895
  8
0
  6
BYBLOCK
 10
-974.19658740961427
 20
-1709.1236574423301
 30
0.0
 11
-976.19658740961427
 21
-1709.1236574423301
 31
0.0
  0
LINE
  5
8896
  8
0
  6
BYBLOCK
 10
-985.19658740961574
 20
-1709.6595558223289
 30
0.0
 11
-987.19658740961563
 21
-1709.1236574423301
 31
0.0
  0
LINE
  5
8897
  8
0
  6
BYBLOCK
 10
-987.19658740961563
 20
-1709.1236574423301
 30
0.0
 11
-985.19658740961574
 21
-1708.58775906233
 31
0.0
  0
LINE
  5
8898
  8
0
  6
BYBLOCK
 10
-987.19658740961563
 20
-1709.1236574423301
 30
0.0
 11
-985.19658740961574
 21
-1709.1236574423301
 31
0.0
  0
TEXT
  5
8899
  8
1DIM
 10
-850.029920742949
 20
-1708.4236574423289
 30
0.0
 40
3.5
  1
13
  0
LINE
  5
889A
  8
0
  6
BYBLOCK
 10
-843.19658740961574
 20
-1708.58775906233
 30
0.0
 11
-841.19658740961552
 21
-1709.1236574423301
 31
0.0
  0
LINE
  5
889B
  8
0
  6
BYBLOCK
 10
-841.19658740961552
 20
-1709.1236574423301
 30
0.0
 11
-843.19658740961574
 21
-1709.6595558223289
 31
0.0
  0
LINE
  5
889C
  8
0
  6
BYBLOCK
 10
-841.19658740961552
 20
-1709.1236574423301
 30
0.0
 11
-843.19658740961574
 21
-1709.1236574423301
 31
0.0
  0
LINE
  5
889D
  8
0
  6
BYBLOCK
 10
-852.19658740961574
 20
-1709.6595558223289
 30
0.0
 11
-854.19658740961563
 21
-1709.1236574423301
 31
0.0
  0
LINE
  5
889E
  8
0
  6
BYBLOCK
 10
-854.19658740961563
 20
-1709.1236574423301
 30
0.0
 11
-852.19658740961574
 21
-1708.58775906233
 31
0.0
  0
LINE
  5
889F
  8
0
  6
BYBLOCK
 10
-854.19658740961563
 20
-1709.1236574423301
 30
0.0
 11
-852.19658740961574
 21
-1709.1236574423301
 31
0.0
  0
LINE
  5
88A0
  8
1DIM
 10
-962.56214576543505
 20
-1652.2295404038939
 30
0.0
 11
-944.02938469470246
 21
-1634.5371460354449
 31
0.0
1001
ACAD
1000
DSTYLE
1002
{
1070
    45
1040
0.5
1002
}
  0
VIEWPORT
  5
57
 67
     1
  8
0
 10
81.089071909857211
 20
9.8414732014601896
 30
0.0
 40
583.2864401478846
 41
268.18532273770393
 68
     1
 69
     1
1001
ACAD
1000
MVIEW
1002
{
1070
    16
1010
0.0
1020
0.0
1030
0.0
1010
0.0
1020
0.0
1030
1.0
1040
0.0
1040
268.18532273770393
1040
81.089071909857211
1040
9.8414732014601896
1040
50.0
1040
0.0
1040
0.0
1070
     0
1070
   100
1070
     1
1070
     1
1070
     0
1070
     0
1070
     0
1070
     0
1040
0.0
1040
0.0
1040
0.0
1040
10.0
1040
10.0
1040
10.0
1040
10.0
1070
     0
1002
{
1002
}
1002
}
  0
ENDSEC
  0
EOF
