  0
SECTION
  2
HEADER
  9
$ACADVER
  1
AC1012
  9
$DWGCODEPAGE
  3
ansi_932
  9
$INSBASE
 10
0.0
 20
0.0
 30
0.0
  9
$EXTMIN
 10
-222.4288099824733
 20
-469.5433294636731
 30
0.0
  9
$EXTMAX
 10
82.97629493287356
 20
-236.4782948112651
 30
0.0
  9
$LIMMIN
 10
0.0
 20
0.0
  9
$LIMMAX
 10
420.0
 20
297.0
  9
$ORTHOMODE
 70
     0
  9
$REGENMODE
 70
     1
  9
$FILLMODE
 70
     1
  9
$QTEXTMODE
 70
     0
  9
$MIRRTEXT
 70
     1
  9
$DRAGMODE
 70
     2
  9
$LTSCALE
 40
0.5
  9
$OSMODE
 70
 12415
  9
$ATTMODE
 70
     1
  9
$TEXTSIZE
 40
4.0
  9
$TRACEWID
 40
1.0
  9
$TEXTSTYLE
  7
STANDARD
  9
$CLAYER
  8
1TEXT
  9
$CELTYPE
  6
BYLAYER
  9
$CECOLOR
 62
   256
  9
$CELTSCALE
 40
1.0
  9
$DELOBJ
 70
     1
  9
$DISPSILH
 70
     0
  9
$DIMSCALE
 40
1.0
  9
$DIMASZ
 40
2.0
  9
$DIMEXO
 40
0.0
  9
$DIMDLI
 40
7.0
  9
$DIMRND
 40
0.0
  9
$DIMDLE
 40
0.0
  9
$DIMEXE
 40
1.0
  9
$DIMTP
 40
0.0
  9
$DIMTM
 40
0.0
  9
$DIMTXT
 40
3.5
  9
$DIMCEN
 40
0.0
  9
$DIMTSZ
 40
0.0
  9
$DIMTOL
 70
     0
  9
$DIMLIM
 70
     0
  9
$DIMTIH
 70
     0
  9
$DIMTOH
 70
     0
  9
$DIMSE1
 70
     0
  9
$DIMSE2
 70
     0
  9
$DIMTAD
 70
     1
  9
$DIMZIN
 70
     8
  9
$DIMBLK
  1

  9
$DIMASO
 70
     1
  9
$DIMSHO
 70
     1
  9
$DIMPOST
  1
 
  9
$DIMAPOST
  1

  9
$DIMALT
 70
     0
  9
$DIMALTD
 70
     2
  9
$DIMALTF
 40
25.4
  9
$DIMLFAC
 40
1.0
  9
$DIMTOFL
 70
     1
  9
$DIMTVP
 40
0.0
  9
$DIMTIX
 70
     0
  9
$DIMSOXD
 70
     0
  9
$DIMSAH
 70
     1
  9
$DIMBLK1
  1
OPEN30
  9
$DIMBLK2
  1
OPEN30
  9
$DIMSTYLE
  2
NEWX10
  9
$DIMCLRD
 70
   256
  9
$DIMCLRE
 70
   256
  9
$DIMCLRT
 70
   201
  9
$DIMTFAC
 40
0.7
  9
$DIMGAP
 40
0.7
  9
$DIMJUST
 70
     0
  9
$DIMSD1
 70
     0
  9
$DIMSD2
 70
     0
  9
$DIMTOLJ
 70
     1
  9
$DIMTZIN
 70
     8
  9
$DIMALTZ
 70
     0
  9
$DIMALTTZ
 70
     0
  9
$DIMFIT
 70
     2
  9
$DIMUPT
 70
     0
  9
$DIMUNIT
 70
     2
  9
$DIMDEC
 70
     2
  9
$DIMTDEC
 70
     4
  9
$DIMALTU
 70
     2
  9
$DIMALTTD
 70
     2
  9
$DIMTXSTY
  7
STANDARD
  9
$DIMAUNIT
 70
     0
  9
$LUNITS
 70
     2
  9
$LUPREC
 70
     4
  9
$SKETCHINC
 40
1.0
  9
$FILLETRAD
 40
0.0
  9
$AUNITS
 70
     0
  9
$AUPREC
 70
     2
  9
$MENU
  1
acad
  9
$ELEVATION
 40
0.0
  9
$PELEVATION
 40
0.0
  9
$THICKNESS
 40
0.0
  9
$LIMCHECK
 70
     0
  9
$CHAMFERA
 40
10.0
  9
$CHAMFERB
 40
10.0
  9
$CHAMFERC
 40
20.0
  9
$CHAMFERD
 40
0.0
  9
$SKPOLY
 70
     0
  9
$TDCREATE
 40
2453033.732663484
  9
$TDUPDATE
 40
2459391.429929861
  9
$TDINDWG
 40
0.4292341551
  9
$TDUSRTIMER
 40
0.4292341435
  9
$USRTIMER
 70
     1
  9
$ANGBASE
 50
0.0
  9
$ANGDIR
 70
     0
  9
$PDMODE
 70
     0
  9
$PDSIZE
 40
0.0
  9
$PLINEWID
 40
0.0
  9
$COORDS
 70
     2
  9
$SPLFRAME
 70
     0
  9
$SPLINETYPE
 70
     6
  9
$SPLINESEGS
 70
     8
  9
$ATTDIA
 70
     0
  9
$ATTREQ
 70
     1
  9
$HANDLING
 70
     1
  9
$HANDSEED
  5
AAFF
  9
$SURFTAB1
 70
     6
  9
$SURFTAB2
 70
     6
  9
$SURFTYPE
 70
     6
  9
$SURFU
 70
     6
  9
$SURFV
 70
     6
  9
$UCSNAME
  2

  9
$UCSORG
 10
0.0
 20
0.0
 30
0.0
  9
$UCSXDIR
 10
1.0
 20
0.0
 30
0.0
  9
$UCSYDIR
 10
0.0
 20
1.0
 30
0.0
  9
$PUCSNAME
  2

  9
$PUCSORG
 10
0.0
 20
0.0
 30
0.0
  9
$PUCSXDIR
 10
1.0
 20
0.0
 30
0.0
  9
$PUCSYDIR
 10
0.0
 20
1.0
 30
0.0
  9
$USERI1
 70
     0
  9
$USERI2
 70
     0
  9
$USERI3
 70
     0
  9
$USERI4
 70
     0
  9
$USERI5
 70
     0
  9
$USERR1
 40
0.0
  9
$USERR2
 40
0.0
  9
$USERR3
 40
0.0
  9
$USERR4
 40
0.0
  9
$USERR5
 40
0.0
  9
$WORLDVIEW
 70
     1
  9
$SHADEDGE
 70
     3
  9
$SHADEDIF
 70
    70
  9
$TILEMODE
 70
     1
  9
$MAXACTVP
 70
    48
  9
$PINSBASE
 10
0.0
 20
0.0
 30
0.0
  9
$PLIMCHECK
 70
     0
  9
$PEXTMIN
 10
1.000000000000000E+20
 20
1.000000000000000E+20
 30
1.000000000000000E+20
  9
$PEXTMAX
 10
-1.000000000000000E+20
 20
-1.000000000000000E+20
 30
-1.000000000000000E+20
  9
$PLIMMIN
 10
0.0
 20
0.0
  9
$PLIMMAX
 10
420.0
 20
297.0
  9
$UNITMODE
 70
     0
  9
$VISRETAIN
 70
     1
  9
$PLINEGEN
 70
     0
  9
$PSLTSCALE
 70
     1
  9
$TREEDEPTH
 70
  3020
  9
$PICKSTYLE
 70
     1
  9
$CMLSTYLE
  2
STANDARD
  9
$CMLJUST
 70
     0
  9
$CMLSCALE
 40
20.0
  9
$SAVEIMAGES
 70
     1
  0
ENDSEC
  0
SECTION
  2
CLASSES
  0
CLASS
  1
DICTIONARYVAR
  2
AcDbDictionaryVar
  3
ObjectDBX Classes
 90
        0
280
     0
281
     0
  0
CLASS
  1
IDBUFFER
  2
AcDbIdBuffer
  3
ObjectDBX Classes
 90
    32768
280
     0
281
     0
  0
CLASS
  1
LWPOLYLINE
  2
AcDbPolyline
  3
ObjectDBX Classes
 90
    32768
280
     0
281
     1
  0
CLASS
  1
ACDBDICTIONARYWDFLT
  2
AcDbDictionaryWithDefault
  3
ObjectDBX Classes
 90
    32768
280
     0
281
     0
  0
CLASS
  1
ACDBPLACEHOLDER
  2
AcDbPlaceHolder
  3
ObjectDBX Classes
 90
        0
280
     0
281
     0
  0
CLASS
  1
LAYOUT
  2
AcDbLayout
  3
ObjectDBX Classes
 90
        0
280
     0
281
     0
  0
CLASS
  1
TABLESTYLE
  2
AcDbTableStyle
  3
ObjectDBX Classes
 90
     4095
280
     0
281
     0
  0
CLASS
  1
SORTENTSTABLE
  2
AcDbSortentsTable
  3
ObjectDBX Classes
 90
    32768
280
     0
281
     0
  0
CLASS
  1
DIMASSOC
  2
AcDbDimAssoc
  3
"AcDbDimAssoc|Product Desc:     AcDim ARX App For Dimension|Company:          Autodesk, Inc.|WEB Address:      www.autodesk.com"
 90
        0
280
     0
281
     0
  0
CLASS
  1
MATERIAL
  2
AcDbMaterial
  3
ObjectDBX Classes
 90
     1153
280
     0
281
     0
  0
CLASS
  1
VISUALSTYLE
  2
AcDbVisualStyle
  3
ObjectDBX Classes
 90
     4095
280
     0
281
     0
  0
CLASS
  1
SCALE
  2
AcDbScale
  3
ObjectDBX Classes
 90
     1153
280
     0
281
     0
  0
CLASS
  1
MLEADERSTYLE
  2
AcDbMLeaderStyle
  3
ACDB_MLEADERSTYLE_CLASS
 90
     4095
280
     0
281
     0
  0
CLASS
  1
CELLSTYLEMAP
  2
AcDbCellStyleMap
  3
ObjectDBX Classes
 90
     1152
280
     0
281
     0
  0
CLASS
  1
SUN
  2
AcDbSun
  3
SCENEOE
 90
     1153
280
     0
281
     0
  0
CLASS
  1
XRECORD
  2
AcDbXrecord
  3
ObjectDBX Classes
 90
    32768
280
     0
281
     0
  0
CLASS
  1
HATCH
  2
AcDbHatch
  3
ObjectDBX Classes
 90
    32768
280
     0
281
     1
  0
ENDSEC
  0
SECTION
  2
TABLES
  0
TABLE
  2
VPORT
  5
8
330
0
100
AcDbSymbolTable
 70
     1
  0
VPORT
  5
95B5
330
8
100
AcDbSymbolTableRecord
100
AcDbViewportTableRecord
  2
*ACTIVE
 70
     0
 10
0.0
 20
0.0
 11
1.0
 21
1.0
 12
-69.72625752479988
 22
-353.0108121374691
 13
0.0
 23
0.0
 14
10.0
 24
10.0
 15
10.0
 25
10.0
 16
0.0
 26
0.0
 36
1.0
 17
0.0
 27
0.0
 37
0.0
 40
250.2382477320592
 41
2.137115839243499
 42
50.0
 43
0.0
 44
0.0
 50
0.0
 51
0.0
 71
    16
 72
   100
 73
     1
 74
     1
 75
     0
 76
     0
 77
     0
 78
     0
1001
ACAD_NAV_VCDISPLAY
1070
     3
  0
ENDTAB
  0
TABLE
  2
LTYPE
  5
5
330
0
100
AcDbSymbolTable
 70
     6
  0
LTYPE
  5
12
330
5
100
AcDbSymbolTableRecord
100
AcDbLinetypeTableRecord
  2
BYBLOCK
 70
     0
  3

 72
    65
 73
     0
 40
0.0
  0
LTYPE
  5
13
330
5
100
AcDbSymbolTableRecord
100
AcDbLinetypeTableRecord
  2
BYLAYER
 70
     0
  3

 72
    65
 73
     0
 40
0.0
  0
LTYPE
  5
14
330
5
100
AcDbSymbolTableRecord
100
AcDbLinetypeTableRecord
  2
CONTINUOUS
 70
     0
  3
Solid line
 72
    65
 73
     0
 40
0.0
  0
LTYPE
  5
6A
330
5
100
AcDbSymbolTableRecord
100
AcDbLinetypeTableRecord
  2
XREF1|CENTER2
 70
    48
  3
Center (.5x) ___ _ ___ _ ___ _ ___ _ ___ _ ___
 72
    65
 73
     4
 40
28.575
 49
19.05
 74
     0
 49
-3.175
 74
     0
 49
3.175
 74
     0
 49
-3.175
 74
     0
  0
LTYPE
  5
6E2
330
5
100
AcDbSymbolTableRecord
100
AcDbLinetypeTableRecord
  2
A3WAKUDAKE|CENTER2
 70
    48
  3
Center (.5x) ___ _ ___ _ ___ _ ___ _ ___ _ ___
 72
    65
 73
     4
 40
28.575
 49
19.05
 74
     0
 49
-3.175
 74
     0
 49
3.175
 74
     0
 49
-3.175
 74
     0
  0
LTYPE
  5
9211
330
5
100
AcDbSymbolTableRecord
100
AcDbLinetypeTableRecord
  2
PHANTOM2
 70
     0
  3
Phantom (0.5x) ___ _ _ ___ _ _ ___ _ _ ___ _ _
 72
    65
 73
     6
 40
31.75
 49
15.875
 74
     0
 49
-3.175
 74
     0
 49
3.175
 74
     0
 49
-3.175
 74
     0
 49
3.175
 74
     0
 49
-3.175
 74
     0
  0
LTYPE
  5
9691
330
5
100
AcDbSymbolTableRecord
100
AcDbLinetypeTableRecord
  2
HIDDEN
 70
     0
  3
Hidden __ __ __ __ __ __ __ __ __ __ __ __ __ _
 72
    65
 73
     2
 40
9.524999999999999
 49
6.35
 74
     0
 49
-3.175
 74
     0
  0
LTYPE
  5
96A6
330
5
100
AcDbSymbolTableRecord
100
AcDbLinetypeTableRecord
  2
CENTER2
 70
     0
  3
Center (.5x) ___ _ ___ _ ___ _ ___ _ ___ _ ___
 72
    65
 73
     4
 40
28.575
 49
19.05
 74
     0
 49
-3.175
 74
     0
 49
3.175
 74
     0
 49
-3.175
 74
     0
  0
ENDTAB
  0
TABLE
  2
LAYER
  5
2
102
{ACAD_XDICTIONARY
360
9658
102
}
330
0
100
AcDbSymbolTable
 70
    11
  0
LAYER
  5
E
102
{ACAD_XDICTIONARY
360
9612
102
}
330
2
100
AcDbSymbolTableRecord
100
AcDbLayerTableRecord
  2
0
 70
     0
 62
     7
  6
CONTINUOUS
  0
LAYER
  5
29
102
{ACAD_XDICTIONARY
360
9614
102
}
330
2
100
AcDbSymbolTableRecord
100
AcDbLayerTableRecord
  2
1CENTER
 70
     0
 62
     7
  6
CENTER2
  0
LAYER
  5
31
102
{ACAD_XDICTIONARY
360
9616
102
}
330
2
100
AcDbSymbolTableRecord
100
AcDbLayerTableRecord
  2
1TEXT
 70
     0
 62
     7
  6
CONTINUOUS
  0
LAYER
  5
101
102
{ACAD_XDICTIONARY
360
961C
102
}
330
2
100
AcDbSymbolTableRecord
100
AcDbLayerTableRecord
  2
1DIM
 70
     0
 62
     7
  6
CONTINUOUS
  0
LAYER
  5
6DD
102
{ACAD_XDICTIONARY
360
9622
102
}
330
2
100
AcDbSymbolTableRecord
100
AcDbLayerTableRecord
  2
A3WAKUDAKE|THICK
 70
    48
 62
     7
  6
CONTINUOUS
  0
LAYER
  5
6DE
102
{ACAD_XDICTIONARY
360
9624
102
}
330
2
100
AcDbSymbolTableRecord
100
AcDbLayerTableRecord
  2
A3WAKUDAKE|POINT
 70
    48
 62
     7
  6
CONTINUOUS
  0
LAYER
  5
6DF
102
{ACAD_XDICTIONARY
360
9626
102
}
330
2
100
AcDbSymbolTableRecord
100
AcDbLayerTableRecord
  2
A3WAKUDAKE|1CENTER
 70
    48
 62
     7
  6
A3WAKUDAKE|CENTER2
  0
LAYER
  5
6E0
102
{ACAD_XDICTIONARY
360
9628
102
}
330
2
100
AcDbSymbolTableRecord
100
AcDbLayerTableRecord
  2
A3WAKUDAKE|0-6
 70
    48
 62
     7
  6
CONTINUOUS
  0
LAYER
  5
9216
102
{ACAD_XDICTIONARY
360
962A
102
}
330
2
100
AcDbSymbolTableRecord
100
AcDbLayerTableRecord
  2
1PHANTOM
 70
     0
 62
     7
  6
PHANTOM2
  0
LAYER
  5
969B
330
2
100
AcDbSymbolTableRecord
100
AcDbLayerTableRecord
  2
01
 70
     0
 62
     1
  6
CONTINUOUS
  0
LAYER
  5
96AB
330
2
100
AcDbSymbolTableRecord
100
AcDbLayerTableRecord
  2
1HIDDEN
 70
     0
 62
     7
  6
HIDDEN
  0
ENDTAB
  0
TABLE
  2
STYLE
  5
3
330
0
100
AcDbSymbolTable
 70
     3
  0
STYLE
  5
F
330
3
100
AcDbSymbolTableRecord
100
AcDbTextStyleTableRecord
  2
STANDARD
 70
     0
 40
0.0
 41
1.0
 50
0.0
 71
     0
 42
4.0
  3
txt.shx
  4
extfont.shx
  0
STYLE
  5
9B4A
330
3
100
AcDbSymbolTableRecord
100
AcDbTextStyleTableRecord
  2
A3WAKUDAKE|STANDARD
 70
    48
 40
0.0
 41
1.0
 50
0.0
 71
     0
 42
4.0
  3
romans.shx
  4
extfont.shx
  0
STYLE
  5
9B72
330
3
100
AcDbSymbolTableRecord
100
AcDbTextStyleTableRecord
  2
XREF1|STANDARD
 70
    48
 40
0.0
 41
1.0
 50
0.0
 71
     0
 42
4.0
  3
romans.shx
  4
extfont.shx
  0
ENDTAB
  0
TABLE
  2
VIEW
  5
6
330
0
100
AcDbSymbolTable
 70
     1
  0
VIEW
  5
8CE7
330
6
100
AcDbSymbolTableRecord
100
AcDbViewTableRecord
  2
OLE1
 70
     0
 40
407.986753933366
 10
-82.27067871503351
 20
-387.5973855856009
 41
607.4705243871314
 11
0.0
 21
0.0
 31
1.0
 12
0.0
 22
0.0
 32
0.0
 42
50.0
 43
0.0
 44
0.0
 50
0.0
 71
     0
  0
ENDTAB
  0
TABLE
  2
UCS
  5
7
330
0
100
AcDbSymbolTable
 70
     0
  0
ENDTAB
  0
TABLE
  2
APPID
  5
9
330
0
100
AcDbSymbolTable
 70
    18
  0
APPID
  5
10
330
9
100
AcDbSymbolTableRecord
100
AcDbRegAppTableRecord
  2
ACAD
 70
     0
  0
APPID
  5
21
330
9
100
AcDbSymbolTableRecord
100
AcDbRegAppTableRecord
  2
DRAWINGVARIABLESXDATA
 70
     0
  0
APPID
  5
64
330
9
100
AcDbSymbolTableRecord
100
AcDbRegAppTableRecord
  2
CONTENTTABDATA
 70
     0
  0
APPID
  5
65
330
9
100
AcDbSymbolTableRecord
100
AcDbRegAppTableRecord
  2
CONTENTCURRENTTAB
 70
     0
  0
APPID
  5
66
330
9
100
AcDbSymbolTableRecord
100
AcDbRegAppTableRecord
  2
CONTENTBLOCKDESCRIPTION
 70
     0
  0
APPID
  5
67
330
9
100
AcDbSymbolTableRecord
100
AcDbRegAppTableRecord
  2
CONTENTBLOCKICON
 70
     0
  0
APPID
  5
68
330
9
100
AcDbSymbolTableRecord
100
AcDbRegAppTableRecord
  2
CONTENTLONGBLOCKNAME
 70
     0
  0
APPID
  5
5A9
330
9
100
AcDbSymbolTableRecord
100
AcDbRegAppTableRecord
  2
ACAD_PSEXT
 70
     0
  0
APPID
  5
18AC
330
9
100
AcDbSymbolTableRecord
100
AcDbRegAppTableRecord
  2
ACAD_DSTYLE_DIMTEXT_FILL
 70
     0
  0
APPID
  5
960D
330
9
100
AcDbSymbolTableRecord
100
AcDbRegAppTableRecord
  2
ACAD_MLEADERVER
 70
     0
  0
APPID
  5
988C
330
9
100
AcDbSymbolTableRecord
100
AcDbRegAppTableRecord
  2
ACAD_NAV_VCDISPLAY
 70
     0
  0
APPID
  5
998B
330
9
100
AcDbSymbolTableRecord
100
AcDbRegAppTableRecord
  2
ACAD_DSTYLE_DIMRADIAL_EXTE
 70
     0
  0
APPID
  5
9A1F
330
9
100
AcDbSymbolTableRecord
100
AcDbRegAppTableRecord
  2
ACAD_EXEMPT_FROM_CAD_STAND
 70
     0
  0
APPID
  5
9EF4
330
9
100
AcDbSymbolTableRecord
100
AcDbRegAppTableRecord
  2
ACADANNOTATIVE
 70
     0
  0
APPID
  5
9EF5
330
9
100
AcDbSymbolTableRecord
100
AcDbRegAppTableRecord
  2
ACDBBLOCKREPETAG
 70
     0
  0
APPID
  5
A664
330
9
100
AcDbSymbolTableRecord
100
AcDbRegAppTableRecord
  2
ACAD_DIMASSOC_CALC_DIMLFAC
 70
     0
  0
APPID
  5
A665
330
9
100
AcDbSymbolTableRecord
100
AcDbRegAppTableRecord
  2
ACAD_DIMASSOC_OVERRIDDEN_D
 70
     0
  0
APPID
  5
A666
330
9
100
AcDbSymbolTableRecord
100
AcDbRegAppTableRecord
  2
ACAD_DIMASSOC_DIMLFAC
 70
     0
  0
ENDTAB
  0
TABLE
  2
DIMSTYLE
  5
A
330
0
100
AcDbSymbolTable
 70
     1
  0
DIMSTYLE
105
48
102
{ACAD_REACTORS
102
}
330
A
100
AcDbSymbolTableRecord
100
AcDbDimStyleTableRecord
  2
NEWX10
 70
     0
  3
 
  4

  5

  6
OPEN30
  7
OPEN30
 40
1.0
 41
2.0
 42
0.0
 43
7.0
 44
1.0
 45
0.0
 46
0.0
 47
0.0
 48
0.0
140
3.5
141
0.0
142
0.0
143
25.4
144
1.0
145
0.0
146
0.7
147
0.7
 71
     0
 72
     0
 73
     0
 74
     0
 75
     0
 76
     0
 77
     1
 78
     8
170
     0
171
     2
172
     1
173
     1
174
     0
175
     0
176
   256
177
   256
178
   201
179
     2
270
     2
271
     2
272
     4
273
     2
274
     2
340
F
275
     0
280
     0
281
     0
282
     0
283
     1
284
     8
285
     0
286
     0
287
     2
288
     0
  0
ENDTAB
  0
TABLE
  2
BLOCK_RECORD
  5
1
330
0
100
AcDbSymbolTable
 70
    10
  0
BLOCK_RECORD
  5
18
102
{ACAD_XDICTIONARY
360
6E9
102
}
330
1
100
AcDbSymbolTableRecord
100
AcDbBlockTableRecord
  2
*MODEL_SPACE
  0
BLOCK_RECORD
  5
15
102
{ACAD_XDICTIONARY
360
59B
102
}
330
1
100
AcDbSymbolTableRecord
100
AcDbBlockTableRecord
  2
*PAPER_SPACE
  0
BLOCK_RECORD
  5
42
330
1
100
AcDbSymbolTableRecord
100
AcDbBlockTableRecord
  2
_OPEN30
  0
BLOCK_RECORD
  5
5B
330
1
100
AcDbSymbolTableRecord
100
AcDbBlockTableRecord
  2
XREF1
  0
BLOCK_RECORD
  5
6DA
330
1
100
AcDbSymbolTableRecord
100
AcDbBlockTableRecord
  2
A3WAKUDAKE
  0
BLOCK_RECORD
  5
9F45
330
1
100
AcDbSymbolTableRecord
100
AcDbBlockTableRecord
  2
A3WAKUKAWAJUN2017_HYOUDAI_
  0
BLOCK_RECORD
  5
A95F
330
1
100
AcDbSymbolTableRecord
100
AcDbBlockTableRecord
  2
*X87
  0
BLOCK_RECORD
  5
A9AD
330
1
100
AcDbSymbolTableRecord
100
AcDbBlockTableRecord
  2
*X88
  0
BLOCK_RECORD
  5
A9FF
330
1
100
AcDbSymbolTableRecord
100
AcDbBlockTableRecord
  2
*X89
  0
BLOCK_RECORD
  5
AA50
330
1
100
AcDbSymbolTableRecord
100
AcDbBlockTableRecord
  2
*X90
  0
BLOCK_RECORD
  5
AA8D
330
1
100
AcDbSymbolTableRecord
100
AcDbBlockTableRecord
  2
*X91
  0
BLOCK_RECORD
  5
AACD
330
1
100
AcDbSymbolTableRecord
100
AcDbBlockTableRecord
  2
*X92
  0
ENDTAB
  0
ENDSEC
  0
SECTION
  2
BLOCKS
  0
BLOCK
  5
19
330
18
100
AcDbEntity
  8
0
100
AcDbBlockBegin
  2
*MODEL_SPACE
 70
     0
 10
0.0
 20
0.0
 30
0.0
  3
*MODEL_SPACE
  1

  0
ENDBLK
  5
1A
330
18
100
AcDbEntity
  8
0
100
AcDbBlockEnd
  0
BLOCK
  5
16
330
15
100
AcDbEntity
 67
     1
  8
0
100
AcDbBlockBegin
  2
*PAPER_SPACE
 70
     0
 10
0.0
 20
0.0
 30
0.0
  3
*PAPER_SPACE
  1

  0
ENDBLK
  5
17
330
15
100
AcDbEntity
 67
     1
  8
0
100
AcDbBlockEnd
  0
BLOCK
  5
43
330
42
100
AcDbEntity
  8
0
100
AcDbBlockBegin
  2
_OPEN30
 70
     0
 10
0.0
 20
0.0
 30
0.0
  3
_OPEN30
  1

  0
LINE
  5
44
330
42
100
AcDbEntity
  8
0
  6
BYBLOCK
 62
     0
100
AcDbLine
 10
-1.0
 20
0.26794919
 30
0.0
 11
0.0
 21
0.0
 31
0.0
  0
LINE
  5
45
330
42
100
AcDbEntity
  8
0
  6
BYBLOCK
 62
     0
100
AcDbLine
 10
0.0
 20
0.0
 30
0.0
 11
-1.0
 21
-0.26794919
 31
0.0
  0
LINE
  5
46
330
42
100
AcDbEntity
  8
0
  6
BYBLOCK
 62
     0
100
AcDbLine
 10
0.0
 20
0.0
 30
0.0
 11
-1.0
 21
0.0
 31
0.0
  0
ENDBLK
  5
47
330
42
100
AcDbEntity
  8
0
100
AcDbBlockEnd
  0
BLOCK
  5
5C
330
5B
100
AcDbEntity
  8
0
100
AcDbBlockBegin
  2
XREF1
 70
    36
 10
0.0
 20
0.0
 30
0.0
  3
XREF1
  1
D:\ACLT\FORMAT\KAWAJUN(9)図面用.dwg
  0
ENDBLK
  5
5D
330
5B
100
AcDbEntity
  8
0
100
AcDbBlockEnd
  0
BLOCK
  5
6DB
330
6DA
100
AcDbEntity
  8
0
100
AcDbBlockBegin
  2
A3WAKUDAKE
 70
    36
 10
0.0
 20
0.0
 30
0.0
  3
A3WAKUDAKE
  1
D:\ACLT\FORMAT\A3WAKUdake.dwg
  0
ENDBLK
  5
6DC
330
6DA
100
AcDbEntity
  8
0
100
AcDbBlockEnd
  0
BLOCK
  5
A644
330
9F45
100
AcDbEntity
  8
0
100
AcDbBlockBegin
  2
A3WAKUKAWAJUN2017_HYOUDAI_
 70
     0
 10
0.0
 20
0.0
 30
0.0
  3
A3WAKUKAWAJUN2017_HYOUDAI_
  1

  0
LINE
  5
9F47
330
9F45
100
AcDbEntity
  8
0
100
AcDbLine
 10
13.26299999998673
 20
-0.0001000000000317
 30
0.0
 11
9.236999999990758
 21
8.999899999990987
 31
0.0
1001
ACAD
1000
ASC_BOUNDS
1002
{
1070
    19
1005
9F88
1002
}
  0
LINE
  5
9F48
330
9F45
100
AcDbEntity
  8
0
100
AcDbLine
 10
5.657999999994331
 20
0.9999999999989768
 30
0.0
 11
9.236999999990758
 21
8.999999999991019
 31
0.0
1001
ACAD
1000
ASC_BOUNDS
1002
{
1070
    19
1005
9F88
1002
}
  0
LINE
  5
9F49
330
9F45
100
AcDbEntity
  8
0
100
AcDbLine
 10
18.59199999998134
 20
-0.2368999999997641
 30
0.0
 11
16.46099999998353
 21
5.432899999994561
 31
0.0
1001
ACAD
1000
ASC_BOUNDS
1002
{
1070
    19
1005
9F89
1002
}
  0
LINE
  5
9F4A
330
9F45
100
AcDbEntity
  8
0
100
AcDbLine
 10
18.59199999998134
 20
-0.2368999999997641
 30
0.0
 11
22.38199999997767
 21
8.763099999991255
 31
0.0
1001
ACAD
1000
ASC_BOUNDS
1002
{
1070
    19
1005
9F89
1002
}
  0
LINE
  5
9F4B
330
9F45
100
AcDbEntity
  8
0
100
AcDbLine
 10
14.32899999998563
 20
-0.2368999999997641
 30
0.0
 11
16.46099999998353
 21
5.432899999994561
 31
0.0
1001
ACAD
1000
ASC_BOUNDS
1002
{
1070
    19
1005
9F89
1002
}
  0
LINE
  5
9F4C
330
9F45
100
AcDbEntity
  8
0
100
AcDbLine
 10
14.32899999998563
 20
-0.2368999999997641
 30
0.0
 11
10.53899999998941
 21
8.763099999991255
 31
0.0
1001
ACAD
1000
ASC_BOUNDS
1002
{
1070
    19
1005
9F89
1002
}
  0
LINE
  5
9F4D
330
9F45
100
AcDbEntity
  8
0
100
AcDbLine
 10
19.53899999998043
 20
-0.0001000000000317
 30
0.0
 11
23.56599999997638
 21
8.999899999990987
 31
0.0
1001
ACAD
1000
ASC_BOUNDS
1002
{
1070
    19
1005
9F8A
1002
}
  0
LINE
  5
9F4E
330
9F45
100
AcDbEntity
  8
0
100
AcDbLine
 10
26.97358892824991
 20
1.383099999991202
 30
0.0
 11
23.56599999997638
 21
8.999899999990987
 31
0.0
1001
ACAD
1000
ASC_BOUNDS
1002
{
1070
    19
1005
9F8A
1002
}
  0
LINE
  5
9F4F
330
9F45
100
AcDbEntity
  8
0
100
AcDbLine
 10
5.657999999994331
 20
0.9999999999989768
 30
0.0
 11
3.181999999996833
 21
4.668599999995308
 31
0.0
1001
ACAD
1000
ASC_BOUNDS
1002
{
1070
    19
1005
9F88
1002
}
  0
LINE
  5
9F50
330
9F45
100
AcDbEntity
  8
0
100
AcDbLine
 10
4.617999999995391
 20
-0.0001000000000317
 30
0.0
 11
1.420999999998571
 21
4.736799999995242
 31
0.0
1001
ACAD
1000
ASC_BOUNDS
1002
{
1070
    19
1005
9F88
1002
}
  0
LINE
  5
9F51
330
9F45
100
AcDbEntity
  8
0
100
AcDbLine
 10
1.420999999998571
 20
8.763099999991255
 30
0.0
 11
1.420999999998571
 21
0.0
 31
0.0
1001
ACAD
1000
ASC_BOUNDS
1002
{
1070
    19
1005
9F8D
1002
}
  0
LINE
  5
9F52
330
9F45
100
AcDbEntity
  8
0
100
AcDbLine
 10
0.0
 20
8.763099999991255
 30
0.0
 11
0.0
 21
0.0
 31
0.0
1001
ACAD
1000
ASC_BOUNDS
1002
{
1070
    19
1005
9F8D
1002
}
  0
LINE
  5
9F53
330
9F45
100
AcDbEntity
  8
0
100
AcDbLine
 10
6.766999999993232
 20
-0.0001000000000317
 30
0.0
 11
7.826999999992154
 21
2.368399999997621
 31
0.0
1001
ACAD
1000
ASC_BOUNDS
1002
{
1070
    19
1005
9F88
1002
}
  0
LINE
  5
9F54
330
9F45
100
AcDbEntity
  8
0
100
AcDbLine
 10
0.0
 20
0.0
 30
0.0
 11
1.420999999998571
 21
0.0
 31
0.0
1001
ACAD
1000
ASC_BOUNDS
1002
{
1070
    19
1005
9F8D
1002
}
  0
LINE
  5
9F55
330
9F45
100
AcDbEntity
  8
0
100
AcDbLine
 10
4.617999999995391
 20
0.0
 30
0.0
 11
6.766999999993232
 21
0.0
 31
0.0
1001
ACAD
1000
ASC_BOUNDS
1002
{
1070
    19
1005
9F88
1002
}
  0
LINE
  5
9F56
330
9F45
100
AcDbEntity
  8
0
100
AcDbLine
 10
11.70599999998831
 20
-0.0001000000000317
 30
0.0
 11
10.64699999998936
 21
2.368399999997621
 31
0.0
1001
ACAD
1000
ASC_BOUNDS
1002
{
1070
    19
1005
9F88
1002
}
  0
LINE
  5
9F57
330
9F45
100
AcDbEntity
  8
0
100
AcDbLine
 10
7.826999999992154
 20
2.368399999997621
 30
0.0
 11
10.64699999998936
 21
2.368399999997621
 31
0.0
1001
ACAD
1000
ASC_BOUNDS
1002
{
1070
    19
1005
9F88
1002
}
  0
LINE
  5
9F58
330
9F45
100
AcDbEntity
  8
0
100
AcDbLine
 10
11.70599999998831
 20
0.0
 30
0.0
 11
13.26299999998673
 21
0.0
 31
0.0
1001
ACAD
1000
ASC_BOUNDS
1002
{
1070
    19
1005
9F88
1002
}
  0
LINE
  5
9F59
330
9F45
100
AcDbEntity
  8
0
100
AcDbLine
 10
22.15599999997789
 20
2.368399999997621
 30
0.0
 11
24.97599999997499
 21
2.368399999997621
 31
0.0
1001
ACAD
1000
ASC_BOUNDS
1002
{
1070
    19
1005
9F8A
1002
}
  0
LINE
  5
9F5A
330
9F45
100
AcDbEntity
  8
0
100
AcDbLine
 10
19.53899999998043
 20
0.0
 30
0.0
 11
21.09599999997886
 21
0.0
 31
0.0
1001
ACAD
1000
ASC_BOUNDS
1002
{
1070
    19
1005
9F8A
1002
}
  0
LINE
  5
9F5B
330
9F45
100
AcDbEntity
  8
0
100
AcDbLine
 10
21.09599999997886
 20
-0.0001000000000317
 30
0.0
 11
22.15599999997789
 21
2.368399999997621
 31
0.0
1001
ACAD
1000
ASC_BOUNDS
1002
{
1070
    19
1005
9F8A
1002
}
  0
LINE
  5
9F5C
330
9F45
100
AcDbEntity
  8
0
100
AcDbLine
 10
26.02015566812236
 20
0.0330999999912365
 30
0.0
 11
24.97599999997499
 21
2.368399999997621
 31
0.0
1001
ACAD
1000
ASC_BOUNDS
1002
{
1070
    19
1005
9F8A
1002
}
  0
LINE
  5
9F5D
330
9F45
100
AcDbEntity
  8
0
100
AcDbLine
 10
14.32399999998563
 20
3.315799999996671
 30
0.0
 11
16.46099999998353
 21
8.999899999990987
 31
0.0
1001
ACAD
1000
ASC_BOUNDS
1002
{
1070
    19
1005
9F89
1002
}
  0
LINE
  5
9F5E
330
9F45
100
AcDbEntity
  8
0
100
AcDbLine
 10
6.432999999993513
 20
8.763099999991255
 30
0.0
 11
3.181999999996833
 21
4.668599999995308
 31
0.0
1001
ACAD
1000
ASC_BOUNDS
1002
{
1070
    19
1005
9F88
1002
}
  0
LINE
  5
9F5F
330
9F45
100
AcDbEntity
  8
0
100
AcDbLine
 10
4.617999999995391
 20
8.763099999991255
 30
0.0
 11
1.420999999998571
 21
4.736799999995242
 31
0.0
1001
ACAD
1000
ASC_BOUNDS
1002
{
1070
    19
1005
9F88
1002
}
  0
LINE
  5
9F60
330
9F45
100
AcDbEntity
  8
0
100
AcDbLine
 10
0.0
 20
8.763099999991255
 30
0.0
 11
1.420999999998571
 21
8.763099999991255
 31
0.0
1001
ACAD
1000
ASC_BOUNDS
1002
{
1070
    19
1005
9F8D
1002
}
  0
LINE
  5
9F61
330
9F45
100
AcDbEntity
  8
0
100
AcDbLine
 10
4.617999999995391
 20
8.763099999991255
 30
0.0
 11
6.432999999993513
 21
8.763099999991255
 31
0.0
1001
ACAD
1000
ASC_BOUNDS
1002
{
1070
    19
1005
9F88
1002
}
  0
LINE
  5
9F62
330
9F45
100
AcDbEntity
  8
0
100
AcDbLine
 10
14.32399999998563
 20
3.315799999996671
 30
0.0
 11
12.02999999998792
 21
8.763099999991255
 31
0.0
1001
ACAD
1000
ASC_BOUNDS
1002
{
1070
    19
1005
9F89
1002
}
  0
LINE
  5
9F63
330
9F45
100
AcDbEntity
  8
0
100
AcDbLine
 10
10.06399999998996
 20
3.670999999996297
 30
0.0
 11
9.236999999990758
 21
5.5200999999945
 31
0.0
1001
ACAD
1000
ASC_BOUNDS
1002
{
1070
    19
1005
9F88
1002
}
  0
LINE
  5
9F64
330
9F45
100
AcDbEntity
  8
0
100
AcDbLine
 10
8.409999999991555
 20
3.670999999996297
 30
0.0
 11
9.236999999990758
 21
5.5200999999945
 31
0.0
1001
ACAD
1000
ASC_BOUNDS
1002
{
1070
    19
1005
9F88
1002
}
  0
LINE
  5
9F65
330
9F45
100
AcDbEntity
  8
0
100
AcDbLine
 10
8.409999999991555
 20
3.670999999996297
 30
0.0
 11
10.06399999998996
 21
3.670999999996297
 31
0.0
1001
ACAD
1000
ASC_BOUNDS
1002
{
1070
    19
1005
9F88
1002
}
  0
LINE
  5
9F66
330
9F45
100
AcDbEntity
  8
0
100
AcDbLine
 10
10.53899999998941
 20
8.763099999991255
 30
0.0
 11
12.02999999998792
 21
8.763099999991255
 31
0.0
1001
ACAD
1000
ASC_BOUNDS
1002
{
1070
    19
1005
9F89
1002
}
  0
LINE
  5
9F67
330
9F45
100
AcDbEntity
  8
0
100
AcDbLine
 10
22.7389999999773
 20
3.670999999996297
 30
0.0
 11
23.56599999997638
 21
5.5200999999945
 31
0.0
1001
ACAD
1000
ASC_BOUNDS
1002
{
1070
    19
1005
9F8A
1002
}
  0
LINE
  5
9F68
330
9F45
100
AcDbEntity
  8
0
100
AcDbLine
 10
22.7389999999773
 20
3.670999999996297
 30
0.0
 11
24.39299999997559
 21
3.670999999996297
 31
0.0
1001
ACAD
1000
ASC_BOUNDS
1002
{
1070
    19
1005
9F8A
1002
}
  0
LINE
  5
9F69
330
9F45
100
AcDbEntity
  8
0
100
AcDbLine
 10
18.59799999998143
 20
3.315799999996671
 30
0.0
 11
20.89099999997916
 21
8.763099999991255
 31
0.0
1001
ACAD
1000
ASC_BOUNDS
1002
{
1070
    19
1005
9F89
1002
}
  0
LINE
  5
9F6A
330
9F45
100
AcDbEntity
  8
0
100
AcDbLine
 10
18.59799999998143
 20
3.315799999996671
 30
0.0
 11
16.46099999998353
 21
8.999899999990987
 31
0.0
1001
ACAD
1000
ASC_BOUNDS
1002
{
1070
    19
1005
9F89
1002
}
  0
LINE
  5
9F6B
330
9F45
100
AcDbEntity
  8
0
100
AcDbLine
 10
20.89099999997916
 20
8.763099999991255
 30
0.0
 11
22.38199999997767
 21
8.763099999991255
 31
0.0
1001
ACAD
1000
ASC_BOUNDS
1002
{
1070
    19
1005
9F89
1002
}
  0
LINE
  5
9F6C
330
9F45
100
AcDbEntity
  8
0
100
AcDbLine
 10
24.39299999997559
 20
3.670999999996297
 30
0.0
 11
23.56599999997638
 21
5.5200999999945
 31
0.0
1001
ACAD
1000
ASC_BOUNDS
1002
{
1070
    19
1005
9F8A
1002
}
  0
LINE
  5
9F6D
330
9F45
100
AcDbEntity
  8
0
100
AcDbLine
 10
44.99999999995498
 20
-0.2368999999997641
 30
0.0
 11
40.02599999995994
 21
5.341799999994635
 31
0.0
1001
ACAD
1000
ASC_BOUNDS
1002
{
1070
    19
1005
9F8C
1002
}
  0
LINE
  5
9F6E
330
9F45
100
AcDbEntity
  8
0
100
AcDbLine
 10
40.02599999995994
 20
5.341799999994635
 30
0.0
 11
40.02599999995994
 21
0.0
 31
0.0
1001
ACAD
1000
ASC_BOUNDS
1002
{
1070
    19
1005
9F8C
1002
}
  0
LINE
  5
9F6F
330
9F45
100
AcDbEntity
  8
0
100
AcDbLine
 10
38.60499999996136
 20
8.999999999991019
 30
0.0
 11
38.60499999996136
 21
0.0
 31
0.0
1001
ACAD
1000
ASC_BOUNDS
1002
{
1070
    19
1005
9F8C
1002
}
  0
LINE
  5
9F70
330
9F45
100
AcDbEntity
  8
0
100
AcDbLine
 10
44.99999999995498
 20
8.763099999991255
 30
0.0
 11
44.99999999995498
 21
-0.2368999999997641
 31
0.0
1001
ACAD
1000
ASC_BOUNDS
1002
{
1070
    19
1005
9F8C
1002
}
  0
LINE
  5
9F71
330
9F45
100
AcDbEntity
  8
0
100
AcDbLine
 10
38.60499999996136
 20
0.0
 30
0.0
 11
40.02599999995994
 21
0.0
 31
0.0
1001
ACAD
1000
ASC_BOUNDS
1002
{
1070
    19
1005
9F8C
1002
}
  0
LINE
  5
9F72
330
9F45
100
AcDbEntity
  8
0
100
AcDbLine
 10
43.57899999995641
 20
3.421199999996588
 30
0.0
 11
38.60499999996136
 21
8.999899999990987
 31
0.0
1001
ACAD
1000
ASC_BOUNDS
1002
{
1070
    19
1005
9F8C
1002
}
  0
LINE
  5
9F73
330
9F45
100
AcDbEntity
  8
0
100
AcDbLine
 10
43.57899999995641
 20
8.763099999991255
 30
0.0
 11
43.57899999995641
 21
3.421199999996588
 31
0.0
1001
ACAD
1000
ASC_BOUNDS
1002
{
1070
    19
1005
9F8C
1002
}
  0
LINE
  5
9F74
330
9F45
100
AcDbEntity
  8
0
100
AcDbLine
 10
43.57899999995641
 20
8.763099999991255
 30
0.0
 11
44.99999999995498
 21
8.763099999991255
 31
0.0
1001
ACAD
1000
ASC_BOUNDS
1002
{
1070
    19
1005
9F8C
1002
}
  0
LINE
  5
9F75
330
9F45
100
AcDbEntity
  8
0
100
AcDbLine
 10
37.67199999996831
 20
8.763099999991255
 30
0.0
 11
36.23199999996837
 21
8.763099999991255
 31
0.0
  0
LINE
  5
9F76
330
9F45
100
AcDbEntity
  8
0
100
AcDbLine
 10
31.64199999996833
 20
8.763099999991255
 30
0.0
 11
31.64199999996833
 21
2.481619422925121
 31
0.0
  0
LINE
  5
9F77
330
9F45
100
AcDbEntity
  8
0
100
AcDbLine
 10
37.67199999996831
 20
8.763099999991255
 30
0.0
 11
37.67199999996831
 21
2.481619422925121
 31
0.0
  0
LINE
  5
9F78
330
9F45
100
AcDbEntity
  8
0
100
AcDbLine
 10
36.23199999996837
 20
8.763099999991255
 30
0.0
 11
36.23199999996837
 21
2.481619422925064
 31
0.0
  0
LINE
  5
9F79
330
9F45
100
AcDbEntity
  8
0
100
AcDbLine
 10
33.08199999996839
 20
8.763099999991255
 30
0.0
 11
33.08199999996839
 21
2.481619422925121
 31
0.0
  0
ARC
  5
9F7A
330
9F45
100
AcDbEntity
  8
0
100
AcDbCircle
 10
34.65699999996832
 20
3.183099999991214
 30
0.0
 40
3.420000000000007
100
AcDbArc
 50
240.0000000000255
 51
299.9999999999766
  0
ARC
  5
9F7B
330
9F45
100
AcDbEntity
  8
0
100
AcDbCircle
 10
34.65699999996832
 20
3.183099999991214
 30
0.0
 40
1.97999999999999
100
AcDbArc
 50
240.000000000026
 51
299.9999999999703
  0
LINE
  5
9F7C
330
9F45
100
AcDbEntity
  8
0
100
AcDbLine
 10
33.08199999996828
 20
8.763099999991255
 30
0.0
 11
31.64199999996833
 21
8.763099999991255
 31
0.0
  0
ARC
  5
9F7D
330
9F45
100
AcDbEntity
  8
0
100
AcDbCircle
 10
35.06199999996829
 20
2.481619422925064
 30
0.0
 40
1.17
100
AcDbArc
 50
299.9999999999699
 51
0.0
  0
ARC
  5
9F7E
330
9F45
100
AcDbEntity
  8
0
100
AcDbCircle
 10
34.25199999996835
 20
2.481619422925121
 30
0.0
 40
1.17
100
AcDbArc
 50
180.0
 51
240.0000000000238
  0
ARC
  5
9F7F
330
9F45
100
AcDbEntity
  8
0
100
AcDbCircle
 10
35.06199999996841
 20
2.481619422925121
 30
0.0
 40
2.61
100
AcDbArc
 50
299.9999999999756
 51
0.0
  0
ARC
  5
9F80
330
9F45
100
AcDbEntity
  8
0
100
AcDbCircle
 10
34.25199999996835
 20
2.481619422925121
 30
0.0
 40
2.61
100
AcDbArc
 50
180.0
 51
240.0000000000244
  0
LINE
  5
9F81
330
9F45
100
AcDbEntity
  8
0
100
AcDbLine
 10
29.30199999996933
 20
8.763099999991255
 30
0.0
 11
30.74199999996927
 21
8.763099999991255
 31
0.0
1001
ACAD
1000
ASC_BOUNDS
1002
{
1070
    19
1005
9F8A
1002
}
  0
LINE
  5
9F82
330
9F45
100
AcDbEntity
  8
0
100
AcDbLine
 10
30.74199999996927
 20
8.763099999991255
 30
0.0
 11
30.74199999996927
 21
2.373099999991211
 31
0.0
1001
ACAD
1000
ASC_BOUNDS
1002
{
1070
    19
1005
9F8A
1002
}
  0
LINE
  5
9F83
330
9F45
100
AcDbEntity
  8
0
100
AcDbLine
 10
26.02015566812236
 20
0.0330999999912365
 30
0.0
 11
28.40199999996923
 21
0.0330999999912365
 31
0.0
1001
ACAD
1000
ASC_BOUNDS
1002
{
1070
    19
1005
9F8A
1002
}
  0
LINE
  5
9F84
330
9F45
100
AcDbEntity
  8
0
100
AcDbLine
 10
29.30199999996933
 20
8.763099999991255
 30
0.0
 11
29.30199999996933
 21
2.283099999991236
 31
0.0
1001
ACAD
1000
ASC_BOUNDS
1002
{
1070
    19
1005
9F8A
1002
}
  0
LINE
  5
9F85
330
9F45
100
AcDbEntity
  8
0
100
AcDbLine
 10
26.97358892824991
 20
1.383099999991202
 30
0.0
 11
28.40199999996923
 21
1.383099999991202
 31
0.0
1001
ACAD
1000
ASC_BOUNDS
1002
{
1070
    19
1005
9F8A
1002
}
  0
ARC
  5
9F86
330
9F45
100
AcDbEntity
  8
0
100
AcDbCircle
 10
28.40199999996923
 20
2.283099999991236
 30
0.0
 40
0.9
100
AcDbArc
 50
270.0
 51
0.0
1001
ACAD
1000
ASC_BOUNDS
1002
{
1070
    19
1005
9F8A
1002
}
  0
ARC
  5
9F87
330
9F45
100
AcDbEntity
  8
0
100
AcDbCircle
 10
28.40199999996923
 20
2.373099999991211
 30
0.0
 40
2.34
100
AcDbArc
 50
270.0
 51
0.0
1001
ACAD
1000
ASC_BOUNDS
1002
{
1070
    19
1005
9F8A
1002
}
  0
INSERT
  5
9F88
330
9F45
100
AcDbEntity
  8
0
100
AcDbBlockReference
  2
*X87
 10
0.0
 20
0.0
 30
0.0
1001
ACAD
1000
HATCH
1002
{
1070
    19
1000
ANSI37
1040
0.15
1040
0.0
1000
ASC_BOUNDS
1070
     2
1070
     2
1070
    12
1005
9F47
1005
9F48
1005
9F4F
1005
9F5E
1005
9F61
1005
9F5F
1005
9F50
1005
9F55
1005
9F53
1005
9F57
1005
9F56
1005
9F58
1070
     2
1070
     3
1005
9F63
1005
9F65
1005
9F64
1000
ASC_SEEDPOINT
1011
3.614004224891801
1021
2.996669441146025
1031
0.0
1000
R14_HATCH_DATA
1000
9F88
1011
1.0
1021
0.0
1031
0.0
1011
0.0
1021
1.0
1031
0.0
1011
0.0
1021
0.0
1031
1.0
1040
0.0
1010
0.0
1020
0.0
1030
1.0
1000
ANSI37
1070
     0
1070
     1
1071
        2
1071
        7
1070
     0
1070
     1
1071
       17
1040
13.26299999998673
1040
-0.0001000000000317
1040
9.236999999990758
1040
8.999899999990987
1040
9.236999999990758
1040
8.999999999991019
1040
5.657999999994331
1040
0.9999999999989768
1040
3.181999999996833
1040
4.668599999995308
1040
6.432999999993513
1040
8.763099999991255
1040
4.617999999995391
1040
8.763099999991255
1040
1.420999999998571
1040
4.736799999995242
1040
4.617999999995391
1040
-0.0001000000000317
1040
4.617999999995391
1040
0.0
1040
6.766999999993232
1040
0.0
1040
6.766999999993232
1040
-0.0001000000000317
1040
7.826999999992154
1040
2.368399999997621
1040
10.64699999998936
1040
2.368399999997621
1040
11.70599999998831
1040
-0.0001000000000317
1040
11.70599999998831
1040
0.0
1040
13.26299999998673
1040
0.0
1071
       12
1005
9F47
1005
9F48
1005
9F4F
1005
9F5E
1005
9F61
1005
9F5F
1005
9F50
1005
9F55
1005
9F53
1005
9F57
1005
9F56
1005
9F58
1071
       22
1070
     0
1070
     1
1071
        3
1040
9.236999999990758
1040
5.5200999999945
1040
10.06399999998996
1040
3.670999999996297
1040
8.409999999991555
1040
3.670999999996297
1071
        3
1005
9F63
1005
9F65
1005
9F64
1070
     0
1070
     1
1040
0.0
1040
0.15
1070
     0
1070
     2
1040
0.7853981633974483
1040
49.29960901727088
1040
-10.17736998311392
1040
-0.3367596045400932
1040
0.3367596045400932
1070
     0
1040
2.356194490192345
1040
49.29960901727088
1040
-10.17736998311392
1040
-0.3367596045400932
1040
-0.3367596045400932
1070
     0
1040
0.0110235143455945
1071
        2
1040
3.614004224891801
1040
2.996669441146025
1040
0.0
1040
3.614004224891801
1040
2.996669441146025
1040
0.0
1002
}
  0
INSERT
  5
9F89
330
9F45
100
AcDbEntity
  8
0
100
AcDbBlockReference
  2
*X88
 10
0.0
 20
0.0
 30
0.0
1001
ACAD
1000
HATCH
1002
{
1070
    19
1000
ANSI37
1040
0.15
1040
0.0
1000
ASC_BOUNDS
1070
     1
1070
     2
1070
    10
1005
9F49
1005
9F4A
1005
9F6B
1005
9F69
1005
9F6A
1005
9F5D
1005
9F62
1005
9F66
1005
9F4C
1005
9F4B
1000
ASC_SEEDPOINT
1011
14.73245321214324
1021
2.798246178283421
1031
0.0
1000
R14_HATCH_DATA
1000
9F89
1011
1.0
1021
0.0
1031
0.0
1011
0.0
1021
1.0
1031
0.0
1011
0.0
1021
0.0
1031
1.0
1040
0.0
1010
0.0
1020
0.0
1030
1.0
1000
ANSI37
1070
     0
1070
     1
1071
        1
1071
        7
1070
     0
1070
     1
1071
       10
1040
16.46099999998353
1040
5.432899999994561
1040
18.59199999998134
1040
-0.2368999999997641
1040
22.38199999997767
1040
8.763099999991255
1040
20.89099999997916
1040
8.763099999991255
1040
18.59799999998143
1040
3.315799999996671
1040
16.46099999998353
1040
8.999899999990987
1040
14.32399999998563
1040
3.315799999996671
1040
12.02999999998792
1040
8.763099999991255
1040
10.53899999998941
1040
8.763099999991255
1040
14.32899999998563
1040
-0.2368999999997641
1071
       10
1005
9F49
1005
9F4A
1005
9F6B
1005
9F69
1005
9F6A
1005
9F5D
1005
9F62
1005
9F66
1005
9F4C
1005
9F4B
1070
     0
1070
     1
1040
0.0
1040
0.15
1070
     0
1070
     2
1040
0.7853981633974483
1040
49.29960901727088
1040
-10.17736998311392
1040
-0.3367596045400932
1040
0.3367596045400932
1070
     0
1040
2.356194490192345
1040
49.29960901727088
1040
-10.17736998311392
1040
-0.3367596045400932
1040
-0.3367596045400932
1070
     0
1040
0.0110235143455945
1071
        1
1040
14.73245321214324
1040
2.798246178283421
1040
0.0
1002
}
  0
INSERT
  5
9F8A
330
9F45
100
AcDbEntity
  8
0
100
AcDbBlockReference
  2
*X89
 10
0.0
 20
0.0
 30
0.0
1001
ACAD
1000
HATCH
1002
{
1070
    19
1000
ANSI37
1040
0.15
1040
0.0
1000
ASC_BOUNDS
1070
     2
1070
     2
1070
    13
1005
9F4D
1005
9F5A
1005
9F5B
1005
9F59
1005
9F5C
1005
9F83
1005
9F87
1005
9F82
1005
9F81
1005
9F84
1005
9F86
1005
9F85
1005
9F4E
1070
     2
1070
     3
1005
9F67
1005
9F6C
1005
9F68
1000
ASC_SEEDPOINT
1011
21.97929957367762
1021
3.294304244259308
1031
0.0
1000
R14_HATCH_DATA
1000
9F8A
1011
1.0
1021
0.0
1031
0.0
1011
0.0
1021
1.0
1031
0.0
1011
0.0
1021
0.0
1031
1.0
1040
0.0
1010
0.0
1020
0.0
1030
1.0
1000
ANSI37
1070
     0
1070
     1
1071
        2
1071
        7
1070
     1
1070
     1
1071
       15
1040
23.56599999997638
1040
8.999899999990987
1040
0.0
1040
19.53899999998043
1040
-0.0001000000000317
1040
0.0
1040
19.53899999998043
1040
0.0
1040
0.0
1040
21.09599999997886
1040
0.0
1040
0.0
1040
21.09599999997886
1040
-0.0001000000000317
1040
0.0
1040
22.15599999997789
1040
2.368399999997621
1040
0.0
1040
24.97599999997499
1040
2.368399999997621
1040
0.0
1040
26.02015566812236
1040
0.0330999999912365
1040
0.0
1040
28.40199999996923
1040
0.0330999999912365
1040
0.414213562373095
1040
30.74199999996923
1040
2.373099999991211
1040
0.0
1040
30.74199999996927
1040
8.763099999991255
1040
0.0
1040
29.30199999996933
1040
8.763099999991255
1040
0.0
1040
29.30199999996933
1040
2.283099999991236
1040
-0.414213562373095
1040
28.40199999996923
1040
1.383099999991237
1040
0.0
1040
26.97358892824991
1040
1.383099999991202
1040
0.0
1071
       13
1005
9F4D
1005
9F5A
1005
9F5B
1005
9F59
1005
9F5C
1005
9F83
1005
9F87
1005
9F82
1005
9F81
1005
9F84
1005
9F86
1005
9F85
1005
9F4E
1071
       22
1070
     0
1070
     1
1071
        3
1040
22.7389999999773
1040
3.670999999996297
1040
23.56599999997638
1040
5.5200999999945
1040
24.39299999997559
1040
3.670999999996297
1071
        3
1005
9F67
1005
9F6C
1005
9F68
1070
     0
1070
     1
1040
0.0
1040
0.15
1070
     0
1070
     2
1040
0.7853981633974483
1040
49.29960901727088
1040
-10.17736998311392
1040
-0.3367596045400932
1040
0.3367596045400932
1070
     0
1040
2.356194490192345
1040
49.29960901727088
1040
-10.17736998311392
1040
-0.3367596045400932
1040
-0.3367596045400932
1070
     0
1040
0.0110235143455945
1071
        2
1040
21.97929957367762
1040
3.294304244259308
1040
0.0
1040
21.97929957367762
1040
3.294304244259308
1040
0.0
1002
}
  0
INSERT
  5
9F8B
330
9F45
100
AcDbEntity
  8
0
100
AcDbBlockReference
  2
*X90
 10
0.0
 20
0.0
 30
0.0
1001
ACAD
1000
HATCH
1002
{
1070
    19
1000
ANSI37
1040
0.15
1040
0.0
1000
R14_HATCH_DATA
1000
9F8B
1011
1.0
1021
0.0
1031
0.0
1011
0.0
1021
1.0
1031
0.0
1011
0.0
1021
0.0
1031
1.0
1040
0.0
1010
0.0
1020
0.0
1030
1.0
1000
ANSI37
1070
     0
1070
     1
1071
        1
1071
        7
1070
     1
1070
     1
1071
       12
1040
31.64199999996833
1040
2.481619422925121
1040
0.2679491924310942
1040
32.94699999997067
1040
0.2212931190493919
1040
0.2679491924301353
1040
36.36699999995983
1040
0.2212931190459813
1040
0.2679491924321411
1040
37.67199999996831
1040
2.481619422928361
1040
0.0
1040
37.67199999996831
1040
8.763099999991255
1040
0.0
1040
36.23199999996837
1040
8.763099999991255
1040
0.0
1040
36.23199999996837
1040
2.481619422925064
1040
-0.2679491924310291
1040
35.64699999996708
1040
1.468369700498386
1040
-0.267949192430519
1040
33.66699999997093
1040
1.468369700497703
1040
-0.267949192431809
1040
33.08199999996839
1040
2.481619422926997
1040
0.0
1040
33.08199999996839
1040
8.763099999991255
1040
0.0
1040
31.64199999996833
1040
8.763099999991255
1040
0.0
1071
        0
1070
     0
1070
     1
1040
0.0
1040
0.15
1070
     0
1070
     2
1040
0.7853981633974483
1040
49.29960901727088
1040
-10.17736998311392
1040
-0.3367596045400932
1040
0.3367596045400932
1070
     0
1040
2.356194490192345
1040
49.29960901727088
1040
-10.17736998311392
1040
-0.3367596045400932
1040
-0.3367596045400932
1070
     0
1040
0.0110235143455945
1071
        1
1040
32.30357378967278
1040
3.988785755459219
1040
0.0
1002
}
  0
INSERT
  5
9F8C
330
9F45
100
AcDbEntity
  8
0
100
AcDbBlockReference
  2
*X91
 10
0.0
 20
0.0
 30
0.0
1001
ACAD
1000
HATCH
1002
{
1070
    19
1000
ANSI37
1040
0.15
1040
0.0
1000
ASC_BOUNDS
1070
     1
1070
     2
1070
     8
1005
9F6D
1005
9F70
1005
9F74
1005
9F73
1005
9F72
1005
9F6F
1005
9F71
1005
9F6E
1000
ASC_SEEDPOINT
1011
39.74896370716704
1021
4.484843821435049
1031
0.0
1000
R14_HATCH_DATA
1000
9F8C
1011
1.0
1021
0.0
1031
0.0
1011
0.0
1021
1.0
1031
0.0
1011
0.0
1021
0.0
1031
1.0
1040
0.0
1010
0.0
1020
0.0
1030
1.0
1000
ANSI37
1070
     0
1070
     1
1071
        1
1071
        7
1070
     0
1070
     1
1071
        9
1040
40.02599999995994
1040
5.341799999994635
1040
44.99999999995498
1040
-0.2368999999997641
1040
44.99999999995498
1040
8.763099999991255
1040
43.57899999995641
1040
8.763099999991255
1040
43.57899999995641
1040
3.421199999996588
1040
38.60499999996136
1040
8.999899999990987
1040
38.60499999996136
1040
8.999999999991019
1040
38.60499999996136
1040
0.0
1040
40.02599999995994
1040
0.0
1071
        8
1005
9F6D
1005
9F70
1005
9F74
1005
9F73
1005
9F72
1005
9F6F
1005
9F71
1005
9F6E
1070
     0
1070
     1
1040
0.0
1040
0.15
1070
     0
1070
     2
1040
0.7853981633974483
1040
49.29960901727088
1040
-10.17736998311392
1040
-0.3367596045400932
1040
0.3367596045400932
1070
     0
1040
2.356194490192345
1040
49.29960901727088
1040
-10.17736998311392
1040
-0.3367596045400932
1040
-0.3367596045400932
1070
     0
1040
0.0110235143455945
1071
        1
1040
39.74896370716704
1040
4.484843821435049
1040
0.0
1002
}
  0
INSERT
  5
9F8D
330
9F45
100
AcDbEntity
  8
0
100
AcDbBlockReference
  2
*X92
 10
0.0
 20
0.0
 30
0.0
1001
ACAD
1000
HATCH
1002
{
1070
    19
1000
ANSI37
1040
0.15
1040
0.0
1000
ASC_BOUNDS
1070
     1
1070
     2
1070
     4
1005
9F51
1005
9F60
1005
9F52
1005
9F54
1000
ASC_SEEDPOINT
1011
1.079051535452663
1021
4.148538732891836
1031
0.0
1000
R14_HATCH_DATA
1000
9F8D
1011
1.0
1021
0.0
1031
0.0
1011
0.0
1021
1.0
1031
0.0
1011
0.0
1021
0.0
1031
1.0
1040
0.0
1010
0.0
1020
0.0
1030
1.0
1000
ANSI37
1070
     0
1070
     1
1071
        1
1071
        7
1070
     0
1070
     1
1071
        4
1040
1.420999999998571
1040
0.0
1040
1.420999999998571
1040
8.763099999991255
1040
0.0
1040
8.763099999991255
1040
0.0
1040
0.0
1071
        4
1005
9F51
1005
9F60
1005
9F52
1005
9F54
1070
     0
1070
     1
1040
0.0
1040
0.15
1070
     0
1070
     2
1040
0.7853981633974483
1040
49.29960901727088
1040
-10.17736998311392
1040
-0.3367596045400932
1040
0.3367596045400932
1070
     0
1040
2.356194490192345
1040
49.29960901727088
1040
-10.17736998311392
1040
-0.3367596045400932
1040
-0.3367596045400932
1070
     0
1040
0.0053004257112761
1071
        1
1040
1.079051535452663
1040
4.148538732891836
1040
0.0
1002
}
  0
ENDBLK
  5
A645
330
9F45
100
AcDbEntity
  8
0
100
AcDbBlockEnd
  0
BLOCK
  5
AAED
330
A95F
100
AcDbEntity
  8
0
100
AcDbBlockBegin
  2
*X87
 70
     1
 10
0.0
 20
0.0
 30
0.0
  3
*X87
  1

  0
LINE
  5
A960
330
A95F
100
AcDbEntity
  8
0
  6
CONTINUOUS
100
AcDbLine
 10
3.418023043697893
 20
7.251849696850613
 30
0.0
 11
4.929273346838536
 21
8.763099999991255
 31
0.0
  0
LINE
  5
A961
330
A95F
100
AcDbEntity
  8
0
  6
CONTINUOUS
100
AcDbLine
 10
1.483656411257782
 20
4.643963855330318
 30
0.0
 11
5.60279255591872
 21
8.763099999991255
 31
0.0
  0
LINE
  5
A962
330
A95F
100
AcDbEntity
  8
0
  6
CONTINUOUS
100
AcDbLine
 10
1.755053947328235
 20
4.241842182320584
 30
0.0
 11
6.276311764998907
 21
8.763099999991255
 31
0.0
  0
LINE
  5
A963
330
A95F
100
AcDbEntity
  8
0
  6
CONTINUOUS
100
AcDbLine
 10
2.026451483398688
 20
3.839720509310849
 30
0.0
 11
4.441040904851878
 21
6.254309930764039
 31
0.0
  0
LINE
  5
A964
330
A95F
100
AcDbEntity
  8
0
  6
CONTINUOUS
100
AcDbLine
 10
2.297849019469139
 20
3.437598836301114
 30
0.0
 11
3.321765168359338
 21
4.461514985191313
 31
0.0
  0
LINE
  5
A965
330
A95F
100
AcDbEntity
  8
0
  6
CONTINUOUS
100
AcDbLine
 10
2.569246555539591
 20
3.03547716329138
 30
0.0
 11
3.593163397972743
 21
4.059394005724531
 31
0.0
  0
LINE
  5
A966
330
A95F
100
AcDbEntity
  8
0
  6
CONTINUOUS
100
AcDbLine
 10
2.840644091610043
 20
2.633355490281646
 30
0.0
 11
3.864561627586149
 21
3.657273026257751
 31
0.0
  0
LINE
  5
A967
330
A95F
100
AcDbEntity
  8
0
  6
CONTINUOUS
100
AcDbLine
 10
3.112041627680496
 20
2.231233817271911
 30
0.0
 11
4.135959857199554
 21
3.25515204679097
 31
0.0
  0
LINE
  5
A968
330
A95F
100
AcDbEntity
  8
0
  6
CONTINUOUS
100
AcDbLine
 10
3.383439163750948
 20
1.829112144262177
 30
0.0
 11
4.40735808681296
 21
2.853031067324189
 31
0.0
  0
LINE
  5
A969
330
A95F
100
AcDbEntity
  8
0
  6
CONTINUOUS
100
AcDbLine
 10
3.654836699821399
 20
1.426990471252442
 30
0.0
 11
4.678756316426365
 21
2.450910087857407
 31
0.0
  0
LINE
  5
A96A
330
A95F
100
AcDbEntity
  8
0
  6
CONTINUOUS
100
AcDbLine
 10
3.926234235891853
 20
1.024868798242709
 30
0.0
 11
4.95015454603977
 21
2.048789108390626
 31
0.0
  0
LINE
  5
A96B
330
A95F
100
AcDbEntity
  8
0
  6
CONTINUOUS
100
AcDbLine
 10
4.197631771962304
 20
0.6227471252329737
 30
0.0
 11
5.221552775653176
 21
1.646668128923846
 31
0.0
  0
LINE
  5
A96C
330
A95F
100
AcDbEntity
  8
0
  6
CONTINUOUS
100
AcDbLine
 10
8.715877546767851
 20
7.835069736359266
 30
0.0
 11
9.435953450375058
 21
8.555145639966472
 31
0.0
  0
LINE
  5
A96D
330
A95F
100
AcDbEntity
  8
0
  6
CONTINUOUS
100
AcDbLine
 10
8.170620868422267
 20
6.616293848933497
 30
0.0
 11
9.644120833743461
 21
8.08979381425469
 31
0.0
  0
LINE
  5
A96E
330
A95F
100
AcDbEntity
  8
0
  6
CONTINUOUS
100
AcDbLine
 10
7.625364190076684
 20
5.397517961507727
 30
0.0
 11
9.852288217111864
 21
7.624441988542907
 31
0.0
  0
LINE
  5
A96F
330
A95F
100
AcDbEntity
  8
0
  6
CONTINUOUS
100
AcDbLine
 10
7.080107511731101
 20
4.178742074081957
 30
0.0
 11
10.06045560048027
 21
7.159090162831124
 31
0.0
  0
LINE
  5
A970
330
A95F
100
AcDbEntity
  8
0
  6
CONTINUOUS
100
AcDbLine
 10
6.534850833385518
 20
2.959966186656187
 30
0.0
 11
10.26862298384867
 21
6.693738337119342
 31
0.0
  0
LINE
  5
A971
330
A95F
100
AcDbEntity
  8
0
  6
CONTINUOUS
100
AcDbLine
 10
4.469029308032756
 20
0.2206254522232385
 30
0.0
 11
5.492951005266582
 21
1.244547149457064
 31
0.0
  0
LINE
  5
A972
330
A95F
100
AcDbEntity
  8
0
  6
CONTINUOUS
100
AcDbLine
 10
5.989594155039935
 20
1.741190299230417
 30
0.0
 11
8.806950407233131
 21
4.558546551423613
 31
0.0
  0
LINE
  5
A973
330
A95F
100
AcDbEntity
  8
0
  6
CONTINUOUS
100
AcDbLine
 10
9.401251593263643
 20
5.152847737454126
 30
0.0
 11
10.47679036721708
 21
6.228386511407559
 31
0.0
  0
LINE
  5
A974
330
A95F
100
AcDbEntity
  8
0
  6
CONTINUOUS
100
AcDbLine
 10
4.921837203428691
 20
-0.0000858614610131
 30
0.0
 11
8.592923064886001
 21
3.670999999996297
 31
0.0
  0
LINE
  5
A975
330
A95F
100
AcDbEntity
  8
0
  6
CONTINUOUS
100
AcDbLine
 10
9.609390446785305
 20
4.6874673818956
 30
0.0
 11
10.68495775058548
 21
5.763034685695775
 31
0.0
  0
LINE
  5
A976
330
A95F
100
AcDbEntity
  8
0
  6
CONTINUOUS
100
AcDbLine
 10
5.595387755019432
 20
-0.0000545189504582
 30
0.0
 11
7.716137258923768
 21
2.120694984953879
 31
0.0
  0
LINE
  5
A977
330
A95F
100
AcDbEntity
  8
0
  6
CONTINUOUS
100
AcDbLine
 10
6.268938306610172
 20
-0.000023176439905
 30
0.0
 11
7.170485805526503
 21
0.9015243224764267
 31
0.0
  0
LINE
  5
A978
330
A95F
100
AcDbEntity
  8
0
  6
CONTINUOUS
100
AcDbLine
 10
7.963842273967511
 20
2.368399999997621
 30
0.0
 11
9.266442273966188
 21
3.670999999996297
 31
0.0
  0
LINE
  5
A979
330
A95F
100
AcDbEntity
  8
0
  6
CONTINUOUS
100
AcDbLine
 10
8.637361483047696
 20
2.368399999997621
 30
0.0
 11
9.939961483046375
 21
3.670999999996297
 31
0.0
  0
LINE
  5
A97A
330
A95F
100
AcDbEntity
  8
0
  6
CONTINUOUS
100
AcDbLine
 10
9.817529300306965
 20
4.222087026337075
 30
0.0
 11
10.89312513395388
 21
5.297682859983993
 31
0.0
  0
LINE
  5
A97B
330
A95F
100
AcDbEntity
  8
0
  6
CONTINUOUS
100
AcDbLine
 10
10.02566815382863
 20
3.756706670778549
 30
0.0
 11
11.10129251732229
 21
4.832331034272211
 31
0.0
  0
LINE
  5
A97C
330
A95F
100
AcDbEntity
  8
0
  6
CONTINUOUS
100
AcDbLine
 10
9.310880692127883
 20
2.368399999997621
 30
0.0
 11
11.30945990069069
 21
4.366979208560428
 31
0.0
  0
LINE
  5
A97D
330
A95F
100
AcDbEntity
  8
0
  6
CONTINUOUS
100
AcDbLine
 10
9.98439990120807
 20
2.36839999999762
 30
0.0
 11
11.5176272840591
 21
3.901627382848645
 31
0.0
  0
LINE
  5
A97E
330
A95F
100
AcDbEntity
  8
0
  6
CONTINUOUS
100
AcDbLine
 10
10.65037369446246
 20
2.36085458417182
 30
0.0
 11
11.7257946674275
 21
3.436275557136862
 31
0.0
  0
LINE
  5
A97F
330
A95F
100
AcDbEntity
  8
0
  6
CONTINUOUS
100
AcDbLine
 10
10.85847197087848
 20
1.895433651507656
 30
0.0
 11
11.9339620507959
 21
2.97092373142508
 31
0.0
  0
LINE
  5
A980
330
A95F
100
AcDbEntity
  8
0
  6
CONTINUOUS
100
AcDbLine
 10
11.0665702472945
 20
1.430012718843491
 30
0.0
 11
12.14212943416431
 21
2.505571905713296
 31
0.0
  0
LINE
  5
A981
330
A95F
100
AcDbEntity
  8
0
  6
CONTINUOUS
100
AcDbLine
 10
11.27466852371052
 20
0.9645917861793256
 30
0.0
 11
12.35029681753271
 21
2.040220080001513
 31
0.0
  0
LINE
  5
A982
330
A95F
100
AcDbEntity
  8
0
  6
CONTINUOUS
100
AcDbLine
 10
11.48276680012654
 20
0.4991708535151611
 30
0.0
 11
12.55846420090111
 21
1.57486825428973
 31
0.0
  0
LINE
  5
A983
330
A95F
100
AcDbEntity
  8
0
  6
CONTINUOUS
100
AcDbLine
 10
11.69086507654257
 20
0.0337499208509957
 30
0.0
 11
12.76663158426952
 21
1.109516428577947
 31
0.0
  0
LINE
  5
A984
330
A95F
100
AcDbEntity
  8
0
  6
CONTINUOUS
100
AcDbLine
 10
12.33057447873954
 20
-0.0000598860322123
 30
0.0
 11
12.97479896763792
 21
0.6441646028661663
 31
0.0
  0
LINE
  5
A985
330
A95F
100
AcDbEntity
  8
0
  6
CONTINUOUS
100
AcDbLine
 10
13.00413694809395
 20
-0.0000166257579952
 30
0.0
 11
13.18296635100632
 21
0.1788127771543824
 31
0.0
  0
LINE
  5
A986
330
A95F
100
AcDbEntity
  8
0
  6
CONTINUOUS
100
AcDbLine
 10
4.772852165289667
 20
-0.000092794222212
 30
0.0
 11
4.296495091028902
 21
0.4762642800385528
 31
0.0
  0
LINE
  5
A987
330
A95F
100
AcDbEntity
  8
0
  6
CONTINUOUS
100
AcDbLine
 10
5.446340034776103
 20
-0.0000614546284616
 30
0.0
 11
2.898195908335625
 21
2.548082671812017
 31
0.0
  0
LINE
  5
A988
330
A95F
100
AcDbEntity
  8
0
  6
CONTINUOUS
100
AcDbLine
 10
6.119827904262539
 20
-0.0000301150347113
 30
0.0
 11
1.499896725642348
 21
4.61990106358548
 31
0.0
  0
LINE
  5
A989
330
A95F
100
AcDbEntity
  8
0
  6
CONTINUOUS
100
AcDbLine
 10
6.775136745476159
 20
0.0181802528318542
 30
0.0
 11
5.699826040202669
 21
1.093490958105344
 31
0.0
  0
LINE
  5
A98A
330
A95F
100
AcDbEntity
  8
0
  6
CONTINUOUS
100
AcDbLine
 10
6.983376846288489
 20
0.4834593610997118
 30
0.0
 11
5.908008617934405
 21
1.558827589453796
 31
0.0
  0
LINE
  5
A98B
330
A95F
100
AcDbEntity
  8
0
  6
CONTINUOUS
100
AcDbLine
 10
5.377063484962296
 20
1.416253513345719
 30
0.0
 11
1.702276957014131
 21
5.091040041293883
 31
0.0
  0
LINE
  5
A98C
330
A95F
100
AcDbEntity
  8
0
  6
CONTINUOUS
100
AcDbLine
 10
3.978745891735324
 20
3.488090315652877
 30
0.0
 11
2.000373521109399
 21
5.466462686278803
 31
0.0
  0
LINE
  5
A98D
330
A95F
100
AcDbEntity
  8
0
  6
CONTINUOUS
100
AcDbLine
 10
7.191616947100819
 20
0.948738469367568
 30
0.0
 11
6.11619119566614
 21
2.024164220802247
 31
0.0
  0
LINE
  5
A98E
330
A95F
100
AcDbEntity
  8
0
  6
CONTINUOUS
100
AcDbLine
 10
7.399857047913149
 20
1.414017577635424
 30
0.0
 11
6.324373773397875
 21
2.489500852150698
 31
0.0
  0
LINE
  5
A98F
330
A95F
100
AcDbEntity
  8
0
  6
CONTINUOUS
100
AcDbLine
 10
7.608097148725479
 20
1.879296685903281
 30
0.0
 11
6.53255635112961
 21
2.95483748349915
 31
0.0
  0
LINE
  5
A990
330
A95F
100
AcDbEntity
  8
0
  6
CONTINUOUS
100
AcDbLine
 10
7.816337249537808
 20
2.344575794171138
 30
0.0
 11
6.740738928861345
 21
3.420174114847601
 31
0.0
  0
LINE
  5
A991
330
A95F
100
AcDbEntity
  8
0
  6
CONTINUOUS
100
AcDbLine
 10
3.310241080789734
 20
4.830114335678653
 30
0.0
 11
2.298470085204666
 21
5.84188533126372
 31
0.0
  0
LINE
  5
A992
330
A95F
100
AcDbEntity
  8
0
  6
CONTINUOUS
100
AcDbLine
 10
3.60832983563551
 20
5.205544789913063
 30
0.0
 11
2.596566649299935
 21
6.217307976248638
 31
0.0
  0
LINE
  5
A993
330
A95F
100
AcDbEntity
  8
0
  6
CONTINUOUS
100
AcDbLine
 10
3.906418590481286
 20
5.580975244147473
 30
0.0
 11
2.894663213395203
 21
6.592730621233557
 31
0.0
  0
LINE
  5
A994
330
A95F
100
AcDbEntity
  8
0
  6
CONTINUOUS
100
AcDbLine
 10
4.204507345327062
 20
5.956405698381884
 30
0.0
 11
3.192759777490472
 21
6.968153266218474
 31
0.0
  0
LINE
  5
A995
330
A95F
100
AcDbEntity
  8
0
  6
CONTINUOUS
100
AcDbLine
 10
8.466032252791512
 20
2.368399999997621
 30
0.0
 11
6.948921506593081
 21
3.885510746196053
 31
0.0
  0
LINE
  5
A996
330
A95F
100
AcDbEntity
  8
0
  6
CONTINUOUS
100
AcDbLine
 10
9.139551461871699
 20
2.36839999999762
 30
0.0
 11
7.157104084324816
 21
4.350847377544504
 31
0.0
  0
LINE
  5
A997
330
A95F
100
AcDbEntity
  8
0
  6
CONTINUOUS
100
AcDbLine
 10
4.502596100172839
 20
6.331836152616295
 30
0.0
 11
3.49085634158574
 21
7.343575911203393
 31
0.0
  0
LINE
  5
A998
330
A95F
100
AcDbEntity
  8
0
  6
CONTINUOUS
100
AcDbLine
 10
4.800684855018615
 20
6.707266606850705
 30
0.0
 11
3.788952905681008
 21
7.718998556188312
 31
0.0
  0
LINE
  5
A999
330
A95F
100
AcDbEntity
  8
0
  6
CONTINUOUS
100
AcDbLine
 10
12.18154012887317
 20
-0.0000694579236642
 30
0.0
 11
11.32140332908496
 21
0.8600673418645499
 31
0.0
  0
LINE
  5
A99A
330
A95F
100
AcDbEntity
  8
0
  6
CONTINUOUS
100
AcDbLine
 10
12.85501608323566
 20
-0.0000262032059659
 30
0.0
 11
10.77672456435345
 21
2.078265315676246
 31
0.0
  0
LINE
  5
A99B
330
A95F
100
AcDbEntity
  8
0
  6
CONTINUOUS
100
AcDbLine
 10
9.813070670951886
 20
2.36839999999762
 30
0.0
 11
8.51047067095321
 21
3.670999999996297
 31
0.0
  0
LINE
  5
A99C
330
A95F
100
AcDbEntity
  8
0
  6
CONTINUOUS
100
AcDbLine
 10
10.48658988003207
 20
2.36839999999762
 30
0.0
 11
9.183989880033396
 21
3.670999999996297
 31
0.0
  0
LINE
  5
A99D
330
A95F
100
AcDbEntity
  8
0
  6
CONTINUOUS
100
AcDbLine
 10
8.441048632286794
 20
3.740422038662712
 30
0.0
 11
7.365286662056551
 21
4.816184008892956
 31
0.0
  0
LINE
  5
A99E
330
A95F
100
AcDbEntity
  8
0
  6
CONTINUOUS
100
AcDbLine
 10
8.649187485808454
 20
4.205802394221237
 30
0.0
 11
7.573469239788285
 21
5.281520640241407
 31
0.0
  0
LINE
  5
A99F
330
A95F
100
AcDbEntity
  8
0
  6
CONTINUOUS
100
AcDbLine
 10
5.098773609864391
 20
7.082697061085115
 30
0.0
 11
4.087049469776277
 21
8.09442120117323
 31
0.0
  0
LINE
  5
A9A0
330
A95F
100
AcDbEntity
  8
0
  6
CONTINUOUS
100
AcDbLine
 10
5.396862364710167
 20
7.458127515319526
 30
0.0
 11
4.385146033871544
 21
8.469843846158149
 31
0.0
  0
LINE
  5
A9A1
330
A95F
100
AcDbEntity
  8
0
  6
CONTINUOUS
100
AcDbLine
 10
13.04801363231285
 20
0.4804954567970334
 30
0.0
 11
9.85750908911358
 21
3.670999999996297
 31
0.0
  0
LINE
  5
A9A2
330
A95F
100
AcDbEntity
  8
0
  6
CONTINUOUS
100
AcDbLine
 10
8.857326339330116
 20
4.671182749779763
 30
0.0
 11
7.781651817520021
 21
5.746857271589858
 31
0.0
  0
LINE
  5
A9A3
330
A95F
100
AcDbEntity
  8
0
  6
CONTINUOUS
100
AcDbLine
 10
5.694951119555943
 20
7.833557969553937
 30
0.0
 11
4.765409089118624
 21
8.763099999991255
 31
0.0
  0
LINE
  5
A9A4
330
A95F
100
AcDbEntity
  8
0
  6
CONTINUOUS
100
AcDbLine
 10
12.50286117236978
 20
1.699167125820288
 30
0.0
 11
9.68611877250287
 21
4.515909525687196
 31
0.0
  0
LINE
  5
A9A5
330
A95F
100
AcDbEntity
  8
0
  6
CONTINUOUS
100
AcDbLine
 10
9.065465192851777
 20
5.136563105338288
 30
0.0
 11
7.989834395251757
 21
6.21219390293831
 31
0.0
  0
LINE
  5
A9A6
330
A95F
100
AcDbEntity
  8
0
  6
CONTINUOUS
100
AcDbLine
 10
5.993039874401719
 20
8.208988423788346
 30
0.0
 11
5.43892829819881
 21
8.763099999991255
 31
0.0
  0
LINE
  5
A9A7
330
A95F
100
AcDbEntity
  8
0
  6
CONTINUOUS
100
AcDbLine
 10
11.95770871242671
 20
2.917838794843543
 30
0.0
 11
8.19801697298349
 21
6.677530534286761
 31
0.0
  0
LINE
  5
A9A8
330
A95F
100
AcDbEntity
  8
0
  6
CONTINUOUS
100
AcDbLine
 10
6.291128629247495
 20
8.584418878022756
 30
0.0
 11
6.112447507278997
 21
8.763099999991255
 31
0.0
  0
LINE
  5
A9A9
330
A95F
100
AcDbEntity
  8
0
  6
CONTINUOUS
100
AcDbLine
 10
11.41255625248364
 20
4.136510463866797
 30
0.0
 11
8.406199550715227
 21
7.142867165635211
 31
0.0
  0
LINE
  5
A9AA
330
A95F
100
AcDbEntity
  8
0
  6
CONTINUOUS
100
AcDbLine
 10
10.86740379254057
 20
5.355182132890051
 30
0.0
 11
8.614382128446962
 21
7.608203796983664
 31
0.0
  0
LINE
  5
A9AB
330
A95F
100
AcDbEntity
  8
0
  6
CONTINUOUS
100
AcDbLine
 10
10.3222513325975
 20
6.573853801913305
 30
0.0
 11
8.822564706178696
 21
8.073540428332114
 31
0.0
  0
LINE
  5
A9AC
330
A95F
100
AcDbEntity
  8
0
  6
CONTINUOUS
100
AcDbLine
 10
9.777098872654436
 20
7.792525470936562
 30
0.0
 11
9.030747283910433
 21
8.538877059680566
 31
0.0
  0
ENDBLK
  5
AAEE
330
A95F
100
AcDbEntity
  8
0
100
AcDbBlockEnd
  0
BLOCK
  5
AAEF
330
A9AD
100
AcDbEntity
  8
0
100
AcDbBlockBegin
  2
*X88
 70
     1
 10
0.0
 20
0.0
 30
0.0
  3
*X88
  1

  0
LINE
  5
A9AE
330
A9AD
100
AcDbEntity
  8
0
  6
CONTINUOUS
100
AcDbLine
 10
10.67292308101235
 20
8.445076852443387
 30
0.0
 11
10.99094622856022
 21
8.763099999991255
 31
0.0
  0
LINE
  5
A9AF
330
A9AD
100
AcDbEntity
  8
0
  6
CONTINUOUS
100
AcDbLine
 10
10.87250383178748
 20
7.971138394138331
 30
0.0
 11
11.6644654376404
 21
8.763099999991255
 31
0.0
  0
LINE
  5
A9B0
330
A9AD
100
AcDbEntity
  8
0
  6
CONTINUOUS
100
AcDbLine
 10
11.07208458256261
 20
7.497199935833273
 30
0.0
 11
12.12126590876355
 21
8.546381262034211
 31
0.0
  0
LINE
  5
A9B1
330
A9AD
100
AcDbEntity
  8
0
  6
CONTINUOUS
100
AcDbLine
 10
11.27166533333774
 20
7.023261477528216
 30
0.0
 11
12.32085164573666
 21
8.072447789927136
 31
0.0
  0
LINE
  5
A9B2
330
A9AD
100
AcDbEntity
  8
0
  6
CONTINUOUS
100
AcDbLine
 10
11.47124608411287
 20
6.549323019223158
 30
0.0
 11
12.52043738270977
 21
7.59851431782006
 31
0.0
  0
LINE
  5
A9B3
330
A9AD
100
AcDbEntity
  8
0
  6
CONTINUOUS
100
AcDbLine
 10
11.670826834888
 20
6.075384560918101
 30
0.0
 11
12.72002311968288
 21
7.124580845712984
 31
0.0
  0
LINE
  5
A9B4
330
A9AD
100
AcDbEntity
  8
0
  6
CONTINUOUS
100
AcDbLine
 10
11.87040758566313
 20
5.601446102613043
 30
0.0
 11
12.91960885665599
 21
6.650647373605907
 31
0.0
  0
LINE
  5
A9B5
330
A9AD
100
AcDbEntity
  8
0
  6
CONTINUOUS
100
AcDbLine
 10
12.06998833643825
 20
5.127507644307986
 30
0.0
 11
13.1191945936291
 21
6.176713901498832
 31
0.0
  0
LINE
  5
A9B6
330
A9AD
100
AcDbEntity
  8
0
  6
CONTINUOUS
100
AcDbLine
 10
12.26956908721338
 20
4.65356918600293
 30
0.0
 11
13.31878033060221
 21
5.702780429391757
 31
0.0
  0
LINE
  5
A9B7
330
A9AD
100
AcDbEntity
  8
0
  6
CONTINUOUS
100
AcDbLine
 10
12.46914983798851
 20
4.179630727697873
 30
0.0
 11
13.51836606757532
 21
5.228846957284683
 31
0.0
  0
LINE
  5
A9B8
330
A9AD
100
AcDbEntity
  8
0
  6
CONTINUOUS
100
AcDbLine
 10
12.66873058876364
 20
3.705692269392816
 30
0.0
 11
13.71795180454843
 21
4.754913485177607
 31
0.0
  0
LINE
  5
A9B9
330
A9AD
100
AcDbEntity
  8
0
  6
CONTINUOUS
100
AcDbLine
 10
12.86831133953877
 20
3.231753811087759
 30
0.0
 11
13.91753754152154
 21
4.280980013070531
 31
0.0
  0
LINE
  5
A9BA
330
A9AD
100
AcDbEntity
  8
0
  6
CONTINUOUS
100
AcDbLine
 10
13.0678920903139
 20
2.757815352782702
 30
0.0
 11
14.11712327849465
 21
3.807046540963456
 31
0.0
  0
LINE
  5
A9BB
330
A9AD
100
AcDbEntity
  8
0
  6
CONTINUOUS
100
AcDbLine
 10
13.26747284108903
 20
2.283876894477644
 30
0.0
 11
14.31670901546777
 21
3.333113068856379
 31
0.0
  0
LINE
  5
A9BC
330
A9AD
100
AcDbEntity
  8
0
  6
CONTINUOUS
100
AcDbLine
 10
16.36767838827179
 20
8.751678487061342
 30
0.0
 11
16.50332410898388
 21
8.887324207773432
 31
0.0
  0
LINE
  5
A9BD
330
A9AD
100
AcDbEntity
  8
0
  6
CONTINUOUS
100
AcDbLine
 10
15.96190732182191
 20
7.67238821153127
 30
0.0
 11
16.68735328004734
 21
8.397834169756699
 31
0.0
  0
LINE
  5
A9BE
330
A9AD
100
AcDbEntity
  8
0
  6
CONTINUOUS
100
AcDbLine
 10
15.55613625537202
 20
6.593097936001196
 30
0.0
 11
16.87138245111079
 21
7.908344131739965
 31
0.0
  0
LINE
  5
A9BF
330
A9AD
100
AcDbEntity
  8
0
  6
CONTINUOUS
100
AcDbLine
 10
15.15036518892213
 20
5.513807660471122
 30
0.0
 11
17.05541162217424
 21
7.418854093723231
 31
0.0
  0
LINE
  5
A9C0
330
A9AD
100
AcDbEntity
  8
0
  6
CONTINUOUS
100
AcDbLine
 10
14.74459412247225
 20
4.434517384941048
 30
0.0
 11
17.2394407932377
 21
6.929364055706499
 31
0.0
  0
LINE
  5
A9C1
330
A9AD
100
AcDbEntity
  8
0
  6
CONTINUOUS
100
AcDbLine
 10
14.33882305602236
 20
3.355227109410975
 30
0.0
 11
17.42346996430115
 21
6.439874017689766
 31
0.0
  0
LINE
  5
A9C2
330
A9AD
100
AcDbEntity
  8
0
  6
CONTINUOUS
100
AcDbLine
 10
13.46705359186416
 20
1.809938436172586
 30
0.0
 11
16.0819338255367
 21
4.424818669845129
 31
0.0
  0
LINE
  5
A9C3
330
A9AD
100
AcDbEntity
  8
0
  6
CONTINUOUS
100
AcDbLine
 10
16.63283254238972
 20
4.975717386698149
 30
0.0
 11
17.60749913536461
 21
5.950383979673033
 31
0.0
  0
LINE
  5
A9C4
330
A9AD
100
AcDbEntity
  8
0
  6
CONTINUOUS
100
AcDbLine
 10
13.66663434263929
 20
1.335999977867529
 30
0.0
 11
15.67604797733754
 21
3.345413612565779
 31
0.0
  0
LINE
  5
A9C5
330
A9AD
100
AcDbEntity
  8
0
  6
CONTINUOUS
100
AcDbLine
 10
13.86621509341442
 20
0.8620615195624723
 30
0.0
 11
15.27016212913838
 21
2.26600855528643
 31
0.0
  0
LINE
  5
A9C6
330
A9AD
100
AcDbEntity
  8
0
  6
CONTINUOUS
100
AcDbLine
 10
16.81682257348267
 20
4.486188208710908
 30
0.0
 11
17.79152830642806
 21
5.460893941656299
 31
0.0
  0
LINE
  5
A9C7
330
A9AD
100
AcDbEntity
  8
0
  6
CONTINUOUS
100
AcDbLine
 10
17.00081260457561
 20
3.996659030723667
 30
0.0
 11
17.97555747749151
 21
4.971403903639565
 31
0.0
  0
LINE
  5
A9C8
330
A9AD
100
AcDbEntity
  8
0
  6
CONTINUOUS
100
AcDbLine
 10
20.74362343514722
 20
8.412989070375462
 30
0.0
 11
21.09373436476302
 21
8.763099999991256
 31
0.0
  0
LINE
  5
A9C9
330
A9AD
100
AcDbEntity
  8
0
  6
CONTINUOUS
100
AcDbLine
 10
20.25401257174777
 20
7.249858997895826
 30
0.0
 11
21.7672535738432
 21
8.763099999991255
 31
0.0
  0
LINE
  5
A9CA
330
A9AD
100
AcDbEntity
  8
0
  6
CONTINUOUS
100
AcDbLine
 10
14.06579584418955
 20
0.3881230612574149
 30
0.0
 11
14.86427628093921
 21
1.186603498007082
 31
0.0
  0
LINE
  5
A9CB
330
A9AD
100
AcDbEntity
  8
0
  6
CONTINUOUS
100
AcDbLine
 10
14.26537659496467
 20
-0.0858153970476412
 30
0.0
 11
14.45839043274005
 21
0.1071984407277329
 31
0.0
  0
LINE
  5
A9CC
330
A9AD
100
AcDbEntity
  8
0
  6
CONTINUOUS
100
AcDbLine
 10
17.18480263566856
 20
3.507129852736426
 30
0.0
 11
18.15958664855496
 21
4.481913865622833
 31
0.0
  0
LINE
  5
A9CD
330
A9AD
100
AcDbEntity
  8
0
  6
CONTINUOUS
100
AcDbLine
 10
17.3687926667615
 20
3.017600674749186
 30
0.0
 11
18.34361581961842
 21
3.9924238276061
 31
0.0
  0
LINE
  5
A9CE
330
A9AD
100
AcDbEntity
  8
0
  6
CONTINUOUS
100
AcDbLine
 10
19.76440170834832
 20
6.086728925416191
 30
0.0
 11
22.33924590259489
 21
8.661573119662755
 31
0.0
  0
LINE
  5
A9CF
330
A9AD
100
AcDbEntity
  8
0
  6
CONTINUOUS
100
AcDbLine
 10
19.27479084494887
 20
4.923598852936555
 30
0.0
 11
21.84929622842713
 21
7.498104236414807
 31
0.0
  0
LINE
  5
A9D0
330
A9AD
100
AcDbEntity
  8
0
  6
CONTINUOUS
100
AcDbLine
 10
17.55278269785445
 20
2.528071496761945
 30
0.0
 11
18.52764499068187
 21
3.502933789589366
 31
0.0
  0
LINE
  5
A9D1
330
A9AD
100
AcDbEntity
  8
0
  6
CONTINUOUS
100
AcDbLine
 10
18.78517998154942
 20
3.760468780456919
 30
0.0
 11
21.35934655425936
 21
6.33463535316686
 31
0.0
  0
LINE
  5
A9D2
330
A9AD
100
AcDbEntity
  8
0
  6
CONTINUOUS
100
AcDbLine
 10
17.73677272894739
 20
2.038542318774704
 30
0.0
 11
20.8693968800916
 21
5.171166469918914
 31
0.0
  0
LINE
  5
A9D3
330
A9AD
100
AcDbEntity
  8
0
  6
CONTINUOUS
100
AcDbLine
 10
17.92076276004034
 20
1.549013140787464
 30
0.0
 11
20.37944720592384
 21
4.007697586670968
 31
0.0
  0
LINE
  5
A9D4
330
A9AD
100
AcDbEntity
  8
0
  6
CONTINUOUS
100
AcDbLine
 10
18.10475279113329
 20
1.059483962800223
 30
0.0
 11
19.88949753175608
 21
2.84422870342302
 31
0.0
  0
LINE
  5
A9D5
330
A9AD
100
AcDbEntity
  8
0
  6
CONTINUOUS
100
AcDbLine
 10
18.28874282222623
 20
0.5699547848129822
 30
0.0
 11
19.39954785758832
 21
1.680759820175074
 31
0.0
  0
LINE
  5
A9D6
330
A9AD
100
AcDbEntity
  8
0
  6
CONTINUOUS
100
AcDbLine
 10
18.47273285331918
 20
0.0804256068257416
 30
0.0
 11
18.90959818342056
 21
0.517290936927127
 31
0.0
  0
LINE
  5
A9D7
330
A9AD
100
AcDbEntity
  8
0
  6
CONTINUOUS
100
AcDbLine
 10
14.3590401358224
 20
-0.1570118376323384
 30
0.0
 11
14.24903296539946
 21
-0.0470046672093929
 31
0.0
  0
LINE
  5
A9D8
330
A9AD
100
AcDbEntity
  8
0
  6
CONTINUOUS
100
AcDbLine
 10
14.54309291258661
 20
0.332454594683643
 30
0.0
 11
13.75908329123172
 21
1.116464216038529
 31
0.0
  0
LINE
  5
A9D9
330
A9AD
100
AcDbEntity
  8
0
  6
CONTINUOUS
100
AcDbLine
 10
14.72714568935081
 20
0.8219210269996244
 30
0.0
 11
13.26913361706399
 21
2.27993309928645
 31
0.0
  0
LINE
  5
A9DA
330
A9AD
100
AcDbEntity
  8
0
  6
CONTINUOUS
100
AcDbLine
 10
14.91119846611502
 20
1.311387459315606
 30
0.0
 11
12.77918394289625
 21
3.443401982534371
 31
0.0
  0
LINE
  5
A9DB
330
A9AD
100
AcDbEntity
  8
0
  6
CONTINUOUS
100
AcDbLine
 10
15.09525124287922
 20
1.800853891631587
 30
0.0
 11
12.28923426872852
 21
4.606870865782293
 31
0.0
  0
LINE
  5
A9DC
330
A9AD
100
AcDbEntity
  8
0
  6
CONTINUOUS
100
AcDbLine
 10
15.27930401964343
 20
2.290320323947569
 30
0.0
 11
11.79928459456078
 21
5.770339749030213
 31
0.0
  0
LINE
  5
A9DD
330
A9AD
100
AcDbEntity
  8
0
  6
CONTINUOUS
100
AcDbLine
 10
15.46335679640763
 20
2.77978675626355
 30
0.0
 11
14.48885470994921
 21
3.754288842721972
 31
0.0
  0
LINE
  5
A9DE
330
A9AD
100
AcDbEntity
  8
0
  6
CONTINUOUS
100
AcDbLine
 10
13.88507249233704
 20
4.358071060334137
 30
0.0
 11
11.30933492039305
 21
6.933808632278135
 31
0.0
  0
LINE
  5
A9DF
330
A9AD
100
AcDbEntity
  8
0
  6
CONTINUOUS
100
AcDbLine
 10
18.75840522805855
 20
0.1582575336928151
 30
0.0
 11
18.25383727664818
 21
0.6628254851031863
 31
0.0
  0
LINE
  5
A9E0
330
A9AD
100
AcDbEntity
  8
0
  6
CONTINUOUS
100
AcDbLine
 10
15.64740957317184
 20
3.269253188579531
 30
0.0
 11
14.67288388101266
 21
4.243778880738705
 31
0.0
  0
LINE
  5
A9E1
330
A9AD
100
AcDbEntity
  8
0
  6
CONTINUOUS
100
AcDbLine
 10
13.39509276772158
 20
5.521569994029786
 30
0.0
 11
10.81938524622531
 21
8.097277515526056
 31
0.0
  0
LINE
  5
A9E2
330
A9AD
100
AcDbEntity
  8
0
  6
CONTINUOUS
100
AcDbLine
 10
18.95798597883369
 20
0.6321959919978686
 30
0.0
 11
17.84825644852853
 21
1.741925522303024
 31
0.0
  0
LINE
  5
A9E3
330
A9AD
100
AcDbEntity
  8
0
  6
CONTINUOUS
100
AcDbLine
 10
19.15756672960882
 20
1.106134450302922
 30
0.0
 11
17.44267562040888
 21
2.821025559502861
 31
0.0
  0
LINE
  5
A9E4
330
A9AD
100
AcDbEntity
  8
0
  6
CONTINUOUS
100
AcDbLine
 10
15.83146234993604
 20
3.758719620895513
 30
0.0
 11
14.85691305207612
 21
4.733268918755439
 31
0.0
  0
LINE
  5
A9E5
330
A9AD
100
AcDbEntity
  8
0
  6
CONTINUOUS
100
AcDbLine
 10
16.01551512670025
 20
4.248186053211494
 30
0.0
 11
15.04094222313957
 21
5.222758956772172
 31
0.0
  0
LINE
  5
A9E6
330
A9AD
100
AcDbEntity
  8
0
  6
CONTINUOUS
100
AcDbLine
 10
12.90511304310612
 20
6.685068927725435
 30
0.0
 11
10.8270819708403
 21
8.763099999991255
 31
0.0
  0
LINE
  5
A9E7
330
A9AD
100
AcDbEntity
  8
0
  6
CONTINUOUS
100
AcDbLine
 10
12.41513331849066
 20
7.848567861421083
 30
0.0
 11
11.50060117992049
 21
8.763099999991255
 31
0.0
  0
LINE
  5
A9E8
330
A9AD
100
AcDbEntity
  8
0
  6
CONTINUOUS
100
AcDbLine
 10
19.35714748038395
 20
1.580072908607975
 30
0.0
 11
17.03709479228923
 21
3.900125596702697
 31
0.0
  0
LINE
  5
A9E9
330
A9AD
100
AcDbEntity
  8
0
  6
CONTINUOUS
100
AcDbLine
 10
19.55672823115909
 20
2.054011366913028
 30
0.0
 11
16.63151396416958
 21
4.979225633902534
 31
0.0
  0
LINE
  5
A9EA
330
A9AD
100
AcDbEntity
  8
0
  6
CONTINUOUS
100
AcDbLine
 10
16.19956790346445
 20
4.737652485527476
 30
0.0
 11
15.22497139420302
 21
5.712248994788904
 31
0.0
  0
LINE
  5
A9EB
330
A9AD
100
AcDbEntity
  8
0
  6
CONTINUOUS
100
AcDbLine
 10
16.38362068022866
 20
5.227118917843457
 30
0.0
 11
15.40900056526648
 21
6.201739032805637
 31
0.0
  0
LINE
  5
A9EC
330
A9AD
100
AcDbEntity
  8
0
  6
CONTINUOUS
100
AcDbLine
 10
19.75630898193422
 20
2.527949825218081
 30
0.0
 11
18.70774536448286
 21
3.576513442669441
 31
0.0
  0
LINE
  5
A9ED
330
A9AD
100
AcDbEntity
  8
0
  6
CONTINUOUS
100
AcDbLine
 10
19.95588973270936
 20
3.001888283523134
 30
0.0
 11
18.90726987211446
 21
4.050508144118028
 31
0.0
  0
LINE
  5
A9EE
330
A9AD
100
AcDbEntity
  8
0
  6
CONTINUOUS
100
AcDbLine
 10
20.15547048348449
 20
3.475826741828186
 30
0.0
 11
19.10679437974606
 21
4.524502845566614
 31
0.0
  0
LINE
  5
A9EF
330
A9AD
100
AcDbEntity
  8
0
  6
CONTINUOUS
100
AcDbLine
 10
20.35505123425962
 20
3.94976520013324
 30
0.0
 11
19.30631888737766
 21
4.998497547015201
 31
0.0
  0
LINE
  5
A9F0
330
A9AD
100
AcDbEntity
  8
0
  6
CONTINUOUS
100
AcDbLine
 10
20.55463198503475
 20
4.423703658438292
 30
0.0
 11
19.50584339500926
 21
5.472492248463787
 31
0.0
  0
LINE
  5
A9F1
330
A9AD
100
AcDbEntity
  8
0
  6
CONTINUOUS
100
AcDbLine
 10
18.37481191085755
 20
3.909446896294752
 30
0.0
 11
15.59302973632993
 21
6.691229070822371
 31
0.0
  0
LINE
  5
A9F2
330
A9AD
100
AcDbEntity
  8
0
  6
CONTINUOUS
100
AcDbLine
 10
17.96904084440766
 20
4.988737171824825
 30
0.0
 11
15.77705890739338
 21
7.180719108839104
 31
0.0
  0
LINE
  5
A9F3
330
A9AD
100
AcDbEntity
  8
0
  6
CONTINUOUS
100
AcDbLine
 10
17.56326977795777
 20
6.068027447354899
 30
0.0
 11
15.96108807845684
 21
7.670209146855838
 31
0.0
  0
LINE
  5
A9F4
330
A9AD
100
AcDbEntity
  8
0
  6
CONTINUOUS
100
AcDbLine
 10
17.15749871150789
 20
7.147317722884972
 30
0.0
 11
16.14511724952029
 21
8.15969918487257
 31
0.0
  0
LINE
  5
A9F5
330
A9AD
100
AcDbEntity
  8
0
  6
CONTINUOUS
100
AcDbLine
 10
16.751727645058
 20
8.226607998415046
 30
0.0
 11
16.32914642058374
 21
8.649189222889303
 31
0.0
  0
LINE
  5
A9F6
330
A9AD
100
AcDbEntity
  8
0
  6
CONTINUOUS
100
AcDbLine
 10
20.75421273580989
 20
4.897642116743345
 30
0.0
 11
19.70536790264086
 21
5.946486949912374
 31
0.0
  0
LINE
  5
A9F7
330
A9AD
100
AcDbEntity
  8
0
  6
CONTINUOUS
100
AcDbLine
 10
20.95379348658502
 20
5.371580575048398
 30
0.0
 11
19.90489241027246
 21
6.42048165136096
 31
0.0
  0
LINE
  5
A9F8
330
A9AD
100
AcDbEntity
  8
0
  6
CONTINUOUS
100
AcDbLine
 10
21.15337423736015
 20
5.845519033353452
 30
0.0
 11
20.10441691790406
 21
6.894476352809547
 31
0.0
  0
LINE
  5
A9F9
330
A9AD
100
AcDbEntity
  8
0
  6
CONTINUOUS
100
AcDbLine
 10
21.35295498813529
 20
6.319457491658505
 30
0.0
 11
20.30394142553566
 21
7.368471054258134
 31
0.0
  0
LINE
  5
A9FA
330
A9AD
100
AcDbEntity
  8
0
  6
CONTINUOUS
100
AcDbLine
 10
21.55253573891042
 20
6.793395949963558
 30
0.0
 11
20.50346593316726
 21
7.842465755706721
 31
0.0
  0
LINE
  5
A9FB
330
A9AD
100
AcDbEntity
  8
0
  6
CONTINUOUS
100
AcDbLine
 10
21.75211648968556
 20
7.267334408268612
 30
0.0
 11
20.70299044079886
 21
8.316460457155308
 31
0.0
  0
LINE
  5
A9FC
330
A9AD
100
AcDbEntity
  8
0
  6
CONTINUOUS
100
AcDbLine
 10
21.95169724046069
 20
7.741272866573663
 30
0.0
 11
20.9298701070431
 21
8.763099999991256
 31
0.0
  0
LINE
  5
A9FD
330
A9AD
100
AcDbEntity
  8
0
  6
CONTINUOUS
100
AcDbLine
 10
22.15127799123582
 20
8.215211324878716
 30
0.0
 11
21.60338931612328
 21
8.763099999991256
 31
0.0
  0
LINE
  5
A9FE
330
A9AD
100
AcDbEntity
  8
0
  6
CONTINUOUS
100
AcDbLine
 10
22.35085874201096
 20
8.689149783183769
 30
0.0
 11
22.27690852520347
 21
8.763099999991255
 31
0.0
  0
ENDBLK
  5
AAF0
330
A9AD
100
AcDbEntity
  8
0
100
AcDbBlockEnd
  0
BLOCK
  5
AAF1
330
A9FF
100
AcDbEntity
  8
0
100
AcDbBlockBegin
  2
*X89
 70
     1
 10
0.0
 20
0.0
 30
0.0
  3
*X89
  1

  0
LINE
  5
AA00
330
A9FF
100
AcDbEntity
  8
0
  6
CONTINUOUS
100
AcDbLine
 10
23.19462913593892
 20
8.169917934846424
 30
0.0
 11
23.70775465517246
 21
8.683043454079957
 31
0.0
  0
LINE
  5
AA01
330
A9FF
100
AcDbEntity
  8
0
  6
CONTINUOUS
100
AcDbLine
 10
22.64923161835078
 20
6.951001208178088
 30
0.0
 11
23.9159364069932
 21
8.217705996820516
 31
0.0
  0
LINE
  5
AA02
330
A9FF
100
AcDbEntity
  8
0
  6
CONTINUOUS
100
AcDbLine
 10
22.10383410076263
 20
5.732084481509751
 30
0.0
 11
24.12411815881395
 21
7.752368539561078
 31
0.0
  0
LINE
  5
AA03
330
A9FF
100
AcDbEntity
  8
0
  6
CONTINUOUS
100
AcDbLine
 10
21.55843658317447
 20
4.513167754841414
 30
0.0
 11
24.3322999106347
 21
7.287031082301639
 31
0.0
  0
LINE
  5
AA04
330
A9FF
100
AcDbEntity
  8
0
  6
CONTINUOUS
100
AcDbLine
 10
21.01303906558632
 20
3.294251028173077
 30
0.0
 11
24.54048166245544
 21
6.821693625042199
 31
0.0
  0
LINE
  5
AA05
330
A9FF
100
AcDbEntity
  8
0
  6
CONTINUOUS
100
AcDbLine
 10
20.46764154799817
 20
2.075334301504738
 30
0.0
 11
23.28571549467848
 21
4.89340824818505
 31
0.0
  0
LINE
  5
AA06
330
A9FF
100
AcDbEntity
  8
0
  6
CONTINUOUS
100
AcDbLine
 10
19.92224403041002
 20
0.8564175748364002
 30
0.0
 11
22.74075865492779
 21
3.674932199354171
 31
0.0
  0
LINE
  5
AA07
330
A9FF
100
AcDbEntity
  8
0
  6
CONTINUOUS
100
AcDbLine
 10
23.67305085490148
 20
5.280743608408048
 30
0.0
 11
24.74866341427619
 21
6.356356167782759
 31
0.0
  0
LINE
  5
AA08
330
A9FF
100
AcDbEntity
  8
0
  6
CONTINUOUS
100
AcDbLine
 10
23.88118970842314
 20
4.815363252849522
 30
0.0
 11
24.95684516609694
 21
5.89101871052332
 31
0.0
  0
LINE
  5
AA09
330
A9FF
100
AcDbEntity
  8
0
  6
CONTINUOUS
100
AcDbLine
 10
19.73925852647308
 20
-0.0000871381807288
 30
0.0
 11
23.4103456646501
 21
3.670999999996297
 31
0.0
  0
LINE
  5
AA0A
330
A9FF
100
AcDbEntity
  8
0
  6
CONTINUOUS
100
AcDbLine
 10
24.0893285619448
 20
4.349982897290997
 30
0.0
 11
25.16502691791769
 21
5.42568125326388
 31
0.0
  0
LINE
  5
AA0B
330
A9FF
100
AcDbEntity
  8
0
  6
CONTINUOUS
100
AcDbLine
 10
20.41282099582748
 20
-0.0000438779065108
 30
0.0
 11
21.64944178675636
 21
1.236576913022366
 31
0.0
  0
LINE
  5
AA0C
330
A9FF
100
AcDbEntity
  8
0
  6
CONTINUOUS
100
AcDbLine
 10
22.78126487373161
 20
2.36839999999762
 30
0.0
 11
24.08386487373029
 21
3.670999999996297
 31
0.0
  0
LINE
  5
AA0D
330
A9FF
100
AcDbEntity
  8
0
  6
CONTINUOUS
100
AcDbLine
 10
24.29746741546646
 20
3.884602541732471
 30
0.0
 11
25.37320866973843
 21
4.960343796004441
 31
0.0
  0
LINE
  5
AA0E
330
A9FF
100
AcDbEntity
  8
0
  6
CONTINUOUS
100
AcDbLine
 10
21.08638346518189
 20
-0.0000006176322938
 30
0.0
 11
21.10379033335899
 21
0.0174062505448083
 31
0.0
  0
LINE
  5
AA0F
330
A9FF
100
AcDbEntity
  8
0
  6
CONTINUOUS
100
AcDbLine
 10
23.4547840828118
 20
2.36839999999762
 30
0.0
 11
25.58139042155918
 21
4.495006338745002
 31
0.0
  0
LINE
  5
AA10
330
A9FF
100
AcDbEntity
  8
0
  6
CONTINUOUS
100
AcDbLine
 10
29.30199999996933
 20
8.215615917155148
 30
0.0
 11
29.84948408280543
 21
8.763099999991255
 31
0.0
  0
LINE
  5
AA11
330
A9FF
100
AcDbEntity
  8
0
  6
CONTINUOUS
100
AcDbLine
 10
24.12830329189199
 20
2.36839999999762
 30
0.0
 11
25.78957217337993
 21
4.029668881485562
 31
0.0
  0
LINE
  5
AA12
330
A9FF
100
AcDbEntity
  8
0
  6
CONTINUOUS
100
AcDbLine
 10
29.30199999996933
 20
7.54209670807496
 30
0.0
 11
30.52300329188562
 21
8.763099999991255
 31
0.0
  0
LINE
  5
AA13
330
A9FF
100
AcDbEntity
  8
0
  6
CONTINUOUS
100
AcDbLine
 10
24.80182250097217
 20
2.36839999999762
 30
0.0
 11
25.99775392520067
 21
3.564331424226122
 31
0.0
  0
LINE
  5
AA14
330
A9FF
100
AcDbEntity
  8
0
  6
CONTINUOUS
100
AcDbLine
 10
29.30199999996933
 20
6.868577498994774
 30
0.0
 11
30.74199999996926
 21
8.308577498994712
 31
0.0
  0
LINE
  5
AA15
330
A9FF
100
AcDbEntity
  8
0
  6
CONTINUOUS
100
AcDbLine
 10
25.13028238392013
 20
2.023340673865392
 30
0.0
 11
26.20593567702142
 21
3.098993966966683
 31
0.0
  0
LINE
  5
AA16
330
A9FF
100
AcDbEntity
  8
0
  6
CONTINUOUS
100
AcDbLine
 10
25.33838066033617
 20
1.557919741201244
 30
0.0
 11
26.41411742884217
 21
2.633656509707244
 31
0.0
  0
LINE
  5
AA17
330
A9FF
100
AcDbEntity
  8
0
  6
CONTINUOUS
100
AcDbLine
 10
25.54647893675221
 20
1.092498808537098
 30
0.0
 11
26.62229918066291
 21
2.168319052447804
 31
0.0
  0
LINE
  5
AA18
330
A9FF
100
AcDbEntity
  8
0
  6
CONTINUOUS
100
AcDbLine
 10
25.75457721316825
 20
0.62707787587295
 30
0.0
 11
26.83048093248366
 21
1.702981595188365
 31
0.0
  0
LINE
  5
AA19
330
A9FF
100
AcDbEntity
  8
0
  6
CONTINUOUS
100
AcDbLine
 10
29.30199999996933
 20
6.195058289914587
 30
0.0
 11
30.74199999996926
 21
7.635058289914522
 31
0.0
  0
LINE
  5
AA1A
330
A9FF
100
AcDbEntity
  8
0
  6
CONTINUOUS
100
AcDbLine
 10
29.30199999996933
 20
5.521539080834401
 30
0.0
 11
30.74199999996926
 21
6.961539080834331
 31
0.0
  0
LINE
  5
AA1B
330
A9FF
100
AcDbEntity
  8
0
  6
CONTINUOUS
100
AcDbLine
 10
29.30199999996933
 20
4.848019871754214
 30
0.0
 11
30.74199999996925
 21
6.288019871754143
 31
0.0
  0
LINE
  5
AA1C
330
A9FF
100
AcDbEntity
  8
0
  6
CONTINUOUS
100
AcDbLine
 10
29.30199999996933
 20
4.174500662674028
 30
0.0
 11
30.74199999996925
 21
5.614500662673953
 31
0.0
  0
LINE
  5
AA1D
330
A9FF
100
AcDbEntity
  8
0
  6
CONTINUOUS
100
AcDbLine
 10
25.96267548958429
 20
0.1616569432088024
 30
0.0
 11
27.18411854636669
 21
1.383099999991207
 31
0.0
  0
LINE
  5
AA1E
330
A9FF
100
AcDbEntity
  8
0
  6
CONTINUOUS
100
AcDbLine
 10
29.30199999996933
 20
3.500981453593841
 30
0.0
 11
30.74199999996925
 21
4.940981453593762
 31
0.0
  0
LINE
  5
AA1F
330
A9FF
100
AcDbEntity
  8
0
  6
CONTINUOUS
100
AcDbLine
 10
26.50763775544691
 20
0.0330999999912356
 30
0.0
 11
27.85763775544689
 21
1.383099999991223
 31
0.0
  0
LINE
  5
AA20
330
A9FF
100
AcDbEntity
  8
0
  6
CONTINUOUS
100
AcDbLine
 10
29.30199999996933
 20
2.827462244513656
 30
0.0
 11
30.74199999996925
 21
4.267462244513574
 31
0.0
  0
LINE
  5
AA21
330
A9FF
100
AcDbEntity
  8
0
  6
CONTINUOUS
100
AcDbLine
 10
27.18115696452709
 20
0.0330999999912356
 30
0.0
 11
28.6224847300034
 21
1.474427765467545
 31
0.0
  0
LINE
  5
AA22
330
A9FF
100
AcDbEntity
  8
0
  6
CONTINUOUS
100
AcDbLine
 10
29.21067223449293
 20
2.062615269957069
 30
0.0
 11
30.74199999996924
 21
3.593943035433383
 31
0.0
  0
LINE
  5
AA23
330
A9FF
100
AcDbEntity
  8
0
  6
CONTINUOUS
100
AcDbLine
 10
27.85467617360728
 20
0.0330999999912356
 30
0.0
 11
30.74199999996924
 21
2.920423826353195
 31
0.0
  0
LINE
  5
AA24
330
A9FF
100
AcDbEntity
  8
0
  6
CONTINUOUS
100
AcDbLine
 10
28.57438609860264
 20
0.0792907159064073
 30
0.0
 11
30.69580928405405
 21
2.200713901357819
 31
0.0
  0
LINE
  5
AA25
330
A9FF
100
AcDbEntity
  8
0
  6
CONTINUOUS
100
AcDbLine
 10
29.49443044814297
 20
0.3258158563665496
 30
0.0
 11
30.44928414359389
 21
1.280669551817477
 31
0.0
  0
LINE
  5
AA26
330
A9FF
100
AcDbEntity
  8
0
  6
CONTINUOUS
100
AcDbLine
 10
19.59027867740337
 20
-0.0000967065718083
 30
0.0
 11
19.55485265190471
 21
0.035329318926844
 31
0.0
  0
LINE
  5
AA27
330
A9FF
100
AcDbEntity
  8
0
  6
CONTINUOUS
100
AcDbLine
 10
20.26375463176586
 20
-0.0000534518541091
 30
0.0
 11
19.76305575737534
 21
0.5006454225364014
 31
0.0
  0
LINE
  5
AA28
330
A9FF
100
AcDbEntity
  8
0
  6
CONTINUOUS
100
AcDbLine
 10
20.93723058612834
 20
-0.0000101971364099
 30
0.0
 11
19.97125886284597
 21
0.965961526145958
 31
0.0
  0
LINE
  5
AA29
330
A9FF
100
AcDbEntity
  8
0
  6
CONTINUOUS
100
AcDbLine
 10
21.25514828313686
 20
0.355591314935257
 30
0.0
 11
20.1794619683166
 21
1.431277629755512
 31
0.0
  0
LINE
  5
AA2A
330
A9FF
100
AcDbEntity
  8
0
  6
CONTINUOUS
100
AcDbLine
 10
21.46338838394921
 20
0.8208704232030986
 30
0.0
 11
20.38766507378723
 21
1.896593733365069
 31
0.0
  0
LINE
  5
AA2B
330
A9FF
100
AcDbEntity
  8
0
  6
CONTINUOUS
100
AcDbLine
 10
21.67162848476155
 20
1.28614953147094
 30
0.0
 11
20.59586817925786
 21
2.361909836974626
 31
0.0
  0
LINE
  5
AA2C
330
A9FF
100
AcDbEntity
  8
0
  6
CONTINUOUS
100
AcDbLine
 10
21.8798685855739
 20
1.751428639738782
 30
0.0
 11
20.80407128472849
 21
2.827225940584183
 31
0.0
  0
LINE
  5
AA2D
330
A9FF
100
AcDbEntity
  8
0
  6
CONTINUOUS
100
AcDbLine
 10
22.08810868638624
 20
2.216707748006623
 30
0.0
 11
21.01227439019912
 21
3.292542044193739
 31
0.0
  0
LINE
  5
AA2E
330
A9FF
100
AcDbEntity
  8
0
  6
CONTINUOUS
100
AcDbLine
 10
22.60993564347543
 20
2.36839999999762
 30
0.0
 11
21.22047749566975
 21
3.757858147803296
 31
0.0
  0
LINE
  5
AA2F
330
A9FF
100
AcDbEntity
  8
0
  6
CONTINUOUS
100
AcDbLine
 10
23.28345485255561
 20
2.36839999999762
 30
0.0
 11
21.42868060114038
 21
4.223174251412853
 31
0.0
  0
LINE
  5
AA30
330
A9FF
100
AcDbEntity
  8
0
  6
CONTINUOUS
100
AcDbLine
 10
26.29227406164219
 20
0.0330999999912356
 30
0.0
 11
25.80009199592872
 21
0.5252820657046957
 31
0.0
  0
LINE
  5
AA31
330
A9FF
100
AcDbEntity
  8
0
  6
CONTINUOUS
100
AcDbLine
 10
23.9569740616358
 20
2.36839999999762
 30
0.0
 11
21.63688370661101
 21
4.688490355022409
 31
0.0
  0
LINE
  5
AA32
330
A9FF
100
AcDbEntity
  8
0
  6
CONTINUOUS
100
AcDbLine
 10
26.96579327072237
 20
0.0330999999912356
 30
0.0
 11
25.2554132311971
 21
1.743480039516508
 31
0.0
  0
LINE
  5
AA33
330
A9FF
100
AcDbEntity
  8
0
  6
CONTINUOUS
100
AcDbLine
 10
24.63049327071599
 20
2.36839999999762
 30
0.0
 11
23.32789327071731
 21
3.670999999996297
 31
0.0
  0
LINE
  5
AA34
330
A9FF
100
AcDbEntity
  8
0
  6
CONTINUOUS
100
AcDbLine
 10
22.92098674744635
 20
4.077906523267254
 30
0.0
 11
21.84508681208164
 21
5.153806458631966
 31
0.0
  0
LINE
  5
AA35
330
A9FF
100
AcDbEntity
  8
0
  6
CONTINUOUS
100
AcDbLine
 10
27.63931247980256
 20
0.0330999999912356
 30
0.0
 11
24.0014124797975
 21
3.670999999996297
 31
0.0
  0
LINE
  5
AA36
330
A9FF
100
AcDbEntity
  8
0
  6
CONTINUOUS
100
AcDbLine
 10
23.129125600968
 20
4.5432868788258
 30
0.0
 11
22.05328991755227
 21
5.619122562241522
 31
0.0
  0
LINE
  5
AA37
330
A9FF
100
AcDbEntity
  8
0
  6
CONTINUOUS
100
AcDbLine
 10
28.31283168888275
 20
0.0330999999912356
 30
0.0
 11
24.16488385994816
 21
4.181047828925828
 31
0.0
  0
LINE
  5
AA38
330
A9FF
100
AcDbEntity
  8
0
  6
CONTINUOUS
100
AcDbLine
 10
23.33726445448964
 20
5.008667234384345
 30
0.0
 11
22.2614930230229
 21
6.084438665851079
 31
0.0
  0
LINE
  5
AA39
330
A9FF
100
AcDbEntity
  8
0
  6
CONTINUOUS
100
AcDbLine
 10
28.86286302309502
 20
0.1565878748591523
 30
0.0
 11
27.63635089796295
 21
1.383099999991217
 31
0.0
  0
LINE
  5
AA3A
330
A9FF
100
AcDbEntity
  8
0
  6
CONTINUOUS
100
AcDbLine
 10
26.43704649509776
 20
2.582404402856405
 30
0.0
 11
23.61992702019732
 21
5.399523877756844
 31
0.0
  0
LINE
  5
AA3B
330
A9FF
100
AcDbEntity
  8
0
  6
CONTINUOUS
100
AcDbLine
 10
23.54540330801128
 20
5.47404758994289
 30
0.0
 11
22.46969612849353
 21
6.549754769460635
 31
0.0
  0
LINE
  5
AA3C
330
A9FF
100
AcDbEntity
  8
0
  6
CONTINUOUS
100
AcDbLine
 10
29.39405087596853
 20
0.2989192310658284
 30
0.0
 11
28.30987010704312
 21
1.383099999991234
 31
0.0
  0
LINE
  5
AA3D
330
A9FF
100
AcDbEntity
  8
0
  6
CONTINUOUS
100
AcDbLine
 10
25.89179548232307
 20
3.801174624711282
 30
0.0
 11
22.67789923396416
 21
7.015070873070191
 31
0.0
  0
LINE
  5
AA3E
330
A9FF
100
AcDbEntity
  8
0
  6
CONTINUOUS
100
AcDbLine
 10
29.79594438047407
 20
0.570544935640473
 30
0.0
 11
28.81310432793121
 21
1.553384988183336
 31
0.0
  0
LINE
  5
AA3F
330
A9FF
100
AcDbEntity
  8
0
  6
CONTINUOUS
100
AcDbLine
 10
25.34654446954838
 20
5.01994484656616
 30
0.0
 11
22.88610233943479
 21
7.480386976679748
 31
0.0
  0
LINE
  5
AA40
330
A9FF
100
AcDbEntity
  8
0
  6
CONTINUOUS
100
AcDbLine
 10
30.13270398501416
 20
0.9073045401805646
 30
0.0
 11
29.14234640337737
 21
1.897662121817355
 31
0.0
  0
LINE
  5
AA41
330
A9FF
100
AcDbEntity
  8
0
  6
CONTINUOUS
100
AcDbLine
 10
24.80129345677369
 20
6.238715068421037
 30
0.0
 11
23.09430544490542
 21
7.945703080289305
 31
0.0
  0
LINE
  5
AA42
330
A9FF
100
AcDbEntity
  8
0
  6
CONTINUOUS
100
AcDbLine
 10
30.44581292956759
 20
1.26771480470732
 30
0.0
 11
29.30199999996933
 21
2.411527734305588
 31
0.0
  0
LINE
  5
AA43
330
A9FF
100
AcDbEntity
  8
0
  6
CONTINUOUS
100
AcDbLine
 10
30.58814428577427
 20
1.798902657580827
 30
0.0
 11
29.30199999996933
 21
3.085046943385775
 31
0.0
  0
LINE
  5
AA44
330
A9FF
100
AcDbEntity
  8
0
  6
CONTINUOUS
100
AcDbLine
 10
24.256042443999
 20
7.457485290275915
 30
0.0
 11
23.30250855037605
 21
8.411019183898862
 31
0.0
  0
LINE
  5
AA45
330
A9FF
100
AcDbEntity
  8
0
  6
CONTINUOUS
100
AcDbLine
 10
23.71079143122431
 20
8.676255512130794
 30
0.0
 11
23.51071165584668
 21
8.876335287508418
 31
0.0
  0
LINE
  5
AA46
330
A9FF
100
AcDbEntity
  8
0
  6
CONTINUOUS
100
AcDbLine
 10
30.73047564198095
 20
2.330090510454333
 30
0.0
 11
29.30199999996933
 21
3.758566152465961
 31
0.0
  0
LINE
  5
AA47
330
A9FF
100
AcDbEntity
  8
0
  6
CONTINUOUS
100
AcDbLine
 10
30.74199999996924
 20
2.992085361546236
 30
0.0
 11
29.30199999996933
 21
4.432085361546148
 31
0.0
  0
LINE
  5
AA48
330
A9FF
100
AcDbEntity
  8
0
  6
CONTINUOUS
100
AcDbLine
 10
30.74199999996924
 20
3.665604570626419
 30
0.0
 11
29.30199999996933
 21
5.105604570626333
 31
0.0
  0
LINE
  5
AA49
330
A9FF
100
AcDbEntity
  8
0
  6
CONTINUOUS
100
AcDbLine
 10
30.74199999996925
 20
4.339123779706602
 30
0.0
 11
29.30199999996933
 21
5.77912377970652
 31
0.0
  0
LINE
  5
AA4A
330
A9FF
100
AcDbEntity
  8
0
  6
CONTINUOUS
100
AcDbLine
 10
30.74199999996925
 20
5.012642988786785
 30
0.0
 11
29.30199999996933
 21
6.452642988786707
 31
0.0
  0
LINE
  5
AA4B
330
A9FF
100
AcDbEntity
  8
0
  6
CONTINUOUS
100
AcDbLine
 10
30.74199999996925
 20
5.68616219786697
 30
0.0
 11
29.30199999996933
 21
7.126162197866894
 31
0.0
  0
LINE
  5
AA4C
330
A9FF
100
AcDbEntity
  8
0
  6
CONTINUOUS
100
AcDbLine
 10
30.74199999996925
 20
6.359681406947153
 30
0.0
 11
29.30199999996933
 21
7.799681406947081
 31
0.0
  0
LINE
  5
AA4D
330
A9FF
100
AcDbEntity
  8
0
  6
CONTINUOUS
100
AcDbLine
 10
30.74199999996926
 20
7.033200616027337
 30
0.0
 11
29.30199999996933
 21
8.473200616027269
 31
0.0
  0
LINE
  5
AA4E
330
A9FF
100
AcDbEntity
  8
0
  6
CONTINUOUS
100
AcDbLine
 10
30.74199999996926
 20
7.706719825107518
 30
0.0
 11
29.68561982508552
 21
8.763099999991255
 31
0.0
  0
LINE
  5
AA4F
330
A9FF
100
AcDbEntity
  8
0
  6
CONTINUOUS
100
AcDbLine
 10
30.74199999996926
 20
8.380239034187703
 30
0.0
 11
30.35913903416571
 21
8.763099999991255
 31
0.0
  0
ENDBLK
  5
AAF2
330
A9FF
100
AcDbEntity
  8
0
100
AcDbBlockEnd
  0
BLOCK
  5
AAF3
330
AA50
100
AcDbEntity
  8
0
100
AcDbBlockBegin
  2
*X90
 70
     1
 10
0.0
 20
0.0
 30
0.0
  3
*X90
  1

  0
LINE
  5
AA51
330
AA50
100
AcDbEntity
  8
0
  6
CONTINUOUS
100
AcDbLine
 10
31.64199999996833
 20
8.5350582899136
 30
0.0
 11
31.87004171004599
 21
8.763099999991255
 31
0.0
  0
LINE
  5
AA52
330
AA50
100
AcDbEntity
  8
0
  6
CONTINUOUS
100
AcDbLine
 10
31.64199999996833
 20
7.861539080833413
 30
0.0
 11
32.54356091912618
 21
8.763099999991255
 31
0.0
  0
LINE
  5
AA53
330
AA50
100
AcDbEntity
  8
0
  6
CONTINUOUS
100
AcDbLine
 10
31.64199999996833
 20
7.188019871753227
 30
0.0
 11
33.08199999996839
 21
8.628019871753281
 31
0.0
  0
LINE
  5
AA54
330
AA50
100
AcDbEntity
  8
0
  6
CONTINUOUS
100
AcDbLine
 10
31.64199999996833
 20
6.514500662673041
 30
0.0
 11
33.08199999996839
 21
7.954500662673095
 31
0.0
  0
LINE
  5
AA55
330
AA50
100
AcDbEntity
  8
0
  6
CONTINUOUS
100
AcDbLine
 10
31.64199999996833
 20
5.840981453592855
 30
0.0
 11
33.08199999996839
 21
7.28098145359291
 31
0.0
  0
LINE
  5
AA56
330
AA50
100
AcDbEntity
  8
0
  6
CONTINUOUS
100
AcDbLine
 10
31.64199999996833
 20
5.167462244512668
 30
0.0
 11
33.08199999996839
 21
6.607462244512723
 31
0.0
  0
LINE
  5
AA57
330
AA50
100
AcDbEntity
  8
0
  6
CONTINUOUS
100
AcDbLine
 10
31.64199999996833
 20
4.493943035432482
 30
0.0
 11
33.08199999996839
 21
5.933943035432536
 31
0.0
  0
LINE
  5
AA58
330
AA50
100
AcDbEntity
  8
0
  6
CONTINUOUS
100
AcDbLine
 10
31.64199999996833
 20
3.820423826352294
 30
0.0
 11
33.08199999996839
 21
5.260423826352349
 31
0.0
  0
LINE
  5
AA59
330
AA50
100
AcDbEntity
  8
0
  6
CONTINUOUS
100
AcDbLine
 10
31.64199999996833
 20
3.146904617272108
 30
0.0
 11
33.08199999996839
 21
4.586904617272163
 31
0.0
  0
LINE
  5
AA5A
330
AA50
100
AcDbEntity
  8
0
  6
CONTINUOUS
100
AcDbLine
 10
36.23199999996837
 20
8.410423826352327
 30
0.0
 11
36.58467617360729
 21
8.763099999991255
 31
0.0
  0
LINE
  5
AA5B
330
AA50
100
AcDbEntity
  8
0
  6
CONTINUOUS
100
AcDbLine
 10
36.23199999996837
 20
7.73690461727214
 30
0.0
 11
37.25819538268748
 21
8.763099999991255
 31
0.0
  0
LINE
  5
AA5C
330
AA50
100
AcDbEntity
  8
0
  6
CONTINUOUS
100
AcDbLine
 10
31.64323424774199
 20
2.474619655965573
 30
0.0
 11
33.08199999996839
 21
3.913385408191976
 31
0.0
  0
LINE
  5
AA5D
330
AA50
100
AcDbEntity
  8
0
  6
CONTINUOUS
100
AcDbLine
 10
31.74419223861915
 20
1.902058437762552
 30
0.0
 11
33.08199999996839
 21
3.239866199111789
 31
0.0
  0
LINE
  5
AA5E
330
AA50
100
AcDbEntity
  8
0
  6
CONTINUOUS
100
AcDbLine
 10
36.23199999996837
 20
7.063385408191953
 30
0.0
 11
37.67199999996831
 21
8.503385408191894
 31
0.0
  0
LINE
  5
AA5F
330
AA50
100
AcDbEntity
  8
0
  6
CONTINUOUS
100
AcDbLine
 10
36.23199999996837
 20
6.389866199111767
 30
0.0
 11
37.67199999996831
 21
7.829866199111708
 31
0.0
  0
LINE
  5
AA60
330
AA50
100
AcDbEntity
  8
0
  6
CONTINUOUS
100
AcDbLine
 10
31.91111233414976
 20
1.39545932421297
 30
0.0
 11
33.08199999996839
 21
2.566346990031603
 31
0.0
  0
LINE
  5
AA61
330
AA50
100
AcDbEntity
  8
0
  6
CONTINUOUS
100
AcDbLine
 10
36.23199999996837
 20
5.71634699003158
 30
0.0
 11
37.67199999996831
 21
7.156346990031522
 31
0.0
  0
LINE
  5
AA62
330
AA50
100
AcDbEntity
  8
0
  6
CONTINUOUS
100
AcDbLine
 10
32.1576374746103
 20
0.9684652555933289
 30
0.0
 11
33.20642631446081
 21
2.017254095443838
 31
0.0
  0
LINE
  5
AA63
330
AA50
100
AcDbEntity
  8
0
  6
CONTINUOUS
100
AcDbLine
 10
36.23199999996837
 20
5.042827780951393
 30
0.0
 11
37.67199999996831
 21
6.482827780951334
 31
0.0
  0
LINE
  5
AA64
330
AA50
100
AcDbEntity
  8
0
  6
CONTINUOUS
100
AcDbLine
 10
32.47774023927325
 20
0.6150488111760914
 30
0.0
 11
33.49903056428258
 21
1.636339136185419
 31
0.0
  0
LINE
  5
AA65
330
AA50
100
AcDbEntity
  8
0
  6
CONTINUOUS
100
AcDbLine
 10
36.23199999996837
 20
4.369308571871207
 30
0.0
 11
37.67199999996831
 21
5.809308571871148
 31
0.0
  0
LINE
  5
AA66
330
AA50
100
AcDbEntity
  8
0
  6
CONTINUOUS
100
AcDbLine
 10
32.84396249154443
 20
0.3077518543670883
 30
0.0
 11
33.93324121824649
 21
1.397030581069146
 31
0.0
  0
LINE
  5
AA67
330
AA50
100
AcDbEntity
  8
0
  6
CONTINUOUS
100
AcDbLine
 10
36.23199999996837
 20
3.695789362791021
 30
0.0
 11
37.67199999996831
 21
5.135789362790963
 31
0.0
  0
LINE
  5
AA68
330
AA50
100
AcDbEntity
  8
0
  6
CONTINUOUS
100
AcDbLine
 10
33.30186329036846
 20
0.0921334441109263
 30
0.0
 11
34.46442907112041
 21
1.254699224862875
 31
0.0
  0
LINE
  5
AA69
330
AA50
100
AcDbEntity
  8
0
  6
CONTINUOUS
100
AcDbLine
 10
36.23199999996837
 20
3.022270153710834
 30
0.0
 11
37.67199999996831
 21
4.462270153710776
 31
0.0
  0
LINE
  5
AA6A
330
AA50
100
AcDbEntity
  8
0
  6
CONTINUOUS
100
AcDbLine
 10
33.79565647746294
 20
-0.0875925778747773
 30
0.0
 11
35.24350171668284
 21
1.360252661345124
 31
0.0
  0
LINE
  5
AA6B
330
AA50
100
AcDbEntity
  8
0
  6
CONTINUOUS
100
AcDbLine
 10
36.18336676155003
 20
2.300117706212308
 30
0.0
 11
37.67199999996831
 21
3.788750944630589
 31
0.0
  0
LINE
  5
AA6C
330
AA50
100
AcDbEntity
  8
0
  6
CONTINUOUS
100
AcDbLine
 10
34.37182574910968
 20
-0.184942515308224
 30
0.0
 11
37.67199999996831
 21
3.115231735550402
 31
0.0
  0
LINE
  5
AA6D
330
AA50
100
AcDbEntity
  8
0
  6
CONTINUOUS
100
AcDbLine
 10
35.0453449581892
 20
-0.1849425153088955
 30
0.0
 11
37.66345697088136
 21
2.433169497383271
 31
0.0
  0
LINE
  5
AA6E
330
AA50
100
AcDbEntity
  8
0
  6
CONTINUOUS
100
AcDbLine
 10
35.98667157609191
 20
0.0828648935136398
 30
0.0
 11
37.51927401744566
 21
1.615467334867382
 31
0.0
  0
LINE
  5
AA6F
330
AA50
100
AcDbEntity
  8
0
  6
CONTINUOUS
100
AcDbLine
 10
32.27747408544484
 20
0.7830920669904482
 30
0.0
 11
32.24716210471949
 21
0.8134040477157893
 31
0.0
  0
LINE
  5
AA70
330
AA50
100
AcDbEntity
  8
0
  6
CONTINUOUS
100
AcDbLine
 10
33.83656881101902
 20
-0.1024834495035494
 30
0.0
 11
31.72538911593758
 21
2.008696245577891
 31
0.0
  0
LINE
  5
AA71
330
AA50
100
AcDbEntity
  8
0
  6
CONTINUOUS
100
AcDbLine
 10
34.5925470859041
 20
-0.1849425153084434
 30
0.0
 11
31.64199999996833
 21
2.765604570627322
 31
0.0
  0
LINE
  5
AA72
330
AA50
100
AcDbEntity
  8
0
  6
CONTINUOUS
100
AcDbLine
 10
35.26201302775981
 20
-0.1808892480839752
 30
0.0
 11
31.64199999996833
 21
3.439123779707508
 31
0.0
  0
LINE
  5
AA73
330
AA50
100
AcDbEntity
  8
0
  6
CONTINUOUS
100
AcDbLine
 10
35.75580621485512
 20
-0.0011632260990879
 30
0.0
 11
34.51294304365551
 21
1.241699945100514
 31
0.0
  0
LINE
  5
AA74
330
AA50
100
AcDbEntity
  8
0
  6
CONTINUOUS
100
AcDbLine
 10
33.08199999996839
 20
2.672642988787641
 30
0.0
 11
31.64199999996833
 21
4.112642988787695
 31
0.0
  0
LINE
  5
AA75
330
AA50
100
AcDbEntity
  8
0
  6
CONTINUOUS
100
AcDbLine
 10
36.24959940195042
 20
0.1785627958857976
 30
0.0
 11
35.10501653033629
 21
1.323145667499924
 31
0.0
  0
LINE
  5
AA76
330
AA50
100
AcDbEntity
  8
0
  6
CONTINUOUS
100
AcDbLine
 10
33.08199999996839
 20
3.346162197867827
 30
0.0
 11
31.64199999996833
 21
4.786162197867881
 31
0.0
  0
LINE
  5
AA77
330
AA50
100
AcDbEntity
  8
0
  6
CONTINUOUS
100
AcDbLine
 10
36.64615197150552
 20
0.4555294354108876
 30
0.0
 11
35.6362043832099
 21
1.465477023706505
 31
0.0
  0
LINE
  5
AA78
330
AA50
100
AcDbEntity
  8
0
  6
CONTINUOUS
100
AcDbLine
 10
33.08199999996839
 20
4.019681406948013
 30
0.0
 11
31.64199999996833
 21
5.459681406948068
 31
0.0
  0
LINE
  5
AA79
330
AA50
100
AcDbEntity
  8
0
  6
CONTINUOUS
100
AcDbLine
 10
37.0123742237774
 20
0.7628263922191891
 30
0.0
 11
35.97691545773309
 21
1.798285158263504
 31
0.0
  0
LINE
  5
AA7A
330
AA50
100
AcDbEntity
  8
0
  6
CONTINUOUS
100
AcDbLine
 10
33.08199999996839
 20
4.6932006160282
 30
0.0
 11
31.64199999996833
 21
6.133200616028255
 31
0.0
  0
LINE
  5
AA7B
330
AA50
100
AcDbEntity
  8
0
  6
CONTINUOUS
100
AcDbLine
 10
37.27491524157143
 20
1.173804583505349
 30
0.0
 11
36.17602012811361
 21
2.272699696963169
 31
0.0
  0
LINE
  5
AA7C
330
AA50
100
AcDbEntity
  8
0
  6
CONTINUOUS
100
AcDbLine
 10
33.08199999996839
 20
5.366719825108387
 30
0.0
 11
31.64199999996833
 21
6.806719825108441
 31
0.0
  0
LINE
  5
AA7D
330
AA50
100
AcDbEntity
  8
0
  6
CONTINUOUS
100
AcDbLine
 10
37.51739996707661
 20
1.604839067080355
 30
0.0
 11
36.23199999996837
 21
2.890239034188595
 31
0.0
  0
LINE
  5
AA7E
330
AA50
100
AcDbEntity
  8
0
  6
CONTINUOUS
100
AcDbLine
 10
37.6183579579535
 20
2.177400285283649
 30
0.0
 11
36.23199999996837
 21
3.563758243268782
 31
0.0
  0
LINE
  5
AA7F
330
AA50
100
AcDbEntity
  8
0
  6
CONTINUOUS
100
AcDbLine
 10
33.08199999996839
 20
6.040239034188573
 30
0.0
 11
31.64199999996833
 21
7.480239034188628
 31
0.0
  0
LINE
  5
AA80
330
AA50
100
AcDbEntity
  8
0
  6
CONTINUOUS
100
AcDbLine
 10
33.08199999996839
 20
6.713758243268759
 30
0.0
 11
31.64199999996833
 21
8.153758243268815
 31
0.0
  0
LINE
  5
AA81
330
AA50
100
AcDbEntity
  8
0
  6
CONTINUOUS
100
AcDbLine
 10
37.67199999996831
 20
2.797277452349027
 30
0.0
 11
36.23199999996837
 21
4.237277452348969
 31
0.0
  0
LINE
  5
AA82
330
AA50
100
AcDbEntity
  8
0
  6
CONTINUOUS
100
AcDbLine
 10
37.67199999996831
 20
3.470796661429214
 30
0.0
 11
36.23199999996837
 21
4.910796661429155
 31
0.0
  0
LINE
  5
AA83
330
AA50
100
AcDbEntity
  8
0
  6
CONTINUOUS
100
AcDbLine
 10
37.67199999996831
 20
4.1443158705094
 30
0.0
 11
36.23199999996837
 21
5.584315870509341
 31
0.0
  0
LINE
  5
AA84
330
AA50
100
AcDbEntity
  8
0
  6
CONTINUOUS
100
AcDbLine
 10
33.08199999996839
 20
7.387277452348946
 30
0.0
 11
31.70617745232608
 21
8.763099999991255
 31
0.0
  0
LINE
  5
AA85
330
AA50
100
AcDbEntity
  8
0
  6
CONTINUOUS
100
AcDbLine
 10
33.08199999996839
 20
8.060796661429134
 30
0.0
 11
32.37969666140626
 21
8.763099999991255
 31
0.0
  0
LINE
  5
AA86
330
AA50
100
AcDbEntity
  8
0
  6
CONTINUOUS
100
AcDbLine
 10
33.08199999996839
 20
8.734315870509318
 30
0.0
 11
33.05321587048645
 21
8.763099999991255
 31
0.0
  0
LINE
  5
AA87
330
AA50
100
AcDbEntity
  8
0
  6
CONTINUOUS
100
AcDbLine
 10
37.67199999996831
 20
4.817835079589586
 30
0.0
 11
36.23199999996837
 21
6.257835079589528
 31
0.0
  0
LINE
  5
AA88
330
AA50
100
AcDbEntity
  8
0
  6
CONTINUOUS
100
AcDbLine
 10
37.67199999996831
 20
5.491354288669772
 30
0.0
 11
36.23199999996837
 21
6.931354288669715
 31
0.0
  0
LINE
  5
AA89
330
AA50
100
AcDbEntity
  8
0
  6
CONTINUOUS
100
AcDbLine
 10
37.67199999996831
 20
6.164873497749959
 30
0.0
 11
36.23199999996837
 21
7.6048734977499
 31
0.0
  0
LINE
  5
AA8A
330
AA50
100
AcDbEntity
  8
0
  6
CONTINUOUS
100
AcDbLine
 10
37.67199999996831
 20
6.838392706830145
 30
0.0
 11
36.23199999996837
 21
8.278392706830086
 31
0.0
  0
LINE
  5
AA8B
330
AA50
100
AcDbEntity
  8
0
  6
CONTINUOUS
100
AcDbLine
 10
37.67199999996831
 20
7.511911915910333
 30
0.0
 11
36.42081191588738
 21
8.763099999991255
 31
0.0
  0
LINE
  5
AA8C
330
AA50
100
AcDbEntity
  8
0
  6
CONTINUOUS
100
AcDbLine
 10
37.67199999996831
 20
8.185431124990519
 30
0.0
 11
37.09433112496757
 21
8.763099999991255
 31
0.0
  0
ENDBLK
  5
AAF4
330
AA50
100
AcDbEntity
  8
0
100
AcDbBlockEnd
  0
BLOCK
  5
AAF5
330
AA8D
100
AcDbEntity
  8
0
100
AcDbBlockBegin
  2
*X91
 70
     1
 10
0.0
 20
0.0
 30
0.0
  3
*X91
  1

  0
LINE
  5
AA8E
330
AA8D
100
AcDbEntity
  8
0
  6
CONTINUOUS
100
AcDbLine
 10
38.60499999996136
 20
8.762866199104765
 30
0.0
 11
38.71672554182345
 21
8.874591740966855
 31
0.0
  0
LINE
  5
AA8F
330
AA8D
100
AcDbEntity
  8
0
  6
CONTINUOUS
100
AcDbLine
 10
38.60499999996136
 20
8.089346990024577
 30
0.0
 11
39.03418785440363
 21
8.518534844466847
 31
0.0
  0
LINE
  5
AA90
330
AA8D
100
AcDbEntity
  8
0
  6
CONTINUOUS
100
AcDbLine
 10
38.60499999996136
 20
7.41582778094439
 30
0.0
 11
39.35165016698382
 21
8.16247794796684
 31
0.0
  0
LINE
  5
AA91
330
AA8D
100
AcDbEntity
  8
0
  6
CONTINUOUS
100
AcDbLine
 10
38.60499999996136
 20
6.742308571864204
 30
0.0
 11
39.66911247956399
 21
7.806421051466834
 31
0.0
  0
LINE
  5
AA92
330
AA8D
100
AcDbEntity
  8
0
  6
CONTINUOUS
100
AcDbLine
 10
38.60499999996136
 20
6.068789362784018
 30
0.0
 11
39.98657479214418
 21
7.450364154966827
 31
0.0
  0
LINE
  5
AA93
330
AA8D
100
AcDbEntity
  8
0
  6
CONTINUOUS
100
AcDbLine
 10
38.60499999996136
 20
5.395270153703832
 30
0.0
 11
40.30403710472435
 21
7.09430725846682
 31
0.0
  0
LINE
  5
AA94
330
AA8D
100
AcDbEntity
  8
0
  6
CONTINUOUS
100
AcDbLine
 10
38.60499999996136
 20
4.721750944623645
 30
0.0
 11
40.62149941730453
 21
6.738250361966813
 31
0.0
  0
LINE
  5
AA95
330
AA8D
100
AcDbEntity
  8
0
  6
CONTINUOUS
100
AcDbLine
 10
38.60499999996136
 20
4.048231735543458
 30
0.0
 11
40.93896172988471
 21
6.382193465466806
 31
0.0
  0
LINE
  5
AA96
330
AA8D
100
AcDbEntity
  8
0
  6
CONTINUOUS
100
AcDbLine
 10
38.60499999996136
 20
3.374712526463272
 30
0.0
 11
40.02599999995994
 21
4.795712526461843
 31
0.0
  0
LINE
  5
AA97
330
AA8D
100
AcDbEntity
  8
0
  6
CONTINUOUS
100
AcDbLine
 10
38.60499999996136
 20
2.701193317383085
 30
0.0
 11
40.02599999995994
 21
4.122193317381657
 31
0.0
  0
LINE
  5
AA98
330
AA8D
100
AcDbEntity
  8
0
  6
CONTINUOUS
100
AcDbLine
 10
40.28339754687704
 20
5.053110073378947
 30
0.0
 11
41.25642404246489
 21
6.026136568966799
 31
0.0
  0
LINE
  5
AA99
330
AA8D
100
AcDbEntity
  8
0
  6
CONTINUOUS
100
AcDbLine
 10
40.60085985945722
 20
4.697053176878939
 30
0.0
 11
41.57388635504507
 21
5.670079672466793
 31
0.0
  0
LINE
  5
AA9A
330
AA8D
100
AcDbEntity
  8
0
  6
CONTINUOUS
100
AcDbLine
 10
43.57899999995641
 20
8.348712526458318
 30
0.0
 11
43.99338747348935
 21
8.763099999991255
 31
0.0
  0
LINE
  5
AA9B
330
AA8D
100
AcDbEntity
  8
0
  6
CONTINUOUS
100
AcDbLine
 10
43.57899999995641
 20
7.675193317378131
 30
0.0
 11
44.66690668256953
 21
8.763099999991255
 31
0.0
  0
LINE
  5
AA9C
330
AA8D
100
AcDbEntity
  8
0
  6
CONTINUOUS
100
AcDbLine
 10
38.60499999996136
 20
2.027674108302898
 30
0.0
 11
40.02599999995994
 21
3.44867410830147
 31
0.0
  0
LINE
  5
AA9D
330
AA8D
100
AcDbEntity
  8
0
  6
CONTINUOUS
100
AcDbLine
 10
38.60499999996136
 20
1.354154899222712
 30
0.0
 11
40.02599999995994
 21
2.775154899221284
 31
0.0
  0
LINE
  5
AA9E
330
AA8D
100
AcDbEntity
  8
0
  6
CONTINUOUS
100
AcDbLine
 10
38.60499999996136
 20
0.6806356901425255
 30
0.0
 11
40.02599999995994
 21
2.101635690141098
 31
0.0
  0
LINE
  5
AA9F
330
AA8D
100
AcDbEntity
  8
0
  6
CONTINUOUS
100
AcDbLine
 10
38.60499999996136
 20
0.0071164810623383
 30
0.0
 11
40.02599999995994
 21
1.428116481060911
 31
0.0
  0
LINE
  5
AAA0
330
AA8D
100
AcDbEntity
  8
0
  6
CONTINUOUS
100
AcDbLine
 10
40.9183221720374
 20
4.340996280378933
 30
0.0
 11
41.89134866762525
 21
5.314022775966786
 31
0.0
  0
LINE
  5
AAA1
330
AA8D
100
AcDbEntity
  8
0
  6
CONTINUOUS
100
AcDbLine
 10
41.23578448461758
 20
3.984939383878926
 30
0.0
 11
42.20881098020543
 21
4.957965879466778
 31
0.0
  0
LINE
  5
AAA2
330
AA8D
100
AcDbEntity
  8
0
  6
CONTINUOUS
100
AcDbLine
 10
41.55324679719776
 20
3.628882487378919
 30
0.0
 11
42.52627329278561
 21
4.601908982966772
 31
0.0
  0
LINE
  5
AAA3
330
AA8D
100
AcDbEntity
  8
0
  6
CONTINUOUS
100
AcDbLine
 10
41.87070910977793
 20
3.272825590878912
 30
0.0
 11
42.84373560536579
 21
4.245852086466765
 31
0.0
  0
LINE
  5
AAA4
330
AA8D
100
AcDbEntity
  8
0
  6
CONTINUOUS
100
AcDbLine
 10
43.57899999995641
 20
7.001674108297943
 30
0.0
 11
44.99999999995498
 21
8.422674108296516
 31
0.0
  0
LINE
  5
AAA5
330
AA8D
100
AcDbEntity
  8
0
  6
CONTINUOUS
100
AcDbLine
 10
43.57899999995641
 20
6.328154899217758
 30
0.0
 11
44.99999999995498
 21
7.749154899216329
 31
0.0
  0
LINE
  5
AAA6
330
AA8D
100
AcDbEntity
  8
0
  6
CONTINUOUS
100
AcDbLine
 10
43.57899999995641
 20
5.654635690137571
 30
0.0
 11
44.99999999995498
 21
7.075635690136142
 31
0.0
  0
LINE
  5
AAA7
330
AA8D
100
AcDbEntity
  8
0
  6
CONTINUOUS
100
AcDbLine
 10
43.57899999995641
 20
4.981116481057384
 30
0.0
 11
44.99999999995498
 21
6.402116481055955
 31
0.0
  0
LINE
  5
AAA8
330
AA8D
100
AcDbEntity
  8
0
  6
CONTINUOUS
100
AcDbLine
 10
39.27140272797921
 20
-0.0000000000000009
 30
0.0
 11
40.02599999995994
 21
0.7545972719807246
 31
0.0
  0
LINE
  5
AAA9
330
AA8D
100
AcDbEntity
  8
0
  6
CONTINUOUS
100
AcDbLine
 10
39.9449219370594
 20
-0.0000000000000009
 30
0.0
 11
40.02599999995994
 21
0.0810780629005379
 31
0.0
  0
LINE
  5
AAAA
330
AA8D
100
AcDbEntity
  8
0
  6
CONTINUOUS
100
AcDbLine
 10
42.18817142235812
 20
2.916768694378905
 30
0.0
 11
43.16119791794597
 21
3.889795189966758
 31
0.0
  0
LINE
  5
AAAB
330
AA8D
100
AcDbEntity
  8
0
  6
CONTINUOUS
100
AcDbLine
 10
42.50563373493829
 20
2.560711797878898
 30
0.0
 11
43.47866023052615
 21
3.533738293466751
 31
0.0
  0
LINE
  5
AAAC
330
AA8D
100
AcDbEntity
  8
0
  6
CONTINUOUS
100
AcDbLine
 10
43.57899999995641
 20
4.307597271977198
 30
0.0
 11
44.99999999995498
 21
5.728597271975769
 31
0.0
  0
LINE
  5
AAAD
330
AA8D
100
AcDbEntity
  8
0
  6
CONTINUOUS
100
AcDbLine
 10
43.57899999995641
 20
3.634078062897011
 30
0.0
 11
44.99999999995498
 21
5.055078062895582
 31
0.0
  0
LINE
  5
AAAE
330
AA8D
100
AcDbEntity
  8
0
  6
CONTINUOUS
100
AcDbLine
 10
42.82309604751848
 20
2.204654901378891
 30
0.0
 11
44.99999999995498
 21
4.381558853815395
 31
0.0
  0
LINE
  5
AAAF
330
AA8D
100
AcDbEntity
  8
0
  6
CONTINUOUS
100
AcDbLine
 10
43.14055836009865
 20
1.848598004878885
 30
0.0
 11
44.99999999995498
 21
3.70803964473521
 31
0.0
  0
LINE
  5
AAB0
330
AA8D
100
AcDbEntity
  8
0
  6
CONTINUOUS
100
AcDbLine
 10
43.45802067267883
 20
1.492541108378878
 30
0.0
 11
44.99999999995498
 21
3.034520435655023
 31
0.0
  0
LINE
  5
AAB1
330
AA8D
100
AcDbEntity
  8
0
  6
CONTINUOUS
100
AcDbLine
 10
43.77548298525902
 20
1.136484211878871
 30
0.0
 11
44.99999999995498
 21
2.361001226574837
 31
0.0
  0
LINE
  5
AAB2
330
AA8D
100
AcDbEntity
  8
0
  6
CONTINUOUS
100
AcDbLine
 10
44.09294529783919
 20
0.7804273153788639
 30
0.0
 11
44.99999999995498
 21
1.687482017494649
 31
0.0
  0
LINE
  5
AAB3
330
AA8D
100
AcDbEntity
  8
0
  6
CONTINUOUS
100
AcDbLine
 10
44.41040761041938
 20
0.4243704188788566
 30
0.0
 11
44.99999999995498
 21
1.013962808414463
 31
0.0
  0
LINE
  5
AAB4
330
AA8D
100
AcDbEntity
  8
0
  6
CONTINUOUS
100
AcDbLine
 10
44.72786992299955
 20
0.0683135223788494
 30
0.0
 11
44.99999999995498
 21
0.340443599334276
 31
0.0
  0
LINE
  5
AAB5
330
AA8D
100
AcDbEntity
  8
0
  6
CONTINUOUS
100
AcDbLine
 10
39.12223903415696
 20
-0.0000000000000009
 30
0.0
 11
38.60499999996136
 21
0.5172390341955961
 31
0.0
  0
LINE
  5
AAB6
330
AA8D
100
AcDbEntity
  8
0
  6
CONTINUOUS
100
AcDbLine
 10
39.79575824323715
 20
-0.0000000000000009
 30
0.0
 11
38.60499999996136
 21
1.190758243275783
 31
0.0
  0
LINE
  5
AAB7
330
AA8D
100
AcDbEntity
  8
0
  6
CONTINUOUS
100
AcDbLine
 10
40.02599999995994
 20
0.443277452357397
 30
0.0
 11
38.60499999996136
 21
1.864277452355969
 31
0.0
  0
LINE
  5
AAB8
330
AA8D
100
AcDbEntity
  8
0
  6
CONTINUOUS
100
AcDbLine
 10
40.02599999995994
 20
1.116796661437583
 30
0.0
 11
38.60499999996136
 21
2.537796661436155
 31
0.0
  0
LINE
  5
AAB9
330
AA8D
100
AcDbEntity
  8
0
  6
CONTINUOUS
100
AcDbLine
 10
40.02599999995994
 20
1.79031587051777
 30
0.0
 11
38.60499999996136
 21
3.211315870516341
 31
0.0
  0
LINE
  5
AABA
330
AA8D
100
AcDbEntity
  8
0
  6
CONTINUOUS
100
AcDbLine
 10
40.02599999995994
 20
2.463835079597956
 30
0.0
 11
38.60499999996136
 21
3.884835079596527
 31
0.0
  0
LINE
  5
AABB
330
AA8D
100
AcDbEntity
  8
0
  6
CONTINUOUS
100
AcDbLine
 10
40.02599999995994
 20
3.137354288678143
 30
0.0
 11
38.60499999996136
 21
4.558354288676714
 31
0.0
  0
LINE
  5
AABC
330
AA8D
100
AcDbEntity
  8
0
  6
CONTINUOUS
100
AcDbLine
 10
40.02599999995994
 20
3.810873497758329
 30
0.0
 11
38.60499999996136
 21
5.2318734977569
 31
0.0
  0
LINE
  5
AABD
330
AA8D
100
AcDbEntity
  8
0
  6
CONTINUOUS
100
AcDbLine
 10
40.02599999995994
 20
4.484392706838515
 30
0.0
 11
38.60499999996136
 21
5.905392706837086
 31
0.0
  0
LINE
  5
AABE
330
AA8D
100
AcDbEntity
  8
0
  6
CONTINUOUS
100
AcDbLine
 10
44.99999999995498
 20
0.183911915923658
 30
0.0
 11
41.53858364506288
 21
3.64532827081576
 31
0.0
  0
LINE
  5
AABF
330
AA8D
100
AcDbEntity
  8
0
  6
CONTINUOUS
100
AcDbLine
 10
40.02599999995994
 20
5.157911915918703
 30
0.0
 11
38.60499999996136
 21
6.578911915917274
 31
0.0
  0
LINE
  5
AAC0
330
AA8D
100
AcDbEntity
  8
0
  6
CONTINUOUS
100
AcDbLine
 10
44.99999999995498
 20
0.8574311250038447
 30
0.0
 11
38.60499999996136
 21
7.25243112499746
 31
0.0
  0
LINE
  5
AAC1
330
AA8D
100
AcDbEntity
  8
0
  6
CONTINUOUS
100
AcDbLine
 10
44.99999999995498
 20
1.530950334084031
 30
0.0
 11
38.60499999996136
 21
7.925950334077647
 31
0.0
  0
LINE
  5
AAC2
330
AA8D
100
AcDbEntity
  8
0
  6
CONTINUOUS
100
AcDbLine
 10
44.99999999995498
 20
2.204469543164218
 30
0.0
 11
43.57899999995641
 21
3.625469543162789
 31
0.0
  0
LINE
  5
AAC3
330
AA8D
100
AcDbEntity
  8
0
  6
CONTINUOUS
100
AcDbLine
 10
41.89876730984767
 20
5.305702233271528
 30
0.0
 11
38.60499999996136
 21
8.599469543157834
 31
0.0
  0
LINE
  5
AAC4
330
AA8D
100
AcDbEntity
  8
0
  6
CONTINUOUS
100
AcDbLine
 10
44.99999999995498
 20
2.877988752244405
 30
0.0
 11
43.57899999995641
 21
4.298988752242975
 31
0.0
  0
LINE
  5
AAC5
330
AA8D
100
AcDbEntity
  8
0
  6
CONTINUOUS
100
AcDbLine
 10
44.99999999995498
 20
3.551507961324591
 30
0.0
 11
43.57899999995641
 21
4.972507961323163
 31
0.0
  0
LINE
  5
AAC6
330
AA8D
100
AcDbEntity
  8
0
  6
CONTINUOUS
100
AcDbLine
 10
44.99999999995498
 20
4.225027170404777
 30
0.0
 11
43.57899999995641
 21
5.646027170403348
 31
0.0
  0
LINE
  5
AAC7
330
AA8D
100
AcDbEntity
  8
0
  6
CONTINUOUS
100
AcDbLine
 10
44.99999999995498
 20
4.898546379484964
 30
0.0
 11
43.57899999995641
 21
6.319546379483535
 31
0.0
  0
LINE
  5
AAC8
330
AA8D
100
AcDbEntity
  8
0
  6
CONTINUOUS
100
AcDbLine
 10
44.99999999995498
 20
5.572065588565151
 30
0.0
 11
43.57899999995641
 21
6.993065588563722
 31
0.0
  0
LINE
  5
AAC9
330
AA8D
100
AcDbEntity
  8
0
  6
CONTINUOUS
100
AcDbLine
 10
44.99999999995498
 20
6.245584797645336
 30
0.0
 11
43.57899999995641
 21
7.666584797643908
 31
0.0
  0
LINE
  5
AACA
330
AA8D
100
AcDbEntity
  8
0
  6
CONTINUOUS
100
AcDbLine
 10
44.99999999995498
 20
6.919104006725522
 30
0.0
 11
43.57899999995641
 21
8.340104006724093
 31
0.0
  0
LINE
  5
AACB
330
AA8D
100
AcDbEntity
  8
0
  6
CONTINUOUS
100
AcDbLine
 10
44.99999999995498
 20
7.592623215805709
 30
0.0
 11
43.82952321576943
 21
8.763099999991255
 31
0.0
  0
LINE
  5
AACC
330
AA8D
100
AcDbEntity
  8
0
  6
CONTINUOUS
100
AcDbLine
 10
44.99999999995498
 20
8.266142424885896
 30
0.0
 11
44.50304242484962
 21
8.763099999991255
 31
0.0
  0
ENDBLK
  5
AAF6
330
AA8D
100
AcDbEntity
  8
0
100
AcDbBlockEnd
  0
BLOCK
  5
AAF7
330
AACD
100
AcDbEntity
  8
0
100
AcDbBlockBegin
  2
*X92
 70
     1
 10
0.0
 20
0.0
 30
0.0
  3
*X92
  1

  0
LINE
  5
AACE
330
AACD
100
AcDbEntity
  8
0
  6
CONTINUOUS
100
AcDbLine
 10
0.0
 20
8.548461116714023
 30
0.0
 11
0.2146388832772324
 21
8.763099999991255
 31
0.0
  0
LINE
  5
AACF
330
AACD
100
AcDbEntity
  8
0
  6
CONTINUOUS
100
AcDbLine
 10
-0.0000000000000002
 20
7.874941907633837
 30
0.0
 11
0.8881580923574184
 21
8.763099999991255
 31
0.0
  0
LINE
  5
AAD0
330
AACD
100
AcDbEntity
  8
0
  6
CONTINUOUS
100
AcDbLine
 10
0.0
 20
7.20142269855365
 30
0.0
 11
1.420999999998572
 21
8.622422698552223
 31
0.0
  0
LINE
  5
AAD1
330
AACD
100
AcDbEntity
  8
0
  6
CONTINUOUS
100
AcDbLine
 10
-0.0000000000000001
 20
6.527903489473465
 30
0.0
 11
1.420999999998571
 21
7.948903489472036
 31
0.0
  0
LINE
  5
AAD2
330
AACD
100
AcDbEntity
  8
0
  6
CONTINUOUS
100
AcDbLine
 10
-0.0000000000000002
 20
5.854384280393278
 30
0.0
 11
1.420999999998571
 21
7.275384280391849
 31
0.0
  0
LINE
  5
AAD3
330
AACD
100
AcDbEntity
  8
0
  6
CONTINUOUS
100
AcDbLine
 10
-0.0000000000000002
 20
5.180865071313091
 30
0.0
 11
1.420999999998571
 21
6.601865071311663
 31
0.0
  0
LINE
  5
AAD4
330
AACD
100
AcDbEntity
  8
0
  6
CONTINUOUS
100
AcDbLine
 10
0.0
 20
4.507345862232905
 30
0.0
 11
1.420999999998571
 21
5.928345862231477
 31
0.0
  0
LINE
  5
AAD5
330
AACD
100
AcDbEntity
  8
0
  6
CONTINUOUS
100
AcDbLine
 10
-0.0000000000000003
 20
3.833826653152718
 30
0.0
 11
1.420999999998571
 21
5.25482665315129
 31
0.0
  0
LINE
  5
AAD6
330
AACD
100
AcDbEntity
  8
0
  6
CONTINUOUS
100
AcDbLine
 10
-0.0000000000000002
 20
3.160307444072532
 30
0.0
 11
1.420999999998571
 21
4.581307444071103
 31
0.0
  0
LINE
  5
AAD7
330
AACD
100
AcDbEntity
  8
0
  6
CONTINUOUS
100
AcDbLine
 10
-0.0000000000000001
 20
2.486788234992345
 30
0.0
 11
1.420999999998571
 21
3.907788234990917
 31
0.0
  0
LINE
  5
AAD8
330
AACD
100
AcDbEntity
  8
0
  6
CONTINUOUS
100
AcDbLine
 10
-0.0000000000000006
 20
1.813269025912159
 30
0.0
 11
1.420999999998571
 21
3.234269025910731
 31
0.0
  0
LINE
  5
AAD9
330
AACD
100
AcDbEntity
  8
0
  6
CONTINUOUS
100
AcDbLine
 10
0.0
 20
1.139749816831973
 30
0.0
 11
1.420999999998571
 21
2.560749816830544
 31
0.0
  0
LINE
  5
AADA
330
AACD
100
AcDbEntity
  8
0
  6
CONTINUOUS
100
AcDbLine
 10
0.0000000000000002
 20
0.466230607751787
 30
0.0
 11
1.420999999998571
 21
1.887230607750358
 31
0.0
  0
LINE
  5
AADB
330
AACD
100
AcDbEntity
  8
0
  6
CONTINUOUS
100
AcDbLine
 10
0.2072886013284003
 20
-0.0000000000000009
 30
0.0
 11
1.420999999998571
 21
1.213711398670171
 31
0.0
  0
LINE
  5
AADC
330
AACD
100
AcDbEntity
  8
0
  6
CONTINUOUS
100
AcDbLine
 10
0.8808078104085864
 20
-0.0000000000000009
 30
0.0
 11
1.420999999998571
 21
0.5401921895899839
 31
0.0
  0
LINE
  5
AADD
330
AACD
100
AcDbEntity
  8
0
  6
CONTINUOUS
100
AcDbLine
 10
0.0581249075061505
 20
-0.0000000000000009
 30
0.0
 11
-0.0000000000000002
 21
0.0581249075061496
 31
0.0
  0
LINE
  5
AADE
330
AACD
100
AcDbEntity
  8
0
  6
CONTINUOUS
100
AcDbLine
 10
0.7316441165863372
 20
-0.0000000000000009
 30
0.0
 11
-0.0000000000000002
 21
0.7316441165863363
 31
0.0
  0
LINE
  5
AADF
330
AACD
100
AcDbEntity
  8
0
  6
CONTINUOUS
100
AcDbLine
 10
1.405163325666523
 20
-0.0000000000000009
 30
0.0
 11
-0.0000000000000002
 21
1.405163325666523
 31
0.0
  0
LINE
  5
AAE0
330
AACD
100
AcDbEntity
  8
0
  6
CONTINUOUS
100
AcDbLine
 10
1.420999999998572
 20
0.6576825347481381
 30
0.0
 11
-0.0000000000000001
 21
2.07868253474671
 31
0.0
  0
LINE
  5
AAE1
330
AACD
100
AcDbEntity
  8
0
  6
CONTINUOUS
100
AcDbLine
 10
1.420999999998571
 20
1.331201743828324
 30
0.0
 11
-0.0000000000000001
 21
2.752201743826896
 31
0.0
  0
LINE
  5
AAE2
330
AACD
100
AcDbEntity
  8
0
  6
CONTINUOUS
100
AcDbLine
 10
1.420999999998571
 20
2.004720952908511
 30
0.0
 11
-0.0000000000000002
 21
3.425720952907082
 31
0.0
  0
LINE
  5
AAE3
330
AACD
100
AcDbEntity
  8
0
  6
CONTINUOUS
100
AcDbLine
 10
1.420999999998571
 20
2.678240161988697
 30
0.0
 11
-0.0000000000000001
 21
4.099240161987269
 31
0.0
  0
LINE
  5
AAE4
330
AACD
100
AcDbEntity
  8
0
  6
CONTINUOUS
100
AcDbLine
 10
1.420999999998572
 20
3.351759371068884
 30
0.0
 11
0.0
 21
4.772759371067455
 31
0.0
  0
LINE
  5
AAE5
330
AACD
100
AcDbEntity
  8
0
  6
CONTINUOUS
100
AcDbLine
 10
1.420999999998571
 20
4.02527858014907
 30
0.0
 11
-0.0000000000000003
 21
5.446278580147642
 31
0.0
  0
LINE
  5
AAE6
330
AACD
100
AcDbEntity
  8
0
  6
CONTINUOUS
100
AcDbLine
 10
1.420999999998571
 20
4.698797789229257
 30
0.0
 11
0.0
 21
6.119797789227828
 31
0.0
  0
LINE
  5
AAE7
330
AACD
100
AcDbEntity
  8
0
  6
CONTINUOUS
100
AcDbLine
 10
1.420999999998571
 20
5.372316998309444
 30
0.0
 11
-0.0000000000000001
 21
6.793316998308015
 31
0.0
  0
LINE
  5
AAE8
330
AACD
100
AcDbEntity
  8
0
  6
CONTINUOUS
100
AcDbLine
 10
1.420999999998572
 20
6.045836207389629
 30
0.0
 11
-0.0000000000000004
 21
7.466836207388202
 31
0.0
  0
LINE
  5
AAE9
330
AACD
100
AcDbEntity
  8
0
  6
CONTINUOUS
100
AcDbLine
 10
1.420999999998571
 20
6.719355416469816
 30
0.0
 11
0.0
 21
8.140355416468388
 31
0.0
  0
LINE
  5
AAEA
330
AACD
100
AcDbEntity
  8
0
  6
CONTINUOUS
100
AcDbLine
 10
1.420999999998571
 20
7.392874625550003
 30
0.0
 11
0.0507746255573185
 21
8.763099999991255
 31
0.0
  0
LINE
  5
AAEB
330
AACD
100
AcDbEntity
  8
0
  6
CONTINUOUS
100
AcDbLine
 10
1.420999999998571
 20
8.06639383463019
 30
0.0
 11
0.7242938346375052
 21
8.763099999991255
 31
0.0
  0
LINE
  5
AAEC
330
AACD
100
AcDbEntity
  8
0
  6
CONTINUOUS
100
AcDbLine
 10
1.420999999998571
 20
8.739913043710375
 30
0.0
 11
1.397813043717691
 21
8.763099999991255
 31
0.0
  0
ENDBLK
  5
AAF8
330
AACD
100
AcDbEntity
  8
0
100
AcDbBlockEnd
  0
ENDSEC
  0
SECTION
  2
ENTITIES
  0
TEXT
  5
31B5
330
18
100
AcDbEntity
  8
1TEXT
100
AcDbText
 10
-216.1765560045907
 20
-243.4782948112651
 30
0.0
 40
7.0
  1
PC-143-XXF
 41
1.0098214
100
AcDbText
  0
LINE
  5
8524
330
18
100
AcDbEntity
  8
01
100
AcDbLine
 10
-214.6954766491399
 20
-287.6615436619862
 30
0.0
 11
-116.6954766491399
 21
-287.6615436619862
 31
0.0
  0
LINE
  5
8525
330
18
100
AcDbEntity
  8
01
100
AcDbLine
 10
-214.6954766491399
 20
-324.6615436619862
 30
0.0
 11
-116.6954766491399
 21
-324.6615436619862
 31
0.0
  0
LINE
  5
8526
330
18
100
AcDbEntity
  8
01
100
AcDbLine
 10
-116.6954766491399
 20
-287.6615436619862
 30
0.0
 11
-116.6954766491399
 21
-324.6615436619862
 31
0.0
  0
LINE
  5
8527
330
18
100
AcDbEntity
  8
01
100
AcDbLine
 10
-214.6954766491399
 20
-287.6615436619862
 30
0.0
 11
-214.6954766491399
 21
-324.6615436619862
 31
0.0
  0
LINE
  5
8528
330
18
100
AcDbEntity
  8
01
100
AcDbLine
 10
-205.6954766491399
 20
-302.6615436619862
 30
0.0
 11
-205.6954766491399
 21
-316.6615436619862
 31
0.0
  0
LINE
  5
8529
330
18
100
AcDbEntity
  8
01
100
AcDbLine
 10
-125.6954766491399
 20
-302.6615436619862
 30
0.0
 11
-125.6954766491399
 21
-316.6615436619862
 31
0.0
  0
LINE
  5
852A
330
18
100
AcDbEntity
  8
01
100
AcDbLine
 10
-202.6954766491399
 20
-299.6615436619862
 30
0.0
 11
-128.6954766491399
 21
-299.6615436619862
 31
0.0
  0
LINE
  5
852B
330
18
100
AcDbEntity
  8
01
100
AcDbLine
 10
-202.6954766491399
 20
-319.6615436619862
 30
0.0
 11
-128.6954766491399
 21
-319.6615436619862
 31
0.0
  0
LINE
  5
852C
330
18
100
AcDbEntity
  8
01
100
AcDbLine
 10
-214.3954766491401
 20
-368.9944267565178
 30
0.0
 11
-116.99547664914
 21
-368.9944267565178
 31
0.0
  0
LINE
  5
852D
330
18
100
AcDbEntity
  8
01
100
AcDbLine
 10
-211.3113481847309
 20
-381.4944267565178
 30
0.0
 11
-120.0796051135492
 21
-381.4944267565178
 31
0.0
  0
LINE
  5
852E
330
18
100
AcDbEntity
  8
01
100
AcDbLine
 10
-214.69547664914
 20
-370.4944267565178
 30
0.0
 11
-116.69547664914
 21
-370.4944267565178
 31
0.0
  0
LINE
  5
8531
330
18
100
AcDbEntity
  8
01
100
AcDbLine
 10
-214.69547664914
 20
-369.2944267565178
 30
0.0
 11
-214.69547664914
 21
-370.4944267565178
 31
0.0
  0
LINE
  5
8532
330
18
100
AcDbEntity
  8
01
100
AcDbLine
 10
-116.69547664914
 20
-369.2944267565179
 30
0.0
 11
-116.69547664914
 21
-370.4944267565178
 31
0.0
  0
LINE
  5
8533
330
18
100
AcDbEntity
  8
01
100
AcDbLine
 10
-66.65291687248012
 20
-287.9615436619859
 30
0.0
 11
-66.65291687248012
 21
-324.3615436619859
 31
0.0
  0
LINE
  5
8534
330
18
100
AcDbEntity
  8
01
100
AcDbLine
 10
-54.15291687248012
 20
-291.0456721263951
 30
0.0
 11
-54.15291687248012
 21
-321.2774151975767
 31
0.0
  0
LINE
  5
8535
330
18
100
AcDbEntity
  8
01
100
AcDbLine
 10
-65.15291687248012
 20
-287.6615436619859
 30
0.0
 11
-65.15291687248012
 21
-324.6615436619859
 31
0.0
  0
LINE
  5
8536
330
18
100
AcDbEntity
  8
01
100
AcDbLine
 10
-66.35291687248017
 20
-287.6615436619859
 30
0.0
 11
-65.15291687248012
 21
-287.6615436619859
 31
0.0
  0
LINE
  5
8537
330
18
100
AcDbEntity
  8
01
100
AcDbLine
 10
-66.35291687248017
 20
-324.6615436619859
 30
0.0
 11
-65.15291687248012
 21
-324.6615436619859
 31
0.0
  0
LINE
  5
8539
330
18
100
AcDbEntity
  8
01
100
AcDbLine
 10
-60.15291687248012
 20
-289.1615436619859
 30
0.0
 11
-60.15291687248012
 21
-290.8361475094446
 31
0.0
  0
LINE
  5
853A
330
18
100
AcDbEntity
  8
01
100
AcDbLine
 10
-191.69547664914
 20
-375.4944267565178
 30
0.0
 11
-189.69547664914
 21
-375.4944267565178
 31
0.0
  0
LINE
  5
853D
330
18
100
AcDbEntity
  8
01
100
AcDbLine
 10
-141.69547664914
 20
-375.4944267565178
 30
0.0
 11
-139.69547664914
 21
-375.4944267565178
 31
0.0
  0
LINE
  5
853E
330
18
100
AcDbEntity
  8
01
100
AcDbLine
 10
-191.69547664914
 20
-375.4944267565178
 30
0.0
 11
-190.69547664914
 21
-377.4944267565178
 31
0.0
  0
LINE
  5
853F
330
18
100
AcDbEntity
  8
01
100
AcDbLine
 10
-190.69547664914
 20
-377.4944267565178
 30
0.0
 11
-189.69547664914
 21
-375.4944267565178
 31
0.0
  0
LINE
  5
8540
330
18
100
AcDbEntity
  8
01
100
AcDbLine
 10
-141.69547664914
 20
-375.4944267565178
 30
0.0
 11
-140.69547664914
 21
-377.4944267565178
 31
0.0
  0
LINE
  5
8541
330
18
100
AcDbEntity
  8
01
100
AcDbLine
 10
-140.69547664914
 20
-377.4944267565178
 30
0.0
 11
-139.69547664914
 21
-375.4944267565178
 31
0.0
  0
ARC
  5
8542
330
18
100
AcDbEntity
  8
01
100
AcDbCircle
 10
-214.3954766491401
 20
-369.2944267565179
 30
0.0
 40
0.3
100
AcDbArc
 50
90.0
 51
180.0
  0
ARC
  5
8543
330
18
100
AcDbEntity
  8
01
100
AcDbCircle
 10
-116.99547664914
 20
-369.2944267565179
 30
0.0
 40
0.3
100
AcDbArc
 50
0.0
 51
90.0
  0
ARC
  5
8544
330
18
100
AcDbEntity
  8
01
100
AcDbCircle
 10
-66.35291687248017
 20
-324.3615436619859
 30
0.0
 40
0.3
100
AcDbArc
 50
180.0
 51
270.0
  0
ARC
  5
8545
330
18
100
AcDbEntity
  8
01
100
AcDbCircle
 10
-66.35291687248017
 20
-287.9615436619859
 30
0.0
 40
0.3
100
AcDbArc
 50
90.0
 51
180.0
  0
LINE
  5
8546
330
18
100
AcDbEntity
  8
1CENTER
100
AcDbLine
 10
-60.45291687248007
 20
-300.4115436619859
 30
0.0
 11
-60.45291687248007
 21
-311.9115436619859
 31
0.0
  0
ARC
  5
8548
330
18
100
AcDbEntity
  8
01
100
AcDbCircle
 10
-202.6954766491399
 20
-302.6615436619862
 30
0.0
 40
3.0
100
AcDbArc
 50
90.0
 51
180.0
  0
ARC
  5
8549
330
18
100
AcDbEntity
  8
01
100
AcDbCircle
 10
-202.6954766491399
 20
-316.6615436619862
 30
0.0
 40
3.0
100
AcDbArc
 50
180.0
 51
270.0
  0
ARC
  5
854A
330
18
100
AcDbEntity
  8
01
100
AcDbCircle
 10
-128.6954766491399
 20
-316.6615436619862
 30
0.0
 40
3.0
100
AcDbArc
 50
270.0
 51
0.0
  0
ARC
  5
854B
330
18
100
AcDbEntity
  8
01
100
AcDbCircle
 10
-128.6954766491399
 20
-302.6615436619862
 30
0.0
 40
3.0
100
AcDbArc
 50
0.0
 51
90.0
  0
LINE
  5
854C
330
18
100
AcDbEntity
  8
01
100
AcDbLine
 10
-214.69547664914
 20
-401.5433294636731
 30
0.0
 11
-116.69547664914
 21
-401.5433294636731
 31
0.0
  0
LINE
  5
854D
330
18
100
AcDbEntity
  8
01
100
AcDbLine
 10
-214.69547664914
 20
-438.5433294636731
 30
0.0
 11
-116.69547664914
 21
-438.5433294636731
 31
0.0
  0
LINE
  5
854E
330
18
100
AcDbEntity
  8
01
100
AcDbLine
 10
-214.69547664914
 20
-438.5433294636731
 30
0.0
 11
-214.69547664914
 21
-401.5433294636731
 31
0.0
  0
LINE
  5
8550
330
18
100
AcDbEntity
  8
01
100
AcDbLine
 10
-116.69547664914
 20
-438.5433294636731
 30
0.0
 11
-116.69547664914
 21
-401.5433294636731
 31
0.0
  0
LINE
  5
8551
330
18
100
AcDbEntity
  8
01
100
AcDbLine
 10
-208.69547664914
 20
-435.5433294636731
 30
0.0
 11
-122.69547664914
 21
-435.5433294636731
 31
0.0
  0
LINE
  5
8552
330
18
100
AcDbEntity
  8
01
100
AcDbLine
 10
-208.69547664914
 20
-404.5433294636731
 30
0.0
 11
-122.69547664914
 21
-404.5433294636731
 31
0.0
  0
LINE
  5
8553
330
18
100
AcDbEntity
  8
01
100
AcDbLine
 10
-119.69547664914
 20
-432.5433294636731
 30
0.0
 11
-119.69547664914
 21
-407.5433294636731
 31
0.0
  0
LINE
  5
8554
330
18
100
AcDbEntity
  8
01
100
AcDbLine
 10
-211.69547664914
 20
-432.5433294636731
 30
0.0
 11
-211.69547664914
 21
-407.5433294636731
 31
0.0
  0
ARC
  5
8555
330
18
100
AcDbEntity
  8
01
100
AcDbCircle
 10
-122.69547664914
 20
-432.5433294636731
 30
0.0
 40
3.0
100
AcDbArc
 50
270.0
 51
0.0
  0
ARC
  5
8556
330
18
100
AcDbEntity
  8
01
100
AcDbCircle
 10
-208.69547664914
 20
-432.5433294636731
 30
0.0
 40
3.0
100
AcDbArc
 50
180.0
 51
270.0
  0
ARC
  5
8557
330
18
100
AcDbEntity
  8
01
100
AcDbCircle
 10
-208.69547664914
 20
-407.5433294636731
 30
0.0
 40
3.0
100
AcDbArc
 50
90.0
 51
180.0
  0
ARC
  5
8558
330
18
100
AcDbEntity
  8
01
100
AcDbCircle
 10
-122.69547664914
 20
-407.5433294636731
 30
0.0
 40
3.0
100
AcDbArc
 50
0.0
 51
90.0
  0
CIRCLE
  5
8559
330
18
100
AcDbEntity
  8
01
100
AcDbCircle
 10
-123.19547664914
 20
-429.0433294636731
 30
0.0
 40
2.0
  0
CIRCLE
  5
855A
330
18
100
AcDbEntity
  8
01
100
AcDbCircle
 10
-123.19547664914
 20
-429.0433294636731
 30
0.0
 40
1.75
  0
POINT
  5
855B
330
18
100
AcDbEntity
  8
01
100
AcDbPoint
 10
-123.19547664914
 20
-429.0433294636731
 30
0.0
  0
LINE
  5
855C
330
18
100
AcDbEntity
  8
1CENTER
100
AcDbLine
 10
-126.19547664914
 20
-429.0433294636731
 30
0.0
 11
-120.19547664914
 21
-429.0433294636731
 31
0.0
  0
LINE
  5
855D
330
18
100
AcDbEntity
  8
1CENTER
100
AcDbLine
 10
-123.19547664914
 20
-432.0433294636731
 30
0.0
 11
-123.19547664914
 21
-426.0433294636731
 31
0.0
  0
LINE
  5
855E
330
18
100
AcDbEntity
  8
1CENTER
100
AcDbLine
 10
-205.19547664914
 20
-429.0433294636731
 30
0.0
 11
-211.19547664914
 21
-429.0433294636731
 31
0.0
  0
CIRCLE
  5
855F
330
18
100
AcDbEntity
  8
01
100
AcDbCircle
 10
-208.19547664914
 20
-429.0433294636731
 30
0.0
 40
1.75
  0
CIRCLE
  5
8560
330
18
100
AcDbEntity
  8
01
100
AcDbCircle
 10
-208.19547664914
 20
-429.0433294636731
 30
0.0
 40
2.0
  0
LINE
  5
8561
330
18
100
AcDbEntity
  8
1CENTER
100
AcDbLine
 10
-208.19547664914
 20
-432.0433294636731
 30
0.0
 11
-208.19547664914
 21
-426.0433294636731
 31
0.0
  0
POINT
  5
8562
330
18
100
AcDbEntity
  8
01
100
AcDbPoint
 10
-208.19547664914
 20
-429.0433294636731
 30
0.0
  0
POINT
  5
8563
330
18
100
AcDbEntity
  8
01
100
AcDbPoint
 10
-208.193783412214
 20
-417.043332965685
 30
0.0
  0
LINE
  5
8565
330
18
100
AcDbEntity
  8
01
100
AcDbLine
 10
-139.69547664914
 20
-404.5433294636731
 30
0.0
 11
-140.69547664914
 21
-403.0433294636731
 31
0.0
  0
LINE
  5
8566
330
18
100
AcDbEntity
  8
01
100
AcDbLine
 10
-140.69547664914
 20
-403.0433294636731
 30
0.0
 11
-141.69547664914
 21
-404.5433294636731
 31
0.0
  0
LINE
  5
8567
330
18
100
AcDbEntity
  8
01
100
AcDbLine
 10
-191.69547664914
 20
-404.5433294636731
 30
0.0
 11
-190.69547664914
 21
-403.0433294636731
 31
0.0
  0
LINE
  5
8568
330
18
100
AcDbEntity
  8
01
100
AcDbLine
 10
-190.69547664914
 20
-403.0433294636731
 30
0.0
 11
-189.69547664914
 21
-404.5433294636731
 31
0.0
  0
LINE
  5
856A
330
18
100
AcDbEntity
  8
01
100
AcDbLine
 10
-139.69547664914
 20
-435.5433294636731
 30
0.0
 11
-140.69547664914
 21
-437.0433294636731
 31
0.0
  0
LINE
  5
856B
330
18
100
AcDbEntity
  8
01
100
AcDbLine
 10
-140.69547664914
 20
-437.0433294636731
 30
0.0
 11
-141.69547664914
 21
-435.5433294636731
 31
0.0
  0
LINE
  5
856D
330
18
100
AcDbEntity
  8
01
100
AcDbLine
 10
-191.69547664914
 20
-435.5433294636731
 30
0.0
 11
-190.69547664914
 21
-437.0433294636731
 31
0.0
  0
LINE
  5
856F
330
18
100
AcDbEntity
  8
01
100
AcDbLine
 10
-190.69547664914
 20
-437.0433294636731
 30
0.0
 11
-189.69547664914
 21
-435.5433294636731
 31
0.0
  0
LINE
  5
8574
330
18
100
AcDbEntity
  8
01
100
AcDbLine
 10
-53.15291687248012
 20
-291.0456721263951
 30
0.0
 11
-53.15291687248012
 21
-321.2774151975767
 31
0.0
  0
CIRCLE
  5
8575
330
18
100
AcDbEntity
  8
01
100
AcDbCircle
 10
-123.19547664914
 20
-429.0433294636731
 30
0.0
 40
2.5
  0
CIRCLE
  5
8576
330
18
100
AcDbEntity
  8
01
100
AcDbCircle
 10
-123.19722282136
 20
-423.0433259612918
 30
0.0
 40
2.5
  0
POINT
  5
8577
330
18
100
AcDbEntity
  8
01
100
AcDbPoint
 10
-123.19722282136
 20
-423.0433259612918
 30
0.0
  0
LINE
  5
857A
330
18
100
AcDbEntity
  8
01
100
AcDbLine
 10
-124.8981827161828
 20
-423.5450202277995
 30
0.0
 11
-123.6989536183211
 21
-423.5450285988799
 31
0.0
  0
LINE
  5
857B
330
18
100
AcDbEntity
  8
01
100
AcDbLine
 10
-123.6989452472896
 20
-424.74425069268
 30
0.0
 11
-122.6955533307245
 21
-424.7442576967416
 31
0.0
  0
LINE
  5
857C
330
18
100
AcDbEntity
  8
01
100
AcDbLine
 10
-123.6989452472896
 20
-424.74425069268
 30
0.0
 11
-123.6989536183211
 21
-423.5450285988799
 31
0.0
  0
LINE
  5
857D
330
18
100
AcDbEntity
  8
01
100
AcDbLine
 10
-124.8981757121211
 20
-422.5416283112344
 30
0.0
 11
-124.8981827161828
 21
-423.5450202277995
 31
0.0
  0
LINE
  5
857E
330
18
100
AcDbEntity
  8
01
100
AcDbLine
 10
-124.8981757121211
 20
-422.5416283112344
 30
0.0
 11
-123.6989606224994
 21
-422.5416199402517
 31
0.0
  0
LINE
  5
857F
330
18
100
AcDbEntity
  8
01
100
AcDbLine
 10
-123.6989606224994
 20
-422.5416199402517
 30
0.0
 11
-123.6989689935801
 21
-421.3423908421754
 31
0.0
  0
LINE
  5
8580
330
18
100
AcDbEntity
  8
01
100
AcDbLine
 10
-122.6955379554167
 20
-422.5416129359755
 30
0.0
 11
-121.4963158616166
 21
-422.541604564944
 31
0.0
  0
LINE
  5
8581
330
18
100
AcDbEntity
  8
01
100
AcDbLine
 10
-122.6955379554167
 20
-422.5416129359755
 30
0.0
 11
-122.695529584434
 21
-421.3423978465685
 31
0.0
  0
LINE
  5
8582
330
18
100
AcDbEntity
  8
01
100
AcDbLine
 10
-122.695529584434
 20
-421.3423978465685
 30
0.0
 11
-123.6989689935801
 21
-421.3423908421754
 31
0.0
  0
LINE
  5
8583
330
18
100
AcDbEntity
  8
01
100
AcDbLine
 10
-122.695544959693
 20
-423.5450356030584
 30
0.0
 11
-121.4963228660096
 21
-423.5450439740899
 31
0.0
  0
LINE
  5
8584
330
18
100
AcDbEntity
  8
01
100
AcDbLine
 10
-121.4963228660096
 20
-423.5450439740899
 30
0.0
 11
-121.4963158616166
 21
-422.541604564944
 31
0.0
  0
LINE
  5
8585
330
18
100
AcDbEntity
  8
01
100
AcDbLine
 10
-122.6955533307245
 20
-424.7442576967416
 30
0.0
 11
-122.695544959693
 21
-423.5450356030584
 31
0.0
  0
LINE
  5
8586
330
18
100
AcDbEntity
  8
01
100
AcDbLine
 10
-207.6920985462708
 20
-416.5416199403687
 30
0.0
 11
-206.4928764524708
 21
-416.5416115693372
 31
0.0
  0
LINE
  5
8587
330
18
100
AcDbEntity
  8
01
100
AcDbLine
 10
-207.6921055505469
 20
-417.5450426074515
 30
0.0
 11
-206.4928834568638
 21
-417.545050978483
 31
0.0
  0
CIRCLE
  5
8589
330
18
100
AcDbEntity
  8
01
100
AcDbCircle
 10
-208.193783412214
 20
-417.043332965685
 30
0.0
 40
2.5
  0
LINE
  5
858A
330
18
100
AcDbEntity
  8
01
100
AcDbLine
 10
-206.4928834568638
 20
-417.545050978483
 30
0.0
 11
-206.4928764524708
 21
-416.5416115693372
 31
0.0
  0
LINE
  5
858B
330
18
100
AcDbEntity
  8
01
100
AcDbLine
 10
-209.8947363029753
 20
-416.5416353156276
 30
0.0
 11
-209.8947433070367
 21
-417.5450272321926
 31
0.0
  0
POINT
  5
858D
330
18
100
AcDbEntity
  8
01
100
AcDbPoint
 10
-208.193783412214
 20
-417.043332965685
 30
0.0
  0
LINE
  5
858E
330
18
100
AcDbEntity
  8
01
100
AcDbLine
 10
-209.8947363029753
 20
-416.5416353156276
 30
0.0
 11
-208.6955212133536
 21
-416.5416269446449
 31
0.0
  0
LINE
  5
858F
330
18
100
AcDbEntity
  8
01
100
AcDbLine
 10
-208.6955212133536
 20
-416.5416269446449
 30
0.0
 11
-208.695529584434
 21
-415.3423978465686
 31
0.0
  0
LINE
  5
8590
330
18
100
AcDbEntity
  8
01
100
AcDbLine
 10
-207.6920985462708
 20
-416.5416199403687
 30
0.0
 11
-207.6920901752882
 21
-415.3424048509617
 31
0.0
  0
LINE
  5
8591
330
18
100
AcDbEntity
  8
01
100
AcDbLine
 10
-207.6920901752882
 20
-415.3424048509617
 30
0.0
 11
-208.695529584434
 21
-415.3423978465686
 31
0.0
  0
LINE
  5
8592
330
18
100
AcDbEntity
  8
01
100
AcDbLine
 10
-209.8947433070367
 20
-417.5450272321926
 30
0.0
 11
-208.6955142091753
 21
-417.545035603273
 31
0.0
  0
LINE
  5
8593
330
18
100
AcDbEntity
  8
01
100
AcDbLine
 10
-208.6955058381438
 20
-418.7442576970732
 30
0.0
 11
-207.6921139215787
 21
-418.7442647011347
 31
0.0
  0
LINE
  5
8594
330
18
100
AcDbEntity
  8
01
100
AcDbLine
 10
-208.6955058381438
 20
-418.7442576970732
 30
0.0
 11
-208.6955142091753
 21
-417.545035603273
 31
0.0
  0
LINE
  5
8595
330
18
100
AcDbEntity
  8
01
100
AcDbLine
 10
-207.6921139215787
 20
-418.7442647011347
 30
0.0
 11
-207.6921055505469
 21
-417.5450426074515
 31
0.0
  0
LINE
  5
85E3
330
18
100
AcDbEntity
  8
01
100
AcDbLine
 10
-65.15291687248035
 20
-290.6615436619859
 30
0.0
 11
-54.15291687248012
 21
-291.0456721263951
 31
0.0
  0
LINE
  5
85E4
330
18
100
AcDbEntity
  8
01
100
AcDbLine
 10
-65.15291687248046
 20
-321.6615436619859
 30
0.0
 11
-54.15291687248012
 21
-321.2774151975767
 31
0.0
  0
LINE
  5
85E5
330
18
100
AcDbEntity
  8
01
100
AcDbLine
 10
-58.15291687248012
 20
-290.9059890484281
 30
0.0
 11
-60.15291687248012
 21
-289.1615436619859
 31
0.0
  0
LINE
  5
85E6
330
18
100
AcDbEntity
  8
01
100
AcDbLine
 10
-54.15291687248012
 20
-291.0456721263951
 30
0.0
 11
-53.15291687248012
 21
-291.0456721263951
 31
0.0
  0
LINE
  5
85E7
330
18
100
AcDbEntity
  8
01
100
AcDbLine
 10
-58.15291687248012
 20
-321.4170982755437
 30
0.0
 11
-60.15291687248012
 21
-323.1615436619859
 31
0.0
  0
LINE
  5
85E8
330
18
100
AcDbEntity
  8
01
100
AcDbLine
 10
-60.15291687248012
 20
-323.1615436619859
 30
0.0
 11
-60.15291687248012
 21
-321.4869398145272
 31
0.0
  0
LINE
  5
85E9
330
18
100
AcDbEntity
  8
01
100
AcDbLine
 10
-54.15291687248012
 20
-321.2774151975767
 30
0.0
 11
-53.15291687248012
 21
-321.2774151975767
 31
0.0
  0
LINE
  5
85EA
330
18
100
AcDbEntity
  8
01
100
AcDbLine
 10
-208.3113766491398
 20
-435.1592009992639
 30
0.0
 11
-123.0795766491398
 21
-435.1592009992638
 31
0.0
  0
LINE
  5
85EB
330
18
100
AcDbEntity
  8
01
100
AcDbLine
 10
-208.3113766491398
 20
-404.9274579280824
 30
0.0
 11
-123.0795766491398
 21
-404.9274579280824
 31
0.0
  0
LINE
  5
85EC
330
18
100
AcDbEntity
  8
01
100
AcDbLine
 10
-211.69547664914
 20
-370.4944267565178
 30
0.0
 11
-211.3113481847309
 21
-381.4944267565178
 31
0.0
  0
LINE
  5
85ED
330
18
100
AcDbEntity
  8
01
100
AcDbLine
 10
-211.3113481847309
 20
-382.4944267565178
 30
0.0
 11
-120.0796051135492
 21
-382.4944267565178
 31
0.0
  0
LINE
  5
85EE
330
18
100
AcDbEntity
  8
01
100
AcDbLine
 10
-211.3113481847309
 20
-381.4944267565178
 30
0.0
 11
-211.3113481847309
 21
-382.4944267565178
 31
0.0
  0
LINE
  5
85EF
330
18
100
AcDbEntity
  8
01
100
AcDbLine
 10
-119.69547664914
 20
-370.494426756518
 30
0.0
 11
-120.0796051135492
 21
-381.4944267565178
 31
0.0
  0
LINE
  5
85F0
330
18
100
AcDbEntity
  8
01
100
AcDbLine
 10
-120.0796051135492
 20
-381.494426756518
 30
0.0
 11
-120.0796051135492
 21
-382.4944267565178
 31
0.0
  0
LINE
  5
85F1
330
18
100
AcDbEntity
  8
01
100
AcDbLine
 10
-120.0795766491398
 20
-432.1592009992638
 30
0.0
 11
-120.0795766491398
 21
-407.9274579280824
 31
0.0
  0
LINE
  5
85F2
330
18
100
AcDbEntity
  8
01
100
AcDbLine
 10
-211.3113766491398
 20
-432.1592009992639
 30
0.0
 11
-211.3113766491398
 21
-407.9274579280824
 31
0.0
  0
ARC
  5
85F3
330
18
100
AcDbEntity
  8
01
100
AcDbCircle
 10
-123.0795766491398
 20
-432.1592009992638
 30
0.0
 40
3.0
100
AcDbArc
 50
270.0
 51
0.0
  0
ARC
  5
85F4
330
18
100
AcDbEntity
  8
01
100
AcDbCircle
 10
-123.0795766491398
 20
-407.9274579280824
 30
0.0
 40
3.0
100
AcDbArc
 50
0.0
 51
90.0
  0
ARC
  5
85F5
330
18
100
AcDbEntity
  8
01
100
AcDbCircle
 10
-208.3113766491398
 20
-407.9274579280824
 30
0.0
 40
3.0
100
AcDbArc
 50
90.0
 51
180.0
  0
ARC
  5
85F6
330
18
100
AcDbEntity
  8
01
100
AcDbCircle
 10
-208.3113766491398
 20
-432.1592009992639
 30
0.0
 40
3.0
100
AcDbArc
 50
180.0
 51
270.0
  0
POINT
  5
8610
330
18
100
AcDbEntity
  8
1CENTER
100
AcDbPoint
 10
-53.15291687248012
 20
-321.2774151975767
 30
0.0
  0
LINE
  5
8615
330
18
100
AcDbEntity
  8
01
100
AcDbLine
 10
-54.15291687248012
 20
-321.2774151975767
 30
0.0
 11
-53.15291687248012
 21
-321.2774151975767
 31
0.0
  0
CIRCLE
  5
868B
330
18
100
AcDbEntity
  8
01
100
AcDbCircle
 10
-208.19547664914
 20
-429.0433294636731
 30
0.0
 40
2.499999999999923
  0
LINE
  5
8CCC
330
18
100
AcDbEntity
  8
1CENTER
100
AcDbLine
 10
-56.80009272301018
 20
-306.1615436619859
 30
0.0
 11
-63.9968045015369
 21
-306.1615436619859
 31
0.0
  0
LINE
  5
9020
330
18
100
AcDbEntity
  8
1CENTER
100
AcDbLine
 10
-126.1954766491399
 20
-297.1615436619862
 30
0.0
 11
-120.1954766491399
 21
-297.1615436619862
 31
0.0
  0
LINE
  5
9021
330
18
100
AcDbEntity
  8
1CENTER
100
AcDbLine
 10
-123.1954766491399
 20
-294.1615436619862
 30
0.0
 11
-123.1954766491399
 21
-300.1615436619862
 31
0.0
  0
LINE
  5
9022
330
18
100
AcDbEntity
  8
1CENTER
100
AcDbLine
 10
-205.1954766491399
 20
-297.1615436619862
 30
0.0
 11
-211.1954766491399
 21
-297.1615436619862
 31
0.0
  0
LINE
  5
9025
330
18
100
AcDbEntity
  8
1CENTER
100
AcDbLine
 10
-208.1954766491399
 20
-294.1615436619862
 30
0.0
 11
-208.1954766491399
 21
-300.1615436619862
 31
0.0
  0
LINE
  5
930D
330
18
100
AcDbEntity
  8
1PHANTOM
100
AcDbLine
 10
-27.02370506712644
 20
-321.6615436619859
 30
0.0
 11
58.97629493287356
 21
-321.6615436619859
 31
0.0
  0
LINE
  5
930E
330
18
100
AcDbEntity
  8
1PHANTOM
100
AcDbLine
 10
-27.02370506712644
 20
-290.6615436619859
 30
0.0
 11
58.97629493287356
 21
-290.6615436619859
 31
0.0
  0
LINE
  5
930F
330
18
100
AcDbEntity
  8
1PHANTOM
100
AcDbLine
 10
61.97629493287356
 20
-318.6615436619859
 30
0.0
 11
61.97629493287356
 21
-293.6615436619859
 31
0.0
  0
LINE
  5
9310
330
18
100
AcDbEntity
  8
1PHANTOM
100
AcDbLine
 10
-30.02370506712644
 20
-318.6615436619859
 30
0.0
 11
-30.02370506712644
 21
-293.6615436619859
 31
0.0
  0
ARC
  5
9311
330
18
100
AcDbEntity
  8
1PHANTOM
100
AcDbCircle
 10
58.97629493287356
 20
-318.6615436619859
 30
0.0
 40
3.0
100
AcDbArc
 50
270.0
 51
0.0
  0
ARC
  5
9312
330
18
100
AcDbEntity
  8
1PHANTOM
100
AcDbCircle
 10
-27.02370506712644
 20
-318.6615436619859
 30
0.0
 40
3.0
100
AcDbArc
 50
180.0
 51
270.0
  0
ARC
  5
9313
330
18
100
AcDbEntity
  8
1PHANTOM
100
AcDbCircle
 10
-27.02370506712644
 20
-293.6615436619859
 30
0.0
 40
3.0
100
AcDbArc
 50
90.0
 51
180.0
  0
ARC
  5
9314
330
18
100
AcDbEntity
  8
1PHANTOM
100
AcDbCircle
 10
58.97629493287356
 20
-293.6615436619859
 30
0.0
 40
3.0
100
AcDbArc
 50
0.0
 51
90.0
  0
LINE
  5
9318
330
18
100
AcDbEntity
  8
1PHANTOM
100
AcDbLine
 10
-30.02370506712644
 20
-382.9944267565178
 30
0.0
 11
-30.02370506712644
 21
-370.4944267565178
 31
0.0
  0
LINE
  5
9319
330
18
100
AcDbEntity
  8
1PHANTOM
100
AcDbLine
 10
61.97629493287356
 20
-382.9944267565178
 30
0.0
 11
61.97629493287356
 21
-370.4944267565178
 31
0.0
  0
LINE
  5
931B
330
18
100
AcDbEntity
  8
1PHANTOM
100
AcDbLine
 10
-30.02370506712644
 20
-382.9944267565178
 30
0.0
 11
61.97629493287356
 21
-382.9944267565178
 31
0.0
  0
LINE
  5
931C
330
18
100
AcDbEntity
  8
1PHANTOM
100
AcDbLine
 10
-37.33821222324161
 20
-370.4944267565178
 30
0.0
 11
69.29080208898873
 21
-370.4944267565178
 31
0.0
  0
POINT
  5
932D
330
18
100
AcDbEntity
  8
01
100
AcDbPoint
 10
58.47629493287354
 20
-297.1615436619859
 30
0.0
  0
LINE
  5
932E
330
18
100
AcDbEntity
  8
1CENTER
100
AcDbLine
 10
55.47629493287354
 20
-297.1615436619859
 30
0.0
 11
61.47629493287354
 21
-297.1615436619859
 31
0.0
  0
LINE
  5
932F
330
18
100
AcDbEntity
  8
1CENTER
100
AcDbLine
 10
58.47629493287354
 20
-294.1615436619859
 30
0.0
 11
58.47629493287354
 21
-300.1615436619859
 31
0.0
  0
LINE
  5
9330
330
18
100
AcDbEntity
  8
1CENTER
100
AcDbLine
 10
-23.52370506712646
 20
-297.1615436619859
 30
0.0
 11
-29.52370506712646
 21
-297.1615436619859
 31
0.0
  0
LINE
  5
9331
330
18
100
AcDbEntity
  8
1CENTER
100
AcDbLine
 10
-26.52370506712646
 20
-294.1615436619859
 30
0.0
 11
-26.52370506712646
 21
-300.1615436619859
 31
0.0
  0
POINT
  5
9332
330
18
100
AcDbEntity
  8
01
100
AcDbPoint
 10
-26.52370506712646
 20
-297.1615436619859
 30
0.0
  0
CIRCLE
  5
9470
330
18
100
AcDbEntity
  8
01
100
AcDbCircle
 10
-26.52370506712646
 20
-297.1615436619859
 30
0.0
 40
2.25
  0
CIRCLE
  5
9471
330
18
100
AcDbEntity
  8
01
100
AcDbCircle
 10
58.47629493287354
 20
-297.1615436619859
 30
0.0
 40
2.25
  0
TEXT
  5
9529
330
18
100
AcDbEntity
  8
1TEXT
100
AcDbText
 10
-7.947766909134998
 20
-393.7871553490181
 30
0.0
 40
4.0
  1
切欠図(S=1:1)
100
AcDbText
  0
LINE
  5
971F
330
18
100
AcDbEntity
  8
1DIM
100
AcDbLine
 10
-215.3281523397447
 20
-268.551419621633
 30
0.0
 11
-138.3281523397447
 21
-268.551419621633
 31
0.0
  0
TEXT
  5
9720
330
18
100
AcDbEntity
  8
1TEXT
100
AcDbText
 10
-207.3948190064116
 20
-259.8623332332039
 30
0.0
 40
4.0
  1
クローム
 72
     1
 11
-197.9281523397449
 21
-259.8623332332039
 31
0.0
100
AcDbText
  0
TEXT
  5
9721
330
18
100
AcDbEntity
  8
1TEXT
100
AcDbText
 10
-207.1948190064118
 20
-253.051419621633
 30
0.0
 40
4.0
  1
表面処理
 72
     1
 11
-197.9281523397451
 21
-253.051419621633
 31
0.0
100
AcDbText
  0
LINE
  5
9723
330
18
100
AcDbEntity
  8
1DIM
100
AcDbLine
 10
-215.3281523397447
 20
-247.551419621633
 30
0.0
 11
-138.3281523397447
 21
-247.551419621633
 31
0.0
  0
LINE
  5
9724
330
18
100
AcDbEntity
  8
1DIM
100
AcDbLine
 10
-215.3281523397447
 20
-254.551419621633
 30
0.0
 11
-138.3281523397447
 21
-254.551419621633
 31
0.0
  0
LINE
  5
9725
330
18
100
AcDbEntity
  8
1DIM
100
AcDbLine
 10
-215.3281523397447
 20
-261.551419621633
 30
0.0
 11
-145.3281523397447
 21
-261.551419621633
 31
0.0
  0
LINE
  5
9726
330
18
100
AcDbEntity
  8
1DIM
100
AcDbLine
 10
-215.3281523397447
 20
-261.551419621633
 30
0.0
 11
-138.3281523397447
 21
-261.551419621633
 31
0.0
  0
LINE
  5
9727
330
18
100
AcDbEntity
  8
1DIM
100
AcDbLine
 10
-180.3281523397447
 20
-247.551419621633
 30
0.0
 11
-180.3281523397441
 21
-275.742111468146
 31
0.0
  0
TEXT
  5
9729
330
18
100
AcDbEntity
  8
1TEXT
100
AcDbText
 10
-177.9948190064102
 20
-260.2657766052824
 30
0.0
 40
4.0
  1
PC-143-XCF
 72
     1
 11
-159.3281523397436
 21
-260.2657766052824
 31
0.0
100
AcDbText
  0
TEXT
  5
972A
330
18
100
AcDbEntity
  8
1TEXT
100
AcDbText
 10
-166.1948190064113
 20
-253.051419621633
 30
0.0
 40
4.0
  1
コード
 72
     1
 11
-159.3281523397446
 21
-253.051419621633
 31
0.0
100
AcDbText
  0
LINE
  5
972B
330
18
100
AcDbEntity
  8
1DIM
100
AcDbLine
 10
-215.3281523397438
 20
-275.551419621633
 30
0.0
 11
-138.3281523397447
 21
-275.551419621633
 31
0.0
  0
LINE
  5
972C
330
18
100
AcDbEntity
  8
1DIM
100
AcDbLine
 10
-215.3281523397441
 20
-275.551419621633
 30
0.0
 11
-215.3281523397447
 21
-247.551419621633
 31
0.0
  0
LINE
  5
972D
330
18
100
AcDbEntity
  8
1DIM
100
AcDbLine
 10
-138.3281523397441
 20
-275.551419621633
 30
0.0
 11
-138.3281523397447
 21
-247.5514196216329
 31
0.0
  0
TEXT
  5
9730
330
18
100
AcDbEntity
  8
1TEXT
100
AcDbText
 10
-214.4614856730784
 20
-266.8623332332039
 30
0.0
 40
4.0
  1
サテンニッケル
 72
     1
 11
-197.9281523397451
 21
-266.8623332332039
 31
0.0
100
AcDbText
  0
TEXT
  5
9731
330
18
100
AcDbEntity
  8
1TEXT
100
AcDbText
 10
-177.9948190064104
 20
-267.2657766052824
 30
0.0
 40
4.0
  1
PC-143-XNF
 72
     1
 11
-159.3281523397437
 21
-267.2657766052824
 31
0.0
100
AcDbText
  0
TEXT
  5
9734
330
18
100
AcDbEntity
  8
1TEXT
100
AcDbText
 10
-214.0614856730758
 20
-274.051419621633
 30
0.0
 40
4.0
  1
パールブラック
 72
     1
 11
-197.9281523397424
 21
-274.051419621633
 31
0.0
100
AcDbText
  0
TEXT
  5
9735
330
18
100
AcDbEntity
  8
1TEXT
100
AcDbText
 10
-178.0087078952977
 20
-274.2657766052824
 30
0.0
 40
4.0
  1
PC-143-GQF
 72
     1
 11
-159.3281523397422
 21
-274.2657766052824
 31
0.0
100
AcDbText
  0
LINE
  5
98BF
330
18
100
AcDbEntity
  8
1CENTER
100
AcDbLine
 10
39.10875899734823
 20
-418.2908717523258
 30
0.0
 11
55.41483311670172
 21
-418.2908717523258
 31
0.0
  0
LINE
  5
98C0
330
18
100
AcDbEntity
  8
01
100
AcDbLine
 10
42.04365708720855
 20
-418.9908717523256
 30
0.0
 11
53.83122152190945
 21
-418.9908717523256
 31
0.0
  0
LINE
  5
98C1
330
18
100
AcDbEntity
  8
01
100
AcDbLine
 10
42.04365708720847
 20
-417.5908717523259
 30
0.0
 11
53.83122152190945
 21
-417.5908717523259
 31
0.0
  0
LINE
  5
98C3
330
18
100
AcDbEntity
  8
01
100
AcDbLine
 10
40.8312215219099
 20
-418.2908717523258
 30
0.0
 11
42.04365708720852
 21
-418.9908717523256
 31
0.0
  0
LINE
  5
98C5
330
18
100
AcDbEntity
  8
01
100
AcDbLine
 10
40.8312215219099
 20
-418.2908717523258
 30
0.0
 11
42.04365708720852
 21
-417.5908717523259
 31
0.0
  0
LINE
  5
98C6
330
18
100
AcDbEntity
  8
01
100
AcDbLine
 10
53.8312215219099
 20
-416.6908717523254
 30
0.0
 11
53.8312215219099
 21
-419.8908717523257
 31
0.0
  0
ARC
  5
98C7
330
18
100
AcDbEntity
  8
01
100
AcDbCircle
 10
52.65203011462527
 20
-418.2908717523258
 30
0.0
 40
1.987584557952786
100
AcDbArc
 50
306.3900152781722
 51
53.60998472186289
  0
LINE
  5
98CA
330
18
100
AcDbEntity
  8
1CENTER
100
AcDbLine
 10
39.10875899734823
 20
-407.5770035869343
 30
0.0
 11
55.41483311670172
 21
-407.5770035869343
 31
0.0
  0
LINE
  5
98CB
330
18
100
AcDbEntity
  8
01
100
AcDbLine
 10
42.04365708720838
 20
-408.2770035869342
 30
0.0
 11
53.83122152190945
 21
-408.2770035869341
 31
0.0
  0
LINE
  5
98CC
330
18
100
AcDbEntity
  8
01
100
AcDbLine
 10
42.04365708720847
 20
-406.8770035869346
 30
0.0
 11
53.83122152190945
 21
-406.8770035869345
 31
0.0
  0
LINE
  5
98CD
330
18
100
AcDbEntity
  8
01
100
AcDbLine
 10
40.8312215219099
 20
-407.5770035869343
 30
0.0
 11
42.04365708720852
 21
-408.2770035869341
 31
0.0
  0
LINE
  5
98CE
330
18
100
AcDbEntity
  8
01
100
AcDbLine
 10
40.8312215219099
 20
-407.5770035869343
 30
0.0
 11
42.04365708720852
 21
-406.8770035869345
 31
0.0
  0
LINE
  5
98CF
330
18
100
AcDbEntity
  8
01
100
AcDbLine
 10
53.8312215219099
 20
-405.977003586934
 30
0.0
 11
53.8312215219099
 21
-409.1770035869342
 31
0.0
  0
ARC
  5
98D0
330
18
100
AcDbEntity
  8
01
100
AcDbCircle
 10
52.65203011462527
 20
-407.5770035869343
 30
0.0
 40
1.987584557952786
100
AcDbArc
 50
306.3900152781722
 51
53.60998472186289
  0
CIRCLE
  5
998A
330
18
100
AcDbEntity
  8
01
100
AcDbCircle
 10
-60.45291687248007
 20
-306.1615436619859
 30
0.0
 40
0.9
  0
ARC
  5
9D2F
102
{ACAD_REACTORS
102
}
330
18
100
AcDbEntity
  8
1HIDDEN
100
AcDbCircle
 10
-65.15291687248012
 20
-321.1615436619859
 30
0.0
 40
1.5
100
AcDbArc
 50
87.9999999999996
 51
180.0
  0
ARC
  5
9D35
102
{ACAD_REACTORS
102
}
330
18
100
AcDbEntity
  8
1HIDDEN
100
AcDbCircle
 10
-65.15291687248012
 20
-298.1615436619859
 30
0.0
 40
1.50000000000001
100
AcDbArc
 50
180.0
 51
330.7192598738158
  0
LINE
  5
9D3C
102
{ACAD_REACTORS
102
}
330
18
100
AcDbEntity
  8
1HIDDEN
100
AcDbLine
 10
-56.72687506128577
 20
-292.6466659541032
 30
0.0
 11
-54.15291687248012
 21
-292.5567813535106
 31
0.0
  0
LINE
  5
9D3E
102
{ACAD_REACTORS
102
}
330
18
100
AcDbEntity
  8
1HIDDEN
100
AcDbLine
 10
-65.10056762742636
 20
-319.6624574214572
 30
0.0
 11
-54.15291687248012
 21
-320.0447578099469
 31
0.0
  0
ARC
  5
9D4B
102
{ACAD_REACTORS
102
}
330
18
100
AcDbEntity
  8
1HIDDEN
100
AcDbCircle
 10
-50.76106035726332
 20
-306.2315167750397
 30
0.0
 40
15.0
100
AcDbArc
 50
116.971013331316
 51
150.7192598738149
  0
ARC
  5
9D4C
102
{ACAD_REACTORS
102
}
330
18
100
AcDbEntity
  8
1HIDDEN
100
AcDbCircle
 10
-56.65707606788084
 20
-294.6454476081414
 30
0.0
 40
2.0
100
AcDbArc
 50
91.99999999999797
 51
116.9710133313163
  0
LINE
  5
9ED1
330
18
100
AcDbEntity
  8
01
100
AcDbLine
 10
-117.6954766491399
 20
-324.6615436619861
 30
0.0
 11
-214.6954766491399
 21
-324.6615436619861
 31
0.0
  0
LINE
  5
9ED3
330
18
100
AcDbEntity
  8
1HIDDEN
100
AcDbLine
 10
-134.6954766491399
 20
-292.6615436619862
 30
0.0
 11
-196.6954766491399
 21
-292.6615436619863
 31
0.0
  0
ARC
  5
9ED4
330
18
100
AcDbEntity
  8
1HIDDEN
100
AcDbCircle
 10
-196.6954766491399
 20
-301.6615436619863
 30
0.0
 40
9.0
100
AcDbArc
 50
90.0
 51
180.0
  0
ARC
  5
9ED5
330
18
100
AcDbEntity
  8
1HIDDEN
100
AcDbCircle
 10
-134.6954766491399
 20
-301.6615436619862
 30
0.0
 40
9.0
100
AcDbArc
 50
0.0
 51
90.0
  0
LINE
  5
9ED6
330
18
100
AcDbEntity
  8
01
100
AcDbLine
 10
-125.6954766491399
 20
-301.6615436619862
 30
0.0
 11
-125.6954766491399
 21
-302.6615436619862
 31
0.0
  0
LINE
  5
9ED7
330
18
100
AcDbEntity
  8
01
100
AcDbLine
 10
-205.6954766491399
 20
-301.6615436619863
 30
0.0
 11
-205.6954766491399
 21
-302.6615436619862
 31
0.0
  0
LINE
  5
A7D6
330
18
100
AcDbEntity
  8
1DIM
100
AcDbLine
 10
-60.45291687248007
 20
-311.9115436619859
 30
0.0
 11
-60.45291687248007
 21
-339.0531135322504
 31
0.0
1001
ACAD
1000
DSTYLE
1002
{
1070
   271
1070
     0
1002
}
  0
LINE
  5
A7D7
330
18
100
AcDbEntity
  8
1DIM
100
AcDbLine
 10
-65.15291687247978
 20
-324.6615436619879
 30
0.0
 11
-65.15291687247978
 21
-339.0531135322504
 31
0.0
1001
ACAD
1000
DSTYLE
1002
{
1070
   271
1070
     0
1002
}
  0
LINE
  5
A7D8
330
18
100
AcDbEntity
  8
1DIM
100
AcDbLine
 10
-60.45291687248007
 20
-338.0531135322504
 30
0.0
 11
-65.15291687247978
 21
-338.0531135322504
 31
0.0
1001
ACAD
1000
DSTYLE
1002
{
1070
   271
1070
     0
1002
}
  0
LINE
  5
A7D9
330
18
100
AcDbEntity
  8
1DIM
100
AcDbLine
 10
-58.45291687248007
 20
-338.0531135322504
 30
0.0
 11
-56.45291687248007
 21
-338.0531135322504
 31
0.0
1001
ACAD
1000
DSTYLE
1002
{
1070
   271
1070
     0
1002
}
  0
LINE
  5
A7DA
330
18
100
AcDbEntity
  8
1DIM
100
AcDbLine
 10
-67.15291687247978
 20
-338.0531135322504
 30
0.0
 11
-69.15291687247978
 21
-338.0531135322504
 31
0.0
1001
ACAD
1000
DSTYLE
1002
{
1070
   271
1070
     0
1002
}
  0
LINE
  5
A7DE
330
18
100
AcDbEntity
  8
1DIM
100
AcDbLine
 10
-116.6954766491399
 20
-324.6615436619859
 30
0.0
 11
-85.69547664913992
 21
-324.6615436619859
 31
0.0
  0
LINE
  5
A7DF
330
18
100
AcDbEntity
  8
1DIM
100
AcDbLine
 10
-116.6954766491399
 20
-287.6615436619859
 30
0.0
 11
-85.69547664913992
 21
-287.6615436619859
 31
0.0
  0
LINE
  5
A7E0
330
18
100
AcDbEntity
  8
1DIM
100
AcDbLine
 10
-86.69547664913992
 20
-322.6615436619859
 30
0.0
 11
-86.69547664913992
 21
-289.6615436619859
 31
0.0
  0
LINE
  5
A7E4
330
18
100
AcDbEntity
  8
1DIM
100
AcDbLine
 10
-128.6954766491399
 20
-319.6615436619859
 30
0.0
 11
-95.69547664913992
 21
-319.6615436619859
 31
0.0
  0
LINE
  5
A7E5
330
18
100
AcDbEntity
  8
1DIM
100
AcDbLine
 10
-128.6954766491399
 20
-299.6615436619859
 30
0.0
 11
-95.69547664913992
 21
-299.6615436619859
 31
0.0
  0
LINE
  5
A7E6
330
18
100
AcDbEntity
  8
1DIM
100
AcDbLine
 10
-96.69547664913992
 20
-317.6615436619859
 30
0.0
 11
-96.69547664913992
 21
-301.6615436619859
 31
0.0
  0
LINE
  5
A7EA
330
18
100
AcDbEntity
  8
1DIM
100
AcDbLine
 10
-214.6954766491399
 20
-324.6615436619861
 30
0.0
 11
-214.6954766491399
 21
-347.6156035559507
 31
0.0
  0
LINE
  5
A7EB
330
18
100
AcDbEntity
  8
1DIM
100
AcDbLine
 10
-116.6954766491398
 20
-324.6615436619862
 30
0.0
 11
-116.6954766491398
 21
-347.6156035559507
 31
0.0
  0
LINE
  5
A7EC
330
18
100
AcDbEntity
  8
1DIM
100
AcDbLine
 10
-212.6954766491399
 20
-346.6156035559507
 30
0.0
 11
-118.6954766491398
 21
-346.6156035559507
 31
0.0
  0
LINE
  5
A7F0
330
18
100
AcDbEntity
  8
1DIM
100
AcDbLine
 10
-205.6954766491399
 20
-316.6615436619862
 30
0.0
 11
-205.6954766491399
 21
-339.0531135322504
 31
0.0
  0
LINE
  5
A7F1
330
18
100
AcDbEntity
  8
1DIM
100
AcDbLine
 10
-125.6954766491398
 20
-316.2774151975772
 30
0.0
 11
-125.6954766491398
 21
-339.0531135322504
 31
0.0
  0
LINE
  5
A7F2
330
18
100
AcDbEntity
  8
1DIM
100
AcDbLine
 10
-203.6954766491399
 20
-338.0531135322504
 30
0.0
 11
-127.6954766491398
 21
-338.0531135322504
 31
0.0
  0
LINE
  5
A7F6
330
18
100
AcDbEntity
  8
1DIM
100
AcDbLine
 10
-116.6954766491399
 20
-370.4944267565178
 30
0.0
 11
-95.69547664913992
 21
-370.4944267565178
 31
0.0
1001
ACAD
1000
DSTYLE
1002
{
1070
   271
1070
     1
1002
}
  0
LINE
  5
A7F7
330
18
100
AcDbEntity
  8
1DIM
100
AcDbLine
 10
-116.6954766491399
 20
-368.9944267565169
 30
0.0
 11
-95.69547664913992
 21
-368.9944267565169
 31
0.0
1001
ACAD
1000
DSTYLE
1002
{
1070
   271
1070
     1
1002
}
  0
LINE
  5
A7F8
330
18
100
AcDbEntity
  8
1DIM
100
AcDbLine
 10
-96.69547664913992
 20
-366.9944267565169
 30
0.0
 11
-96.69547664913992
 21
-356.7610934231836
 31
0.0
1001
ACAD
1000
DSTYLE
1002
{
1070
   271
1070
     1
1002
}
  0
LINE
  5
A7F9
330
18
100
AcDbEntity
  8
1DIM
100
AcDbLine
 10
-96.69547664913992
 20
-370.4944267565178
 30
0.0
 11
-96.69547664913992
 21
-368.9944267565169
 31
0.0
1001
ACAD
1000
DSTYLE
1002
{
1070
   271
1070
     1
1002
}
  0
LINE
  5
A7FA
330
18
100
AcDbEntity
  8
1DIM
100
AcDbLine
 10
-96.69547664913992
 20
-372.4944267565178
 30
0.0
 11
-96.69547664913992
 21
-374.4944267565178
 31
0.0
1001
ACAD
1000
DSTYLE
1002
{
1070
   271
1070
     1
1002
}
  0
LINE
  5
A7FE
330
18
100
AcDbEntity
  8
1DIM
100
AcDbLine
 10
-116.6954766491399
 20
-370.4944267565178
 30
0.0
 11
-95.69547664913992
 21
-370.4944267565178
 31
0.0
1001
ACAD
1000
DSTYLE
1002
{
1070
   271
1070
     0
1002
}
  0
LINE
  5
A7FF
330
18
100
AcDbEntity
  8
1DIM
100
AcDbLine
 10
-120.0796051135492
 20
-382.4944267565178
 30
0.0
 11
-95.69547664913992
 21
-382.4944267565178
 31
0.0
1001
ACAD
1000
DSTYLE
1002
{
1070
   271
1070
     0
1002
}
  0
LINE
  5
A800
330
18
100
AcDbEntity
  8
1DIM
100
AcDbLine
 10
-96.69547664913992
 20
-372.4944267565178
 30
0.0
 11
-96.69547664913992
 21
-380.4944267565178
 31
0.0
1001
ACAD
1000
DSTYLE
1002
{
1070
   271
1070
     0
1002
}
  0
LINE
  5
A804
330
18
100
AcDbEntity
  8
1DIM
100
AcDbLine
 10
-116.9954766491396
 20
-368.9944267565169
 30
0.0
 11
-85.69547664913992
 21
-368.9944267565169
 31
0.0
1001
ACAD
1000
DSTYLE
1002
{
1070
   271
1070
     1
1002
}
  0
LINE
  5
A805
330
18
100
AcDbEntity
  8
1DIM
100
AcDbLine
 10
-120.0796051135492
 20
-382.4944267565178
 30
0.0
 11
-85.69547664913992
 21
-382.4944267565178
 31
0.0
1001
ACAD
1000
DSTYLE
1002
{
1070
   271
1070
     1
1002
}
  0
LINE
  5
A806
330
18
100
AcDbEntity
  8
1DIM
100
AcDbLine
 10
-86.69547664913992
 20
-370.9944267565169
 30
0.0
 11
-86.69547664913992
 21
-380.4944267565178
 31
0.0
1001
ACAD
1000
DSTYLE
1002
{
1070
   271
1070
     1
1002
}
  0
LINE
  5
A80A
330
18
100
AcDbEntity
  8
1DIM
100
AcDbLine
 10
-122.69547664914
 20
-435.5433294636731
 30
0.0
 11
-85.69547664914003
 21
-435.5433294636731
 31
0.0
  0
LINE
  5
A80B
330
18
100
AcDbEntity
  8
1DIM
100
AcDbLine
 10
-122.69547664914
 20
-404.5433294636726
 30
0.0
 11
-85.69547664914003
 21
-404.5433294636726
 31
0.0
  0
LINE
  5
A80C
330
18
100
AcDbEntity
  8
1DIM
100
AcDbLine
 10
-86.69547664914003
 20
-433.5433294636731
 30
0.0
 11
-86.69547664914003
 21
-406.5433294636726
 31
0.0
  0
LINE
  5
A810
330
18
100
AcDbEntity
  8
1DIM
100
AcDbLine
 10
-122.69547664914
 20
-435.5433294636726
 30
0.0
 11
-95.69547664914003
 21
-435.5433294636726
 31
0.0
  0
LINE
  5
A811
330
18
100
AcDbEntity
  8
1DIM
100
AcDbLine
 10
-120.19547664914
 20
-429.0433294636731
 30
0.0
 11
-95.69547664914003
 21
-429.0433294636731
 31
0.0
  0
LINE
  5
A812
330
18
100
AcDbEntity
  8
1DIM
100
AcDbLine
 10
-96.69547664914003
 20
-429.0433294636731
 30
0.0
 11
-96.69547664914003
 21
-418.4766627970056
 31
0.0
  0
LINE
  5
A813
330
18
100
AcDbEntity
  8
1DIM
100
AcDbLine
 10
-96.69547664914003
 20
-433.5433294636726
 30
0.0
 11
-96.69547664914003
 21
-431.0433294636731
 31
0.0
  0
LINE
  5
A817
330
18
100
AcDbEntity
  8
1DIM
100
AcDbLine
 10
-122.69547664914
 20
-435.5433294636731
 30
0.0
 11
-85.69547664914003
 21
-435.5433294636731
 31
0.0
  0
LINE
  5
A818
330
18
100
AcDbEntity
  8
1DIM
100
AcDbLine
 10
-116.69547664914
 20
-438.5433294636726
 30
0.0
 11
-85.69547664914003
 21
-438.5433294636726
 31
0.0
  0
LINE
  5
A819
330
18
100
AcDbEntity
  8
1DIM
100
AcDbLine
 10
-86.69547664914003
 20
-440.5433294636726
 30
0.0
 11
-86.69547664914003
 21
-446.276662797006
 31
0.0
  0
LINE
  5
A81A
330
18
100
AcDbEntity
  8
1DIM
100
AcDbLine
 10
-86.69547664914003
 20
-435.5433294636731
 30
0.0
 11
-86.69547664914003
 21
-438.5433294636726
 31
0.0
  0
LINE
  5
A81B
330
18
100
AcDbEntity
  8
1DIM
100
AcDbLine
 10
-86.69547664914003
 20
-433.5433294636731
 30
0.0
 11
-86.69547664914003
 21
-431.5433294636731
 31
0.0
  0
LINE
  5
A81F
330
18
100
AcDbEntity
  8
1DIM
100
AcDbLine
 10
-122.69547664914
 20
-404.5433294636726
 30
0.0
 11
-85.69547664914003
 21
-404.5433294636726
 31
0.0
  0
LINE
  5
A820
330
18
100
AcDbEntity
  8
1DIM
100
AcDbLine
 10
-116.69547664914
 20
-401.5433294636731
 30
0.0
 11
-85.69547664914003
 21
-401.5433294636731
 31
0.0
  0
LINE
  5
A821
330
18
100
AcDbEntity
  8
1DIM
100
AcDbLine
 10
-86.69547664914003
 20
-399.5433294636731
 30
0.0
 11
-86.69547664914003
 21
-393.8099961303398
 31
0.0
  0
LINE
  5
A822
330
18
100
AcDbEntity
  8
1DIM
100
AcDbLine
 10
-86.69547664914003
 20
-404.5433294636726
 30
0.0
 11
-86.69547664914003
 21
-401.5433294636731
 31
0.0
  0
LINE
  5
A823
330
18
100
AcDbEntity
  8
1DIM
100
AcDbLine
 10
-86.69547664914003
 20
-406.5433294636726
 30
0.0
 11
-86.69547664914003
 21
-408.5433294636726
 31
0.0
  0
SOLID
  5
A827
330
18
100
AcDbEntity
  8
1DIM
100
AcDbTrace
 10
-120.9158147185182
 20
-432.9374599947656
 30
0.0
 11
-121.7765312223534
 21
-431.1016282456293
 31
0.0
 12
-120.3669350433299
 22
-432.5590745476225
 32
0.0
 13
-120.3669350433299
 23
-432.5590745476225
 33
0.0
  0
LINE
  5
A828
330
18
100
AcDbEntity
  8
1DIM
100
AcDbLine
 10
-120.6413748809241
 20
-432.748267271194
 30
0.0
 11
-107.5064113583307
 21
-451.8016282456291
 31
0.0
  0
LINE
  5
A829
330
18
100
AcDbEntity
  8
1DIM
100
AcDbLine
 10
-107.5064113583307
 20
-451.8016282456291
 30
0.0
 11
-104.8064113583307
 21
-451.8016282456291
 31
0.0
  0
TEXT
  5
A82A
330
18
100
AcDbEntity
  8
1DIM
  6
CONTINUOUS
100
AcDbText
 10
-104.8064113583306
 20
-451.1016282456293
 30
0.0
 40
3.5
  1
M4-8
100
AcDbText
  0
LINE
  5
A82B
330
18
100
AcDbEntity
  8
1DIM
100
AcDbLine
 10
-211.69547664914
 20
-432.5433294636731
 30
0.0
 11
-211.69547664914
 21
-469.5433294636731
 31
0.0
  0
LINE
  5
A82C
330
18
100
AcDbEntity
  8
1DIM
100
AcDbLine
 10
-119.6954766491399
 20
-432.5433294636731
 30
0.0
 11
-119.6954766491399
 21
-469.5433294636731
 31
0.0
  0
LINE
  5
A82D
330
18
100
AcDbEntity
  8
1DIM
100
AcDbLine
 10
-209.69547664914
 20
-468.5433294636731
 30
0.0
 11
-121.6954766491399
 21
-468.5433294636731
 31
0.0
  0
LINE
  5
A831
330
18
100
AcDbEntity
  8
1DIM
100
AcDbLine
 10
-119.6954766491399
 20
-432.5433294636736
 30
0.0
 11
-119.6954766491399
 21
-469.5433294636731
 31
0.0
  0
LINE
  5
A832
330
18
100
AcDbEntity
  8
1DIM
100
AcDbLine
 10
-116.6954766491399
 20
-438.5433294636736
 30
0.0
 11
-116.6954766491399
 21
-469.5433294636731
 31
0.0
  0
LINE
  5
A833
330
18
100
AcDbEntity
  8
1DIM
100
AcDbLine
 10
-114.6954766491399
 20
-468.5433294636731
 30
0.0
 11
-108.9621433158066
 21
-468.5433294636731
 31
0.0
  0
LINE
  5
A834
330
18
100
AcDbEntity
  8
1DIM
100
AcDbLine
 10
-119.6954766491399
 20
-468.5433294636731
 30
0.0
 11
-116.6954766491399
 21
-468.5433294636731
 31
0.0
  0
LINE
  5
A835
330
18
100
AcDbEntity
  8
1DIM
100
AcDbLine
 10
-121.6954766491399
 20
-468.5433294636731
 30
0.0
 11
-123.6954766491399
 21
-468.5433294636731
 31
0.0
  0
LINE
  5
A839
330
18
100
AcDbEntity
  8
1DIM
100
AcDbLine
 10
-208.19547664914
 20
-432.0433294636731
 30
0.0
 11
-208.19547664914
 21
-459.5433294636731
 31
0.0
  0
LINE
  5
A83A
330
18
100
AcDbEntity
  8
1DIM
100
AcDbLine
 10
-123.19547664914
 20
-432.0433294636731
 30
0.0
 11
-123.19547664914
 21
-459.5433294636731
 31
0.0
  0
LINE
  5
A83B
330
18
100
AcDbEntity
  8
1DIM
100
AcDbLine
 10
-206.19547664914
 20
-458.5433294636731
 30
0.0
 11
-125.19547664914
 21
-458.5433294636731
 31
0.0
  0
LINE
  5
A83F
330
18
100
AcDbEntity
  8
1DIM
100
AcDbLine
 10
-211.69547664914
 20
-432.5433294636726
 30
0.0
 11
-211.69547664914
 21
-469.5433294636726
 31
0.0
  0
LINE
  5
A840
330
18
100
AcDbEntity
  8
1DIM
100
AcDbLine
 10
-214.69547664914
 20
-438.5433294636726
 30
0.0
 11
-214.69547664914
 21
-469.5433294636726
 31
0.0
  0
LINE
  5
A841
330
18
100
AcDbEntity
  8
1DIM
100
AcDbLine
 10
-216.69547664914
 20
-468.5433294636726
 30
0.0
 11
-222.4288099824733
 21
-468.5433294636726
 31
0.0
  0
LINE
  5
A842
330
18
100
AcDbEntity
  8
1DIM
100
AcDbLine
 10
-211.69547664914
 20
-468.5433294636726
 30
0.0
 11
-214.69547664914
 21
-468.5433294636726
 31
0.0
  0
LINE
  5
A843
330
18
100
AcDbEntity
  8
1DIM
100
AcDbLine
 10
-209.69547664914
 20
-468.5433294636726
 30
0.0
 11
-207.69547664914
 21
-468.5433294636726
 31
0.0
  0
LINE
  5
A847
330
18
100
AcDbEntity
  8
1DIM
100
AcDbLine
 10
-30.02370506712644
 20
-318.6615436619859
 30
0.0
 11
-30.02370506712644
 21
-347.6156035559507
 31
0.0
  0
LINE
  5
A848
330
18
100
AcDbEntity
  8
1DIM
100
AcDbLine
 10
61.97629493287356
 20
-318.6615436619859
 30
0.0
 11
61.97629493287356
 21
-347.6156035559507
 31
0.0
  0
LINE
  5
A849
330
18
100
AcDbEntity
  8
1DIM
100
AcDbLine
 10
-28.02370506712644
 20
-346.6156035559507
 30
0.0
 11
59.97629493287356
 21
-346.6156035559507
 31
0.0
  0
LINE
  5
A84D
330
18
100
AcDbEntity
  8
1DIM
100
AcDbLine
 10
-26.52370506712646
 20
-300.1615436619859
 30
0.0
 11
-26.52370506712646
 21
-339.0531135322504
 31
0.0
  0
LINE
  5
A84E
330
18
100
AcDbEntity
  8
1DIM
100
AcDbLine
 10
58.47629493287354
 20
-300.1615436619859
 30
0.0
 11
58.47629493287354
 21
-339.0531135322504
 31
0.0
  0
LINE
  5
A84F
330
18
100
AcDbEntity
  8
1DIM
100
AcDbLine
 10
-24.52370506712646
 20
-338.0531135322504
 30
0.0
 11
56.47629493287354
 21
-338.0531135322504
 31
0.0
  0
LINE
  5
A853
330
18
100
AcDbEntity
  8
1DIM
100
AcDbLine
 10
58.97629493287356
 20
-321.6615436619859
 30
0.0
 11
82.97629493287356
 21
-321.6615436619859
 31
0.0
  0
LINE
  5
A854
330
18
100
AcDbEntity
  8
1DIM
100
AcDbLine
 10
58.97629493287356
 20
-290.6615436619859
 30
0.0
 11
82.97629493287356
 21
-290.6615436619859
 31
0.0
  0
LINE
  5
A855
330
18
100
AcDbEntity
  8
1DIM
100
AcDbLine
 10
81.97629493287356
 20
-319.6615436619859
 30
0.0
 11
81.97629493287356
 21
-292.6615436619859
 31
0.0
  0
LINE
  5
A859
330
18
100
AcDbEntity
  8
1DIM
100
AcDbLine
 10
61.47629493287354
 20
-297.1615436619859
 30
0.0
 11
73.92255798478416
 21
-297.1615436619859
 31
0.0
  0
LINE
  5
A85A
330
18
100
AcDbEntity
  8
1DIM
100
AcDbLine
 10
58.97629493287356
 20
-290.6615436619859
 30
0.0
 11
73.92255798478416
 21
-290.6615436619859
 31
0.0
  0
LINE
  5
A85B
330
18
100
AcDbEntity
  8
1DIM
100
AcDbLine
 10
72.92255798478416
 20
-295.1615436619859
 30
0.0
 11
72.92255798478416
 21
-292.6615436619859
 31
0.0
  0
LINE
  5
A85C
330
18
100
AcDbEntity
  8
1DIM
100
AcDbLine
 10
72.92255798478416
 20
-290.6615436619859
 30
0.0
 11
72.92255798478418
 21
-280.0948769953192
 31
0.0
  0
LINE
  5
A860
330
18
100
AcDbEntity
  8
1DIM
100
AcDbLine
 10
-30.52454929226261
 20
-290.0916571495977
 30
0.0
 11
-42.35740277322282
 21
-278.0254407377258
 31
0.0
  0
LINE
  5
A861
330
18
100
AcDbEntity
  8
1DIM
100
AcDbLine
 10
-27.02370506712646
 20
-293.6615436619859
 30
0.0
 11
-29.12421160220813
 21
-291.519611754553
 31
0.0
  0
LINE
  5
A864
330
18
100
AcDbEntity
  8
1DIM
100
AcDbLine
 10
61.97629493287356
 20
-382.9944267565178
 30
0.0
 11
82.97629493287354
 21
-382.9944267565178
 31
0.0
  0
LINE
  5
A865
330
18
100
AcDbEntity
  8
1DIM
100
AcDbLine
 10
69.29080208898873
 20
-370.4944267565178
 30
0.0
 11
82.97629493287354
 21
-370.4944267565178
 31
0.0
  0
LINE
  5
A866
330
18
100
AcDbEntity
  8
1DIM
100
AcDbLine
 10
81.97629493287354
 20
-380.9944267565178
 30
0.0
 11
81.97629493287354
 21
-372.4944267565178
 31
0.0
  0
LINE
  5
A86A
330
18
100
AcDbEntity
  8
1DIM
100
AcDbLine
 10
61.24180101067057
 20
-300.3886904100698
 30
0.0
 11
62.54321563551622
 21
-301.9073477032857
 31
0.0
1001
ACAD
1000
DSTYLE
1002
{
1070
     3
1000
%%c<>貫通
1002
}
  0
LINE
  5
A86B
330
18
100
AcDbEntity
  8
1DIM
100
AcDbLine
 10
55.71078885507649
 20
-293.9343969139022
 30
0.0
 11
35.05033645562105
 21
-269.825134486262
 31
0.0
1001
ACAD
1000
DSTYLE
1002
{
1070
     3
1000
%%c<>貫通
1002
}
  0
LINE
  5
A86C
330
18
100
AcDbEntity
  8
1DIM
100
AcDbLine
 10
59.94038638582489
 20
-298.870033116854
 30
0.0
 11
57.01220347992214
 21
-295.4530542071181
 31
0.0
1001
ACAD
1000
DSTYLE
1002
{
1070
     3
1000
%%c<>貫通
1002
}
  0
LINE
  5
A870
330
18
100
AcDbEntity
  8
1DIM
100
AcDbLine
 10
53.83122152190945
 20
-419.8908717523257
 30
0.0
 11
53.83122152190945
 21
-434.0772268200819
 31
0.0
  0
LINE
  5
A871
330
18
100
AcDbEntity
  8
1DIM
100
AcDbLine
 10
40.8312215219099
 20
-418.2908717523258
 30
0.0
 11
40.8312215219099
 21
-434.0772268200819
 31
0.0
  0
LINE
  5
A872
330
18
100
AcDbEntity
  8
1DIM
100
AcDbLine
 10
51.83122152190945
 20
-433.0772268200819
 30
0.0
 11
42.8312215219099
 21
-433.0772268200819
 31
0.0
  0
LINE
  5
A876
330
18
100
AcDbEntity
  8
1DIM
100
AcDbLine
 10
42.04365708720852
 20
-417.5908717523259
 30
0.0
 11
28.96795762415841
 21
-417.5908717523259
 31
0.0
1001
ACAD
1000
DSTYLE
1002
{
1070
     3
1000
φ<>
1002
}
  0
LINE
  5
A877
330
18
100
AcDbEntity
  8
1DIM
100
AcDbLine
 10
42.04365708720852
 20
-418.9908717523256
 30
0.0
 11
28.96795762415841
 21
-418.9908717523256
 31
0.0
1001
ACAD
1000
DSTYLE
1002
{
1070
     3
1000
φ<>
1002
}
  0
LINE
  5
A878
330
18
100
AcDbEntity
  8
1DIM
100
AcDbLine
 10
29.96795762415841
 20
-420.9908717523256
 30
0.0
 11
29.96795762415841
 21
-435.6575384189923
 31
0.0
1001
ACAD
1000
DSTYLE
1002
{
1070
     3
1000
φ<>
1002
}
  0
LINE
  5
A879
330
18
100
AcDbEntity
  8
1DIM
100
AcDbLine
 10
29.96795762415841
 20
-417.5908717523259
 30
0.0
 11
29.96795762415841
 21
-418.9908717523256
 31
0.0
1001
ACAD
1000
DSTYLE
1002
{
1070
     3
1000
φ<>
1002
}
  0
LINE
  5
A87A
330
18
100
AcDbEntity
  8
1DIM
100
AcDbLine
 10
29.96795762415841
 20
-415.5908717523259
 30
0.0
 11
29.96795762415841
 21
-413.5908717523259
 31
0.0
1001
ACAD
1000
DSTYLE
1002
{
1070
     3
1000
φ<>
1002
}
  0
LINE
  5
A87E
330
18
100
AcDbEntity
  8
1DIM
100
AcDbLine
 10
23.73030330706306
 20
-402.3268712683632
 30
0.0
 11
61.98827847516359
 21
-402.3268712683632
 31
0.0
  0
LINE
  5
A87F
330
18
100
AcDbEntity
  8
1DIM
100
AcDbLine
 10
61.98827847516359
 20
-402.3268712683632
 30
0.0
 11
61.98827847516359
 21
-443.8828022834234
 31
0.0
  0
LINE
  5
A880
330
18
100
AcDbEntity
  8
1DIM
100
AcDbLine
 10
61.98827847516359
 20
-443.8828022834234
 30
0.0
 11
23.73030330706306
 21
-443.8828022834234
 31
0.0
  0
LINE
  5
A881
330
18
100
AcDbEntity
  8
1DIM
100
AcDbLine
 10
23.73030330706306
 20
-443.8828022834234
 30
0.0
 11
23.73030330706306
 21
-402.3268712683632
 31
0.0
  0
TEXT
  5
A882
330
18
100
AcDbEntity
  8
1TEXT
  6
CONTINUOUS
100
AcDbText
 10
35.79402524987027
 20
-441.3940003744813
 30
0.0
 40
4.0
  1
付属品
100
AcDbText
  0
LINE
  5
A883
330
18
100
AcDbEntity
  8
1DIM
100
AcDbLine
 10
-57.88297086095827
 20
-304.8179002949191
 30
0.0
 11
-40.76280999999938
 21
-295.8669766253898
 31
0.0
1001
ACAD_DSTYLE_DIMRADIAL_EXTE
1070
   387
1070
     1
1070
   388
1040
0.0
1070
   390
1040
0.0
1001
ACAD
1000
DSTYLE
1002
{
1070
     3
1000
φ<>
1002
}
  0
LINE
  5
A884
330
18
100
AcDbEntity
  8
1DIM
100
AcDbLine
 10
-63.02286288400207
 20
-307.5051870290527
 30
0.0
 11
-64.79523944367236
 21
-308.4318376270298
 31
0.0
1001
ACAD_DSTYLE_DIMRADIAL_EXTE
1070
   387
1070
     1
1070
   388
1040
0.0
1070
   390
1040
0.0
1001
ACAD
1000
DSTYLE
1002
{
1070
     3
1000
φ<>
1002
}
  0
LINE
  5
A886
330
18
100
AcDbEntity
  8
1DIM
100
AcDbLine
 10
-61.25048632433179
 20
-306.5785364310756
 30
0.0
 11
-59.65534742062856
 21
-305.7445508928962
 31
0.0
1001
ACAD_DSTYLE_DIMRADIAL_EXTE
1070
   387
1070
     1
1070
   388
1040
0.0
1070
   390
1040
0.0
1001
ACAD
1000
DSTYLE
1002
{
1070
     3
1000
φ<>
1002
}
  0
SOLID
  5
A889
330
18
100
AcDbEntity
  8
1DIM
100
AcDbTrace
 10
-125.2310882165019
 20
-288.0876041337432
 30
0.0
 11
-126.7024014427645
 21
-289.4827200792245
 31
0.0
 12
-125.7630886975371
 22
-287.6858331384949
 32
0.0
 13
-125.7630886975371
 23
-287.6858331384949
 33
0.0
  0
LINE
  5
A88A
330
18
100
AcDbEntity
  8
1DIM
100
AcDbLine
 10
-125.4970884570195
 20
-287.8867186361191
 30
0.0
 11
-118.9145940545895
 21
-279.1705837485342
 31
0.0
  0
LINE
  5
A88B
330
18
100
AcDbEntity
  8
1DIM
100
AcDbLine
 10
-118.9145940545895
 20
-279.1705837485342
 30
0.0
 11
-71.64792738792279
 21
-279.1705837485342
 31
0.0
  0
TEXT
  5
A88C
330
18
100
AcDbEntity
  8
1DIM
  6
CONTINUOUS
100
AcDbText
 10
-116.4479273879228
 20
-272.6372504152009
 30
0.0
 40
3.5
  1
材質：亜鉛ダイキャスト
100
AcDbText
  0
TEXT
  5
A88D
330
18
100
AcDbEntity
  8
1DIM
  6
CONTINUOUS
100
AcDbText
 10
-116.3312607212561
 20
-278.4705837485342
 30
0.0
 40
3.5
  1
仕上げ：各種メッキ
100
AcDbText
  0
LINE
  5
A88E
330
18
100
AcDbEntity
  8
1DIM
100
AcDbLine
 10
-116.6954766491399
 20
-287.6615436619859
 30
0.0
 11
-95.69547664913992
 21
-287.6615436619859
 31
0.0
  0
LINE
  5
A88F
330
18
100
AcDbEntity
  8
1DIM
100
AcDbLine
 10
-128.6954766491399
 20
-299.6615436619859
 30
0.0
 11
-95.69547664913992
 21
-299.6615436619859
 31
0.0
  0
LINE
  5
A890
330
18
100
AcDbEntity
  8
1DIM
100
AcDbLine
 10
-96.69547664913992
 20
-289.6615436619859
 30
0.0
 11
-96.69547664913992
 21
-297.6615436619859
 31
0.0
  0
LINE
  5
A894
330
18
100
AcDbEntity
  8
1DIM
100
AcDbLine
 10
-65.15291687248012
 20
-299.6615436619859
 30
0.0
 11
-71.68118343091605
 21
-299.6615436619859
 31
0.0
1001
ACAD
1000
DSTYLE
1002
{
1070
   271
1070
     0
1002
}
  0
LINE
  5
A895
330
18
100
AcDbEntity
  8
1DIM
100
AcDbLine
 10
-54.15291687248012
 20
-292.5567813535106
 30
0.0
 11
-71.68118343091605
 21
-292.5567813535106
 31
0.0
1001
ACAD
1000
DSTYLE
1002
{
1070
   271
1070
     0
1002
}
  0
LINE
  5
A896
330
18
100
AcDbEntity
  8
1DIM
100
AcDbLine
 10
-70.68118343091605
 20
-297.6615436619859
 30
0.0
 11
-70.68118343091605
 21
-294.5567813535106
 31
0.0
1001
ACAD
1000
DSTYLE
1002
{
1070
   271
1070
     0
1002
}
  0
LINE
  5
A89A
330
18
100
AcDbEntity
  8
0
  6
BYBLOCK
100
AcDbLine
 10
-58.45291687248007
 20
-338.5890119122504
 30
0.0
 11
-60.45291687248007
 21
-338.0531135322504
 31
0.0
  0
LINE
  5
A89B
330
18
100
AcDbEntity
  8
0
  6
BYBLOCK
100
AcDbLine
 10
-60.45291687248007
 20
-338.0531135322504
 30
0.0
 11
-58.45291687248007
 21
-337.5172151522505
 31
0.0
  0
LINE
  5
A89C
330
18
100
AcDbEntity
  8
0
  6
BYBLOCK
100
AcDbLine
 10
-60.45291687248007
 20
-338.0531135322504
 30
0.0
 11
-58.45291687248007
 21
-338.0531135322504
 31
0.0
  0
LINE
  5
A89D
330
18
100
AcDbEntity
  8
0
  6
BYBLOCK
100
AcDbLine
 10
-67.15291687247978
 20
-337.5172151522505
 30
0.0
 11
-65.15291687247978
 21
-338.0531135322504
 31
0.0
  0
LINE
  5
A89E
330
18
100
AcDbEntity
  8
0
  6
BYBLOCK
100
AcDbLine
 10
-65.15291687247978
 20
-338.0531135322504
 30
0.0
 11
-67.15291687247978
 21
-338.5890119122504
 31
0.0
  0
LINE
  5
A89F
330
18
100
AcDbEntity
  8
0
  6
BYBLOCK
100
AcDbLine
 10
-65.15291687247978
 20
-338.0531135322504
 30
0.0
 11
-67.15291687247978
 21
-338.0531135322504
 31
0.0
  0
TEXT
  5
A8A0
330
18
100
AcDbEntity
  8
1DIM
  6
CONTINUOUS
100
AcDbText
 10
-63.96958353914659
 20
-337.3531135322504
 30
0.0
 40
3.5
  1
5
100
AcDbText
1001
ACAD
1000
DSTYLE
1002
{
1070
   271
1070
     0
1002
}
  0
LINE
  5
A8A1
330
18
100
AcDbEntity
  8
0
  6
BYBLOCK
100
AcDbLine
 10
-86.15957826913991
 20
-322.6615436619859
 30
0.0
 11
-86.69547664913992
 21
-324.6615436619859
 31
0.0
  0
LINE
  5
A8A2
330
18
100
AcDbEntity
  8
0
  6
BYBLOCK
100
AcDbLine
 10
-86.69547664913992
 20
-324.6615436619859
 30
0.0
 11
-87.23137502913993
 21
-322.6615436619859
 31
0.0
  0
LINE
  5
A8A3
330
18
100
AcDbEntity
  8
0
  6
BYBLOCK
100
AcDbLine
 10
-86.69547664913992
 20
-324.6615436619859
 30
0.0
 11
-86.69547664913992
 21
-322.6615436619859
 31
0.0
  0
LINE
  5
A8A4
330
18
100
AcDbEntity
  8
0
  6
BYBLOCK
100
AcDbLine
 10
-87.23137502913993
 20
-289.6615436619859
 30
0.0
 11
-86.69547664913992
 21
-287.6615436619859
 31
0.0
  0
LINE
  5
A8A5
330
18
100
AcDbEntity
  8
0
  6
BYBLOCK
100
AcDbLine
 10
-86.69547664913992
 20
-287.6615436619859
 30
0.0
 11
-86.15957826913991
 21
-289.6615436619859
 31
0.0
  0
LINE
  5
A8A6
330
18
100
AcDbEntity
  8
0
  6
BYBLOCK
100
AcDbLine
 10
-86.69547664913992
 20
-287.6615436619859
 30
0.0
 11
-86.69547664913992
 21
-289.6615436619859
 31
0.0
  0
TEXT
  5
A8A7
330
18
100
AcDbEntity
  8
1DIM
  6
CONTINUOUS
100
AcDbText
 10
-87.39547664913994
 20
-309.0782103286525
 30
0.0
 40
3.5
  1
37
 50
90.0
100
AcDbText
  0
LINE
  5
A8A8
330
18
100
AcDbEntity
  8
0
  6
BYBLOCK
100
AcDbLine
 10
-96.15957826913991
 20
-317.6615436619859
 30
0.0
 11
-96.69547664913992
 21
-319.6615436619859
 31
0.0
  0
LINE
  5
A8A9
330
18
100
AcDbEntity
  8
0
  6
BYBLOCK
100
AcDbLine
 10
-96.69547664913992
 20
-319.6615436619859
 30
0.0
 11
-97.23137502913993
 21
-317.6615436619859
 31
0.0
  0
LINE
  5
A8AA
330
18
100
AcDbEntity
  8
0
  6
BYBLOCK
100
AcDbLine
 10
-96.69547664913992
 20
-319.6615436619859
 30
0.0
 11
-96.69547664913992
 21
-317.6615436619859
 31
0.0
  0
LINE
  5
A8AB
330
18
100
AcDbEntity
  8
0
  6
BYBLOCK
100
AcDbLine
 10
-97.23137502913993
 20
-301.6615436619859
 30
0.0
 11
-96.69547664913992
 21
-299.6615436619859
 31
0.0
  0
LINE
  5
A8AC
330
18
100
AcDbEntity
  8
0
  6
BYBLOCK
100
AcDbLine
 10
-96.69547664913992
 20
-299.6615436619859
 30
0.0
 11
-96.15957826913991
 21
-301.6615436619859
 31
0.0
  0
LINE
  5
A8AD
330
18
100
AcDbEntity
  8
0
  6
BYBLOCK
100
AcDbLine
 10
-96.69547664913992
 20
-299.6615436619859
 30
0.0
 11
-96.69547664913992
 21
-301.6615436619859
 31
0.0
  0
TEXT
  5
A8AE
330
18
100
AcDbEntity
  8
1DIM
  6
CONTINUOUS
100
AcDbText
 10
-97.39547664913994
 20
-312.3594603286525
 30
0.0
 40
3.5
  1
20
 50
90.0
100
AcDbText
  0
LINE
  5
A8AF
330
18
100
AcDbEntity
  8
0
  6
BYBLOCK
100
AcDbLine
 10
-212.6954766491399
 20
-347.1515019359506
 30
0.0
 11
-214.6954766491399
 21
-346.6156035559507
 31
0.0
  0
LINE
  5
A8B0
330
18
100
AcDbEntity
  8
0
  6
BYBLOCK
100
AcDbLine
 10
-214.6954766491399
 20
-346.6156035559507
 30
0.0
 11
-212.6954766491399
 21
-346.0797051759507
 31
0.0
  0
LINE
  5
A8B1
330
18
100
AcDbEntity
  8
0
  6
BYBLOCK
100
AcDbLine
 10
-214.6954766491399
 20
-346.6156035559507
 30
0.0
 11
-212.6954766491399
 21
-346.6156035559507
 31
0.0
  0
LINE
  5
A8B2
330
18
100
AcDbEntity
  8
0
  6
BYBLOCK
100
AcDbLine
 10
-118.6954766491398
 20
-346.0797051759507
 30
0.0
 11
-116.6954766491398
 21
-346.6156035559507
 31
0.0
  0
LINE
  5
A8B3
330
18
100
AcDbEntity
  8
0
  6
BYBLOCK
100
AcDbLine
 10
-116.6954766491398
 20
-346.6156035559507
 30
0.0
 11
-118.6954766491398
 21
-347.1515019359506
 31
0.0
  0
LINE
  5
A8B4
330
18
100
AcDbEntity
  8
0
  6
BYBLOCK
100
AcDbLine
 10
-116.6954766491398
 20
-346.6156035559507
 30
0.0
 11
-118.6954766491398
 21
-346.6156035559507
 31
0.0
  0
TEXT
  5
A8B5
330
18
100
AcDbEntity
  8
1DIM
  6
CONTINUOUS
100
AcDbText
 10
-168.6137636861769
 20
-345.9156035559507
 30
0.0
 40
3.5
  1
98
100
AcDbText
  0
LINE
  5
A8B6
330
18
100
AcDbEntity
  8
0
  6
BYBLOCK
100
AcDbLine
 10
-203.6954766491399
 20
-338.5890119122504
 30
0.0
 11
-205.6954766491399
 21
-338.0531135322504
 31
0.0
  0
LINE
  5
A8B7
330
18
100
AcDbEntity
  8
0
  6
BYBLOCK
100
AcDbLine
 10
-205.6954766491399
 20
-338.0531135322504
 30
0.0
 11
-203.6954766491399
 21
-337.5172151522505
 31
0.0
  0
LINE
  5
A8B8
330
18
100
AcDbEntity
  8
0
  6
BYBLOCK
100
AcDbLine
 10
-205.6954766491399
 20
-338.0531135322504
 30
0.0
 11
-203.6954766491399
 21
-338.0531135322504
 31
0.0
  0
LINE
  5
A8B9
330
18
100
AcDbEntity
  8
0
  6
BYBLOCK
100
AcDbLine
 10
-127.6954766491398
 20
-337.5172151522505
 30
0.0
 11
-125.6954766491398
 21
-338.0531135322504
 31
0.0
  0
LINE
  5
A8BA
330
18
100
AcDbEntity
  8
0
  6
BYBLOCK
100
AcDbLine
 10
-125.6954766491398
 20
-338.0531135322504
 30
0.0
 11
-127.6954766491398
 21
-338.5890119122504
 31
0.0
  0
LINE
  5
A8BB
330
18
100
AcDbEntity
  8
0
  6
BYBLOCK
100
AcDbLine
 10
-125.6954766491398
 20
-338.0531135322504
 30
0.0
 11
-127.6954766491398
 21
-338.0531135322504
 31
0.0
  0
TEXT
  5
A8BC
330
18
100
AcDbEntity
  8
1DIM
  6
CONTINUOUS
100
AcDbText
 10
-168.3933933158065
 20
-337.3531135322505
 30
0.0
 40
3.5
  1
80
100
AcDbText
  0
LINE
  5
A8BD
330
18
100
AcDbEntity
  8
0
  6
BYBLOCK
100
AcDbLine
 10
-97.23137502913993
 20
-372.4944267565178
 30
0.0
 11
-96.69547664913992
 21
-370.4944267565178
 31
0.0
  0
LINE
  5
A8BE
330
18
100
AcDbEntity
  8
0
  6
BYBLOCK
100
AcDbLine
 10
-96.69547664913992
 20
-370.4944267565178
 30
0.0
 11
-96.15957826913991
 21
-372.4944267565178
 31
0.0
  0
LINE
  5
A8BF
330
18
100
AcDbEntity
  8
0
  6
BYBLOCK
100
AcDbLine
 10
-96.69547664913992
 20
-370.4944267565178
 30
0.0
 11
-96.69547664913992
 21
-372.4944267565178
 31
0.0
  0
LINE
  5
A8C0
330
18
100
AcDbEntity
  8
0
  6
BYBLOCK
100
AcDbLine
 10
-96.15957826913991
 20
-366.9944267565169
 30
0.0
 11
-96.69547664913992
 21
-368.9944267565169
 31
0.0
  0
LINE
  5
A8C1
330
18
100
AcDbEntity
  8
0
  6
BYBLOCK
100
AcDbLine
 10
-96.69547664913992
 20
-368.9944267565169
 30
0.0
 11
-97.23137502913993
 21
-366.9944267565169
 31
0.0
  0
LINE
  5
A8C2
330
18
100
AcDbEntity
  8
0
  6
BYBLOCK
100
AcDbLine
 10
-96.69547664913992
 20
-368.9944267565169
 30
0.0
 11
-96.69547664913992
 21
-366.9944267565169
 31
0.0
  0
TEXT
  5
A8C3
330
18
100
AcDbEntity
  8
1DIM
  6
CONTINUOUS
100
AcDbText
 10
-97.39547664914
 20
-363.7944267565169
 30
0.0
 40
3.5
  1
1.5
 50
90.0
100
AcDbText
1001
ACAD
1000
DSTYLE
1002
{
1070
   271
1070
     1
1002
}
  0
LINE
  5
A8C4
330
18
100
AcDbEntity
  8
0
  6
BYBLOCK
100
AcDbLine
 10
-97.23137502913993
 20
-372.4944267565178
 30
0.0
 11
-96.69547664913992
 21
-370.4944267565178
 31
0.0
  0
LINE
  5
A8C5
330
18
100
AcDbEntity
  8
0
  6
BYBLOCK
100
AcDbLine
 10
-96.69547664913992
 20
-370.4944267565178
 30
0.0
 11
-96.15957826913991
 21
-372.4944267565178
 31
0.0
  0
LINE
  5
A8C6
330
18
100
AcDbEntity
  8
0
  6
BYBLOCK
100
AcDbLine
 10
-96.69547664913992
 20
-370.4944267565178
 30
0.0
 11
-96.69547664913992
 21
-372.4944267565178
 31
0.0
  0
LINE
  5
A8C7
330
18
100
AcDbEntity
  8
0
  6
BYBLOCK
100
AcDbLine
 10
-96.15957826913991
 20
-380.4944267565178
 30
0.0
 11
-96.69547664913992
 21
-382.4944267565178
 31
0.0
  0
LINE
  5
A8C8
330
18
100
AcDbEntity
  8
0
  6
BYBLOCK
100
AcDbLine
 10
-96.69547664913992
 20
-382.4944267565178
 30
0.0
 11
-97.23137502913993
 21
-380.4944267565178
 31
0.0
  0
LINE
  5
A8C9
330
18
100
AcDbEntity
  8
0
  6
BYBLOCK
100
AcDbLine
 10
-96.69547664913992
 20
-382.4944267565178
 30
0.0
 11
-96.69547664913992
 21
-380.4944267565178
 31
0.0
  0
TEXT
  5
A8CA
330
18
100
AcDbEntity
  8
1DIM
  6
CONTINUOUS
100
AcDbText
 10
-97.39547664913994
 20
-378.8277600898512
 30
0.0
 40
3.5
  1
12
 50
90.0
100
AcDbText
1001
ACAD
1000
DSTYLE
1002
{
1070
   271
1070
     0
1002
}
  0
LINE
  5
A8CB
330
18
100
AcDbEntity
  8
0
  6
BYBLOCK
100
AcDbLine
 10
-87.23137502913993
 20
-370.9944267565169
 30
0.0
 11
-86.69547664913992
 21
-368.9944267565169
 31
0.0
  0
LINE
  5
A8CC
330
18
100
AcDbEntity
  8
0
  6
BYBLOCK
100
AcDbLine
 10
-86.69547664913992
 20
-368.9944267565169
 30
0.0
 11
-86.15957826913991
 21
-370.9944267565169
 31
0.0
  0
LINE
  5
A8CD
330
18
100
AcDbEntity
  8
0
  6
BYBLOCK
100
AcDbLine
 10
-86.69547664913992
 20
-368.9944267565169
 30
0.0
 11
-86.69547664913992
 21
-370.9944267565169
 31
0.0
  0
LINE
  5
A8CE
330
18
100
AcDbEntity
  8
0
  6
BYBLOCK
100
AcDbLine
 10
-86.15957826913991
 20
-380.4944267565178
 30
0.0
 11
-86.69547664913992
 21
-382.4944267565178
 31
0.0
  0
LINE
  5
A8CF
330
18
100
AcDbEntity
  8
0
  6
BYBLOCK
100
AcDbLine
 10
-86.69547664913992
 20
-382.4944267565178
 30
0.0
 11
-87.23137502913993
 21
-380.4944267565178
 31
0.0
  0
LINE
  5
A8D0
330
18
100
AcDbEntity
  8
0
  6
BYBLOCK
100
AcDbLine
 10
-86.69547664913992
 20
-382.4944267565178
 30
0.0
 11
-86.69547664913992
 21
-380.4944267565178
 31
0.0
  0
TEXT
  5
A8D1
330
18
100
AcDbEntity
  8
1DIM
  6
CONTINUOUS
100
AcDbText
 10
-87.39547664914
 20
-380.4110934231841
 30
0.0
 40
3.5
  1
13.5
 50
90.0
100
AcDbText
1001
ACAD
1000
DSTYLE
1002
{
1070
   271
1070
     1
1002
}
  0
LINE
  5
A8D2
330
18
100
AcDbEntity
  8
0
  6
BYBLOCK
100
AcDbLine
 10
-86.15957826914003
 20
-433.5433294636731
 30
0.0
 11
-86.69547664914003
 21
-435.5433294636731
 31
0.0
  0
LINE
  5
A8D3
330
18
100
AcDbEntity
  8
0
  6
BYBLOCK
100
AcDbLine
 10
-86.69547664914003
 20
-435.5433294636731
 30
0.0
 11
-87.23137502914004
 21
-433.5433294636731
 31
0.0
  0
LINE
  5
A8D4
330
18
100
AcDbEntity
  8
0
  6
BYBLOCK
100
AcDbLine
 10
-86.69547664914003
 20
-435.5433294636731
 30
0.0
 11
-86.69547664914003
 21
-433.5433294636731
 31
0.0
  0
LINE
  5
A8D5
330
18
100
AcDbEntity
  8
0
  6
BYBLOCK
100
AcDbLine
 10
-87.23137502914004
 20
-406.5433294636726
 30
0.0
 11
-86.69547664914003
 21
-404.5433294636726
 31
0.0
  0
LINE
  5
A8D6
330
18
100
AcDbEntity
  8
0
  6
BYBLOCK
100
AcDbLine
 10
-86.69547664914003
 20
-404.5433294636726
 30
0.0
 11
-86.15957826914003
 21
-406.5433294636726
 31
0.0
  0
LINE
  5
A8D7
330
18
100
AcDbEntity
  8
0
  6
BYBLOCK
100
AcDbLine
 10
-86.69547664914003
 20
-404.5433294636726
 30
0.0
 11
-86.69547664914003
 21
-406.5433294636726
 31
0.0
  0
TEXT
  5
A8D8
330
18
100
AcDbEntity
  8
1DIM
  6
CONTINUOUS
100
AcDbText
 10
-87.39547664914005
 20
-422.3766627970062
 30
0.0
 40
3.5
  1
31
 50
90.0
100
AcDbText
  0
LINE
  5
A8D9
330
18
100
AcDbEntity
  8
0
  6
BYBLOCK
100
AcDbLine
 10
-96.15957826914003
 20
-433.5433294636726
 30
0.0
 11
-96.69547664914003
 21
-435.5433294636726
 31
0.0
  0
LINE
  5
A8DA
330
18
100
AcDbEntity
  8
0
  6
BYBLOCK
100
AcDbLine
 10
-96.69547664914003
 20
-435.5433294636726
 30
0.0
 11
-97.23137502914004
 21
-433.5433294636726
 31
0.0
  0
LINE
  5
A8DB
330
18
100
AcDbEntity
  8
0
  6
BYBLOCK
100
AcDbLine
 10
-96.69547664914003
 20
-435.5433294636726
 30
0.0
 11
-96.69547664914003
 21
-433.5433294636726
 31
0.0
  0
LINE
  5
A8DC
330
18
100
AcDbEntity
  8
0
  6
BYBLOCK
100
AcDbLine
 10
-97.23137502914004
 20
-431.0433294636731
 30
0.0
 11
-96.69547664914003
 21
-429.0433294636731
 31
0.0
  0
LINE
  5
A8DD
330
18
100
AcDbEntity
  8
0
  6
BYBLOCK
100
AcDbLine
 10
-96.69547664914003
 20
-429.0433294636731
 30
0.0
 11
-96.15957826914003
 21
-431.0433294636731
 31
0.0
  0
LINE
  5
A8DE
330
18
100
AcDbEntity
  8
0
  6
BYBLOCK
100
AcDbLine
 10
-96.69547664914003
 20
-429.0433294636731
 30
0.0
 11
-96.69547664914003
 21
-431.0433294636731
 31
0.0
  0
TEXT
  5
A8DF
330
18
100
AcDbEntity
  8
1DIM
  6
CONTINUOUS
100
AcDbText
 10
-97.39547664914011
 20
-426.2721489081167
 30
0.0
 40
3.5
  1
6.5
 50
90.0
100
AcDbText
  0
LINE
  5
A8E0
330
18
100
AcDbEntity
  8
0
  6
BYBLOCK
100
AcDbLine
 10
-86.15957826914003
 20
-433.5433294636731
 30
0.0
 11
-86.69547664914003
 21
-435.5433294636731
 31
0.0
  0
LINE
  5
A8E1
330
18
100
AcDbEntity
  8
0
  6
BYBLOCK
100
AcDbLine
 10
-86.69547664914003
 20
-435.5433294636731
 30
0.0
 11
-87.23137502914004
 21
-433.5433294636731
 31
0.0
  0
LINE
  5
A8E2
330
18
100
AcDbEntity
  8
0
  6
BYBLOCK
100
AcDbLine
 10
-86.69547664914003
 20
-435.5433294636731
 30
0.0
 11
-86.69547664914003
 21
-433.5433294636731
 31
0.0
  0
LINE
  5
A8E3
330
18
100
AcDbEntity
  8
0
  6
BYBLOCK
100
AcDbLine
 10
-87.23137502914004
 20
-440.5433294636726
 30
0.0
 11
-86.69547664914003
 21
-438.5433294636726
 31
0.0
  0
LINE
  5
A8E4
330
18
100
AcDbEntity
  8
0
  6
BYBLOCK
100
AcDbLine
 10
-86.69547664914003
 20
-438.5433294636726
 30
0.0
 11
-86.15957826914003
 21
-440.5433294636726
 31
0.0
  0
LINE
  5
A8E5
330
18
100
AcDbEntity
  8
0
  6
BYBLOCK
100
AcDbLine
 10
-86.69547664914003
 20
-438.5433294636726
 30
0.0
 11
-86.69547664914003
 21
-440.5433294636726
 31
0.0
  0
TEXT
  5
A8E6
330
18
100
AcDbEntity
  8
1DIM
  6
CONTINUOUS
100
AcDbText
 10
-87.39547664914005
 20
-445.576662797006
 30
0.0
 40
3.5
  1
3
 50
90.0
100
AcDbText
  0
LINE
  5
A8E7
330
18
100
AcDbEntity
  8
0
  6
BYBLOCK
100
AcDbLine
 10
-87.23137502914004
 20
-406.5433294636726
 30
0.0
 11
-86.69547664914003
 21
-404.5433294636726
 31
0.0
  0
LINE
  5
A8E8
330
18
100
AcDbEntity
  8
0
  6
BYBLOCK
100
AcDbLine
 10
-86.69547664914003
 20
-404.5433294636726
 30
0.0
 11
-86.15957826914003
 21
-406.5433294636726
 31
0.0
  0
LINE
  5
A8E9
330
18
100
AcDbEntity
  8
0
  6
BYBLOCK
100
AcDbLine
 10
-86.69547664914003
 20
-404.5433294636726
 30
0.0
 11
-86.69547664914003
 21
-406.5433294636726
 31
0.0
  0
LINE
  5
A8EA
330
18
100
AcDbEntity
  8
0
  6
BYBLOCK
100
AcDbLine
 10
-86.15957826914003
 20
-399.5433294636731
 30
0.0
 11
-86.69547664914003
 21
-401.5433294636731
 31
0.0
  0
LINE
  5
A8EB
330
18
100
AcDbEntity
  8
0
  6
BYBLOCK
100
AcDbLine
 10
-86.69547664914003
 20
-401.5433294636731
 30
0.0
 11
-87.23137502914004
 21
-399.5433294636731
 31
0.0
  0
LINE
  5
A8EC
330
18
100
AcDbEntity
  8
0
  6
BYBLOCK
100
AcDbLine
 10
-86.69547664914003
 20
-401.5433294636731
 30
0.0
 11
-86.69547664914003
 21
-399.5433294636731
 31
0.0
  0
TEXT
  5
A8ED
330
18
100
AcDbEntity
  8
1DIM
  6
CONTINUOUS
100
AcDbText
 10
-87.39547664914005
 20
-396.8433294636731
 30
0.0
 40
3.5
  1
3
 50
90.0
100
AcDbText
  0
LINE
  5
A8EE
330
18
100
AcDbEntity
  8
0
  6
BYBLOCK
100
AcDbLine
 10
-209.69547664914
 20
-469.0792278436731
 30
0.0
 11
-211.69547664914
 21
-468.5433294636731
 31
0.0
  0
LINE
  5
A8EF
330
18
100
AcDbEntity
  8
0
  6
BYBLOCK
100
AcDbLine
 10
-211.69547664914
 20
-468.5433294636731
 30
0.0
 11
-209.69547664914
 21
-468.0074310836731
 31
0.0
  0
LINE
  5
A8F0
330
18
100
AcDbEntity
  8
0
  6
BYBLOCK
100
AcDbLine
 10
-211.69547664914
 20
-468.5433294636731
 30
0.0
 11
-209.69547664914
 21
-468.5433294636731
 31
0.0
  0
LINE
  5
A8F1
330
18
100
AcDbEntity
  8
0
  6
BYBLOCK
100
AcDbLine
 10
-121.6954766491399
 20
-468.0074310836731
 30
0.0
 11
-119.6954766491399
 21
-468.5433294636731
 31
0.0
  0
LINE
  5
A8F2
330
18
100
AcDbEntity
  8
0
  6
BYBLOCK
100
AcDbLine
 10
-119.6954766491399
 20
-468.5433294636731
 30
0.0
 11
-121.6954766491399
 21
-469.0792278436731
 31
0.0
  0
LINE
  5
A8F3
330
18
100
AcDbEntity
  8
0
  6
BYBLOCK
100
AcDbLine
 10
-119.6954766491399
 20
-468.5433294636731
 30
0.0
 11
-121.6954766491399
 21
-468.5433294636731
 31
0.0
  0
TEXT
  5
A8F4
330
18
100
AcDbEntity
  8
1DIM
  6
CONTINUOUS
100
AcDbText
 10
-168.613763686177
 20
-467.8433294636731
 30
0.0
 40
3.5
  1
92
100
AcDbText
  0
LINE
  5
A8F5
330
18
100
AcDbEntity
  8
0
  6
BYBLOCK
100
AcDbLine
 10
-121.6954766491399
 20
-468.0074310836731
 30
0.0
 11
-119.6954766491399
 21
-468.5433294636731
 31
0.0
  0
LINE
  5
A8F6
330
18
100
AcDbEntity
  8
0
  6
BYBLOCK
100
AcDbLine
 10
-119.6954766491399
 20
-468.5433294636731
 30
0.0
 11
-121.6954766491399
 21
-469.0792278436731
 31
0.0
  0
LINE
  5
A8F7
330
18
100
AcDbEntity
  8
0
  6
BYBLOCK
100
AcDbLine
 10
-119.6954766491399
 20
-468.5433294636731
 30
0.0
 11
-121.6954766491399
 21
-468.5433294636731
 31
0.0
  0
LINE
  5
A8F8
330
18
100
AcDbEntity
  8
0
  6
BYBLOCK
100
AcDbLine
 10
-114.6954766491399
 20
-469.0792278436731
 30
0.0
 11
-116.6954766491399
 21
-468.5433294636731
 31
0.0
  0
LINE
  5
A8F9
330
18
100
AcDbEntity
  8
0
  6
BYBLOCK
100
AcDbLine
 10
-116.6954766491399
 20
-468.5433294636731
 30
0.0
 11
-114.6954766491399
 21
-468.0074310836731
 31
0.0
  0
LINE
  5
A8FA
330
18
100
AcDbEntity
  8
0
  6
BYBLOCK
100
AcDbLine
 10
-116.6954766491399
 20
-468.5433294636731
 30
0.0
 11
-114.6954766491399
 21
-468.5433294636731
 31
0.0
  0
TEXT
  5
A8FB
330
18
100
AcDbEntity
  8
1DIM
  6
CONTINUOUS
100
AcDbText
 10
-111.9954766491399
 20
-467.8433294636731
 30
0.0
 40
3.5
  1
3
100
AcDbText
  0
LINE
  5
A8FC
330
18
100
AcDbEntity
  8
0
  6
BYBLOCK
100
AcDbLine
 10
-206.19547664914
 20
-459.0792278436731
 30
0.0
 11
-208.19547664914
 21
-458.5433294636731
 31
0.0
  0
LINE
  5
A8FD
330
18
100
AcDbEntity
  8
0
  6
BYBLOCK
100
AcDbLine
 10
-208.19547664914
 20
-458.5433294636731
 30
0.0
 11
-206.19547664914
 21
-458.0074310836731
 31
0.0
  0
LINE
  5
A8FE
330
18
100
AcDbEntity
  8
0
  6
BYBLOCK
100
AcDbLine
 10
-208.19547664914
 20
-458.5433294636731
 30
0.0
 11
-206.19547664914
 21
-458.5433294636731
 31
0.0
  0
LINE
  5
A8FF
330
18
100
AcDbEntity
  8
0
  6
BYBLOCK
100
AcDbLine
 10
-125.19547664914
 20
-458.0074310836731
 30
0.0
 11
-123.19547664914
 21
-458.5433294636731
 31
0.0
  0
LINE
  5
A900
330
18
100
AcDbEntity
  8
0
  6
BYBLOCK
100
AcDbLine
 10
-123.19547664914
 20
-458.5433294636731
 30
0.0
 11
-125.19547664914
 21
-459.0792278436731
 31
0.0
  0
LINE
  5
A901
330
18
100
AcDbEntity
  8
0
  6
BYBLOCK
100
AcDbLine
 10
-123.19547664914
 20
-458.5433294636731
 30
0.0
 11
-125.19547664914
 21
-458.5433294636731
 31
0.0
  0
TEXT
  5
A902
330
18
100
AcDbEntity
  8
1DIM
  6
CONTINUOUS
100
AcDbText
 10
-170.3621433158067
 20
-457.8433294636731
 30
0.0
 40
3.5
  1
P85
100
AcDbText
  0
LINE
  5
A903
330
18
100
AcDbEntity
  8
0
  6
BYBLOCK
100
AcDbLine
 10
-209.69547664914
 20
-469.0792278436726
 30
0.0
 11
-211.69547664914
 21
-468.5433294636726
 31
0.0
  0
LINE
  5
A904
330
18
100
AcDbEntity
  8
0
  6
BYBLOCK
100
AcDbLine
 10
-211.69547664914
 20
-468.5433294636726
 30
0.0
 11
-209.69547664914
 21
-468.0074310836727
 31
0.0
  0
LINE
  5
A905
330
18
100
AcDbEntity
  8
0
  6
BYBLOCK
100
AcDbLine
 10
-211.69547664914
 20
-468.5433294636726
 30
0.0
 11
-209.69547664914
 21
-468.5433294636726
 31
0.0
  0
LINE
  5
A906
330
18
100
AcDbEntity
  8
0
  6
BYBLOCK
100
AcDbLine
 10
-216.69547664914
 20
-468.0074310836727
 30
0.0
 11
-214.69547664914
 21
-468.5433294636726
 31
0.0
  0
LINE
  5
A907
330
18
100
AcDbEntity
  8
0
  6
BYBLOCK
100
AcDbLine
 10
-214.69547664914
 20
-468.5433294636726
 30
0.0
 11
-216.69547664914
 21
-469.0792278436726
 31
0.0
  0
LINE
  5
A908
330
18
100
AcDbEntity
  8
0
  6
BYBLOCK
100
AcDbLine
 10
-214.69547664914
 20
-468.5433294636726
 30
0.0
 11
-216.69547664914
 21
-468.5433294636726
 31
0.0
  0
TEXT
  5
A909
330
18
100
AcDbEntity
  8
1DIM
  6
CONTINUOUS
100
AcDbText
 10
-221.7288099824733
 20
-467.8433294636727
 30
0.0
 40
3.5
  1
3
100
AcDbText
  0
LINE
  5
A90A
330
18
100
AcDbEntity
  8
0
  6
BYBLOCK
100
AcDbLine
 10
-28.02370506712644
 20
-347.1515019359506
 30
0.0
 11
-30.02370506712644
 21
-346.6156035559507
 31
0.0
  0
LINE
  5
A90B
330
18
100
AcDbEntity
  8
0
  6
BYBLOCK
100
AcDbLine
 10
-30.02370506712644
 20
-346.6156035559507
 30
0.0
 11
-28.02370506712644
 21
-346.0797051759507
 31
0.0
  0
LINE
  5
A90C
330
18
100
AcDbEntity
  8
0
  6
BYBLOCK
100
AcDbLine
 10
-30.02370506712644
 20
-346.6156035559507
 30
0.0
 11
-28.02370506712644
 21
-346.6156035559507
 31
0.0
  0
LINE
  5
A90D
330
18
100
AcDbEntity
  8
0
  6
BYBLOCK
100
AcDbLine
 10
59.97629493287356
 20
-346.0797051759507
 30
0.0
 11
61.97629493287356
 21
-346.6156035559507
 31
0.0
  0
LINE
  5
A90E
330
18
100
AcDbEntity
  8
0
  6
BYBLOCK
100
AcDbLine
 10
61.97629493287356
 20
-346.6156035559507
 30
0.0
 11
59.97629493287356
 21
-347.1515019359506
 31
0.0
  0
LINE
  5
A90F
330
18
100
AcDbEntity
  8
0
  6
BYBLOCK
100
AcDbLine
 10
61.97629493287356
 20
-346.6156035559507
 30
0.0
 11
59.97629493287356
 21
-346.6156035559507
 31
0.0
  0
TEXT
  5
A910
330
18
100
AcDbEntity
  8
1DIM
  6
CONTINUOUS
100
AcDbText
 10
13.05800789583652
 20
-345.9156035559507
 30
0.0
 40
3.5
  1
92
100
AcDbText
  0
LINE
  5
A911
330
18
100
AcDbEntity
  8
0
  6
BYBLOCK
100
AcDbLine
 10
-24.52370506712646
 20
-338.5890119122504
 30
0.0
 11
-26.52370506712646
 21
-338.0531135322504
 31
0.0
  0
LINE
  5
A912
330
18
100
AcDbEntity
  8
0
  6
BYBLOCK
100
AcDbLine
 10
-26.52370506712646
 20
-338.0531135322504
 30
0.0
 11
-24.52370506712646
 21
-337.5172151522505
 31
0.0
  0
LINE
  5
A913
330
18
100
AcDbEntity
  8
0
  6
BYBLOCK
100
AcDbLine
 10
-26.52370506712646
 20
-338.0531135322504
 30
0.0
 11
-24.52370506712646
 21
-338.0531135322504
 31
0.0
  0
LINE
  5
A914
330
18
100
AcDbEntity
  8
0
  6
BYBLOCK
100
AcDbLine
 10
56.47629493287354
 20
-337.5172151522505
 30
0.0
 11
58.47629493287354
 21
-338.0531135322504
 31
0.0
  0
LINE
  5
A915
330
18
100
AcDbEntity
  8
0
  6
BYBLOCK
100
AcDbLine
 10
58.47629493287354
 20
-338.0531135322504
 30
0.0
 11
56.47629493287354
 21
-338.5890119122504
 31
0.0
  0
LINE
  5
A916
330
18
100
AcDbEntity
  8
0
  6
BYBLOCK
100
AcDbLine
 10
58.47629493287354
 20
-338.0531135322504
 30
0.0
 11
56.47629493287354
 21
-338.0531135322504
 31
0.0
  0
TEXT
  5
A917
330
18
100
AcDbEntity
  8
1DIM
  6
CONTINUOUS
100
AcDbText
 10
13.05962826620688
 20
-337.3531135322504
 30
0.0
 40
3.5
  1
85
100
AcDbText
  0
LINE
  5
A918
330
18
100
AcDbEntity
  8
0
  6
BYBLOCK
100
AcDbLine
 10
82.51219331287356
 20
-319.6615436619859
 30
0.0
 11
81.97629493287356
 21
-321.6615436619859
 31
0.0
  0
LINE
  5
A919
330
18
100
AcDbEntity
  8
0
  6
BYBLOCK
100
AcDbLine
 10
81.97629493287356
 20
-321.6615436619859
 30
0.0
 11
81.44039655287355
 21
-319.6615436619859
 31
0.0
  0
LINE
  5
A91A
330
18
100
AcDbEntity
  8
0
  6
BYBLOCK
100
AcDbLine
 10
81.97629493287356
 20
-321.6615436619859
 30
0.0
 11
81.97629493287356
 21
-319.6615436619859
 31
0.0
  0
LINE
  5
A91B
330
18
100
AcDbEntity
  8
0
  6
BYBLOCK
100
AcDbLine
 10
81.44039655287355
 20
-292.6615436619859
 30
0.0
 11
81.97629493287356
 21
-290.6615436619859
 31
0.0
  0
LINE
  5
A91C
330
18
100
AcDbEntity
  8
0
  6
BYBLOCK
100
AcDbLine
 10
81.97629493287356
 20
-290.6615436619859
 30
0.0
 11
82.51219331287356
 21
-292.6615436619859
 31
0.0
  0
LINE
  5
A91D
330
18
100
AcDbEntity
  8
0
  6
BYBLOCK
100
AcDbLine
 10
81.97629493287356
 20
-290.6615436619859
 30
0.0
 11
81.97629493287356
 21
-292.6615436619859
 31
0.0
  0
TEXT
  5
A91E
330
18
100
AcDbEntity
  8
1DIM
  6
CONTINUOUS
100
AcDbText
 10
81.27629493287361
 20
-308.4948769953193
 30
0.0
 40
3.5
  1
31
 50
90.0
100
AcDbText
  0
LINE
  5
A91F
330
18
100
AcDbEntity
  8
0
  6
BYBLOCK
100
AcDbLine
 10
73.45845636478417
 20
-295.1615436619859
 30
0.0
 11
72.92255798478416
 21
-297.1615436619859
 31
0.0
  0
LINE
  5
A920
330
18
100
AcDbEntity
  8
0
  6
BYBLOCK
100
AcDbLine
 10
72.92255798478416
 20
-297.1615436619859
 30
0.0
 11
72.38665960478416
 21
-295.1615436619859
 31
0.0
  0
LINE
  5
A921
330
18
100
AcDbEntity
  8
0
  6
BYBLOCK
100
AcDbLine
 10
72.92255798478416
 20
-297.1615436619859
 30
0.0
 11
72.92255798478416
 21
-295.1615436619859
 31
0.0
  0
LINE
  5
A922
330
18
100
AcDbEntity
  8
0
  6
BYBLOCK
100
AcDbLine
 10
72.38665960478416
 20
-292.6615436619859
 30
0.0
 11
72.92255798478416
 21
-290.6615436619859
 31
0.0
  0
LINE
  5
A923
330
18
100
AcDbEntity
  8
0
  6
BYBLOCK
100
AcDbLine
 10
72.92255798478416
 20
-290.6615436619859
 30
0.0
 11
73.45845636478417
 21
-292.6615436619859
 31
0.0
  0
LINE
  5
A924
330
18
100
AcDbEntity
  8
0
  6
BYBLOCK
100
AcDbLine
 10
72.92255798478416
 20
-290.6615436619859
 30
0.0
 11
72.92255798478416
 21
-292.6615436619859
 31
0.0
  0
TEXT
  5
A925
330
18
100
AcDbEntity
  8
1DIM
  6
CONTINUOUS
100
AcDbText
 10
72.22255798478415
 20
-287.8903631064303
 30
0.0
 40
3.5
  1
6.5
 50
90.0
100
AcDbText
  0
LINE
  5
A926
330
18
100
AcDbEntity
  8
0
  6
BYBLOCK
100
AcDbLine
 10
-30.14193001250806
 20
-289.7164377998212
 30
0.0
 11
-29.12421160220813
 21
-291.519611754553
 31
0.0
  0
LINE
  5
A927
330
18
100
AcDbEntity
  8
0
  6
BYBLOCK
100
AcDbLine
 10
-29.12421160220813
 20
-291.519611754553
 30
0.0
 11
-30.90716857201713
 21
-290.4668764993743
 31
0.0
  0
LINE
  5
A928
330
18
100
AcDbEntity
  8
0
  6
BYBLOCK
100
AcDbLine
 10
-29.12421160220813
 20
-291.519611754553
 30
0.0
 11
-30.52454929226259
 21
-290.0916571495977
 31
0.0
  0
TEXT
  5
A929
330
18
100
AcDbEntity
  8
1DIM
  6
CONTINUOUS
100
AcDbText
 10
-41.13411085496034
 20
-278.2730990921002
 30
0.0
 40
3.5
  1
4-R3
 50
314.4405520309748
100
AcDbText
  0
LINE
  5
A92A
330
18
100
AcDbEntity
  8
0
  6
BYBLOCK
100
AcDbLine
 10
82.51219331287355
 20
-380.9944267565178
 30
0.0
 11
81.97629493287354
 21
-382.9944267565178
 31
0.0
  0
LINE
  5
A92B
330
18
100
AcDbEntity
  8
0
  6
BYBLOCK
100
AcDbLine
 10
81.97629493287354
 20
-382.9944267565178
 30
0.0
 11
81.44039655287354
 21
-380.9944267565178
 31
0.0
  0
LINE
  5
A92C
330
18
100
AcDbEntity
  8
0
  6
BYBLOCK
100
AcDbLine
 10
81.97629493287354
 20
-382.9944267565178
 30
0.0
 11
81.97629493287354
 21
-380.9944267565178
 31
0.0
  0
LINE
  5
A92D
330
18
100
AcDbEntity
  8
0
  6
BYBLOCK
100
AcDbLine
 10
81.44039655287354
 20
-372.4944267565178
 30
0.0
 11
81.97629493287354
 21
-370.4944267565178
 31
0.0
  0
LINE
  5
A92E
330
18
100
AcDbEntity
  8
0
  6
BYBLOCK
100
AcDbLine
 10
81.97629493287354
 20
-370.4944267565178
 30
0.0
 11
82.51219331287355
 21
-372.4944267565178
 31
0.0
  0
LINE
  5
A92F
330
18
100
AcDbEntity
  8
0
  6
BYBLOCK
100
AcDbLine
 10
81.97629493287354
 20
-370.4944267565178
 30
0.0
 11
81.97629493287354
 21
-372.4944267565178
 31
0.0
  0
TEXT
  5
A930
330
18
100
AcDbEntity
  8
1DIM
  6
CONTINUOUS
100
AcDbText
 10
81.2762949328735
 20
-381.4110934231845
 30
0.0
 40
3.5
  1
12.5
 50
90.0
100
AcDbText
  0
LINE
  5
A931
330
18
100
AcDbEntity
  8
0
  6
BYBLOCK
100
AcDbLine
 10
60.83487801906576
 20
-300.7374034046514
 30
0.0
 11
59.94038638582489
 21
-298.870033116854
 31
0.0
  0
LINE
  5
A932
330
18
100
AcDbEntity
  8
0
  6
BYBLOCK
100
AcDbLine
 10
59.94038638582489
 20
-298.870033116854
 30
0.0
 11
61.64872400227534
 21
-300.0399774154883
 31
0.0
  0
LINE
  5
A933
330
18
100
AcDbEntity
  8
0
  6
BYBLOCK
100
AcDbLine
 10
59.94038638582489
 20
-298.870033116854
 30
0.0
 11
61.24180101067055
 21
-300.3886904100698
 31
0.0
  0
LINE
  5
A934
330
18
100
AcDbEntity
  8
0
  6
BYBLOCK
100
AcDbLine
 10
56.11771184668127
 20
-293.5856839193207
 30
0.0
 11
57.01220347992214
 21
-295.4530542071181
 31
0.0
  0
LINE
  5
A935
330
18
100
AcDbEntity
  8
0
  6
BYBLOCK
100
AcDbLine
 10
57.01220347992214
 20
-295.4530542071181
 30
0.0
 11
55.30386586347169
 21
-294.2831099084838
 31
0.0
  0
LINE
  5
A936
330
18
100
AcDbEntity
  8
0
  6
BYBLOCK
100
AcDbLine
 10
57.01220347992214
 20
-295.4530542071181
 30
0.0
 11
55.71078885507648
 21
-293.9343969139022
 31
0.0
  0
TEXT
  5
A937
330
18
100
AcDbEntity
  8
1DIM
  6
CONTINUOUS
100
AcDbText
 10
35.99149579901822
 20
-269.847647296837
 30
0.0
 40
3.5
  1
2-\U+22054.5貫通
 50
310.5949514483762
100
AcDbText
1001
ACAD
1000
DSTYLE
1002
{
1070
     3
1000
%%c<>貫通
1002
}
  0
LINE
  5
A938
330
18
100
AcDbEntity
  8
0
  6
BYBLOCK
100
AcDbLine
 10
51.83122152190945
 20
-432.5413284400819
 30
0.0
 11
53.83122152190945
 21
-433.0772268200819
 31
0.0
  0
LINE
  5
A939
330
18
100
AcDbEntity
  8
0
  6
BYBLOCK
100
AcDbLine
 10
53.83122152190945
 20
-433.0772268200819
 30
0.0
 11
51.83122152190945
 21
-433.6131252000819
 31
0.0
  0
LINE
  5
A93A
330
18
100
AcDbEntity
  8
0
  6
BYBLOCK
100
AcDbLine
 10
53.83122152190945
 20
-433.0772268200819
 30
0.0
 11
51.83122152190945
 21
-433.0772268200819
 31
0.0
  0
LINE
  5
A93B
330
18
100
AcDbEntity
  8
0
  6
BYBLOCK
100
AcDbLine
 10
42.8312215219099
 20
-433.6131252000819
 30
0.0
 11
40.8312215219099
 21
-433.0772268200819
 31
0.0
  0
LINE
  5
A93C
330
18
100
AcDbEntity
  8
0
  6
BYBLOCK
100
AcDbLine
 10
40.8312215219099
 20
-433.0772268200819
 30
0.0
 11
42.8312215219099
 21
-432.5413284400819
 31
0.0
  0
LINE
  5
A93D
330
18
100
AcDbEntity
  8
0
  6
BYBLOCK
100
AcDbLine
 10
40.8312215219099
 20
-433.0772268200819
 30
0.0
 11
42.8312215219099
 21
-433.0772268200819
 31
0.0
  0
TEXT
  5
A93E
330
18
100
AcDbEntity
  8
1DIM
  6
CONTINUOUS
100
AcDbText
 10
44.99788818857634
 20
-432.3772268200819
 30
0.0
 40
3.5
  1
13
100
AcDbText
  0
LINE
  5
A93F
330
18
100
AcDbEntity
  8
0
  6
BYBLOCK
100
AcDbLine
 10
30.50385600415841
 20
-415.5908717523259
 30
0.0
 11
29.96795762415841
 21
-417.5908717523259
 31
0.0
  0
LINE
  5
A940
330
18
100
AcDbEntity
  8
0
  6
BYBLOCK
100
AcDbLine
 10
29.96795762415841
 20
-417.5908717523259
 30
0.0
 11
29.43205924415841
 21
-415.5908717523259
 31
0.0
  0
LINE
  5
A941
330
18
100
AcDbEntity
  8
0
  6
BYBLOCK
100
AcDbLine
 10
29.96795762415841
 20
-417.5908717523259
 30
0.0
 11
29.96795762415841
 21
-415.5908717523259
 31
0.0
  0
LINE
  5
A942
330
18
100
AcDbEntity
  8
0
  6
BYBLOCK
100
AcDbLine
 10
29.43205924415841
 20
-420.9908717523256
 30
0.0
 11
29.96795762415841
 21
-418.9908717523256
 31
0.0
  0
LINE
  5
A943
330
18
100
AcDbEntity
  8
0
  6
BYBLOCK
100
AcDbLine
 10
29.96795762415841
 20
-418.9908717523256
 30
0.0
 11
30.50385600415841
 21
-420.9908717523256
 31
0.0
  0
LINE
  5
A944
330
18
100
AcDbEntity
  8
0
  6
BYBLOCK
100
AcDbLine
 10
29.96795762415841
 20
-418.9908717523256
 30
0.0
 11
29.96795762415841
 21
-420.9908717523256
 31
0.0
  0
TEXT
  5
A945
330
18
100
AcDbEntity
  8
1DIM
  6
CONTINUOUS
100
AcDbText
 10
29.26795762415838
 20
-434.8075384189922
 30
0.0
 40
3.5
  1
φ1.4
 50
90.0
100
AcDbText
1001
ACAD
1000
DSTYLE
1002
{
1070
     3
1000
φ<>
1002
}
  0
TEXT
  5
A946
330
18
100
AcDbEntity
  8
1DIM
  6
CONTINUOUS
100
AcDbText
 10
-51.48508019269038
 20
-300.6829950043041
 30
0.0
 40
3.5
  1
φ1.8
 50
27.60189201519898
100
AcDbText
1001
ACAD_DSTYLE_DIMRADIAL_EXTE
1070
   387
1070
     1
1070
   388
1040
0.0
1070
   390
1040
0.0
1001
ACAD
1000
DSTYLE
1002
{
1070
     3
1000
φ<>
1002
}
  0
LINE
  5
A947
330
18
100
AcDbEntity
  8
0
  6
BYBLOCK
100
AcDbLine
 10
-63.27115816114306
 20
-307.0302801655141
 30
0.0
 11
-61.25048632433179
 21
-306.5785364310756
 31
0.0
  0
LINE
  5
A948
330
18
100
AcDbEntity
  8
0
  6
BYBLOCK
100
AcDbLine
 10
-61.25048632433179
 20
-306.5785364310756
 30
0.0
 11
-62.7745676068611
 21
-307.9800938925913
 31
0.0
  0
LINE
  5
A949
330
18
100
AcDbEntity
  8
0
  6
BYBLOCK
100
AcDbLine
 10
-61.25048632433179
 20
-306.5785364310756
 30
0.0
 11
-63.02286288400207
 21
-307.5051870290527
 31
0.0
  0
LINE
  5
A94A
330
18
100
AcDbEntity
  8
0
  6
BYBLOCK
100
AcDbLine
 10
-57.63467558381729
 20
-305.2928071584577
 30
0.0
 11
-59.65534742062856
 21
-305.7445508928962
 31
0.0
  0
LINE
  5
A94B
330
18
100
AcDbEntity
  8
0
  6
BYBLOCK
100
AcDbLine
 10
-59.65534742062856
 20
-305.7445508928962
 30
0.0
 11
-58.13126613809925
 21
-304.3429934313805
 31
0.0
  0
LINE
  5
A94C
330
18
100
AcDbEntity
  8
0
  6
BYBLOCK
100
AcDbLine
 10
-59.65534742062856
 20
-305.7445508928962
 30
0.0
 11
-57.88297086095827
 21
-304.8179002949191
 31
0.0
  0
LINE
  5
A94D
330
18
100
AcDbEntity
  8
0
  6
BYBLOCK
100
AcDbLine
 10
-97.23137502913993
 20
-289.6615436619859
 30
0.0
 11
-96.69547664913992
 21
-287.6615436619859
 31
0.0
  0
LINE
  5
A94E
330
18
100
AcDbEntity
  8
0
  6
BYBLOCK
100
AcDbLine
 10
-96.69547664913992
 20
-287.6615436619859
 30
0.0
 11
-96.15957826913991
 21
-289.6615436619859
 31
0.0
  0
LINE
  5
A94F
330
18
100
AcDbEntity
  8
0
  6
BYBLOCK
100
AcDbLine
 10
-96.69547664913992
 20
-287.6615436619859
 30
0.0
 11
-96.69547664913992
 21
-289.6615436619859
 31
0.0
  0
LINE
  5
A950
330
18
100
AcDbEntity
  8
0
  6
BYBLOCK
100
AcDbLine
 10
-96.15957826913991
 20
-297.6615436619859
 30
0.0
 11
-96.69547664913992
 21
-299.6615436619859
 31
0.0
  0
LINE
  5
A951
330
18
100
AcDbEntity
  8
0
  6
BYBLOCK
100
AcDbLine
 10
-96.69547664913992
 20
-299.6615436619859
 30
0.0
 11
-97.23137502913993
 21
-297.6615436619859
 31
0.0
  0
LINE
  5
A952
330
18
100
AcDbEntity
  8
0
  6
BYBLOCK
100
AcDbLine
 10
-96.69547664913992
 20
-299.6615436619859
 30
0.0
 11
-96.69547664913992
 21
-297.6615436619859
 31
0.0
  0
TEXT
  5
A953
330
18
100
AcDbEntity
  8
1DIM
  6
CONTINUOUS
100
AcDbText
 10
-97.39547664913994
 20
-295.9948769953192
 30
0.0
 40
3.5
  1
12
 50
90.0
100
AcDbText
  0
LINE
  5
A954
330
18
100
AcDbEntity
  8
0
  6
BYBLOCK
100
AcDbLine
 10
-70.14528505091604
 20
-297.6615436619859
 30
0.0
 11
-70.68118343091605
 21
-299.6615436619859
 31
0.0
  0
LINE
  5
A955
330
18
100
AcDbEntity
  8
0
  6
BYBLOCK
100
AcDbLine
 10
-70.68118343091605
 20
-299.6615436619859
 30
0.0
 11
-71.21708181091606
 21
-297.6615436619859
 31
0.0
  0
LINE
  5
A956
330
18
100
AcDbEntity
  8
0
  6
BYBLOCK
100
AcDbLine
 10
-70.68118343091605
 20
-299.6615436619859
 30
0.0
 11
-70.68118343091605
 21
-297.6615436619859
 31
0.0
  0
LINE
  5
A957
330
18
100
AcDbEntity
  8
0
  6
BYBLOCK
100
AcDbLine
 10
-71.21708181091606
 20
-294.5567813535106
 30
0.0
 11
-70.68118343091605
 21
-292.5567813535106
 31
0.0
  0
LINE
  5
A958
330
18
100
AcDbEntity
  8
0
  6
BYBLOCK
100
AcDbLine
 10
-70.68118343091605
 20
-292.5567813535106
 30
0.0
 11
-70.14528505091604
 21
-294.5567813535106
 31
0.0
  0
LINE
  5
A959
330
18
100
AcDbEntity
  8
0
  6
BYBLOCK
100
AcDbLine
 10
-70.68118343091605
 20
-292.5567813535106
 30
0.0
 11
-70.68118343091605
 21
-294.5567813535106
 31
0.0
  0
TEXT
  5
A95A
330
18
100
AcDbEntity
  8
1DIM
  6
CONTINUOUS
100
AcDbText
 10
-71.38118343091605
 20
-297.2758291744149
 30
0.0
 40
3.5
  1
7
 50
90.0
100
AcDbText
1001
ACAD
1000
DSTYLE
1002
{
1070
   271
1070
     0
1002
}
  0
VIEWPORT
  5
57
330
15
100
AcDbEntity
 67
     1
  8
0
100
AcDbViewport
 68
     1
 10
0.0
 20
0.0
 30
0.0
 40
634.7234042553191
 41
297.0
 68
     1
 69
     1
1001
ACAD
1000
MVIEW
1002
{
1070
    16
1010
0.0
1020
0.0
1030
0.0
1010
0.0
1020
0.0
1030
1.0
1040
0.0
1040
297.0
1040
0.9235017844450226
1040
15.9843068020399
1040
50.0
1040
0.0
1040
0.0
1070
    16
1070
   100
1070
     0
1070
     1
1070
     0
1070
     0
1070
     0
1070
     0
1040
0.0
1040
0.0
1040
0.0
1040
10.0
1040
10.0
1040
10.0
1040
10.0
1070
     0
1002
{
1002
}
1002
}
  0
ENDSEC
  0
SECTION
  2
OBJECTS
  0
DICTIONARY
  5
C
330
0
100
AcDbDictionary
  3
ACAD_CIP_PREVIOUS_PRODUCT_INFO
350
9836
  3
ACAD_COLOR
350
2D0
  3
ACAD_GROUP
350
D
  3
ACAD_LAYOUT
350
2D1
  3
ACAD_MATERIAL
350
2CF
  3
ACAD_MLEADERSTYLE
350
960B
  3
ACAD_MLINESTYLE
350
1B
  3
ACAD_PLOTSETTINGS
350
2D2
  3
ACAD_SCALELIST
350
95E9
  3
ACAD_VISUALSTYLE
350
95D8
  3
ACDBHEADERROUNDTRIPXREC
350
A95B
  3
ACDBVARIABLEDICTIONARY
350
37
  3
CONTENTDICTIONARY
350
D8
  3
DRAWINGVARIABLESDICT
350
20
  3
DWGPROPS
350
A95E
1001
ACAD
1000
TREAT_AS_HARD
1070
     0
  0
DICTIONARY
  5
9658
330
2
100
AcDbDictionary
  3
ACAD_LAYERSTATES
360
9659
1001
ACAD
1000
TREAT_AS_HARD
1070
     1
  0
DICTIONARY
  5
9612
330
E
100
AcDbDictionary
  3
ADSK_XREC_LAYER_RECONCILED
360
9613
1001
ACAD
1000
TREAT_AS_HARD
1070
     1
  0
DICTIONARY
  5
9614
330
29
100
AcDbDictionary
  3
ADSK_XREC_LAYER_RECONCILED
360
9615
1001
ACAD
1000
TREAT_AS_HARD
1070
     1
  0
DICTIONARY
  5
9616
330
31
100
AcDbDictionary
  3
ADSK_XREC_LAYER_RECONCILED
360
9617
1001
ACAD
1000
TREAT_AS_HARD
1070
     1
  0
DICTIONARY
  5
961C
330
101
100
AcDbDictionary
  3
ADSK_XREC_LAYER_RECONCILED
360
961D
1001
ACAD
1000
TREAT_AS_HARD
1070
     1
  0
DICTIONARY
  5
9622
330
6DD
100
AcDbDictionary
  3
ADSK_XREC_LAYER_RECONCILED
360
9623
1001
ACAD
1000
TREAT_AS_HARD
1070
     1
  0
DICTIONARY
  5
9624
330
6DE
100
AcDbDictionary
  3
ADSK_XREC_LAYER_RECONCILED
360
9625
1001
ACAD
1000
TREAT_AS_HARD
1070
     1
  0
DICTIONARY
  5
9626
330
6DF
100
AcDbDictionary
  3
ADSK_XREC_LAYER_RECONCILED
360
9627
1001
ACAD
1000
TREAT_AS_HARD
1070
     1
  0
DICTIONARY
  5
9628
330
6E0
100
AcDbDictionary
  3
ADSK_XREC_LAYER_RECONCILED
360
9629
1001
ACAD
1000
TREAT_AS_HARD
1070
     1
  0
DICTIONARY
  5
962A
330
9216
100
AcDbDictionary
  3
ADSK_XREC_LAYER_RECONCILED
360
962B
1001
ACAD
1000
TREAT_AS_HARD
1070
     1
  0
DICTIONARY
  5
6E9
330
18
100
AcDbDictionary
  3
ACAD_SORTENTS
360
6EA
1001
ACAD
1000
TREAT_AS_HARD
1070
     1
  0
DICTIONARY
  5
59B
330
15
100
AcDbDictionary
  3
ACAD_SORTENTS
360
59C
1001
ACAD
1000
TREAT_AS_HARD
1070
     1
  0
XRECORD
  5
9836
102
{ACAD_REACTORS
330
C
102
}
330
C
100
AcDbXrecord
300
ACDLT
300
2012
300
ACDLT_F_S
  0
DICTIONARY
  5
2D0
102
{ACAD_REACTORS
330
C
102
}
330
C
100
AcDbDictionary
1001
ACAD
1000
TREAT_AS_HARD
1070
     0
  0
DICTIONARY
  5
D
102
{ACAD_REACTORS
330
C
102
}
330
C
100
AcDbDictionary
1001
ACAD
1000
TREAT_AS_HARD
1070
     0
  0
DICTIONARY
  5
2D1
102
{ACAD_REACTORS
330
C
102
}
330
C
100
AcDbDictionary
1001
ACAD
1000
TREAT_AS_HARD
1070
     0
  0
DICTIONARY
  5
2CF
102
{ACAD_REACTORS
330
C
102
}
330
C
100
AcDbDictionary
  3
BYBLOCK
350
95C8
  3
BYLAYER
350
95C0
  3
GLOBAL
350
95D0
1001
ACAD
1000
TREAT_AS_HARD
1070
     0
  0
DICTIONARY
  5
960B
102
{ACAD_REACTORS
330
C
102
}
330
C
100
AcDbDictionary
  3
STANDARD
350
960C
1001
ACAD
1000
TREAT_AS_HARD
1070
     0
  0
DICTIONARY
  5
1B
102
{ACAD_REACTORS
330
C
102
}
330
C
100
AcDbDictionary
  3
STANDARD
350
1C
1001
ACAD
1000
TREAT_AS_HARD
1070
     0
  0
DICTIONARY
  5
2D2
102
{ACAD_REACTORS
330
C
102
}
330
C
100
AcDbDictionary
1001
ACAD
1000
TREAT_AS_HARD
1070
     0
  0
DICTIONARY
  5
95E9
102
{ACAD_REACTORS
330
C
102
}
330
C
100
AcDbDictionary
  3
A0
350
95EA
  3
A1
350
95EB
  3
A2
350
95EC
  3
A3
350
95ED
  3
A4
350
95EE
  3
A5
350
95EF
  3
A6
350
95F0
  3
A7
350
95F1
  3
A8
350
95F2
  3
A9
350
95F3
  3
B0
350
95F4
  3
B1
350
95F5
  3
B2
350
95F6
  3
B3
350
95F7
  3
B4
350
95F8
  3
B5
350
95F9
  3
B6
350
95FA
  3
B7
350
95FB
  3
B8
350
95FC
  3
B9
350
95FD
  3
C0
350
95FE
  3
C1
350
95FF
  3
C2
350
9600
  3
C3
350
9601
  3
C4
350
9602
  3
C5
350
9603
  3
C6
350
9604
  3
C7
350
9605
  3
C8
350
9606
  3
C9
350
9607
  3
D0
350
9608
  3
D1
350
9609
  3
D2
350
960A
1001
ACAD
1000
TREAT_AS_HARD
1070
     0
  0
DICTIONARY
  5
95D8
102
{ACAD_REACTORS
330
C
102
}
330
C
100
AcDbDictionary
  3
2DWIREFRAME
350
95DE
  3
3D_HIDDEN
350
95E0
  3
3DWIREFRAME
350
95DF
  3
BASIC
350
95DD
  3
BRIGHTEN
350
95E4
  3
COLORCHANGE
350
95E8
  3
CONCEPTUAL
350
95E1
  3
DIM
350
95E3
  3
EDGECOLOROFF
350
9830
  3
FACEPATTERN
350
95E7
  3
FLAT
350
95D9
  3
FLATWITHEDGES
350
95DA
  3
GOURAUD
350
95DB
  3
GOURAUDWITHEDGES
350
95DC
  3
HIDDEN
350
9828
  3
JITTEROFF
350
982E
  3
LINEPATTERN
350
95E6
  3
MODELING
350
9B3C
  3
OVERHANGOFF
350
982F
  3
REALISTIC
350
95E2
  3
SHADED
350
982D
  3
SHADED_WITH_EDGES
350
982C
  3
SHADES_OF_GRAY
350
9829
  3
SKETCHY
350
982A
  3
THICKEN
350
95E5
  3
WIREFRAME
350
9827
  3
X-RAY
350
982B
1001
ACAD
1000
TREAT_AS_HARD
1070
     0
  0
DICTIONARY
  5
A95B
102
{ACAD_REACTORS
330
C
102
}
330
C
100
AcDbDictionary
  3
COLORDICT
350
A95C
  3
MATERIALDICT
350
A95D
1001
ACAD
1000
TREAT_AS_HARD
1070
     0
  0
DICTIONARY
  5
37
102
{ACAD_REACTORS
330
C
102
}
330
C
100
AcDbDictionary
  3
CANNOSCALE
350
9650
  3
CMLEADERSTYLE
350
964F
  3
CTABLESTYLE
350
4F1
  3
DIMADEC
350
38
  3
DIMASSOC
350
408
  3
HIDETEXT
350
1891
  3
INDEXCTL
350
9652
  3
INTERSECTIONCOLOR
350
1895
  3
INTERSECTIONDISPLAY
350
1894
  3
MSLTSCALE
350
A65C
  3
OBSCOLOR
350
1892
  3
OBSLTYPE
350
1893
  3
PROJECTNAME
350
409
  3
SORTENTS
350
9651
  3
XCLIPFRAME
350
9B3B
1001
ACAD
1000
TREAT_AS_HARD
1070
     0
  0
DICTIONARY
  5
D8
102
{ACAD_REACTORS
330
C
102
}
330
C
100
AcDbDictionary
1001
CONTENTTABDATA
1070
    11
1000
Child
1000
D:\ACLT\TABset\CHILDREN.dwg
1070
     0
1070
     0
1070
     1
1000
PK
1000
D:\ACLT\TABset\PK.dwg
1070
     0
1070
     0
1070
     1
1000
Lev1
1000
D:\ACLT\TABset\Lever01.dwg
1070
     0
1070
     0
1070
     1
1000
Lev2
1000
D:\ACLT\TABset\Lever02.dwg
1070
     0
1070
     0
1070
     1
1000
L3
1000
D:\Aclt\TABset\Lever03.dwg
1070
     0
1070
     0
1070
     1
1000
Form
1000
D:\ACLT\FORMAT
1070
     1
1070
     0
1070
     1
1000
Jnt
1000
D:\ACLT\TABset\JOINTPARTS.dwg
1070
     0
1070
     0
1070
     1
1000
ISO
1000
D:\ACLT\TABset\Isome01.dwg
1070
     0
1070
     0
1070
     1
1000
R
1000
D:\ACLT\TABset\REGION.dwg
1070
     0
1070
     0
1070
     1
1000
std
1000
D:\ACLT\TABset\std_sym_all.dwg
1070
     0
1070
     0
1070
     1
1000
丸
1000
D:\Aclt\TABset\MARU.dwg
1070
     0
1070
     0
1070
     1
1001
CONTENTCURRENTTAB
1070
     0
1001
ACAD
1000
TREAT_AS_HARD
1070
     0
  0
DICTIONARY
  5
20
102
{ACAD_REACTORS
330
C
102
}
330
C
100
AcDbDictionary
1001
DRAWINGVARIABLESXDATA
1000
POLARANG
1000
0.261799387799149410000000
1000
POLARMODE
1000
1
1000
POLARSTYLE
1000
1
1001
ACAD
1000
TREAT_AS_HARD
1070
     0
  0
XRECORD
  5
A95E
102
{ACAD_REACTORS
330
C
102
}
330
C
100
AcDbXrecord
  1
DWGPROPS COOKIE
  2

  3

  4

  6

  7

  8
3684
  9

300
=
301
=
302
=
303
=
304
=
305
=
306
=
307
=
308
=
309
=
 40
0.0
 41
2453033.357663484
 42
2459391.054929861
  1

 90
        0
  0
DICTIONARY
  5
9659
102
{ACAD_REACTORS
330
9658
102
}
330
9658
100
AcDbDictionary
1001
ACAD
1000
TREAT_AS_HARD
1070
     0
  0
ACAD_PROXY_OBJECT
  5
9613
102
{ACAD_REACTORS
330
9612
102
}
330
9612
100
AcDbZombieObject
 90
      499
 91
      515
 93
       34
310
40C8804040
  0
ACAD_PROXY_OBJECT
  5
9615
102
{ACAD_REACTORS
330
9614
102
}
330
9614
100
AcDbZombieObject
 90
      499
 91
      515
 93
       34
310
40C8804040
  0
ACAD_PROXY_OBJECT
  5
9617
102
{ACAD_REACTORS
330
9616
102
}
330
9616
100
AcDbZombieObject
 90
      499
 91
      515
 93
       34
310
40C8804040
  0
ACAD_PROXY_OBJECT
  5
961D
102
{ACAD_REACTORS
330
961C
102
}
330
961C
100
AcDbZombieObject
 90
      499
 91
      515
 93
       34
310
40C8804040
  0
ACAD_PROXY_OBJECT
  5
9623
102
{ACAD_REACTORS
330
9622
102
}
330
9622
100
AcDbZombieObject
 90
      499
 91
      515
 93
       34
310
40C8804040
  0
ACAD_PROXY_OBJECT
  5
9625
102
{ACAD_REACTORS
330
9624
102
}
330
9624
100
AcDbZombieObject
 90
      499
 91
      515
 93
       34
310
40C8804040
  0
ACAD_PROXY_OBJECT
  5
9627
102
{ACAD_REACTORS
330
9626
102
}
330
9626
100
AcDbZombieObject
 90
      499
 91
      515
 93
       34
310
40C8804040
  0
ACAD_PROXY_OBJECT
  5
9629
102
{ACAD_REACTORS
330
9628
102
}
330
9628
100
AcDbZombieObject
 90
      499
 91
      515
 93
       34
310
40C8804040
  0
ACAD_PROXY_OBJECT
  5
962B
102
{ACAD_REACTORS
330
962A
102
}
330
962A
100
AcDbZombieObject
 90
      499
 91
      515
 93
       34
310
40C8804040
  0
SORTENTSTABLE
  5
6EA
102
{ACAD_REACTORS
330
6E9
102
}
330
6E9
100
AcDbSortentsTable
330
18
331
8CCC
  5
A88E
331
9020
  5
A88F
331
9021
  5
A890
331
9022
  5
A894
331
9025
  5
A895
331
930D
  5
A896
331
930E
  5
A89A
331
930F
  5
A89B
331
9310
  5
A89C
331
9311
  5
A89D
331
9312
  5
A89E
331
9313
  5
A89F
331
9314
  5
A8A0
331
9318
  5
A8A1
331
9319
  5
A8A2
331
931B
  5
A8A4
331
931C
  5
A8A3
331
932D
  5
A8A5
331
932E
  5
A8A6
331
932F
  5
A8A7
331
9330
  5
A8A8
331
9331
  5
A8A9
331
9332
  5
A8AA
331
9470
  5
A8E4
331
9471
  5
A8E5
331
0
  5
94E2
331
9529
  5
A8F0
331
971F
  5
A8F1
331
9720
  5
A8F2
331
9721
  5
A8F3
331
9723
  5
A8F4
331
9724
  5
A8F5
331
9725
  5
A8F6
331
9726
  5
A8F7
331
9727
  5
A8F8
331
9729
  5
A8F9
331
972A
  5
A8FA
331
972B
  5
A8FB
331
972C
  5
A8FC
331
972D
  5
A8FD
331
9730
  5
A8FE
331
9731
  5
A8FF
331
9734
  5
A900
331
9735
  5
A901
331
98BF
  5
A902
331
98C0
  5
A903
331
98C1
  5
A904
331
98C3
  5
A90F
331
98C5
  5
A91C
331
98C6
  5
A91D
331
98C7
  5
A91E
331
98CA
  5
A924
331
98CB
  5
A925
331
98CC
  5
A926
331
98CD
  5
A927
331
98CE
  5
A928
331
98CF
  5
A929
331
98D0
  5
A92A
331
998A
  5
A92B
331
9D2F
  5
A93B
331
9D35
  5
A93C
331
9D3C
  5
A93D
331
9D3E
  5
A93E
331
9D4B
  5
A93F
331
9D4C
  5
A940
331
9ED1
  5
A941
331
9ED3
  5
A942
331
9ED4
  5
A943
331
9ED5
  5
A944
331
9ED6
  5
A945
331
9ED7
  5
A946
331
A7D6
  5
8CCC
331
A7D7
  5
9020
331
A7D8
  5
9021
331
A7D9
  5
9022
331
A7DA
  5
9025
331
0
  5
930D
331
0
  5
930E
331
0
  5
930F
331
A7DE
  5
9331
331
A7DF
  5
9332
331
A7E0
  5
971F
331
0
  5
9313
331
0
  5
9314
331
0
  5
9318
331
A7E4
  5
9731
331
A7E5
  5
9734
331
A7E6
  5
9735
331
0
  5
932D
331
0
  5
932E
331
0
  5
932F
331
A7EA
  5
9D35
331
A7EB
  5
9D3C
331
A7EC
  5
9D3E
331
0
  5
9471
331
0
  5
9472
331
0
  5
9529
331
A7F0
  5
A7DB
331
A7F1
  5
A7DC
331
A7F2
  5
A7DD
331
0
  5
9723
331
0
  5
9724
331
0
  5
9725
331
A7F6
  5
A7EB
331
A7F7
  5
A7EC
331
A7F8
  5
A7ED
331
A7F9
  5
A7EE
331
A7FA
  5
A7EF
331
0
  5
972C
331
0
  5
972D
331
0
  5
9730
331
A7FE
  5
A7FD
331
A7FF
  5
A801
331
A800
  5
A802
331
0
  5
98BF
331
0
  5
98C0
331
0
  5
98C1
331
A804
  5
A80A
331
A805
  5
A80B
331
A806
  5
A80C
331
0
  5
98C7
331
0
  5
98CA
331
0
  5
98CB
331
A80A
  5
A814
331
A80B
  5
A815
331
A80C
  5
A816
331
0
  5
98CF
331
0
  5
98D0
331
0
  5
998A
331
A810
  5
A824
331
A811
  5
A825
331
A812
  5
A826
331
A813
  5
A82A
331
0
  5
9D4B
331
0
  5
9D4C
331
0
  5
9ED1
331
A817
  5
A837
331
A818
  5
A83B
331
A819
  5
A83C
331
A81A
  5
A83D
331
A81B
  5
A83E
331
0
  5
A7D6
331
0
  5
A7D7
331
0
  5
A7D8
331
A81F
  5
A849
331
A820
  5
A84A
331
A821
  5
A84B
331
A822
  5
A84C
331
A823
  5
A84D
331
0
  5
A7DE
331
0
  5
A7DF
331
0
  5
A7E0
331
A827
  5
A855
331
A828
  5
A856
331
A829
  5
A857
331
A82A
  5
A858
331
A82B
  5
A859
331
A82C
  5
A85A
331
A82D
  5
A85E
331
0
  5
A7E8
331
0
  5
A7E9
331
0
  5
A7EA
331
A831
  5
A869
331
A832
  5
A86A
331
A833
  5
A86B
331
A834
  5
A86C
331
A835
  5
A86D
331
0
  5
A7F0
331
0
  5
A7F1
331
0
  5
A7F2
331
A839
  5
A875
331
A83A
  5
A876
331
A83B
  5
A877
331
0
  5
A7F6
331
0
  5
A7F7
331
0
  5
A7F8
331
A83F
  5
A882
331
A840
  5
A883
331
A841
  5
A884
331
A842
  5
A885
331
A843
  5
A886
331
0
  5
A7FE
331
0
  5
A7FF
331
0
  5
A800
331
A847
  5
A8AB
331
A848
  5
A8AC
331
A849
  5
A8AD
331
0
  5
A81B
331
0
  5
A81C
331
0
  5
A81D
331
A84D
  5
A8B5
331
A84E
  5
A8B6
331
A84F
  5
A8B7
331
0
  5
A821
331
0
  5
A822
331
0
  5
A823
331
A853
  5
A8BF
331
A854
  5
A8C0
331
A855
  5
A8C1
331
0
  5
A827
331
0
  5
A828
331
0
  5
A829
331
A859
  5
A8C9
331
A85A
  5
A8CA
331
A85B
  5
A8CB
331
A85C
  5
A8CC
331
0
  5
A82E
331
0
  5
A82F
331
0
  5
A830
331
A860
  5
A8D4
331
A861
  5
A8D5
331
0
  5
A833
331
0
  5
A834
331
A864
  5
A8DA
331
A865
  5
A8DB
331
A866
  5
A8DC
331
0
  5
A838
331
0
  5
A839
331
0
  5
A83A
331
A86A
  5
A8E6
331
A86B
  5
A8E7
331
A86C
  5
A8E8
331
0
  5
A840
331
0
  5
A841
331
0
  5
A842
331
A870
  5
A905
331
A871
  5
A906
331
A872
  5
A907
331
0
  5
A85B
331
0
  5
A85C
331
0
  5
A85D
331
A876
  5
A910
331
A877
  5
A911
331
A878
  5
A912
331
A879
  5
A913
331
A87A
  5
A914
331
0
  5
A864
331
0
  5
A865
331
0
  5
A866
331
A87E
  5
A91F
331
A87F
  5
A920
331
A880
  5
A921
331
A881
  5
A922
331
A882
  5
A923
331
A883
  5
A92C
331
A884
  5
A92D
331
0
  5
A879
331
A886
  5
A92F
331
0
  5
A87B
331
0
  5
A87C
331
A889
  5
A936
331
A88A
  5
A937
331
A88B
  5
A938
331
A88C
  5
A939
331
A88D
  5
A93A
331
A88E
  5
A947
331
A88F
  5
A948
331
A890
  5
A949
331
A894
  5
A951
331
A895
  5
A952
331
A896
  5
A953
331
A89A
  5
9310
331
A89B
  5
9311
331
A89C
  5
9312
331
A89D
  5
931A
331
A89E
  5
931D
331
A89F
  5
931F
331
A8A0
  5
9330
331
A8A1
  5
9720
331
A8A2
  5
9721
331
A8A3
  5
9726
331
A8A4
  5
9727
331
A8A5
  5
9729
331
A8A6
  5
972A
331
A8A7
  5
972B
331
A8A8
  5
98C3
331
A8A9
  5
98C5
331
A8AA
  5
98C6
331
A8AB
  5
98CC
331
A8AC
  5
98CD
331
A8AD
  5
98CE
331
A8AE
  5
9D2F
331
A8AF
  5
9ED3
331
A8B0
  5
9ED4
331
A8B1
  5
9ED5
331
A8B2
  5
9ED6
331
A8B3
  5
9ED7
331
A8B4
  5
A7D9
331
A8B5
  5
A7DA
331
A8B6
  5
A7E1
331
A8B7
  5
A7E2
331
A8B8
  5
A7E3
331
A8B9
  5
A7E4
331
A8BA
  5
A7E5
331
A8BB
  5
A7E6
331
A8BC
  5
A7E7
331
A8BD
  5
A7F3
331
A8BE
  5
A7F4
331
A8BF
  5
A7F5
331
A8C0
  5
A7F9
331
A8C1
  5
A7FA
331
A8C2
  5
A7FB
331
A8C3
  5
A7FC
331
A8C4
  5
A803
331
A8C5
  5
A804
331
A8C6
  5
A805
331
A8C7
  5
A806
331
A8C8
  5
A807
331
A8C9
  5
A808
331
A8CA
  5
A809
331
A8CB
  5
A80D
331
A8CC
  5
A80E
331
A8CD
  5
A80F
331
A8CE
  5
A810
331
A8CF
  5
A811
331
A8D0
  5
A812
331
A8D1
  5
A813
331
A8D2
  5
A817
331
A8D3
  5
A818
331
A8D4
  5
A819
331
A8D5
  5
A81A
331
A8D6
  5
A81E
331
A8D7
  5
A81F
331
A8D8
  5
A820
331
A8D9
  5
A82B
331
A8DA
  5
A82C
331
A8DB
  5
A82D
331
A8DC
  5
A831
331
A8DD
  5
A832
331
A8DE
  5
A835
331
A8DF
  5
A836
331
A8E0
  5
A83F
331
A8E1
  5
A843
331
A8E2
  5
A844
331
A8E3
  5
A845
331
A8E4
  5
A846
331
A8E5
  5
A847
331
A8E6
  5
A848
331
A8E7
  5
A84E
331
A8E8
  5
A84F
331
A8E9
  5
A850
331
A8EA
  5
A851
331
A8EB
  5
A852
331
A8EC
  5
A853
331
A8ED
  5
A854
331
A8EE
  5
A85F
331
A8EF
  5
A860
331
A8F0
  5
A861
331
A8F1
  5
A862
331
A8F2
  5
A863
331
A8F3
  5
A867
331
A8F4
  5
A868
331
A8F5
  5
A86E
331
A8F6
  5
A86F
331
A8F7
  5
A870
331
A8F8
  5
A871
331
A8F9
  5
A872
331
A8FA
  5
A873
331
A8FB
  5
A874
331
A8FC
  5
A878
331
A8FD
  5
A87A
331
A8FE
  5
A87D
331
A8FF
  5
A87E
331
A900
  5
A87F
331
A901
  5
A880
331
A902
  5
A881
331
A903
  5
A887
331
A904
  5
A888
331
A905
  5
A889
331
A906
  5
A88A
331
A907
  5
A88B
331
A908
  5
A88C
331
A909
  5
A88D
331
A90A
  5
A8AE
331
A90B
  5
A8AF
331
A90C
  5
A8B0
331
A90D
  5
A8B1
331
A90E
  5
A8B2
331
A90F
  5
A8B3
331
A910
  5
A8B4
331
A911
  5
A8B8
331
A912
  5
A8B9
331
A913
  5
A8BA
331
A914
  5
A8BB
331
A915
  5
A8BC
331
A916
  5
A8BD
331
A917
  5
A8BE
331
A918
  5
A8C2
331
A919
  5
A8C3
331
A91A
  5
A8C4
331
A91B
  5
A8C5
331
A91C
  5
A8C6
331
A91D
  5
A8C7
331
A91E
  5
A8C8
331
A91F
  5
A8CD
331
A920
  5
A8CE
331
A921
  5
A8CF
331
A922
  5
A8D0
331
A923
  5
A8D1
331
A924
  5
A8D2
331
A925
  5
A8D3
331
A926
  5
A8D6
331
A927
  5
A8D7
331
A928
  5
A8D8
331
A929
  5
A8D9
331
A92A
  5
A8DD
331
A92B
  5
A8DE
331
A92C
  5
A8DF
331
A92D
  5
A8E0
331
A92E
  5
A8E1
331
A92F
  5
A8E2
331
A930
  5
A8E3
331
A931
  5
A8E9
331
A932
  5
A8EA
331
A933
  5
A8EB
331
A934
  5
A8EC
331
A935
  5
A8ED
331
A936
  5
A8EE
331
A937
  5
A8EF
331
A938
  5
A908
331
A939
  5
A909
331
A93A
  5
A90A
331
A93B
  5
A90B
331
A93C
  5
A90C
331
A93D
  5
A90D
331
A93E
  5
A90E
331
A93F
  5
A915
331
A940
  5
A916
331
A941
  5
A917
331
A942
  5
A918
331
A943
  5
A919
331
A944
  5
A91A
331
A945
  5
A91B
331
A946
  5
A92E
331
A947
  5
A930
331
A948
  5
A931
331
A949
  5
A932
331
A94A
  5
A933
331
A94B
  5
A934
331
A94C
  5
A935
331
A94D
  5
A94A
331
A94E
  5
A94B
331
A94F
  5
A94C
331
A950
  5
A94D
331
A951
  5
A94E
331
A952
  5
A94F
331
A953
  5
A950
  0
SORTENTSTABLE
  5
59C
102
{ACAD_REACTORS
330
59B
102
}
330
59B
100
AcDbSortentsTable
330
15
331
57
  5
57
331
0
  5
70
  0
MATERIAL
  5
95C8
102
{ACAD_REACTORS
330
2CF
102
}
102
{ACAD_XDICTIONARY
360
AAF9
102
}
330
2CF
100
AcDbMaterial
  1
BYBLOCK
 72
     0
 73
     2
 43
0.0208333333333333
 43
0.0
 43
0.0
 43
0.0
 43
0.0
 43
0.0208333333333333
 43
0.0
 43
0.0
 43
0.0
 43
0.0
 43
1.0
 43
0.0
 43
0.0
 43
0.0
 43
0.0
 43
1.0
 77
     0
 78
     2
 47
0.0208333333333333
 47
0.0
 47
0.0
 47
0.0
 47
0.0
 47
0.0208333333333333
 47
0.0
 47
0.0
 47
0.0
 47
0.0
 47
1.0
 47
0.0
 47
0.0
 47
0.0
 47
0.0
 47
1.0
171
     0
172
     2
 49
0.0208333333333333
 49
0.0
 49
0.0
 49
0.0
 49
0.0
 49
0.0208333333333333
 49
0.0
 49
0.0
 49
0.0
 49
0.0
 49
1.0
 49
0.0
 49
0.0
 49
0.0
 49
0.0
 49
1.0
175
     0
176
     2
142
0.0208333333333333
142
0.0
142
0.0
142
0.0
142
0.0
142
0.0208333333333333
142
0.0
142
0.0
142
0.0
142
0.0
142
1.0
142
0.0
142
0.0
142
0.0
142
0.0
142
1.0
179
     0
270
     2
144
0.0208333333333333
144
0.0
144
0.0
144
0.0
144
0.0
144
0.0208333333333333
144
0.0
144
0.0
144
0.0
144
0.0
144
1.0
144
0.0
144
0.0
144
0.0
144
0.0
144
1.0
274
     2
147
0.0208333333333333
147
0.0
147
0.0
147
0.0
147
0.0
147
0.0208333333333333
147
0.0
147
0.0
147
0.0
147
0.0
147
1.0
147
0.0
147
0.0
147
0.0
147
0.0
147
1.0
  0
MATERIAL
  5
95C0
102
{ACAD_REACTORS
330
2CF
102
}
102
{ACAD_XDICTIONARY
360
AAFB
102
}
330
2CF
100
AcDbMaterial
  1
BYLAYER
 72
     0
 73
     2
 43
0.0208333333333333
 43
0.0
 43
0.0
 43
0.0
 43
0.0
 43
0.0208333333333333
 43
0.0
 43
0.0
 43
0.0
 43
0.0
 43
1.0
 43
0.0
 43
0.0
 43
0.0
 43
0.0
 43
1.0
 77
     0
 78
     2
 47
0.0208333333333333
 47
0.0
 47
0.0
 47
0.0
 47
0.0
 47
0.0208333333333333
 47
0.0
 47
0.0
 47
0.0
 47
0.0
 47
1.0
 47
0.0
 47
0.0
 47
0.0
 47
0.0
 47
1.0
171
     0
172
     2
 49
0.0208333333333333
 49
0.0
 49
0.0
 49
0.0
 49
0.0
 49
0.0208333333333333
 49
0.0
 49
0.0
 49
0.0
 49
0.0
 49
1.0
 49
0.0
 49
0.0
 49
0.0
 49
0.0
 49
1.0
175
     0
176
     2
142
0.0208333333333333
142
0.0
142
0.0
142
0.0
142
0.0
142
0.0208333333333333
142
0.0
142
0.0
142
0.0
142
0.0
142
1.0
142
0.0
142
0.0
142
0.0
142
0.0
142
1.0
179
     0
270
     2
144
0.0208333333333333
144
0.0
144
0.0
144
0.0
144
0.0
144
0.0208333333333333
144
0.0
144
0.0
144
0.0
144
0.0
144
1.0
144
0.0
144
0.0
144
0.0
144
0.0
144
1.0
274
     2
147
0.0208333333333333
147
0.0
147
0.0
147
0.0
147
0.0
147
0.0208333333333333
147
0.0
147
0.0
147
0.0
147
0.0
147
1.0
147
0.0
147
0.0
147
0.0
147
0.0
147
1.0
  0
MATERIAL
  5
95D0
102
{ACAD_REACTORS
330
2CF
102
}
102
{ACAD_XDICTIONARY
360
AAFD
102
}
330
2CF
100
AcDbMaterial
  1
GLOBAL
 72
     0
 73
     2
 43
0.0208333333333333
 43
0.0
 43
0.0
 43
0.0
 43
0.0
 43
0.0208333333333333
 43
0.0
 43
0.0
 43
0.0
 43
0.0
 43
1.0
 43
0.0
 43
0.0
 43
0.0
 43
0.0
 43
1.0
 77
     0
 78
     2
 47
0.0208333333333333
 47
0.0
 47
0.0
 47
0.0
 47
0.0
 47
0.0208333333333333
 47
0.0
 47
0.0
 47
0.0
 47
0.0
 47
1.0
 47
0.0
 47
0.0
 47
0.0
 47
0.0
 47
1.0
171
     0
172
     2
 49
0.0208333333333333
 49
0.0
 49
0.0
 49
0.0
 49
0.0
 49
0.0208333333333333
 49
0.0
 49
0.0
 49
0.0
 49
0.0
 49
1.0
 49
0.0
 49
0.0
 49
0.0
 49
0.0
 49
1.0
175
     0
176
     2
142
0.0208333333333333
142
0.0
142
0.0
142
0.0
142
0.0
142
0.0208333333333333
142
0.0
142
0.0
142
0.0
142
0.0
142
1.0
142
0.0
142
0.0
142
0.0
142
0.0
142
1.0
179
     0
270
     2
144
0.0208333333333333
144
0.0
144
0.0
144
0.0
144
0.0
144
0.0208333333333333
144
0.0
144
0.0
144
0.0
144
0.0
144
1.0
144
0.0
144
0.0
144
0.0
144
0.0
144
1.0
274
     2
147
0.0208333333333333
147
0.0
147
0.0
147
0.0
147
0.0
147
0.0208333333333333
147
0.0
147
0.0
147
0.0
147
0.0
147
1.0
147
0.0
147
0.0
147
0.0
147
0.0
147
1.0
  0
ACAD_PROXY_OBJECT
  5
960C
102
{ACAD_REACTORS
330
960B
102
}
330
960B
100
AcDbZombieObject
 90
      499
 91
      512
 93
      610
310
40901902A4063FBFFFFFE000000000000002040AD7A3703D0AD73F4214DD185B99185C990000000000000104090141901A00000000000004100000000000000041025764000000000000300FC0
340
12
340
0
340
F
340
0
 94
        0
1001
ACAD_MLEADERVER
1070
     2
  0
MLINESTYLE
  5
1C
102
{ACAD_REACTORS
330
1B
102
}
330
1B
100
AcDbMlineStyle
  2
STANDARD
 70
     0
  3

 62
   256
 51
90.0
 52
90.0
 71
     2
 49
0.5
 62
   256
  6
BYLAYER
 49
-0.5
 62
   256
  6
BYLAYER
  0
ACAD_PROXY_OBJECT
  5
95EA
102
{ACAD_REACTORS
330
95E9
102
}
330
95E9
100
AcDbZombieObject
 90
      499
 91
      511
 93
       41
310
903313A31580
  0
ACAD_PROXY_OBJECT
  5
95EB
102
{ACAD_REACTORS
330
95E9
102
}
330
95E9
100
AcDbZombieObject
 90
      499
 91
      511
 93
      105
310
903313A324000000000000004000
  0
ACAD_PROXY_OBJECT
  5
95EC
102
{ACAD_REACTORS
330
95E9
102
}
330
95E9
100
AcDbZombieObject
 90
      499
 91
      511
 93
      105
310
903313A344000000000000104000
  0
ACAD_PROXY_OBJECT
  5
95ED
102
{ACAD_REACTORS
330
95E9
102
}
330
95E9
100
AcDbZombieObject
 90
      499
 91
      511
 93
      105
310
903313A354000000000000144000
  0
ACAD_PROXY_OBJECT
  5
95EE
102
{ACAD_REACTORS
330
95E9
102
}
330
95E9
100
AcDbZombieObject
 90
      499
 91
      511
 93
      105
310
903313A384000000000000204000
  0
ACAD_PROXY_OBJECT
  5
95EF
102
{ACAD_REACTORS
330
95E9
102
}
330
95E9
100
AcDbZombieObject
 90
      499
 91
      511
 93
      113
310
904313A31304000000000000244000
  0
ACAD_PROXY_OBJECT
  5
95F0
102
{ACAD_REACTORS
330
95E9
102
}
330
95E9
100
AcDbZombieObject
 90
      499
 91
      511
 93
      113
310
904313A31364000000000000304000
  0
ACAD_PROXY_OBJECT
  5
95F1
102
{ACAD_REACTORS
330
95E9
102
}
330
95E9
100
AcDbZombieObject
 90
      499
 91
      511
 93
      113
310
904313A32304000000000000344000
  0
ACAD_PROXY_OBJECT
  5
95F2
102
{ACAD_REACTORS
330
95E9
102
}
330
95E9
100
AcDbZombieObject
 90
      499
 91
      511
 93
      113
310
904313A333040000000000003E4000
  0
ACAD_PROXY_OBJECT
  5
95F3
102
{ACAD_REACTORS
330
95E9
102
}
330
95E9
100
AcDbZombieObject
 90
      499
 91
      511
 93
      113
310
904313A34304000000000000444000
  0
ACAD_PROXY_OBJECT
  5
95F4
102
{ACAD_REACTORS
330
95E9
102
}
330
95E9
100
AcDbZombieObject
 90
      499
 91
      511
 93
      113
310
904313A35304000000000000494000
  0
ACAD_PROXY_OBJECT
  5
95F5
102
{ACAD_REACTORS
330
95E9
102
}
330
95E9
100
AcDbZombieObject
 90
      499
 91
      511
 93
      121
310
905313A3130304000000000000594000
  0
ACAD_PROXY_OBJECT
  5
95F6
102
{ACAD_REACTORS
330
95E9
102
}
330
95E9
100
AcDbZombieObject
 90
      499
 91
      511
 93
      105
310
903323A310000000000000010100
  0
ACAD_PROXY_OBJECT
  5
95F7
102
{ACAD_REACTORS
330
95E9
102
}
330
95E9
100
AcDbZombieObject
 90
      499
 91
      511
 93
      105
310
903343A310000000000000410100
  0
ACAD_PROXY_OBJECT
  5
95F8
102
{ACAD_REACTORS
330
95E9
102
}
330
95E9
100
AcDbZombieObject
 90
      499
 91
      511
 93
      105
310
903383A310000000000000810100
  0
ACAD_PROXY_OBJECT
  5
95F9
102
{ACAD_REACTORS
330
95E9
102
}
330
95E9
100
AcDbZombieObject
 90
      499
 91
      511
 93
      113
310
90431303A310000000000000910100
  0
ACAD_PROXY_OBJECT
  5
95FA
102
{ACAD_REACTORS
330
95E9
102
}
330
95E9
100
AcDbZombieObject
 90
      499
 91
      511
 93
      121
310
9053130303A310000000000001650100
  0
ACAD_PROXY_OBJECT
  5
95FB
102
{ACAD_REACTORS
330
95E9
102
}
330
95E9
100
AcDbZombieObject
 90
      499
 91
      511
 93
      257
310
90E312F31323822203D2031272D3022000000000000200FC000000000000284000
  0
ACAD_PROXY_OBJECT
  5
95FC
102
{ACAD_REACTORS
330
95E9
102
}
330
95E9
100
AcDbZombieObject
 90
      499
 91
      511
 93
      249
310
90D312F363422203D2031272D3022000000000000240FC000000000000284000
  0
ACAD_PROXY_OBJECT
  5
95FD
102
{ACAD_REACTORS
330
95E9
102
}
330
95E9
100
AcDbZombieObject
 90
      499
 91
      511
 93
      249
310
90D312F333222203D2031272D3022000000000000280FC000000000000284000
  0
ACAD_PROXY_OBJECT
  5
95FE
102
{ACAD_REACTORS
330
95E9
102
}
330
95E9
100
AcDbZombieObject
 90
      499
 91
      511
 93
      249
310
90D312F313622203D2031272D30220000000000002C0FC000000000000284000
  0
ACAD_PROXY_OBJECT
  5
95FF
102
{ACAD_REACTORS
330
95E9
102
}
330
95E9
100
AcDbZombieObject
 90
      499
 91
      511
 93
      249
310
90D332F333222203D2031272D30220000000000002E0FC000000000000284000
  0
ACAD_PROXY_OBJECT
  5
9600
102
{ACAD_REACTORS
330
95E9
102
}
330
95E9
100
AcDbZombieObject
 90
      499
 91
      511
 93
      241
310
90C312F3822203D2031272D3022000000000000300FC000000000000284000
  0
ACAD_PROXY_OBJECT
  5
9601
102
{ACAD_REACTORS
330
95E9
102
}
330
95E9
100
AcDbZombieObject
 90
      499
 91
      511
 93
      249
310
90D332F313622203D2031272D3022000000000000320FC000000000000284000
  0
ACAD_PROXY_OBJECT
  5
9602
102
{ACAD_REACTORS
330
95E9
102
}
330
95E9
100
AcDbZombieObject
 90
      499
 91
      511
 93
      241
310
90C312F3422203D2031272D3022000000000000340FC000000000000284000
  0
ACAD_PROXY_OBJECT
  5
9603
102
{ACAD_REACTORS
330
95E9
102
}
330
95E9
100
AcDbZombieObject
 90
      499
 91
      511
 93
      241
310
90C332F3822203D2031272D3022000000000000360FC000000000000284000
  0
ACAD_PROXY_OBJECT
  5
9604
102
{ACAD_REACTORS
330
95E9
102
}
330
95E9
100
AcDbZombieObject
 90
      499
 91
      511
 93
      241
310
90C312F3222203D2031272D3022000000000000380FC000000000000284000
  0
ACAD_PROXY_OBJECT
  5
9605
102
{ACAD_REACTORS
330
95E9
102
}
330
95E9
100
AcDbZombieObject
 90
      499
 91
      511
 93
      241
310
90C332F3422203D2031272D30220000000000003A0FC000000000000284000
  0
ACAD_PROXY_OBJECT
  5
9606
102
{ACAD_REACTORS
330
95E9
102
}
330
95E9
100
AcDbZombieObject
 90
      499
 91
      511
 93
      161
310
90A3122203D2031272D30224000000000000284000
  0
ACAD_PROXY_OBJECT
  5
9607
102
{ACAD_REACTORS
330
95E9
102
}
330
95E9
100
AcDbZombieObject
 90
      499
 91
      511
 93
      257
310
90E312D312F3222203D2031272D30220000000000003E0FC000000000000284000
  0
ACAD_PROXY_OBJECT
  5
9608
102
{ACAD_REACTORS
330
95E9
102
}
330
95E9
100
AcDbZombieObject
 90
      499
 91
      511
 93
      225
310
90A3322203D2031272D302200000000000002100000000000000284000
  0
ACAD_PROXY_OBJECT
  5
9609
102
{ACAD_REACTORS
330
95E9
102
}
330
95E9
100
AcDbZombieObject
 90
      499
 91
      511
 93
      225
310
90A3622203D2031272D302200000000000006100000000000000284000
  0
ACAD_PROXY_OBJECT
  5
960A
102
{ACAD_REACTORS
330
95E9
102
}
330
95E9
100
AcDbZombieObject
 90
      499
 91
      511
 93
      249
310
90D31272D3022203D2031272D30220000000000000A100000000000000284000
  0
ACAD_PROXY_OBJECT
  5
95DE
102
{ACAD_REACTORS
330
95D8
102
}
330
95D8
100
AcDbZombieObject
 90
      499
 91
      510
 93
      436
310
42CC9915DA5C99599C985B595049028333333333333E3BF0000000000000FB0107901411070040501600405405064090741402480A0340
1001
ACAD
1000
AcDbSavedByObjectVersion
1070
     0
  0
ACAD_PROXY_OBJECT
  5
95E0
102
{ACAD_REACTORS
330
95D8
102
}
330
95D8
100
AcDbZombieObject
 90
      499
 91
      510
 93
      500
310
424CD108121A5919195B90640502408333333333333E3BF0000000000000FB01079024090700405020000000000001110200405405064090740C02480A0340
1001
ACAD
1000
AcDbSavedByObjectVersion
1070
     0
  0
ACAD_PROXY_OBJECT
  5
95DF
102
{ACAD_REACTORS
330
95D8
102
}
330
95D8
100
AcDbZombieObject
 90
      499
 91
      510
 93
      436
310
42CCD915DA5C99599C985B595059028333333333333E3BF0000000000000FB0107901411070040501600405405064090741402480A0340
1001
ACAD
1000
AcDbSavedByObjectVersion
1070
     0
  0
ACAD_PROXY_OBJECT
  5
95DD
102
{ACAD_REACTORS
330
95D8
102
}
330
95D8
100
AcDbZombieObject
 90
      499
 91
      510
 93
      388
310
4150985CDA58D07406404333333333333E3BF0000000000000FB0107A41107004050150841D405064090741402480A0350
1001
ACAD
1000
AcDbSavedByObjectVersion
1070
     0
  0
ACAD_PROXY_OBJECT
  5
95E4
102
{ACAD_REACTORS
330
95D8
102
}
330
95D8
100
AcDbZombieObject
 90
      499
 91
      510
 93
      428
310
42109C9A59DA1D195B90C409028333333333333E3BF0000000000000FB010790141107004050150841D405064090741402480A029950
1001
ACAD
1000
AcDbSavedByObjectVersion
1070
     0
  0
ACAD_PROXY_OBJECT
  5
95E8
102
{ACAD_REACTORS
330
95D8
102
}
330
95D8
100
AcDbZombieObject
 90
      499
 91
      510
 93
      452
310
42D0DBDB1BDC90DA185B99D95104090240C333333333333E3BF0000000000000FB0108901411070040501508421405064090741402480A0350
1001
ACAD
1000
AcDbSavedByObjectVersion
1070
     0
  0
ACAD_PROXY_OBJECT
  5
95E1
102
{ACAD_REACTORS
330
95D8
102
}
330
95D8
100
AcDbZombieObject
 90
      499
 91
      510
 93
      500
310
4290DBDB98D95C1D1D585B10940D028333333333333E3BF0000000000000FB0107902409070040501000000000000111010841D405064090740C02480A0340
1001
ACAD
1000
AcDbSavedByObjectVersion
1070
     0
  0
ACAD_PROXY_OBJECT
  5
95E3
102
{ACAD_REACTORS
330
95D8
102
}
330
95D8
100
AcDbZombieObject
 90
      499
 91
      510
 93
      412
310
40D11A5B50B409028333333333333E3BF0000000000000FB010790141107004050150841D405064090741402480A02677FFFFFD0
1001
ACAD
1000
AcDbSavedByObjectVersion
1070
     0
  0
ACAD_PROXY_OBJECT
  5
9830
102
{ACAD_REACTORS
330
95D8
102
}
330
95D8
100
AcDbZombieObject
 90
      499
 91
      510
 93
      452
310
43115919D950DBDB1BDC93D999916409028333333333333E3BF0000000000000FB010790141107004050150841D405064090741402480A0350
1001
ACAD
1000
AcDbSavedByObjectVersion
1070
     0
  0
ACAD_PROXY_OBJECT
  5
95E7
102
{ACAD_REACTORS
330
95D8
102
}
330
95D8
100
AcDbZombieObject
 90
      499
 91
      510
 93
      444
310
42D19858D95C185D1D195C9B90F409028333333333333E3BF0000000000000FB010790141107004050150841D405064090741402480A0350
1001
ACAD
1000
AcDbSavedByObjectVersion
1070
     0
  0
ACAD_PROXY_OBJECT
  5
95D9
102
{ACAD_REACTORS
330
95D8
102
}
330
95D8
100
AcDbZombieObject
 90
      499
 91
      510
 93
      388
310
41119B185D240901404333333333333E3BF0000000000000F9010740A41107004050150841D405064090741402480A1B50
1001
ACAD
1000
AcDbSavedByObjectVersion
1070
     0
  0
ACAD_PROXY_OBJECT
  5
95DA
102
{ACAD_REACTORS
330
95D8
102
}
330
95D8
100
AcDbZombieObject
 90
      499
 91
      510
 93
      476
310
43519B185D15DA5D1A115919D95CD0140901404333333333333E3BF0000000000000F9010740901411070040501600405405064090741402480A1B50
1001
ACAD
1000
AcDbSavedByObjectVersion
1070
     0
  0
ACAD_PROXY_OBJECT
  5
95DB
102
{ACAD_REACTORS
330
95D8
102
}
330
95D8
100
AcDbZombieObject
 90
      499
 91
      510
 93
      412
310
41D1DBDD5C985D5910240902404333333333333E3BF0000000000000F9010740A411070040501641D405064090741402480A1B50
1001
ACAD
1000
AcDbSavedByObjectVersion
1070
     0
  0
ACAD_PROXY_OBJECT
  5
95DC
102
{ACAD_REACTORS
330
95D8
102
}
330
95D8
100
AcDbZombieObject
 90
      499
 91
      510
 93
      500
310
4411DBDD5C985D5915DA5D1A115919D95CD0340902404333333333333E3BF0000000000000F9010740901411070040501600405405064090741402480A1B50
1001
ACAD
1000
AcDbSavedByObjectVersion
1070
     0
  0
ACAD_PROXY_OBJECT
  5
9828
102
{ACAD_REACTORS
330
95D8
102
}
330
95D8
100
AcDbZombieObject
 90
      499
 91
      510
 93
      476
310
41921A5919195B90640502408333333333333E3BF0000000000000FB01079024090700405020000000000001110200405405064090740C02480A0340
1001
ACAD
1000
AcDbSavedByObjectVersion
1070
     0
  0
ACAD_PROXY_OBJECT
  5
982E
102
{ACAD_REACTORS
330
95D8
102
}
330
95D8
100
AcDbZombieObject
 90
      499
 91
      510
 93
      428
310
42529A5D1D195C93D999914409028333333333333E3BF0000000000000FB010790141107004050150A41D405064090741402480A0350
1001
ACAD
1000
AcDbSavedByObjectVersion
1070
     0
  0
ACAD_PROXY_OBJECT
  5
95E6
102
{ACAD_REACTORS
330
95D8
102
}
330
95D8
100
AcDbZombieObject
 90
      499
 91
      510
 93
      444
310
42D31A5B995C185D1D195C9B90E409028333333333333E3BF0000000000000FB010790141107004050750841D405064090741402483A0350
1001
ACAD
1000
AcDbSavedByObjectVersion
1070
     0
  0
ACAD_PROXY_OBJECT
  5
9B3C
102
{ACAD_REACTORS
330
95D8
102
}
330
95D8
100
AcDbZombieObject
 90
      499
 91
      510
 93
      484
310
42135BD9195B1A5B99D0A409038333333333333E33F0000000000000F901074090290700405010000000000201990108421405064090741402480A1B40
1001
ACAD
1000
AcDbSavedByObjectVersion
1070
     0
  0
ACAD_PROXY_OBJECT
  5
982F
102
{ACAD_REACTORS
330
95D8
102
}
330
95D8
100
AcDbZombieObject
 90
      499
 91
      510
 93
      444
310
42D3DD995C9A185B99D3D999915409028333333333333E3BF0000000000000FB010790141107004050150941D405064090741402480A0350
1001
ACAD
1000
AcDbSavedByObjectVersion
1070
     0
  0
ACAD_PROXY_OBJECT
  5
95E2
102
{ACAD_REACTORS
330
95D8
102
}
330
95D8
100
AcDbZombieObject
 90
      499
 91
      510
 93
      420
310
425499585B1A5CDD1A58D08409028333333333333E3BF0000000000000FB01079019070040501508421405064090741402480A1B40
1001
ACAD
1000
AcDbSavedByObjectVersion
1070
     0
  0
ACAD_PROXY_OBJECT
  5
982D
102
{ACAD_REACTORS
330
95D8
102
}
330
95D8
100
AcDbZombieObject
 90
      499
 91
      510
 93
      420
310
4194DA1859195911B40902404333333333333E3BF0000000000000F9010740A41107004050150800405405064090840C02480A0B40
1001
ACAD
1000
AcDbSavedByObjectVersion
1070
     0
  0
ACAD_PROXY_OBJECT
  5
982C
102
{ACAD_REACTORS
330
95D8
102
}
330
95D8
100
AcDbZombieObject
 90
      499
 91
      510
 93
      516
310
4454DA18591959081DDA5D1A08195919D95CD1A40902404333333333333E3BF0000000000000F901074090142907004050250800405405064090740C02480A0B40
1001
ACAD
1000
AcDbSavedByObjectVersion
1070
     0
  0
ACAD_PROXY_OBJECT
  5
9829
102
{ACAD_REACTORS
330
95D8
102
}
330
95D8
100
AcDbZombieObject
 90
      499
 91
      510
 93
      532
310
4394DA1859195CC81BD98811DC985E5174090240C333333333333E3BF0000000000000FB01079024090741D01000000000000111010841D405064090740C02480A0340
1001
ACAD
1000
AcDbSavedByObjectVersion
1070
     0
  0
ACAD_PROXY_OBJECT
  5
982A
102
{ACAD_REACTORS
330
95D8
102
}
330
95D8
100
AcDbZombieObject
 90
      499
 91
      510
 93
      476
310
41D4DAD95D18DA1E51840502408333333333333E3BF0000000000000FB01079024090741D01000000000000111010B41D405064090741802480A0340
1001
ACAD
1000
AcDbSavedByObjectVersion
1070
     0
  0
ACAD_PROXY_OBJECT
  5
95E5
102
{ACAD_REACTORS
330
95D8
102
}
330
95D8
100
AcDbZombieObject
 90
      499
 91
      510
 93
      412
310
41D51A1A58DAD95B90D409028333333333333E3BF0000000000000FB010790141107004050150C41D405064090741402480A0350
1001
ACAD
1000
AcDbSavedByObjectVersion
1070
     0
  0
ACAD_PROXY_OBJECT
  5
9827
102
{ACAD_REACTORS
330
95D8
102
}
330
95D8
100
AcDbZombieObject
 90
      499
 91
      510
 93
      420
310
4255DA5C99599C985B595059028333333333333E3BF0000000000000FB0107901411070040501600405405064090740C02480A0340
1001
ACAD
1000
AcDbSavedByObjectVersion
1070
     0
  0
ACAD_PROXY_OBJECT
  5
982B
102
{ACAD_REACTORS
330
95D8
102
}
330
95D8
100
AcDbZombieObject
 90
      499
 91
      510
 93
      404
310
41560B54985E51940902404000000000000E03F0000000000000FB010740501907004050150841D405064090740C02480A1B40
1001
ACAD
1000
AcDbSavedByObjectVersion
1070
     0
  0
XRECORD
  5
A95C
102
{ACAD_REACTORS
330
A95B
102
}
330
A95B
100
AcDbXrecord
340
2D0
  0
XRECORD
  5
A95D
102
{ACAD_REACTORS
330
A95B
102
}
330
A95B
100
AcDbXrecord
340
2CF
  0
DICTIONARYVAR
  5
9650
102
{ACAD_REACTORS
330
37
102
}
330
37
100
DictionaryVariables
280
     0
  1
1:1
  0
DICTIONARYVAR
  5
964F
102
{ACAD_REACTORS
330
37
102
}
330
37
100
DictionaryVariables
280
     0
  1
Standard
  0
DICTIONARYVAR
  5
4F1
102
{ACAD_REACTORS
330
37
102
}
330
37
100
DictionaryVariables
280
     0
  1
Standard
  0
DICTIONARYVAR
  5
38
102
{ACAD_REACTORS
330
37
102
}
330
37
100
DictionaryVariables
280
     0
  1
-1
  0
DICTIONARYVAR
  5
408
102
{ACAD_REACTORS
330
37
102
}
330
37
100
DictionaryVariables
280
     0
  1
2
  0
DICTIONARYVAR
  5
1891
102
{ACAD_REACTORS
330
37
102
}
330
37
100
DictionaryVariables
280
     0
  1
1
  0
DICTIONARYVAR
  5
9652
102
{ACAD_REACTORS
330
37
102
}
330
37
100
DictionaryVariables
280
     0
  1
0
  0
DICTIONARYVAR
  5
1895
102
{ACAD_REACTORS
330
37
102
}
330
37
100
DictionaryVariables
280
     0
  1
8
  0
DICTIONARYVAR
  5
1894
102
{ACAD_REACTORS
330
37
102
}
330
37
100
DictionaryVariables
280
     0
  1
1
  0
DICTIONARYVAR
  5
A65C
102
{ACAD_REACTORS
330
37
102
}
330
37
100
DictionaryVariables
280
     0
  1
0
  0
DICTIONARYVAR
  5
1892
102
{ACAD_REACTORS
330
37
102
}
330
37
100
DictionaryVariables
280
     0
  1
8
  0
DICTIONARYVAR
  5
1893
102
{ACAD_REACTORS
330
37
102
}
330
37
100
DictionaryVariables
280
     0
  1
2
  0
DICTIONARYVAR
  5
409
102
{ACAD_REACTORS
330
37
102
}
330
37
100
DictionaryVariables
280
     0
  1

  0
DICTIONARYVAR
  5
9651
102
{ACAD_REACTORS
330
37
102
}
330
37
100
DictionaryVariables
280
     0
  1
127
  0
DICTIONARYVAR
  5
9B3B
102
{ACAD_REACTORS
330
37
102
}
330
37
100
DictionaryVariables
280
     0
  1
2
  0
DICTIONARY
  5
AAF9
330
95C8
100
AcDbDictionary
  3
ACAD_XREC_ROUNDTRIP
360
AAFA
1001
ACAD
1000
TREAT_AS_HARD
1070
     1
  0
DICTIONARY
  5
AAFB
330
95C0
100
AcDbDictionary
  3
ACAD_XREC_ROUNDTRIP
360
AAFC
1001
ACAD
1000
TREAT_AS_HARD
1070
     1
  0
DICTIONARY
  5
AAFD
330
95D0
100
AcDbDictionary
  3
ACAD_XREC_ROUNDTRIP
360
AAFE
1001
ACAD
1000
TREAT_AS_HARD
1070
     1
  0
XRECORD
  5
AAFA
102
{ACAD_REACTORS
330
AAF9
102
}
330
AAF9
100
AcDbXrecord
102
MATERIAL
148
0.0
149
0.0
149
0.0
 93
        0
 94
      127
282
     0
 72
     0
 77
     0
171
     0
175
     0
179
     0
273
     0
  0
XRECORD
  5
AAFC
102
{ACAD_REACTORS
330
AAFB
102
}
330
AAFB
100
AcDbXrecord
102
MATERIAL
148
0.0
149
0.0
149
0.0
 93
        0
 94
      127
282
     0
 72
     0
 77
     0
171
     0
175
     0
179
     0
273
     0
  0
XRECORD
  5
AAFE
102
{ACAD_REACTORS
330
AAFD
102
}
330
AAFD
100
AcDbXrecord
102
MATERIAL
148
0.0
149
0.0
149
0.0
 93
        0
 94
      127
282
     0
 72
     0
 77
     0
171
     0
175
     0
179
     0
273
     0
  0
ENDSEC
  0
EOF
