  0
SECTION
  2
HEADER
  9
$ACADVER
  1
AC1012
  9
$DWGCODEPAGE
  3
ansi_932
  9
$INSBASE
 10
0.0
 20
0.0
 30
0.0
  9
$EXTMIN
 10
-235.643876466427
 20
-44.93646607214407
 30
0.0
  9
$EXTMAX
 10
125.9919161144553
 20
154.4766198718498
 30
0.0
  9
$LIMMIN
 10
0.0
 20
0.0
  9
$LIMMAX
 10
420.0
 20
297.0
  9
$ORTHOMODE
 70
     0
  9
$REGENMODE
 70
     1
  9
$FILLMODE
 70
     1
  9
$QTEXTMODE
 70
     0
  9
$MIRRTEXT
 70
     0
  9
$DRAGMODE
 70
     2
  9
$LTSCALE
 40
0.5
  9
$OSMODE
 70
  2175
  9
$ATTMODE
 70
     1
  9
$TEXTSIZE
 40
4.0
  9
$TRACEWID
 40
1.0
  9
$TEXTSTYLE
  7
STANDARD
  9
$CLAYER
  8
1TEXT
  9
$CELTYPE
  6
BYLAYER
  9
$CECOLOR
 62
   256
  9
$CELTSCALE
 40
1.0
  9
$DELOBJ
 70
     1
  9
$DISPSILH
 70
     0
  9
$DIMSCALE
 40
1.0
  9
$DIMASZ
 40
2.0
  9
$DIMEXO
 40
0.0
  9
$DIMDLI
 40
7.0
  9
$DIMRND
 40
0.0
  9
$DIMDLE
 40
0.0
  9
$DIMEXE
 40
1.0
  9
$DIMTP
 40
0.0
  9
$DIMTM
 40
0.0
  9
$DIMTXT
 40
3.5
  9
$DIMCEN
 40
0.0
  9
$DIMTSZ
 40
0.0
  9
$DIMTOL
 70
     0
  9
$DIMLIM
 70
     0
  9
$DIMTIH
 70
     0
  9
$DIMTOH
 70
     0
  9
$DIMSE1
 70
     0
  9
$DIMSE2
 70
     0
  9
$DIMTAD
 70
     1
  9
$DIMZIN
 70
     8
  9
$DIMBLK
  1

  9
$DIMASO
 70
     1
  9
$DIMSHO
 70
     1
  9
$DIMPOST
  1
 
  9
$DIMAPOST
  1

  9
$DIMALT
 70
     0
  9
$DIMALTD
 70
     2
  9
$DIMALTF
 40
25.4
  9
$DIMLFAC
 40
1.0
  9
$DIMTOFL
 70
     1
  9
$DIMTVP
 40
0.0
  9
$DIMTIX
 70
     0
  9
$DIMSOXD
 70
     0
  9
$DIMSAH
 70
     1
  9
$DIMBLK1
  1
OPEN30
  9
$DIMBLK2
  1
OPEN30
  9
$DIMSTYLE
  2
NEWX10
  9
$DIMCLRD
 70
   256
  9
$DIMCLRE
 70
   256
  9
$DIMCLRT
 70
   201
  9
$DIMTFAC
 40
0.7
  9
$DIMGAP
 40
0.7
  9
$DIMJUST
 70
     0
  9
$DIMSD1
 70
     0
  9
$DIMSD2
 70
     0
  9
$DIMTOLJ
 70
     1
  9
$DIMTZIN
 70
     8
  9
$DIMALTZ
 70
     0
  9
$DIMALTTZ
 70
     0
  9
$DIMFIT
 70
     2
  9
$DIMUPT
 70
     0
  9
$DIMUNIT
 70
     2
  9
$DIMDEC
 70
     2
  9
$DIMTDEC
 70
     4
  9
$DIMALTU
 70
     2
  9
$DIMALTTD
 70
     2
  9
$DIMTXSTY
  7
STANDARD
  9
$DIMAUNIT
 70
     0
  9
$LUNITS
 70
     2
  9
$LUPREC
 70
     4
  9
$SKETCHINC
 40
1.0
  9
$FILLETRAD
 40
0.0
  9
$AUNITS
 70
     0
  9
$AUPREC
 70
     2
  9
$MENU
  1
acad
  9
$ELEVATION
 40
0.0
  9
$PELEVATION
 40
0.0
  9
$THICKNESS
 40
0.0
  9
$LIMCHECK
 70
     0
  9
$CHAMFERA
 40
10.0
  9
$CHAMFERB
 40
10.0
  9
$CHAMFERC
 40
20.0
  9
$CHAMFERD
 40
0.0
  9
$SKPOLY
 70
     0
  9
$TDCREATE
 40
2453033.732663484
  9
$TDUPDATE
 40
2459311.487522546
  9
$TDINDWG
 40
0.3094794329
  9
$TDUSRTIMER
 40
0.3094794329
  9
$USRTIMER
 70
     1
  9
$ANGBASE
 50
0.0
  9
$ANGDIR
 70
     0
  9
$PDMODE
 70
     0
  9
$PDSIZE
 40
0.0
  9
$PLINEWID
 40
0.0
  9
$COORDS
 70
     2
  9
$SPLFRAME
 70
     0
  9
$SPLINETYPE
 70
     6
  9
$SPLINESEGS
 70
     8
  9
$ATTDIA
 70
     0
  9
$ATTREQ
 70
     1
  9
$HANDLING
 70
     1
  9
$HANDSEED
  5
B3C6
  9
$SURFTAB1
 70
     6
  9
$SURFTAB2
 70
     6
  9
$SURFTYPE
 70
     6
  9
$SURFU
 70
     6
  9
$SURFV
 70
     6
  9
$UCSNAME
  2

  9
$UCSORG
 10
0.0
 20
0.0
 30
0.0
  9
$UCSXDIR
 10
1.0
 20
0.0
 30
0.0
  9
$UCSYDIR
 10
0.0
 20
1.0
 30
0.0
  9
$PUCSNAME
  2

  9
$PUCSORG
 10
0.0
 20
0.0
 30
0.0
  9
$PUCSXDIR
 10
1.0
 20
0.0
 30
0.0
  9
$PUCSYDIR
 10
0.0
 20
1.0
 30
0.0
  9
$USERI1
 70
     0
  9
$USERI2
 70
     0
  9
$USERI3
 70
     0
  9
$USERI4
 70
     0
  9
$USERI5
 70
     0
  9
$USERR1
 40
0.0
  9
$USERR2
 40
0.0
  9
$USERR3
 40
0.0
  9
$USERR4
 40
0.0
  9
$USERR5
 40
0.0
  9
$WORLDVIEW
 70
     1
  9
$SHADEDGE
 70
     3
  9
$SHADEDIF
 70
    70
  9
$TILEMODE
 70
     1
  9
$MAXACTVP
 70
    48
  9
$PINSBASE
 10
0.0
 20
0.0
 30
0.0
  9
$PLIMCHECK
 70
     0
  9
$PEXTMIN
 10
1.000000000000000E+20
 20
1.000000000000000E+20
 30
1.000000000000000E+20
  9
$PEXTMAX
 10
-1.000000000000000E+20
 20
-1.000000000000000E+20
 30
-1.000000000000000E+20
  9
$PLIMMIN
 10
0.0
 20
0.0
  9
$PLIMMAX
 10
420.0
 20
297.0
  9
$UNITMODE
 70
     0
  9
$VISRETAIN
 70
     1
  9
$PLINEGEN
 70
     0
  9
$PSLTSCALE
 70
     1
  9
$TREEDEPTH
 70
  3020
  9
$PICKSTYLE
 70
     0
  9
$CMLSTYLE
  2
STANDARD
  9
$CMLJUST
 70
     0
  9
$CMLSCALE
 40
20.0
  9
$SAVEIMAGES
 70
     1
  0
ENDSEC
  0
SECTION
  2
CLASSES
  0
CLASS
  1
DICTIONARYVAR
  2
AcDbDictionaryVar
  3
ObjectDBX Classes
 90
        0
280
     0
281
     0
  0
CLASS
  1
IDBUFFER
  2
AcDbIdBuffer
  3
ObjectDBX Classes
 90
    32768
280
     0
281
     0
  0
CLASS
  1
LWPOLYLINE
  2
AcDbPolyline
  3
ObjectDBX Classes
 90
    32768
280
     0
281
     1
  0
CLASS
  1
ACDBDICTIONARYWDFLT
  2
AcDbDictionaryWithDefault
  3
ObjectDBX Classes
 90
    32768
280
     0
281
     0
  0
CLASS
  1
ACDBPLACEHOLDER
  2
AcDbPlaceHolder
  3
ObjectDBX Classes
 90
        0
280
     0
281
     0
  0
CLASS
  1
LAYOUT
  2
AcDbLayout
  3
ObjectDBX Classes
 90
        0
280
     0
281
     0
  0
CLASS
  1
TABLESTYLE
  2
AcDbTableStyle
  3
ObjectDBX Classes
 90
     4095
280
     0
281
     0
  0
CLASS
  1
SORTENTSTABLE
  2
AcDbSortentsTable
  3
ObjectDBX Classes
 90
    32768
280
     0
281
     0
  0
CLASS
  1
DIMASSOC
  2
AcDbDimAssoc
  3
"AcDbDimAssoc|Product Desc:     AcDim ARX App For Dimension|Company:          Autodesk, Inc.|WEB Address:      www.autodesk.com"
 90
        0
280
     0
281
     0
  0
CLASS
  1
MATERIAL
  2
AcDbMaterial
  3
ObjectDBX Classes
 90
     1153
280
     0
281
     0
  0
CLASS
  1
VISUALSTYLE
  2
AcDbVisualStyle
  3
ObjectDBX Classes
 90
     4095
280
     0
281
     0
  0
CLASS
  1
SCALE
  2
AcDbScale
  3
ObjectDBX Classes
 90
     1153
280
     0
281
     0
  0
CLASS
  1
MLEADERSTYLE
  2
AcDbMLeaderStyle
  3
ACDB_MLEADERSTYLE_CLASS
 90
     4095
280
     0
281
     0
  0
CLASS
  1
CELLSTYLEMAP
  2
AcDbCellStyleMap
  3
ObjectDBX Classes
 90
     1152
280
     0
281
     0
  0
CLASS
  1
SUN
  2
AcDbSun
  3
SCENEOE
 90
     1153
280
     0
281
     0
  0
CLASS
  1
MULTILEADER
  2
AcDbMLeader
  3
ACDB_MLEADER_CLASS
 90
     1025
280
     0
281
     1
  0
CLASS
  1
ACDB_MLEADEROBJECTCONTEXTDATA_CLASS
  2
AcDbMLeaderObjectContextData
  3
ObjectDBX Classes
 90
     1153
280
     0
281
     0
  0
CLASS
  1
XRECORD
  2
AcDbXrecord
  3
ObjectDBX Classes
 90
    32768
280
     0
281
     0
  0
CLASS
  1
HATCH
  2
AcDbHatch
  3
ObjectDBX Classes
 90
    32768
280
     0
281
     1
  0
ENDSEC
  0
SECTION
  2
TABLES
  0
TABLE
  2
VPORT
  5
8
330
0
100
AcDbSymbolTable
 70
     1
  0
VPORT
  5
99B7
330
8
100
AcDbSymbolTableRecord
100
AcDbViewportTableRecord
  2
*ACTIVE
 70
     0
 10
0.0
 20
0.0
 11
1.0
 21
1.0
 12
-54.82598017598585
 22
54.77007689985285
 13
0.0
 23
0.0
 14
10.0
 24
10.0
 15
10.0
 25
10.0
 16
0.0
 26
0.0
 36
1.0
 17
0.0
 27
0.0
 37
0.0
 40
214.1066817503934
 41
2.137115839243499
 42
50.0
 43
0.0
 44
0.0
 50
0.0
 51
0.0
 71
    16
 72
   100
 73
     1
 74
     1
 75
     0
 76
     0
 77
     0
 78
     0
1001
ACAD_NAV_VCDISPLAY
1070
     3
  0
ENDTAB
  0
TABLE
  2
LTYPE
  5
5
330
0
100
AcDbSymbolTable
 70
     5
  0
LTYPE
  5
12
330
5
100
AcDbSymbolTableRecord
100
AcDbLinetypeTableRecord
  2
BYBLOCK
 70
     0
  3

 72
    65
 73
     0
 40
0.0
  0
LTYPE
  5
13
330
5
100
AcDbSymbolTableRecord
100
AcDbLinetypeTableRecord
  2
BYLAYER
 70
     0
  3

 72
    65
 73
     0
 40
0.0
  0
LTYPE
  5
14
330
5
100
AcDbSymbolTableRecord
100
AcDbLinetypeTableRecord
  2
CONTINUOUS
 70
     0
  3
Solid line
 72
    65
 73
     0
 40
0.0
  0
LTYPE
  5
6A
330
5
100
AcDbSymbolTableRecord
100
AcDbLinetypeTableRecord
  2
XREF1|CENTER2
 70
    48
  3
Center (.5x) ___ _ ___ _ ___ _ ___ _ ___ _ ___
 72
    65
 73
     4
 40
28.575
 49
19.05
 74
     0
 49
-3.175
 74
     0
 49
3.175
 74
     0
 49
-3.175
 74
     0
  0
LTYPE
  5
100
330
5
100
AcDbSymbolTableRecord
100
AcDbLinetypeTableRecord
  2
PHANTOM2
 70
     0
  3
Phantom (0.5x) ___ _ _ ___ _ _ ___ _ _ ___ _ _
 72
    65
 73
     6
 40
31.75
 49
15.875
 74
     0
 49
-3.175
 74
     0
 49
3.175
 74
     0
 49
-3.175
 74
     0
 49
3.175
 74
     0
 49
-3.175
 74
     0
  0
LTYPE
  5
6E2
330
5
100
AcDbSymbolTableRecord
100
AcDbLinetypeTableRecord
  2
A3WAKUDAKE|CENTER2
 70
    48
  3
Center (.5x) ___ _ ___ _ ___ _ ___ _ ___ _ ___
 72
    65
 73
     4
 40
28.575
 49
19.05
 74
     0
 49
-3.175
 74
     0
 49
3.175
 74
     0
 49
-3.175
 74
     0
  0
LTYPE
  5
9A4E
330
5
100
AcDbSymbolTableRecord
100
AcDbLinetypeTableRecord
  2
CENTER2
 70
     0
  3
Center (.5x) ___ _ ___ _ ___ _ ___ _ ___ _ ___
 72
    65
 73
     4
 40
28.575
 49
19.05
 74
     0
 49
-3.175
 74
     0
 49
3.175
 74
     0
 49
-3.175
 74
     0
  0
ENDTAB
  0
TABLE
  2
LAYER
  5
2
102
{ACAD_XDICTIONARY
360
9A15
102
}
330
0
100
AcDbSymbolTable
 70
    10
  0
LAYER
  5
E
102
{ACAD_XDICTIONARY
360
9A4F
102
}
330
2
100
AcDbSymbolTableRecord
100
AcDbLayerTableRecord
  2
0
 70
     0
 62
     7
  6
CONTINUOUS
  0
LAYER
  5
29
102
{ACAD_XDICTIONARY
360
9A51
102
}
330
2
100
AcDbSymbolTableRecord
100
AcDbLayerTableRecord
  2
1CENTER
 70
     0
 62
     7
  6
CENTER2
  0
LAYER
  5
31
102
{ACAD_XDICTIONARY
360
9A53
102
}
330
2
100
AcDbSymbolTableRecord
100
AcDbLayerTableRecord
  2
1TEXT
 70
     0
 62
     7
  6
CONTINUOUS
  0
LAYER
  5
101
102
{ACAD_XDICTIONARY
360
9A59
102
}
330
2
100
AcDbSymbolTableRecord
100
AcDbLayerTableRecord
  2
1DIM
 70
     0
 62
     7
  6
CONTINUOUS
  0
LAYER
  5
103
102
{ACAD_XDICTIONARY
360
9A5B
102
}
330
2
100
AcDbSymbolTableRecord
100
AcDbLayerTableRecord
  2
1PHANTOM
 70
     0
 62
     7
  6
PHANTOM2
  0
LAYER
  5
6DD
102
{ACAD_XDICTIONARY
360
9A5F
102
}
330
2
100
AcDbSymbolTableRecord
100
AcDbLayerTableRecord
  2
A3WAKUDAKE|THICK
 70
    48
 62
     7
  6
CONTINUOUS
  0
LAYER
  5
6DE
102
{ACAD_XDICTIONARY
360
9A61
102
}
330
2
100
AcDbSymbolTableRecord
100
AcDbLayerTableRecord
  2
A3WAKUDAKE|POINT
 70
    48
 62
     7
  6
CONTINUOUS
  0
LAYER
  5
6DF
102
{ACAD_XDICTIONARY
360
9A63
102
}
330
2
100
AcDbSymbolTableRecord
100
AcDbLayerTableRecord
  2
A3WAKUDAKE|1CENTER
 70
    48
 62
     7
  6
A3WAKUDAKE|CENTER2
  0
LAYER
  5
6E0
102
{ACAD_XDICTIONARY
360
9A65
102
}
330
2
100
AcDbSymbolTableRecord
100
AcDbLayerTableRecord
  2
A3WAKUDAKE|0-6
 70
    48
 62
     7
  6
CONTINUOUS
  0
LAYER
  5
A6B0
330
2
100
AcDbSymbolTableRecord
100
AcDbLayerTableRecord
  2
01
 70
     0
 62
     1
  6
CONTINUOUS
  0
ENDTAB
  0
TABLE
  2
STYLE
  5
3
330
0
100
AcDbSymbolTable
 70
     4
  0
STYLE
  5
F
330
3
100
AcDbSymbolTableRecord
100
AcDbTextStyleTableRecord
  2
STANDARD
 70
     0
 40
0.0
 41
1.0
 50
0.0
 71
     0
 42
4.0
  3
txt.shx
  4
extfont.shx
  0
STYLE
  5
9E6D
330
3
100
AcDbSymbolTableRecord
100
AcDbTextStyleTableRecord
  2
A3WAKUDAKE|STANDARD
 70
    48
 40
0.0
 41
1.0
 50
0.0
 71
     0
 42
4.0
  3
romans.shx
  4
extfont.shx
  0
STYLE
  5
9E95
330
3
100
AcDbSymbolTableRecord
100
AcDbTextStyleTableRecord
  2
XREF1|STANDARD
 70
    48
 40
0.0
 41
1.0
 50
0.0
 71
     0
 42
4.0
  3
romans.shx
  4
extfont.shx
  0
STYLE
  5
A6D9
330
3
100
AcDbSymbolTableRecord
100
AcDbTextStyleTableRecord
  2
STANDARD06
 70
     0
 40
0.0
 41
0.6
 50
0.0
 71
     0
 42
4.0
  3
romans.shx
  4
extfont2.shx
1001
ACADANNOTATIVE
1000
AnnotativeData
1002
{
1070
     1
1070
     0
1002
}
  0
ENDTAB
  0
TABLE
  2
VIEW
  5
6
330
0
100
AcDbSymbolTable
 70
     0
  0
ENDTAB
  0
TABLE
  2
UCS
  5
7
330
0
100
AcDbSymbolTable
 70
     0
  0
ENDTAB
  0
TABLE
  2
APPID
  5
9
330
0
100
AcDbSymbolTable
 70
    31
  0
APPID
  5
10
330
9
100
AcDbSymbolTableRecord
100
AcDbRegAppTableRecord
  2
ACAD
 70
     0
  0
APPID
  5
21
330
9
100
AcDbSymbolTableRecord
100
AcDbRegAppTableRecord
  2
DRAWINGVARIABLESXDATA
 70
     0
  0
APPID
  5
64
330
9
100
AcDbSymbolTableRecord
100
AcDbRegAppTableRecord
  2
CONTENTTABDATA
 70
     0
  0
APPID
  5
65
330
9
100
AcDbSymbolTableRecord
100
AcDbRegAppTableRecord
  2
CONTENTCURRENTTAB
 70
     0
  0
APPID
  5
66
330
9
100
AcDbSymbolTableRecord
100
AcDbRegAppTableRecord
  2
CONTENTBLOCKDESCRIPTION
 70
     0
  0
APPID
  5
67
330
9
100
AcDbSymbolTableRecord
100
AcDbRegAppTableRecord
  2
CONTENTBLOCKICON
 70
     0
  0
APPID
  5
68
330
9
100
AcDbSymbolTableRecord
100
AcDbRegAppTableRecord
  2
CONTENTLONGBLOCKNAME
 70
     0
  0
APPID
  5
5A9
330
9
100
AcDbSymbolTableRecord
100
AcDbRegAppTableRecord
  2
ACAD_PSEXT
 70
     0
  0
APPID
  5
18AC
330
9
100
AcDbSymbolTableRecord
100
AcDbRegAppTableRecord
  2
ACAD_DSTYLE_DIMTEXT_FILL
 70
     0
  0
APPID
  5
9A10
330
9
100
AcDbSymbolTableRecord
100
AcDbRegAppTableRecord
  2
ACAD_MLEADERVER
 70
     0
  0
APPID
  5
9B84
330
9
100
AcDbSymbolTableRecord
100
AcDbRegAppTableRecord
  2
ACAD_NAV_VCDISPLAY
 70
     0
  0
APPID
  5
9CE1
330
9
100
AcDbSymbolTableRecord
100
AcDbRegAppTableRecord
  2
ACAD_DSTYLE_DIMRADIAL_EXTE
 70
     0
  0
APPID
  5
9D64
330
9
100
AcDbSymbolTableRecord
100
AcDbRegAppTableRecord
  2
ACAD_EXEMPT_FROM_CAD_STAND
 70
     0
  0
APPID
  5
9ED3
330
9
100
AcDbSymbolTableRecord
100
AcDbRegAppTableRecord
  2
ACADANNOTATIVE
 70
     0
  0
APPID
  5
9ED4
330
9
100
AcDbSymbolTableRecord
100
AcDbRegAppTableRecord
  2
ACDBBLOCKREPETAG
 70
     0
  0
APPID
  5
A6C6
330
9
100
AcDbSymbolTableRecord
100
AcDbRegAppTableRecord
  2
ACDBDYNAMICBLOCKTRUENAME
 70
     0
  0
APPID
  5
A6C7
330
9
100
AcDbSymbolTableRecord
100
AcDbRegAppTableRecord
  2
ACDBDYNAMICBLOCKGUID
 70
     0
  0
APPID
  5
A6C8
330
9
100
AcDbSymbolTableRecord
100
AcDbRegAppTableRecord
  2
ACDBBLOCKREPBTAG
 70
     0
  0
APPID
  5
A6C9
330
9
100
AcDbSymbolTableRecord
100
AcDbRegAppTableRecord
  2
ACAUTHENVIRON
 70
     0
  0
APPID
  5
A6CA
330
9
100
AcDbSymbolTableRecord
100
AcDbRegAppTableRecord
  2
ACADANNOPO
 70
     0
  0
APPID
  5
A6CB
330
9
100
AcDbSymbolTableRecord
100
AcDbRegAppTableRecord
  2
ACLAYERTOOLS
 70
     0
  0
APPID
  5
A6CD
330
9
100
AcDbSymbolTableRecord
100
AcDbRegAppTableRecord
  2
ACAECLAYERSTANDARD
 70
     0
  0
APPID
  5
A6CE
330
9
100
AcDbSymbolTableRecord
100
AcDbRegAppTableRecord
  2
ACAD_DSTYLE_DIMJOGGED_JOGA
 70
     0
  0
APPID
  5
A6CF
330
9
100
AcDbSymbolTableRecord
100
AcDbRegAppTableRecord
  2
ACAD_DSTYLE_DIM_LINETYPE
 70
     0
  0
APPID
  5
A6D0
330
9
100
AcDbSymbolTableRecord
100
AcDbRegAppTableRecord
  2
ACAD_DSTYLE_DIM_EXT1_LINET
 70
     0
  0
APPID
  5
A6D1
330
9
100
AcDbSymbolTableRecord
100
AcDbRegAppTableRecord
  2
ACAD_DSTYLE_DIM_EXT2_LINET
 70
     0
  0
APPID
  5
A6D2
330
9
100
AcDbSymbolTableRecord
100
AcDbRegAppTableRecord
  2
ACAD_DIMASSOC_CALC_DIMLFAC
 70
     0
  0
APPID
  5
A6D3
330
9
100
AcDbSymbolTableRecord
100
AcDbRegAppTableRecord
  2
ACAD_DIMASSOC_DIMLFAC
 70
     0
  0
APPID
  5
A6D4
330
9
100
AcDbSymbolTableRecord
100
AcDbRegAppTableRecord
  2
ACAD_DIMASSOC_OVERRIDDEN_D
 70
     0
  0
APPID
  5
A6D6
330
9
100
AcDbSymbolTableRecord
100
AcDbRegAppTableRecord
  2
ACAD_OBJECT_CHANGE_GUID
 70
     0
  0
APPID
  5
A6D7
330
9
100
AcDbSymbolTableRecord
100
AcDbRegAppTableRecord
  2
ACADANNOTATIVEDECOMPOSITIO
 70
     0
  0
ENDTAB
  0
TABLE
  2
DIMSTYLE
  5
A
330
0
100
AcDbSymbolTable
 70
     2
  0
DIMSTYLE
105
48
102
{ACAD_REACTORS
102
}
330
A
100
AcDbSymbolTableRecord
100
AcDbDimStyleTableRecord
  2
NEWX10
 70
     0
  3
 
  4

  5

  6
OPEN30
  7
OPEN30
 40
1.0
 41
2.0
 42
0.0
 43
7.0
 44
1.0
 45
0.0
 46
0.0
 47
0.0
 48
0.0
140
3.5
141
0.0
142
0.0
143
25.4
144
1.0
145
0.0
146
0.7
147
0.7
 71
     0
 72
     0
 73
     0
 74
     0
 75
     0
 76
     0
 77
     1
 78
     8
170
     0
171
     2
172
     1
173
     1
174
     0
175
     0
176
   256
177
   256
178
   201
179
     2
270
     2
271
     2
272
     4
273
     2
274
     2
340
F
275
     0
280
     0
281
     0
282
     0
283
     1
284
     8
285
     0
286
     0
287
     2
288
     0
  0
DIMSTYLE
105
A6BB
330
A
100
AcDbSymbolTableRecord
100
AcDbDimStyleTableRecord
  2
ISO-25
 70
     0
  3

  4

  5

  6

  7

 40
1.0
 41
20.0
 42
3.0
 43
3.75
 44
2.0
 45
0.0
 46
0.0
 47
0.0
 48
0.0
140
30.0
141
5.0
142
0.0
143
0.03937007874016
144
1.0
145
0.0
146
1.0
147
8.0
 71
     0
 72
     0
 73
     0
 74
     0
 75
     0
 76
     0
 77
     1
 78
     8
170
     0
171
     3
172
     1
173
     0
174
     0
175
     0
176
     1
177
     1
178
     1
179
     2
270
     2
271
     2
272
     2
273
     2
274
     3
340
F
275
     0
280
     0
281
     0
282
     0
283
     0
284
     8
285
     0
286
     0
287
     3
288
     0
  0
ENDTAB
  0
TABLE
  2
BLOCK_RECORD
  5
1
330
0
100
AcDbSymbolTable
 70
    12
  0
BLOCK_RECORD
  5
18
102
{ACAD_XDICTIONARY
360
6E9
102
}
330
1
100
AcDbSymbolTableRecord
100
AcDbBlockTableRecord
  2
*MODEL_SPACE
  0
BLOCK_RECORD
  5
15
102
{ACAD_XDICTIONARY
360
59B
102
}
330
1
100
AcDbSymbolTableRecord
100
AcDbBlockTableRecord
  2
*PAPER_SPACE
  0
BLOCK_RECORD
  5
42
330
1
100
AcDbSymbolTableRecord
100
AcDbBlockTableRecord
  2
_OPEN30
  0
BLOCK_RECORD
  5
5B
330
1
100
AcDbSymbolTableRecord
100
AcDbBlockTableRecord
  2
XREF1
  0
BLOCK_RECORD
  5
6DA
330
1
100
AcDbSymbolTableRecord
100
AcDbBlockTableRecord
  2
A3WAKUDAKE
  0
BLOCK_RECORD
  5
9F24
330
1
100
AcDbSymbolTableRecord
100
AcDbBlockTableRecord
  2
A3WAKUKAWAJUN2017_HYOUDAI_
  0
BLOCK_RECORD
  5
A6E0
102
{ACAD_XDICTIONARY
360
A6E1
102
}
330
1
100
AcDbSymbolTableRecord
100
AcDbBlockTableRecord
  2
NOCIRCLE
1001
ACADANNOTATIVE
1000
AnnotativeData
1002
{
1070
     1
1070
     0
1002
}
  0
BLOCK_RECORD
  5
A718
102
{ACAD_XDICTIONARY
360
A719
102
}
330
1
100
AcDbSymbolTableRecord
100
AcDbBlockTableRecord
  2
NO3CIRCLE
1001
ACADANNOTATIVE
1000
AnnotativeData
1002
{
1070
     1
1070
     0
1002
}
  0
BLOCK_RECORD
  5
B226
330
1
100
AcDbSymbolTableRecord
100
AcDbBlockTableRecord
  2
*X50
  0
BLOCK_RECORD
  5
B274
330
1
100
AcDbSymbolTableRecord
100
AcDbBlockTableRecord
  2
*X51
  0
BLOCK_RECORD
  5
B2C6
330
1
100
AcDbSymbolTableRecord
100
AcDbBlockTableRecord
  2
*X52
  0
BLOCK_RECORD
  5
B317
330
1
100
AcDbSymbolTableRecord
100
AcDbBlockTableRecord
  2
*X53
  0
BLOCK_RECORD
  5
B354
330
1
100
AcDbSymbolTableRecord
100
AcDbBlockTableRecord
  2
*X54
  0
BLOCK_RECORD
  5
B394
330
1
100
AcDbSymbolTableRecord
100
AcDbBlockTableRecord
  2
*X55
  0
ENDTAB
  0
ENDSEC
  0
SECTION
  2
BLOCKS
  0
BLOCK
  5
19
330
18
100
AcDbEntity
  8
0
100
AcDbBlockBegin
  2
*MODEL_SPACE
 70
     0
 10
0.0
 20
0.0
 30
0.0
  3
*MODEL_SPACE
  1

  0
ENDBLK
  5
1A
330
18
100
AcDbEntity
  8
0
100
AcDbBlockEnd
  0
BLOCK
  5
16
330
15
100
AcDbEntity
 67
     1
  8
0
100
AcDbBlockBegin
  2
*PAPER_SPACE
 70
     0
 10
0.0
 20
0.0
 30
0.0
  3
*PAPER_SPACE
  1

  0
ENDBLK
  5
17
330
15
100
AcDbEntity
 67
     1
  8
0
100
AcDbBlockEnd
  0
BLOCK
  5
43
330
42
100
AcDbEntity
  8
0
100
AcDbBlockBegin
  2
_OPEN30
 70
     0
 10
0.0
 20
0.0
 30
0.0
  3
_OPEN30
  1

  0
LINE
  5
44
330
42
100
AcDbEntity
  8
0
  6
BYBLOCK
 62
     0
100
AcDbLine
 10
-1.0
 20
0.26794919
 30
0.0
 11
0.0
 21
0.0
 31
0.0
  0
LINE
  5
45
330
42
100
AcDbEntity
  8
0
  6
BYBLOCK
 62
     0
100
AcDbLine
 10
0.0
 20
0.0
 30
0.0
 11
-1.0
 21
-0.26794919
 31
0.0
  0
LINE
  5
46
330
42
100
AcDbEntity
  8
0
  6
BYBLOCK
 62
     0
100
AcDbLine
 10
0.0
 20
0.0
 30
0.0
 11
-1.0
 21
0.0
 31
0.0
  0
ENDBLK
  5
47
330
42
100
AcDbEntity
  8
0
100
AcDbBlockEnd
  0
BLOCK
  5
5C
330
5B
100
AcDbEntity
  8
0
100
AcDbBlockBegin
  2
XREF1
 70
    36
 10
0.0
 20
0.0
 30
0.0
  3
XREF1
  1
D:\ACLT\FORMAT\KAWAJUN(9)図面用.dwg
  0
ENDBLK
  5
5D
330
5B
100
AcDbEntity
  8
0
100
AcDbBlockEnd
  0
BLOCK
  5
6DB
330
6DA
100
AcDbEntity
  8
0
100
AcDbBlockBegin
  2
A3WAKUDAKE
 70
    36
 10
0.0
 20
0.0
 30
0.0
  3
A3WAKUDAKE
  1
D:\ACLT\FORMAT\A3WAKUdake.dwg
  0
ENDBLK
  5
6DC
330
6DA
100
AcDbEntity
  8
0
100
AcDbBlockEnd
  0
BLOCK
  5
A623
330
9F24
100
AcDbEntity
  8
0
100
AcDbBlockBegin
  2
A3WAKUKAWAJUN2017_HYOUDAI_
 70
     0
 10
0.0
 20
0.0
 30
0.0
  3
A3WAKUKAWAJUN2017_HYOUDAI_
  1

  0
LINE
  5
9F26
330
9F24
100
AcDbEntity
  8
0
100
AcDbLine
 10
13.26299999998673
 20
-0.0001000000000317
 30
0.0
 11
9.236999999990758
 21
8.999899999990987
 31
0.0
1001
ACAD
1000
ASC_BOUNDS
1002
{
1070
    19
1005
9F67
1002
}
  0
LINE
  5
9F27
330
9F24
100
AcDbEntity
  8
0
100
AcDbLine
 10
5.657999999994331
 20
0.9999999999989768
 30
0.0
 11
9.236999999990758
 21
8.999999999991019
 31
0.0
1001
ACAD
1000
ASC_BOUNDS
1002
{
1070
    19
1005
9F67
1002
}
  0
LINE
  5
9F28
330
9F24
100
AcDbEntity
  8
0
100
AcDbLine
 10
18.59199999998134
 20
-0.2368999999997641
 30
0.0
 11
16.46099999998353
 21
5.432899999994561
 31
0.0
1001
ACAD
1000
ASC_BOUNDS
1002
{
1070
    19
1005
9F68
1002
}
  0
LINE
  5
9F29
330
9F24
100
AcDbEntity
  8
0
100
AcDbLine
 10
18.59199999998134
 20
-0.2368999999997641
 30
0.0
 11
22.38199999997767
 21
8.763099999991255
 31
0.0
1001
ACAD
1000
ASC_BOUNDS
1002
{
1070
    19
1005
9F68
1002
}
  0
LINE
  5
9F2A
330
9F24
100
AcDbEntity
  8
0
100
AcDbLine
 10
14.32899999998563
 20
-0.2368999999997641
 30
0.0
 11
16.46099999998353
 21
5.432899999994561
 31
0.0
1001
ACAD
1000
ASC_BOUNDS
1002
{
1070
    19
1005
9F68
1002
}
  0
LINE
  5
9F2B
330
9F24
100
AcDbEntity
  8
0
100
AcDbLine
 10
14.32899999998563
 20
-0.2368999999997641
 30
0.0
 11
10.53899999998941
 21
8.763099999991255
 31
0.0
1001
ACAD
1000
ASC_BOUNDS
1002
{
1070
    19
1005
9F68
1002
}
  0
LINE
  5
9F2C
330
9F24
100
AcDbEntity
  8
0
100
AcDbLine
 10
19.53899999998043
 20
-0.0001000000000317
 30
0.0
 11
23.56599999997638
 21
8.999899999990987
 31
0.0
1001
ACAD
1000
ASC_BOUNDS
1002
{
1070
    19
1005
9F69
1002
}
  0
LINE
  5
9F2D
330
9F24
100
AcDbEntity
  8
0
100
AcDbLine
 10
26.97358892824991
 20
1.383099999991202
 30
0.0
 11
23.56599999997638
 21
8.999899999990987
 31
0.0
1001
ACAD
1000
ASC_BOUNDS
1002
{
1070
    19
1005
9F69
1002
}
  0
LINE
  5
9F2E
330
9F24
100
AcDbEntity
  8
0
100
AcDbLine
 10
5.657999999994331
 20
0.9999999999989768
 30
0.0
 11
3.181999999996833
 21
4.668599999995308
 31
0.0
1001
ACAD
1000
ASC_BOUNDS
1002
{
1070
    19
1005
9F67
1002
}
  0
LINE
  5
9F2F
330
9F24
100
AcDbEntity
  8
0
100
AcDbLine
 10
4.617999999995391
 20
-0.0001000000000317
 30
0.0
 11
1.420999999998571
 21
4.736799999995242
 31
0.0
1001
ACAD
1000
ASC_BOUNDS
1002
{
1070
    19
1005
9F67
1002
}
  0
LINE
  5
9F30
330
9F24
100
AcDbEntity
  8
0
100
AcDbLine
 10
1.420999999998571
 20
8.763099999991255
 30
0.0
 11
1.420999999998571
 21
0.0
 31
0.0
1001
ACAD
1000
ASC_BOUNDS
1002
{
1070
    19
1005
9F6C
1002
}
  0
LINE
  5
9F31
330
9F24
100
AcDbEntity
  8
0
100
AcDbLine
 10
0.0
 20
8.763099999991255
 30
0.0
 11
0.0
 21
0.0
 31
0.0
1001
ACAD
1000
ASC_BOUNDS
1002
{
1070
    19
1005
9F6C
1002
}
  0
LINE
  5
9F32
330
9F24
100
AcDbEntity
  8
0
100
AcDbLine
 10
6.766999999993232
 20
-0.0001000000000317
 30
0.0
 11
7.826999999992154
 21
2.368399999997621
 31
0.0
1001
ACAD
1000
ASC_BOUNDS
1002
{
1070
    19
1005
9F67
1002
}
  0
LINE
  5
9F33
330
9F24
100
AcDbEntity
  8
0
100
AcDbLine
 10
0.0
 20
0.0
 30
0.0
 11
1.420999999998571
 21
0.0
 31
0.0
1001
ACAD
1000
ASC_BOUNDS
1002
{
1070
    19
1005
9F6C
1002
}
  0
LINE
  5
9F34
330
9F24
100
AcDbEntity
  8
0
100
AcDbLine
 10
4.617999999995391
 20
0.0
 30
0.0
 11
6.766999999993232
 21
0.0
 31
0.0
1001
ACAD
1000
ASC_BOUNDS
1002
{
1070
    19
1005
9F67
1002
}
  0
LINE
  5
9F35
330
9F24
100
AcDbEntity
  8
0
100
AcDbLine
 10
11.70599999998831
 20
-0.0001000000000317
 30
0.0
 11
10.64699999998936
 21
2.368399999997621
 31
0.0
1001
ACAD
1000
ASC_BOUNDS
1002
{
1070
    19
1005
9F67
1002
}
  0
LINE
  5
9F36
330
9F24
100
AcDbEntity
  8
0
100
AcDbLine
 10
7.826999999992154
 20
2.368399999997621
 30
0.0
 11
10.64699999998936
 21
2.368399999997621
 31
0.0
1001
ACAD
1000
ASC_BOUNDS
1002
{
1070
    19
1005
9F67
1002
}
  0
LINE
  5
9F37
330
9F24
100
AcDbEntity
  8
0
100
AcDbLine
 10
11.70599999998831
 20
0.0
 30
0.0
 11
13.26299999998673
 21
0.0
 31
0.0
1001
ACAD
1000
ASC_BOUNDS
1002
{
1070
    19
1005
9F67
1002
}
  0
LINE
  5
9F38
330
9F24
100
AcDbEntity
  8
0
100
AcDbLine
 10
22.15599999997789
 20
2.368399999997621
 30
0.0
 11
24.97599999997499
 21
2.368399999997621
 31
0.0
1001
ACAD
1000
ASC_BOUNDS
1002
{
1070
    19
1005
9F69
1002
}
  0
LINE
  5
9F39
330
9F24
100
AcDbEntity
  8
0
100
AcDbLine
 10
19.53899999998043
 20
0.0
 30
0.0
 11
21.09599999997886
 21
0.0
 31
0.0
1001
ACAD
1000
ASC_BOUNDS
1002
{
1070
    19
1005
9F69
1002
}
  0
LINE
  5
9F3A
330
9F24
100
AcDbEntity
  8
0
100
AcDbLine
 10
21.09599999997886
 20
-0.0001000000000317
 30
0.0
 11
22.15599999997789
 21
2.368399999997621
 31
0.0
1001
ACAD
1000
ASC_BOUNDS
1002
{
1070
    19
1005
9F69
1002
}
  0
LINE
  5
9F3B
330
9F24
100
AcDbEntity
  8
0
100
AcDbLine
 10
26.02015566812236
 20
0.0330999999912365
 30
0.0
 11
24.97599999997499
 21
2.368399999997621
 31
0.0
1001
ACAD
1000
ASC_BOUNDS
1002
{
1070
    19
1005
9F69
1002
}
  0
LINE
  5
9F3C
330
9F24
100
AcDbEntity
  8
0
100
AcDbLine
 10
14.32399999998563
 20
3.315799999996671
 30
0.0
 11
16.46099999998353
 21
8.999899999990987
 31
0.0
1001
ACAD
1000
ASC_BOUNDS
1002
{
1070
    19
1005
9F68
1002
}
  0
LINE
  5
9F3D
330
9F24
100
AcDbEntity
  8
0
100
AcDbLine
 10
6.432999999993513
 20
8.763099999991255
 30
0.0
 11
3.181999999996833
 21
4.668599999995308
 31
0.0
1001
ACAD
1000
ASC_BOUNDS
1002
{
1070
    19
1005
9F67
1002
}
  0
LINE
  5
9F3E
330
9F24
100
AcDbEntity
  8
0
100
AcDbLine
 10
4.617999999995391
 20
8.763099999991255
 30
0.0
 11
1.420999999998571
 21
4.736799999995242
 31
0.0
1001
ACAD
1000
ASC_BOUNDS
1002
{
1070
    19
1005
9F67
1002
}
  0
LINE
  5
9F3F
330
9F24
100
AcDbEntity
  8
0
100
AcDbLine
 10
0.0
 20
8.763099999991255
 30
0.0
 11
1.420999999998571
 21
8.763099999991255
 31
0.0
1001
ACAD
1000
ASC_BOUNDS
1002
{
1070
    19
1005
9F6C
1002
}
  0
LINE
  5
9F40
330
9F24
100
AcDbEntity
  8
0
100
AcDbLine
 10
4.617999999995391
 20
8.763099999991255
 30
0.0
 11
6.432999999993513
 21
8.763099999991255
 31
0.0
1001
ACAD
1000
ASC_BOUNDS
1002
{
1070
    19
1005
9F67
1002
}
  0
LINE
  5
9F41
330
9F24
100
AcDbEntity
  8
0
100
AcDbLine
 10
14.32399999998563
 20
3.315799999996671
 30
0.0
 11
12.02999999998792
 21
8.763099999991255
 31
0.0
1001
ACAD
1000
ASC_BOUNDS
1002
{
1070
    19
1005
9F68
1002
}
  0
LINE
  5
9F42
330
9F24
100
AcDbEntity
  8
0
100
AcDbLine
 10
10.06399999998996
 20
3.670999999996297
 30
0.0
 11
9.236999999990758
 21
5.5200999999945
 31
0.0
1001
ACAD
1000
ASC_BOUNDS
1002
{
1070
    19
1005
9F67
1002
}
  0
LINE
  5
9F43
330
9F24
100
AcDbEntity
  8
0
100
AcDbLine
 10
8.409999999991555
 20
3.670999999996297
 30
0.0
 11
9.236999999990758
 21
5.5200999999945
 31
0.0
1001
ACAD
1000
ASC_BOUNDS
1002
{
1070
    19
1005
9F67
1002
}
  0
LINE
  5
9F44
330
9F24
100
AcDbEntity
  8
0
100
AcDbLine
 10
8.409999999991555
 20
3.670999999996297
 30
0.0
 11
10.06399999998996
 21
3.670999999996297
 31
0.0
1001
ACAD
1000
ASC_BOUNDS
1002
{
1070
    19
1005
9F67
1002
}
  0
LINE
  5
9F45
330
9F24
100
AcDbEntity
  8
0
100
AcDbLine
 10
10.53899999998941
 20
8.763099999991255
 30
0.0
 11
12.02999999998792
 21
8.763099999991255
 31
0.0
1001
ACAD
1000
ASC_BOUNDS
1002
{
1070
    19
1005
9F68
1002
}
  0
LINE
  5
9F46
330
9F24
100
AcDbEntity
  8
0
100
AcDbLine
 10
22.7389999999773
 20
3.670999999996297
 30
0.0
 11
23.56599999997638
 21
5.5200999999945
 31
0.0
1001
ACAD
1000
ASC_BOUNDS
1002
{
1070
    19
1005
9F69
1002
}
  0
LINE
  5
9F47
330
9F24
100
AcDbEntity
  8
0
100
AcDbLine
 10
22.7389999999773
 20
3.670999999996297
 30
0.0
 11
24.39299999997559
 21
3.670999999996297
 31
0.0
1001
ACAD
1000
ASC_BOUNDS
1002
{
1070
    19
1005
9F69
1002
}
  0
LINE
  5
9F48
330
9F24
100
AcDbEntity
  8
0
100
AcDbLine
 10
18.59799999998143
 20
3.315799999996671
 30
0.0
 11
20.89099999997916
 21
8.763099999991255
 31
0.0
1001
ACAD
1000
ASC_BOUNDS
1002
{
1070
    19
1005
9F68
1002
}
  0
LINE
  5
9F49
330
9F24
100
AcDbEntity
  8
0
100
AcDbLine
 10
18.59799999998143
 20
3.315799999996671
 30
0.0
 11
16.46099999998353
 21
8.999899999990987
 31
0.0
1001
ACAD
1000
ASC_BOUNDS
1002
{
1070
    19
1005
9F68
1002
}
  0
LINE
  5
9F4A
330
9F24
100
AcDbEntity
  8
0
100
AcDbLine
 10
20.89099999997916
 20
8.763099999991255
 30
0.0
 11
22.38199999997767
 21
8.763099999991255
 31
0.0
1001
ACAD
1000
ASC_BOUNDS
1002
{
1070
    19
1005
9F68
1002
}
  0
LINE
  5
9F4B
330
9F24
100
AcDbEntity
  8
0
100
AcDbLine
 10
24.39299999997559
 20
3.670999999996297
 30
0.0
 11
23.56599999997638
 21
5.5200999999945
 31
0.0
1001
ACAD
1000
ASC_BOUNDS
1002
{
1070
    19
1005
9F69
1002
}
  0
LINE
  5
9F4C
330
9F24
100
AcDbEntity
  8
0
100
AcDbLine
 10
44.99999999995498
 20
-0.2368999999997641
 30
0.0
 11
40.02599999995994
 21
5.341799999994635
 31
0.0
1001
ACAD
1000
ASC_BOUNDS
1002
{
1070
    19
1005
9F6B
1002
}
  0
LINE
  5
9F4D
330
9F24
100
AcDbEntity
  8
0
100
AcDbLine
 10
40.02599999995994
 20
5.341799999994635
 30
0.0
 11
40.02599999995994
 21
0.0
 31
0.0
1001
ACAD
1000
ASC_BOUNDS
1002
{
1070
    19
1005
9F6B
1002
}
  0
LINE
  5
9F4E
330
9F24
100
AcDbEntity
  8
0
100
AcDbLine
 10
38.60499999996136
 20
8.999999999991019
 30
0.0
 11
38.60499999996136
 21
0.0
 31
0.0
1001
ACAD
1000
ASC_BOUNDS
1002
{
1070
    19
1005
9F6B
1002
}
  0
LINE
  5
9F4F
330
9F24
100
AcDbEntity
  8
0
100
AcDbLine
 10
44.99999999995498
 20
8.763099999991255
 30
0.0
 11
44.99999999995498
 21
-0.2368999999997641
 31
0.0
1001
ACAD
1000
ASC_BOUNDS
1002
{
1070
    19
1005
9F6B
1002
}
  0
LINE
  5
9F50
330
9F24
100
AcDbEntity
  8
0
100
AcDbLine
 10
38.60499999996136
 20
0.0
 30
0.0
 11
40.02599999995994
 21
0.0
 31
0.0
1001
ACAD
1000
ASC_BOUNDS
1002
{
1070
    19
1005
9F6B
1002
}
  0
LINE
  5
9F51
330
9F24
100
AcDbEntity
  8
0
100
AcDbLine
 10
43.57899999995641
 20
3.421199999996588
 30
0.0
 11
38.60499999996136
 21
8.999899999990987
 31
0.0
1001
ACAD
1000
ASC_BOUNDS
1002
{
1070
    19
1005
9F6B
1002
}
  0
LINE
  5
9F52
330
9F24
100
AcDbEntity
  8
0
100
AcDbLine
 10
43.57899999995641
 20
8.763099999991255
 30
0.0
 11
43.57899999995641
 21
3.421199999996588
 31
0.0
1001
ACAD
1000
ASC_BOUNDS
1002
{
1070
    19
1005
9F6B
1002
}
  0
LINE
  5
9F53
330
9F24
100
AcDbEntity
  8
0
100
AcDbLine
 10
43.57899999995641
 20
8.763099999991255
 30
0.0
 11
44.99999999995498
 21
8.763099999991255
 31
0.0
1001
ACAD
1000
ASC_BOUNDS
1002
{
1070
    19
1005
9F6B
1002
}
  0
LINE
  5
9F54
330
9F24
100
AcDbEntity
  8
0
100
AcDbLine
 10
37.67199999996831
 20
8.763099999991255
 30
0.0
 11
36.23199999996837
 21
8.763099999991255
 31
0.0
  0
LINE
  5
9F55
330
9F24
100
AcDbEntity
  8
0
100
AcDbLine
 10
31.64199999996833
 20
8.763099999991255
 30
0.0
 11
31.64199999996833
 21
2.481619422925121
 31
0.0
  0
LINE
  5
9F56
330
9F24
100
AcDbEntity
  8
0
100
AcDbLine
 10
37.67199999996831
 20
8.763099999991255
 30
0.0
 11
37.67199999996831
 21
2.481619422925121
 31
0.0
  0
LINE
  5
9F57
330
9F24
100
AcDbEntity
  8
0
100
AcDbLine
 10
36.23199999996837
 20
8.763099999991255
 30
0.0
 11
36.23199999996837
 21
2.481619422925064
 31
0.0
  0
LINE
  5
9F58
330
9F24
100
AcDbEntity
  8
0
100
AcDbLine
 10
33.08199999996839
 20
8.763099999991255
 30
0.0
 11
33.08199999996839
 21
2.481619422925121
 31
0.0
  0
ARC
  5
9F59
330
9F24
100
AcDbEntity
  8
0
100
AcDbCircle
 10
34.65699999996832
 20
3.183099999991214
 30
0.0
 40
3.420000000000007
100
AcDbArc
 50
240.0000000000255
 51
299.9999999999766
  0
ARC
  5
9F5A
330
9F24
100
AcDbEntity
  8
0
100
AcDbCircle
 10
34.65699999996832
 20
3.183099999991214
 30
0.0
 40
1.97999999999999
100
AcDbArc
 50
240.000000000026
 51
299.9999999999703
  0
LINE
  5
9F5B
330
9F24
100
AcDbEntity
  8
0
100
AcDbLine
 10
33.08199999996828
 20
8.763099999991255
 30
0.0
 11
31.64199999996833
 21
8.763099999991255
 31
0.0
  0
ARC
  5
9F5C
330
9F24
100
AcDbEntity
  8
0
100
AcDbCircle
 10
35.06199999996829
 20
2.481619422925064
 30
0.0
 40
1.17
100
AcDbArc
 50
299.9999999999699
 51
0.0
  0
ARC
  5
9F5D
330
9F24
100
AcDbEntity
  8
0
100
AcDbCircle
 10
34.25199999996835
 20
2.481619422925121
 30
0.0
 40
1.17
100
AcDbArc
 50
180.0
 51
240.0000000000238
  0
ARC
  5
9F5E
330
9F24
100
AcDbEntity
  8
0
100
AcDbCircle
 10
35.06199999996841
 20
2.481619422925121
 30
0.0
 40
2.61
100
AcDbArc
 50
299.9999999999756
 51
0.0
  0
ARC
  5
9F5F
330
9F24
100
AcDbEntity
  8
0
100
AcDbCircle
 10
34.25199999996835
 20
2.481619422925121
 30
0.0
 40
2.61
100
AcDbArc
 50
180.0
 51
240.0000000000244
  0
LINE
  5
9F60
330
9F24
100
AcDbEntity
  8
0
100
AcDbLine
 10
29.30199999996933
 20
8.763099999991255
 30
0.0
 11
30.74199999996927
 21
8.763099999991255
 31
0.0
1001
ACAD
1000
ASC_BOUNDS
1002
{
1070
    19
1005
9F69
1002
}
  0
LINE
  5
9F61
330
9F24
100
AcDbEntity
  8
0
100
AcDbLine
 10
30.74199999996927
 20
8.763099999991255
 30
0.0
 11
30.74199999996927
 21
2.373099999991211
 31
0.0
1001
ACAD
1000
ASC_BOUNDS
1002
{
1070
    19
1005
9F69
1002
}
  0
LINE
  5
9F62
330
9F24
100
AcDbEntity
  8
0
100
AcDbLine
 10
26.02015566812236
 20
0.0330999999912365
 30
0.0
 11
28.40199999996923
 21
0.0330999999912365
 31
0.0
1001
ACAD
1000
ASC_BOUNDS
1002
{
1070
    19
1005
9F69
1002
}
  0
LINE
  5
9F63
330
9F24
100
AcDbEntity
  8
0
100
AcDbLine
 10
29.30199999996933
 20
8.763099999991255
 30
0.0
 11
29.30199999996933
 21
2.283099999991236
 31
0.0
1001
ACAD
1000
ASC_BOUNDS
1002
{
1070
    19
1005
9F69
1002
}
  0
LINE
  5
9F64
330
9F24
100
AcDbEntity
  8
0
100
AcDbLine
 10
26.97358892824991
 20
1.383099999991202
 30
0.0
 11
28.40199999996923
 21
1.383099999991202
 31
0.0
1001
ACAD
1000
ASC_BOUNDS
1002
{
1070
    19
1005
9F69
1002
}
  0
ARC
  5
9F65
330
9F24
100
AcDbEntity
  8
0
100
AcDbCircle
 10
28.40199999996923
 20
2.283099999991236
 30
0.0
 40
0.9
100
AcDbArc
 50
270.0
 51
0.0
1001
ACAD
1000
ASC_BOUNDS
1002
{
1070
    19
1005
9F69
1002
}
  0
ARC
  5
9F66
330
9F24
100
AcDbEntity
  8
0
100
AcDbCircle
 10
28.40199999996923
 20
2.373099999991211
 30
0.0
 40
2.34
100
AcDbArc
 50
270.0
 51
0.0
1001
ACAD
1000
ASC_BOUNDS
1002
{
1070
    19
1005
9F69
1002
}
  0
INSERT
  5
9F67
330
9F24
100
AcDbEntity
  8
0
100
AcDbBlockReference
  2
*X50
 10
0.0
 20
0.0
 30
0.0
1001
ACAD
1000
HATCH
1002
{
1070
    19
1000
ANSI37
1040
0.15
1040
0.0
1000
ASC_BOUNDS
1070
     2
1070
     2
1070
    12
1005
9F26
1005
9F27
1005
9F2E
1005
9F3D
1005
9F40
1005
9F3E
1005
9F2F
1005
9F34
1005
9F32
1005
9F36
1005
9F35
1005
9F37
1070
     2
1070
     3
1005
9F42
1005
9F44
1005
9F43
1000
ASC_SEEDPOINT
1011
3.614004224891801
1021
2.996669441146025
1031
0.0
1000
R14_HATCH_DATA
1000
9F67
1011
1.0
1021
0.0
1031
0.0
1011
0.0
1021
1.0
1031
0.0
1011
0.0
1021
0.0
1031
1.0
1040
0.0
1010
0.0
1020
0.0
1030
1.0
1000
ANSI37
1070
     0
1070
     1
1071
        2
1071
        7
1070
     0
1070
     1
1071
       17
1040
13.26299999998673
1040
-0.0001000000000317
1040
9.236999999990758
1040
8.999899999990987
1040
9.236999999990758
1040
8.999999999991019
1040
5.657999999994331
1040
0.9999999999989768
1040
3.181999999996833
1040
4.668599999995308
1040
6.432999999993513
1040
8.763099999991255
1040
4.617999999995391
1040
8.763099999991255
1040
1.420999999998571
1040
4.736799999995242
1040
4.617999999995391
1040
-0.0001000000000317
1040
4.617999999995391
1040
0.0
1040
6.766999999993232
1040
0.0
1040
6.766999999993232
1040
-0.0001000000000317
1040
7.826999999992154
1040
2.368399999997621
1040
10.64699999998936
1040
2.368399999997621
1040
11.70599999998831
1040
-0.0001000000000317
1040
11.70599999998831
1040
0.0
1040
13.26299999998673
1040
0.0
1071
       12
1005
9F26
1005
9F27
1005
9F2E
1005
9F3D
1005
9F40
1005
9F3E
1005
9F2F
1005
9F34
1005
9F32
1005
9F36
1005
9F35
1005
9F37
1071
       22
1070
     0
1070
     1
1071
        3
1040
9.236999999990758
1040
5.5200999999945
1040
10.06399999998996
1040
3.670999999996297
1040
8.409999999991555
1040
3.670999999996297
1071
        3
1005
9F42
1005
9F44
1005
9F43
1070
     0
1070
     1
1040
0.0
1040
0.15
1070
     0
1070
     2
1040
0.7853981633974483
1040
49.29960901727088
1040
-10.17736998311392
1040
-0.3367596045400932
1040
0.3367596045400932
1070
     0
1040
2.356194490192345
1040
49.29960901727088
1040
-10.17736998311392
1040
-0.3367596045400932
1040
-0.3367596045400932
1070
     0
1040
0.0110235143455945
1071
        2
1040
3.614004224891801
1040
2.996669441146025
1040
0.0
1040
3.614004224891801
1040
2.996669441146025
1040
0.0
1002
}
  0
INSERT
  5
9F68
330
9F24
100
AcDbEntity
  8
0
100
AcDbBlockReference
  2
*X51
 10
0.0
 20
0.0
 30
0.0
1001
ACAD
1000
HATCH
1002
{
1070
    19
1000
ANSI37
1040
0.15
1040
0.0
1000
ASC_BOUNDS
1070
     1
1070
     2
1070
    10
1005
9F28
1005
9F29
1005
9F4A
1005
9F48
1005
9F49
1005
9F3C
1005
9F41
1005
9F45
1005
9F2B
1005
9F2A
1000
ASC_SEEDPOINT
1011
14.73245321214324
1021
2.798246178283421
1031
0.0
1000
R14_HATCH_DATA
1000
9F68
1011
1.0
1021
0.0
1031
0.0
1011
0.0
1021
1.0
1031
0.0
1011
0.0
1021
0.0
1031
1.0
1040
0.0
1010
0.0
1020
0.0
1030
1.0
1000
ANSI37
1070
     0
1070
     1
1071
        1
1071
        7
1070
     0
1070
     1
1071
       10
1040
16.46099999998353
1040
5.432899999994561
1040
18.59199999998134
1040
-0.2368999999997641
1040
22.38199999997767
1040
8.763099999991255
1040
20.89099999997916
1040
8.763099999991255
1040
18.59799999998143
1040
3.315799999996671
1040
16.46099999998353
1040
8.999899999990987
1040
14.32399999998563
1040
3.315799999996671
1040
12.02999999998792
1040
8.763099999991255
1040
10.53899999998941
1040
8.763099999991255
1040
14.32899999998563
1040
-0.2368999999997641
1071
       10
1005
9F28
1005
9F29
1005
9F4A
1005
9F48
1005
9F49
1005
9F3C
1005
9F41
1005
9F45
1005
9F2B
1005
9F2A
1070
     0
1070
     1
1040
0.0
1040
0.15
1070
     0
1070
     2
1040
0.7853981633974483
1040
49.29960901727088
1040
-10.17736998311392
1040
-0.3367596045400932
1040
0.3367596045400932
1070
     0
1040
2.356194490192345
1040
49.29960901727088
1040
-10.17736998311392
1040
-0.3367596045400932
1040
-0.3367596045400932
1070
     0
1040
0.0110235143455945
1071
        1
1040
14.73245321214324
1040
2.798246178283421
1040
0.0
1002
}
  0
INSERT
  5
9F69
330
9F24
100
AcDbEntity
  8
0
100
AcDbBlockReference
  2
*X52
 10
0.0
 20
0.0
 30
0.0
1001
ACAD
1000
HATCH
1002
{
1070
    19
1000
ANSI37
1040
0.15
1040
0.0
1000
ASC_BOUNDS
1070
     2
1070
     2
1070
    13
1005
9F2C
1005
9F39
1005
9F3A
1005
9F38
1005
9F3B
1005
9F62
1005
9F66
1005
9F61
1005
9F60
1005
9F63
1005
9F65
1005
9F64
1005
9F2D
1070
     2
1070
     3
1005
9F46
1005
9F4B
1005
9F47
1000
ASC_SEEDPOINT
1011
21.97929957367762
1021
3.294304244259308
1031
0.0
1000
R14_HATCH_DATA
1000
9F69
1011
1.0
1021
0.0
1031
0.0
1011
0.0
1021
1.0
1031
0.0
1011
0.0
1021
0.0
1031
1.0
1040
0.0
1010
0.0
1020
0.0
1030
1.0
1000
ANSI37
1070
     0
1070
     1
1071
        2
1071
        7
1070
     1
1070
     1
1071
       15
1040
23.56599999997638
1040
8.999899999990987
1040
0.0
1040
19.53899999998043
1040
-0.0001000000000317
1040
0.0
1040
19.53899999998043
1040
0.0
1040
0.0
1040
21.09599999997886
1040
0.0
1040
0.0
1040
21.09599999997886
1040
-0.0001000000000317
1040
0.0
1040
22.15599999997789
1040
2.368399999997621
1040
0.0
1040
24.97599999997499
1040
2.368399999997621
1040
0.0
1040
26.02015566812236
1040
0.0330999999912365
1040
0.0
1040
28.40199999996923
1040
0.0330999999912365
1040
0.414213562373095
1040
30.74199999996923
1040
2.373099999991211
1040
0.0
1040
30.74199999996927
1040
8.763099999991255
1040
0.0
1040
29.30199999996933
1040
8.763099999991255
1040
0.0
1040
29.30199999996933
1040
2.283099999991236
1040
-0.414213562373095
1040
28.40199999996923
1040
1.383099999991237
1040
0.0
1040
26.97358892824991
1040
1.383099999991202
1040
0.0
1071
       13
1005
9F2C
1005
9F39
1005
9F3A
1005
9F38
1005
9F3B
1005
9F62
1005
9F66
1005
9F61
1005
9F60
1005
9F63
1005
9F65
1005
9F64
1005
9F2D
1071
       22
1070
     0
1070
     1
1071
        3
1040
22.7389999999773
1040
3.670999999996297
1040
23.56599999997638
1040
5.5200999999945
1040
24.39299999997559
1040
3.670999999996297
1071
        3
1005
9F46
1005
9F4B
1005
9F47
1070
     0
1070
     1
1040
0.0
1040
0.15
1070
     0
1070
     2
1040
0.7853981633974483
1040
49.29960901727088
1040
-10.17736998311392
1040
-0.3367596045400932
1040
0.3367596045400932
1070
     0
1040
2.356194490192345
1040
49.29960901727088
1040
-10.17736998311392
1040
-0.3367596045400932
1040
-0.3367596045400932
1070
     0
1040
0.0110235143455945
1071
        2
1040
21.97929957367762
1040
3.294304244259308
1040
0.0
1040
21.97929957367762
1040
3.294304244259308
1040
0.0
1002
}
  0
INSERT
  5
9F6A
330
9F24
100
AcDbEntity
  8
0
100
AcDbBlockReference
  2
*X53
 10
0.0
 20
0.0
 30
0.0
1001
ACAD
1000
HATCH
1002
{
1070
    19
1000
ANSI37
1040
0.15
1040
0.0
1000
R14_HATCH_DATA
1000
9F6A
1011
1.0
1021
0.0
1031
0.0
1011
0.0
1021
1.0
1031
0.0
1011
0.0
1021
0.0
1031
1.0
1040
0.0
1010
0.0
1020
0.0
1030
1.0
1000
ANSI37
1070
     0
1070
     1
1071
        1
1071
        7
1070
     1
1070
     1
1071
       12
1040
31.64199999996833
1040
2.481619422925121
1040
0.2679491924310942
1040
32.94699999997067
1040
0.2212931190493919
1040
0.2679491924301353
1040
36.36699999995983
1040
0.2212931190459813
1040
0.2679491924321411
1040
37.67199999996831
1040
2.481619422928361
1040
0.0
1040
37.67199999996831
1040
8.763099999991255
1040
0.0
1040
36.23199999996837
1040
8.763099999991255
1040
0.0
1040
36.23199999996837
1040
2.481619422925064
1040
-0.2679491924310291
1040
35.64699999996708
1040
1.468369700498386
1040
-0.267949192430519
1040
33.66699999997093
1040
1.468369700497703
1040
-0.267949192431809
1040
33.08199999996839
1040
2.481619422926997
1040
0.0
1040
33.08199999996839
1040
8.763099999991255
1040
0.0
1040
31.64199999996833
1040
8.763099999991255
1040
0.0
1071
        0
1070
     0
1070
     1
1040
0.0
1040
0.15
1070
     0
1070
     2
1040
0.7853981633974483
1040
49.29960901727088
1040
-10.17736998311392
1040
-0.3367596045400932
1040
0.3367596045400932
1070
     0
1040
2.356194490192345
1040
49.29960901727088
1040
-10.17736998311392
1040
-0.3367596045400932
1040
-0.3367596045400932
1070
     0
1040
0.0110235143455945
1071
        1
1040
32.30357378967278
1040
3.988785755459219
1040
0.0
1002
}
  0
INSERT
  5
9F6B
330
9F24
100
AcDbEntity
  8
0
100
AcDbBlockReference
  2
*X54
 10
0.0
 20
0.0
 30
0.0
1001
ACAD
1000
HATCH
1002
{
1070
    19
1000
ANSI37
1040
0.15
1040
0.0
1000
ASC_BOUNDS
1070
     1
1070
     2
1070
     8
1005
9F4C
1005
9F4F
1005
9F53
1005
9F52
1005
9F51
1005
9F4E
1005
9F50
1005
9F4D
1000
ASC_SEEDPOINT
1011
39.74896370716704
1021
4.484843821435049
1031
0.0
1000
R14_HATCH_DATA
1000
9F6B
1011
1.0
1021
0.0
1031
0.0
1011
0.0
1021
1.0
1031
0.0
1011
0.0
1021
0.0
1031
1.0
1040
0.0
1010
0.0
1020
0.0
1030
1.0
1000
ANSI37
1070
     0
1070
     1
1071
        1
1071
        7
1070
     0
1070
     1
1071
        9
1040
40.02599999995994
1040
5.341799999994635
1040
44.99999999995498
1040
-0.2368999999997641
1040
44.99999999995498
1040
8.763099999991255
1040
43.57899999995641
1040
8.763099999991255
1040
43.57899999995641
1040
3.421199999996588
1040
38.60499999996136
1040
8.999899999990987
1040
38.60499999996136
1040
8.999999999991019
1040
38.60499999996136
1040
0.0
1040
40.02599999995994
1040
0.0
1071
        8
1005
9F4C
1005
9F4F
1005
9F53
1005
9F52
1005
9F51
1005
9F4E
1005
9F50
1005
9F4D
1070
     0
1070
     1
1040
0.0
1040
0.15
1070
     0
1070
     2
1040
0.7853981633974483
1040
49.29960901727088
1040
-10.17736998311392
1040
-0.3367596045400932
1040
0.3367596045400932
1070
     0
1040
2.356194490192345
1040
49.29960901727088
1040
-10.17736998311392
1040
-0.3367596045400932
1040
-0.3367596045400932
1070
     0
1040
0.0110235143455945
1071
        1
1040
39.74896370716704
1040
4.484843821435049
1040
0.0
1002
}
  0
INSERT
  5
9F6C
330
9F24
100
AcDbEntity
  8
0
100
AcDbBlockReference
  2
*X55
 10
0.0
 20
0.0
 30
0.0
1001
ACAD
1000
HATCH
1002
{
1070
    19
1000
ANSI37
1040
0.15
1040
0.0
1000
ASC_BOUNDS
1070
     1
1070
     2
1070
     4
1005
9F30
1005
9F3F
1005
9F31
1005
9F33
1000
ASC_SEEDPOINT
1011
1.079051535452663
1021
4.148538732891836
1031
0.0
1000
R14_HATCH_DATA
1000
9F6C
1011
1.0
1021
0.0
1031
0.0
1011
0.0
1021
1.0
1031
0.0
1011
0.0
1021
0.0
1031
1.0
1040
0.0
1010
0.0
1020
0.0
1030
1.0
1000
ANSI37
1070
     0
1070
     1
1071
        1
1071
        7
1070
     0
1070
     1
1071
        4
1040
1.420999999998571
1040
0.0
1040
1.420999999998571
1040
8.763099999991255
1040
0.0
1040
8.763099999991255
1040
0.0
1040
0.0
1071
        4
1005
9F30
1005
9F3F
1005
9F31
1005
9F33
1070
     0
1070
     1
1040
0.0
1040
0.15
1070
     0
1070
     2
1040
0.7853981633974483
1040
49.29960901727088
1040
-10.17736998311392
1040
-0.3367596045400932
1040
0.3367596045400932
1070
     0
1040
2.356194490192345
1040
49.29960901727088
1040
-10.17736998311392
1040
-0.3367596045400932
1040
-0.3367596045400932
1070
     0
1040
0.0053004257112761
1071
        1
1040
1.079051535452663
1040
4.148538732891836
1040
0.0
1002
}
  0
ENDBLK
  5
A624
330
9F24
100
AcDbEntity
  8
0
100
AcDbBlockEnd
  0
BLOCK
  5
A86B
330
A6E0
100
AcDbEntity
  8
0
100
AcDbBlockBegin
  2
NOCIRCLE
 70
     2
 10
0.0
 20
0.0
 30
0.0
  3
NOCIRCLE
  1

  0
CIRCLE
  5
A6E4
330
A6E0
100
AcDbEntity
  8
0
  6
BYBLOCK
 62
     0
100
AcDbCircle
 10
0.0
 20
0.0
 30
0.0
 40
4.2
  0
ATTDEF
  5
A6E5
330
A6E0
100
AcDbEntity
  8
1TEXT
100
AcDbText
 10
-1.904761904761876
 20
-2.0
 30
0.0
 40
4.0
  1
0
 72
     4
 11
0.0
 21
0.0
 31
0.0
100
AcDbAttributeDefinition
  3
NO.
  2
NO
 70
     0
  0
ENDBLK
  5
A86C
330
A6E0
100
AcDbEntity
  8
0
100
AcDbBlockEnd
  0
BLOCK
  5
A86D
330
A718
100
AcDbEntity
  8
0
100
AcDbBlockBegin
  2
NO3CIRCLE
 70
     2
 10
0.0
 20
0.0
 30
0.0
  3
NO3CIRCLE
  1

  0
CIRCLE
  5
A71C
330
A718
100
AcDbEntity
  8
0
  6
BYBLOCK
 62
     0
100
AcDbCircle
 10
0.0
 20
0.0
 30
0.0
 40
4.2
  0
ATTDEF
  5
A71D
330
A718
100
AcDbEntity
  8
1TEXT
100
AcDbText
 10
-3.428571428571428
 20
-2.0
 30
0.0
 40
4.0
  1
000
 41
0.6
  7
STANDARD06
 72
     4
 11
0.0
 21
0.0
 31
0.0
100
AcDbAttributeDefinition
  3
NO3
  2
NO3
 70
     0
  0
ENDBLK
  5
A86E
330
A718
100
AcDbEntity
  8
0
100
AcDbBlockEnd
  0
BLOCK
  5
B3B4
330
B226
100
AcDbEntity
  8
0
100
AcDbBlockBegin
  2
*X50
 70
     1
 10
0.0
 20
0.0
 30
0.0
  3
*X50
  1

  0
LINE
  5
B227
330
B226
100
AcDbEntity
  8
0
  6
CONTINUOUS
100
AcDbLine
 10
3.418023043697893
 20
7.251849696850613
 30
0.0
 11
4.929273346838536
 21
8.763099999991255
 31
0.0
  0
LINE
  5
B228
330
B226
100
AcDbEntity
  8
0
  6
CONTINUOUS
100
AcDbLine
 10
1.483656411257782
 20
4.643963855330318
 30
0.0
 11
5.60279255591872
 21
8.763099999991255
 31
0.0
  0
LINE
  5
B229
330
B226
100
AcDbEntity
  8
0
  6
CONTINUOUS
100
AcDbLine
 10
1.755053947328235
 20
4.241842182320584
 30
0.0
 11
6.276311764998907
 21
8.763099999991255
 31
0.0
  0
LINE
  5
B22A
330
B226
100
AcDbEntity
  8
0
  6
CONTINUOUS
100
AcDbLine
 10
2.026451483398688
 20
3.839720509310849
 30
0.0
 11
4.441040904851878
 21
6.254309930764039
 31
0.0
  0
LINE
  5
B22B
330
B226
100
AcDbEntity
  8
0
  6
CONTINUOUS
100
AcDbLine
 10
2.297849019469139
 20
3.437598836301114
 30
0.0
 11
3.321765168359338
 21
4.461514985191313
 31
0.0
  0
LINE
  5
B22C
330
B226
100
AcDbEntity
  8
0
  6
CONTINUOUS
100
AcDbLine
 10
2.569246555539591
 20
3.03547716329138
 30
0.0
 11
3.593163397972743
 21
4.059394005724531
 31
0.0
  0
LINE
  5
B22D
330
B226
100
AcDbEntity
  8
0
  6
CONTINUOUS
100
AcDbLine
 10
2.840644091610043
 20
2.633355490281646
 30
0.0
 11
3.864561627586149
 21
3.657273026257751
 31
0.0
  0
LINE
  5
B22E
330
B226
100
AcDbEntity
  8
0
  6
CONTINUOUS
100
AcDbLine
 10
3.112041627680496
 20
2.231233817271911
 30
0.0
 11
4.135959857199554
 21
3.25515204679097
 31
0.0
  0
LINE
  5
B22F
330
B226
100
AcDbEntity
  8
0
  6
CONTINUOUS
100
AcDbLine
 10
3.383439163750948
 20
1.829112144262177
 30
0.0
 11
4.40735808681296
 21
2.853031067324189
 31
0.0
  0
LINE
  5
B230
330
B226
100
AcDbEntity
  8
0
  6
CONTINUOUS
100
AcDbLine
 10
3.654836699821399
 20
1.426990471252442
 30
0.0
 11
4.678756316426365
 21
2.450910087857407
 31
0.0
  0
LINE
  5
B231
330
B226
100
AcDbEntity
  8
0
  6
CONTINUOUS
100
AcDbLine
 10
3.926234235891853
 20
1.024868798242709
 30
0.0
 11
4.95015454603977
 21
2.048789108390626
 31
0.0
  0
LINE
  5
B232
330
B226
100
AcDbEntity
  8
0
  6
CONTINUOUS
100
AcDbLine
 10
4.197631771962304
 20
0.6227471252329737
 30
0.0
 11
5.221552775653176
 21
1.646668128923846
 31
0.0
  0
LINE
  5
B233
330
B226
100
AcDbEntity
  8
0
  6
CONTINUOUS
100
AcDbLine
 10
8.715877546767851
 20
7.835069736359266
 30
0.0
 11
9.435953450375058
 21
8.555145639966472
 31
0.0
  0
LINE
  5
B234
330
B226
100
AcDbEntity
  8
0
  6
CONTINUOUS
100
AcDbLine
 10
8.170620868422267
 20
6.616293848933497
 30
0.0
 11
9.644120833743461
 21
8.08979381425469
 31
0.0
  0
LINE
  5
B235
330
B226
100
AcDbEntity
  8
0
  6
CONTINUOUS
100
AcDbLine
 10
7.625364190076684
 20
5.397517961507727
 30
0.0
 11
9.852288217111864
 21
7.624441988542907
 31
0.0
  0
LINE
  5
B236
330
B226
100
AcDbEntity
  8
0
  6
CONTINUOUS
100
AcDbLine
 10
7.080107511731101
 20
4.178742074081957
 30
0.0
 11
10.06045560048027
 21
7.159090162831124
 31
0.0
  0
LINE
  5
B237
330
B226
100
AcDbEntity
  8
0
  6
CONTINUOUS
100
AcDbLine
 10
6.534850833385518
 20
2.959966186656187
 30
0.0
 11
10.26862298384867
 21
6.693738337119342
 31
0.0
  0
LINE
  5
B238
330
B226
100
AcDbEntity
  8
0
  6
CONTINUOUS
100
AcDbLine
 10
4.469029308032756
 20
0.2206254522232385
 30
0.0
 11
5.492951005266582
 21
1.244547149457064
 31
0.0
  0
LINE
  5
B239
330
B226
100
AcDbEntity
  8
0
  6
CONTINUOUS
100
AcDbLine
 10
5.989594155039935
 20
1.741190299230417
 30
0.0
 11
8.806950407233131
 21
4.558546551423613
 31
0.0
  0
LINE
  5
B23A
330
B226
100
AcDbEntity
  8
0
  6
CONTINUOUS
100
AcDbLine
 10
9.401251593263643
 20
5.152847737454126
 30
0.0
 11
10.47679036721708
 21
6.228386511407559
 31
0.0
  0
LINE
  5
B23B
330
B226
100
AcDbEntity
  8
0
  6
CONTINUOUS
100
AcDbLine
 10
4.921837203428691
 20
-0.0000858614610131
 30
0.0
 11
8.592923064886001
 21
3.670999999996297
 31
0.0
  0
LINE
  5
B23C
330
B226
100
AcDbEntity
  8
0
  6
CONTINUOUS
100
AcDbLine
 10
9.609390446785305
 20
4.6874673818956
 30
0.0
 11
10.68495775058548
 21
5.763034685695775
 31
0.0
  0
LINE
  5
B23D
330
B226
100
AcDbEntity
  8
0
  6
CONTINUOUS
100
AcDbLine
 10
5.595387755019432
 20
-0.0000545189504582
 30
0.0
 11
7.716137258923768
 21
2.120694984953879
 31
0.0
  0
LINE
  5
B23E
330
B226
100
AcDbEntity
  8
0
  6
CONTINUOUS
100
AcDbLine
 10
6.268938306610172
 20
-0.000023176439905
 30
0.0
 11
7.170485805526503
 21
0.9015243224764267
 31
0.0
  0
LINE
  5
B23F
330
B226
100
AcDbEntity
  8
0
  6
CONTINUOUS
100
AcDbLine
 10
7.963842273967511
 20
2.368399999997621
 30
0.0
 11
9.266442273966188
 21
3.670999999996297
 31
0.0
  0
LINE
  5
B240
330
B226
100
AcDbEntity
  8
0
  6
CONTINUOUS
100
AcDbLine
 10
8.637361483047696
 20
2.368399999997621
 30
0.0
 11
9.939961483046375
 21
3.670999999996297
 31
0.0
  0
LINE
  5
B241
330
B226
100
AcDbEntity
  8
0
  6
CONTINUOUS
100
AcDbLine
 10
9.817529300306965
 20
4.222087026337075
 30
0.0
 11
10.89312513395388
 21
5.297682859983993
 31
0.0
  0
LINE
  5
B242
330
B226
100
AcDbEntity
  8
0
  6
CONTINUOUS
100
AcDbLine
 10
10.02566815382863
 20
3.756706670778549
 30
0.0
 11
11.10129251732229
 21
4.832331034272211
 31
0.0
  0
LINE
  5
B243
330
B226
100
AcDbEntity
  8
0
  6
CONTINUOUS
100
AcDbLine
 10
9.310880692127883
 20
2.368399999997621
 30
0.0
 11
11.30945990069069
 21
4.366979208560428
 31
0.0
  0
LINE
  5
B244
330
B226
100
AcDbEntity
  8
0
  6
CONTINUOUS
100
AcDbLine
 10
9.98439990120807
 20
2.36839999999762
 30
0.0
 11
11.5176272840591
 21
3.901627382848645
 31
0.0
  0
LINE
  5
B245
330
B226
100
AcDbEntity
  8
0
  6
CONTINUOUS
100
AcDbLine
 10
10.65037369446246
 20
2.36085458417182
 30
0.0
 11
11.7257946674275
 21
3.436275557136862
 31
0.0
  0
LINE
  5
B246
330
B226
100
AcDbEntity
  8
0
  6
CONTINUOUS
100
AcDbLine
 10
10.85847197087848
 20
1.895433651507656
 30
0.0
 11
11.9339620507959
 21
2.97092373142508
 31
0.0
  0
LINE
  5
B247
330
B226
100
AcDbEntity
  8
0
  6
CONTINUOUS
100
AcDbLine
 10
11.0665702472945
 20
1.430012718843491
 30
0.0
 11
12.14212943416431
 21
2.505571905713296
 31
0.0
  0
LINE
  5
B248
330
B226
100
AcDbEntity
  8
0
  6
CONTINUOUS
100
AcDbLine
 10
11.27466852371052
 20
0.9645917861793256
 30
0.0
 11
12.35029681753271
 21
2.040220080001513
 31
0.0
  0
LINE
  5
B249
330
B226
100
AcDbEntity
  8
0
  6
CONTINUOUS
100
AcDbLine
 10
11.48276680012654
 20
0.4991708535151611
 30
0.0
 11
12.55846420090111
 21
1.57486825428973
 31
0.0
  0
LINE
  5
B24A
330
B226
100
AcDbEntity
  8
0
  6
CONTINUOUS
100
AcDbLine
 10
11.69086507654257
 20
0.0337499208509957
 30
0.0
 11
12.76663158426952
 21
1.109516428577947
 31
0.0
  0
LINE
  5
B24B
330
B226
100
AcDbEntity
  8
0
  6
CONTINUOUS
100
AcDbLine
 10
12.33057447873954
 20
-0.0000598860322123
 30
0.0
 11
12.97479896763792
 21
0.6441646028661663
 31
0.0
  0
LINE
  5
B24C
330
B226
100
AcDbEntity
  8
0
  6
CONTINUOUS
100
AcDbLine
 10
13.00413694809395
 20
-0.0000166257579952
 30
0.0
 11
13.18296635100632
 21
0.1788127771543824
 31
0.0
  0
LINE
  5
B24D
330
B226
100
AcDbEntity
  8
0
  6
CONTINUOUS
100
AcDbLine
 10
4.772852165289667
 20
-0.000092794222212
 30
0.0
 11
4.296495091028902
 21
0.4762642800385528
 31
0.0
  0
LINE
  5
B24E
330
B226
100
AcDbEntity
  8
0
  6
CONTINUOUS
100
AcDbLine
 10
5.446340034776103
 20
-0.0000614546284616
 30
0.0
 11
2.898195908335625
 21
2.548082671812017
 31
0.0
  0
LINE
  5
B24F
330
B226
100
AcDbEntity
  8
0
  6
CONTINUOUS
100
AcDbLine
 10
6.119827904262539
 20
-0.0000301150347113
 30
0.0
 11
1.499896725642348
 21
4.61990106358548
 31
0.0
  0
LINE
  5
B250
330
B226
100
AcDbEntity
  8
0
  6
CONTINUOUS
100
AcDbLine
 10
6.775136745476159
 20
0.0181802528318542
 30
0.0
 11
5.699826040202669
 21
1.093490958105344
 31
0.0
  0
LINE
  5
B251
330
B226
100
AcDbEntity
  8
0
  6
CONTINUOUS
100
AcDbLine
 10
6.983376846288489
 20
0.4834593610997118
 30
0.0
 11
5.908008617934405
 21
1.558827589453796
 31
0.0
  0
LINE
  5
B252
330
B226
100
AcDbEntity
  8
0
  6
CONTINUOUS
100
AcDbLine
 10
5.377063484962296
 20
1.416253513345719
 30
0.0
 11
1.702276957014131
 21
5.091040041293883
 31
0.0
  0
LINE
  5
B253
330
B226
100
AcDbEntity
  8
0
  6
CONTINUOUS
100
AcDbLine
 10
3.978745891735324
 20
3.488090315652877
 30
0.0
 11
2.000373521109399
 21
5.466462686278803
 31
0.0
  0
LINE
  5
B254
330
B226
100
AcDbEntity
  8
0
  6
CONTINUOUS
100
AcDbLine
 10
7.191616947100819
 20
0.948738469367568
 30
0.0
 11
6.11619119566614
 21
2.024164220802247
 31
0.0
  0
LINE
  5
B255
330
B226
100
AcDbEntity
  8
0
  6
CONTINUOUS
100
AcDbLine
 10
7.399857047913149
 20
1.414017577635424
 30
0.0
 11
6.324373773397875
 21
2.489500852150698
 31
0.0
  0
LINE
  5
B256
330
B226
100
AcDbEntity
  8
0
  6
CONTINUOUS
100
AcDbLine
 10
7.608097148725479
 20
1.879296685903281
 30
0.0
 11
6.53255635112961
 21
2.95483748349915
 31
0.0
  0
LINE
  5
B257
330
B226
100
AcDbEntity
  8
0
  6
CONTINUOUS
100
AcDbLine
 10
7.816337249537808
 20
2.344575794171138
 30
0.0
 11
6.740738928861345
 21
3.420174114847601
 31
0.0
  0
LINE
  5
B258
330
B226
100
AcDbEntity
  8
0
  6
CONTINUOUS
100
AcDbLine
 10
3.310241080789734
 20
4.830114335678653
 30
0.0
 11
2.298470085204666
 21
5.84188533126372
 31
0.0
  0
LINE
  5
B259
330
B226
100
AcDbEntity
  8
0
  6
CONTINUOUS
100
AcDbLine
 10
3.60832983563551
 20
5.205544789913063
 30
0.0
 11
2.596566649299935
 21
6.217307976248638
 31
0.0
  0
LINE
  5
B25A
330
B226
100
AcDbEntity
  8
0
  6
CONTINUOUS
100
AcDbLine
 10
3.906418590481286
 20
5.580975244147473
 30
0.0
 11
2.894663213395203
 21
6.592730621233557
 31
0.0
  0
LINE
  5
B25B
330
B226
100
AcDbEntity
  8
0
  6
CONTINUOUS
100
AcDbLine
 10
4.204507345327062
 20
5.956405698381884
 30
0.0
 11
3.192759777490472
 21
6.968153266218474
 31
0.0
  0
LINE
  5
B25C
330
B226
100
AcDbEntity
  8
0
  6
CONTINUOUS
100
AcDbLine
 10
8.466032252791512
 20
2.368399999997621
 30
0.0
 11
6.948921506593081
 21
3.885510746196053
 31
0.0
  0
LINE
  5
B25D
330
B226
100
AcDbEntity
  8
0
  6
CONTINUOUS
100
AcDbLine
 10
9.139551461871699
 20
2.36839999999762
 30
0.0
 11
7.157104084324816
 21
4.350847377544504
 31
0.0
  0
LINE
  5
B25E
330
B226
100
AcDbEntity
  8
0
  6
CONTINUOUS
100
AcDbLine
 10
4.502596100172839
 20
6.331836152616295
 30
0.0
 11
3.49085634158574
 21
7.343575911203393
 31
0.0
  0
LINE
  5
B25F
330
B226
100
AcDbEntity
  8
0
  6
CONTINUOUS
100
AcDbLine
 10
4.800684855018615
 20
6.707266606850705
 30
0.0
 11
3.788952905681008
 21
7.718998556188312
 31
0.0
  0
LINE
  5
B260
330
B226
100
AcDbEntity
  8
0
  6
CONTINUOUS
100
AcDbLine
 10
12.18154012887317
 20
-0.0000694579236642
 30
0.0
 11
11.32140332908496
 21
0.8600673418645499
 31
0.0
  0
LINE
  5
B261
330
B226
100
AcDbEntity
  8
0
  6
CONTINUOUS
100
AcDbLine
 10
12.85501608323566
 20
-0.0000262032059659
 30
0.0
 11
10.77672456435345
 21
2.078265315676246
 31
0.0
  0
LINE
  5
B262
330
B226
100
AcDbEntity
  8
0
  6
CONTINUOUS
100
AcDbLine
 10
9.813070670951886
 20
2.36839999999762
 30
0.0
 11
8.51047067095321
 21
3.670999999996297
 31
0.0
  0
LINE
  5
B263
330
B226
100
AcDbEntity
  8
0
  6
CONTINUOUS
100
AcDbLine
 10
10.48658988003207
 20
2.36839999999762
 30
0.0
 11
9.183989880033396
 21
3.670999999996297
 31
0.0
  0
LINE
  5
B264
330
B226
100
AcDbEntity
  8
0
  6
CONTINUOUS
100
AcDbLine
 10
8.441048632286794
 20
3.740422038662712
 30
0.0
 11
7.365286662056551
 21
4.816184008892956
 31
0.0
  0
LINE
  5
B265
330
B226
100
AcDbEntity
  8
0
  6
CONTINUOUS
100
AcDbLine
 10
8.649187485808454
 20
4.205802394221237
 30
0.0
 11
7.573469239788285
 21
5.281520640241407
 31
0.0
  0
LINE
  5
B266
330
B226
100
AcDbEntity
  8
0
  6
CONTINUOUS
100
AcDbLine
 10
5.098773609864391
 20
7.082697061085115
 30
0.0
 11
4.087049469776277
 21
8.09442120117323
 31
0.0
  0
LINE
  5
B267
330
B226
100
AcDbEntity
  8
0
  6
CONTINUOUS
100
AcDbLine
 10
5.396862364710167
 20
7.458127515319526
 30
0.0
 11
4.385146033871544
 21
8.469843846158149
 31
0.0
  0
LINE
  5
B268
330
B226
100
AcDbEntity
  8
0
  6
CONTINUOUS
100
AcDbLine
 10
13.04801363231285
 20
0.4804954567970334
 30
0.0
 11
9.85750908911358
 21
3.670999999996297
 31
0.0
  0
LINE
  5
B269
330
B226
100
AcDbEntity
  8
0
  6
CONTINUOUS
100
AcDbLine
 10
8.857326339330116
 20
4.671182749779763
 30
0.0
 11
7.781651817520021
 21
5.746857271589858
 31
0.0
  0
LINE
  5
B26A
330
B226
100
AcDbEntity
  8
0
  6
CONTINUOUS
100
AcDbLine
 10
5.694951119555943
 20
7.833557969553937
 30
0.0
 11
4.765409089118624
 21
8.763099999991255
 31
0.0
  0
LINE
  5
B26B
330
B226
100
AcDbEntity
  8
0
  6
CONTINUOUS
100
AcDbLine
 10
12.50286117236978
 20
1.699167125820288
 30
0.0
 11
9.68611877250287
 21
4.515909525687196
 31
0.0
  0
LINE
  5
B26C
330
B226
100
AcDbEntity
  8
0
  6
CONTINUOUS
100
AcDbLine
 10
9.065465192851777
 20
5.136563105338288
 30
0.0
 11
7.989834395251757
 21
6.21219390293831
 31
0.0
  0
LINE
  5
B26D
330
B226
100
AcDbEntity
  8
0
  6
CONTINUOUS
100
AcDbLine
 10
5.993039874401719
 20
8.208988423788346
 30
0.0
 11
5.43892829819881
 21
8.763099999991255
 31
0.0
  0
LINE
  5
B26E
330
B226
100
AcDbEntity
  8
0
  6
CONTINUOUS
100
AcDbLine
 10
11.95770871242671
 20
2.917838794843543
 30
0.0
 11
8.19801697298349
 21
6.677530534286761
 31
0.0
  0
LINE
  5
B26F
330
B226
100
AcDbEntity
  8
0
  6
CONTINUOUS
100
AcDbLine
 10
6.291128629247495
 20
8.584418878022756
 30
0.0
 11
6.112447507278997
 21
8.763099999991255
 31
0.0
  0
LINE
  5
B270
330
B226
100
AcDbEntity
  8
0
  6
CONTINUOUS
100
AcDbLine
 10
11.41255625248364
 20
4.136510463866797
 30
0.0
 11
8.406199550715227
 21
7.142867165635211
 31
0.0
  0
LINE
  5
B271
330
B226
100
AcDbEntity
  8
0
  6
CONTINUOUS
100
AcDbLine
 10
10.86740379254057
 20
5.355182132890051
 30
0.0
 11
8.614382128446962
 21
7.608203796983664
 31
0.0
  0
LINE
  5
B272
330
B226
100
AcDbEntity
  8
0
  6
CONTINUOUS
100
AcDbLine
 10
10.3222513325975
 20
6.573853801913305
 30
0.0
 11
8.822564706178696
 21
8.073540428332114
 31
0.0
  0
LINE
  5
B273
330
B226
100
AcDbEntity
  8
0
  6
CONTINUOUS
100
AcDbLine
 10
9.777098872654436
 20
7.792525470936562
 30
0.0
 11
9.030747283910433
 21
8.538877059680566
 31
0.0
  0
ENDBLK
  5
B3B5
330
B226
100
AcDbEntity
  8
0
100
AcDbBlockEnd
  0
BLOCK
  5
B3B6
330
B274
100
AcDbEntity
  8
0
100
AcDbBlockBegin
  2
*X51
 70
     1
 10
0.0
 20
0.0
 30
0.0
  3
*X51
  1

  0
LINE
  5
B275
330
B274
100
AcDbEntity
  8
0
  6
CONTINUOUS
100
AcDbLine
 10
10.67292308101235
 20
8.445076852443387
 30
0.0
 11
10.99094622856022
 21
8.763099999991255
 31
0.0
  0
LINE
  5
B276
330
B274
100
AcDbEntity
  8
0
  6
CONTINUOUS
100
AcDbLine
 10
10.87250383178748
 20
7.971138394138331
 30
0.0
 11
11.6644654376404
 21
8.763099999991255
 31
0.0
  0
LINE
  5
B277
330
B274
100
AcDbEntity
  8
0
  6
CONTINUOUS
100
AcDbLine
 10
11.07208458256261
 20
7.497199935833273
 30
0.0
 11
12.12126590876355
 21
8.546381262034211
 31
0.0
  0
LINE
  5
B278
330
B274
100
AcDbEntity
  8
0
  6
CONTINUOUS
100
AcDbLine
 10
11.27166533333774
 20
7.023261477528216
 30
0.0
 11
12.32085164573666
 21
8.072447789927136
 31
0.0
  0
LINE
  5
B279
330
B274
100
AcDbEntity
  8
0
  6
CONTINUOUS
100
AcDbLine
 10
11.47124608411287
 20
6.549323019223158
 30
0.0
 11
12.52043738270977
 21
7.59851431782006
 31
0.0
  0
LINE
  5
B27A
330
B274
100
AcDbEntity
  8
0
  6
CONTINUOUS
100
AcDbLine
 10
11.670826834888
 20
6.075384560918101
 30
0.0
 11
12.72002311968288
 21
7.124580845712984
 31
0.0
  0
LINE
  5
B27B
330
B274
100
AcDbEntity
  8
0
  6
CONTINUOUS
100
AcDbLine
 10
11.87040758566313
 20
5.601446102613043
 30
0.0
 11
12.91960885665599
 21
6.650647373605907
 31
0.0
  0
LINE
  5
B27C
330
B274
100
AcDbEntity
  8
0
  6
CONTINUOUS
100
AcDbLine
 10
12.06998833643825
 20
5.127507644307986
 30
0.0
 11
13.1191945936291
 21
6.176713901498832
 31
0.0
  0
LINE
  5
B27D
330
B274
100
AcDbEntity
  8
0
  6
CONTINUOUS
100
AcDbLine
 10
12.26956908721338
 20
4.65356918600293
 30
0.0
 11
13.31878033060221
 21
5.702780429391757
 31
0.0
  0
LINE
  5
B27E
330
B274
100
AcDbEntity
  8
0
  6
CONTINUOUS
100
AcDbLine
 10
12.46914983798851
 20
4.179630727697873
 30
0.0
 11
13.51836606757532
 21
5.228846957284683
 31
0.0
  0
LINE
  5
B27F
330
B274
100
AcDbEntity
  8
0
  6
CONTINUOUS
100
AcDbLine
 10
12.66873058876364
 20
3.705692269392816
 30
0.0
 11
13.71795180454843
 21
4.754913485177607
 31
0.0
  0
LINE
  5
B280
330
B274
100
AcDbEntity
  8
0
  6
CONTINUOUS
100
AcDbLine
 10
12.86831133953877
 20
3.231753811087759
 30
0.0
 11
13.91753754152154
 21
4.280980013070531
 31
0.0
  0
LINE
  5
B281
330
B274
100
AcDbEntity
  8
0
  6
CONTINUOUS
100
AcDbLine
 10
13.0678920903139
 20
2.757815352782702
 30
0.0
 11
14.11712327849465
 21
3.807046540963456
 31
0.0
  0
LINE
  5
B282
330
B274
100
AcDbEntity
  8
0
  6
CONTINUOUS
100
AcDbLine
 10
13.26747284108903
 20
2.283876894477644
 30
0.0
 11
14.31670901546777
 21
3.333113068856379
 31
0.0
  0
LINE
  5
B283
330
B274
100
AcDbEntity
  8
0
  6
CONTINUOUS
100
AcDbLine
 10
16.36767838827179
 20
8.751678487061342
 30
0.0
 11
16.50332410898388
 21
8.887324207773432
 31
0.0
  0
LINE
  5
B284
330
B274
100
AcDbEntity
  8
0
  6
CONTINUOUS
100
AcDbLine
 10
15.96190732182191
 20
7.67238821153127
 30
0.0
 11
16.68735328004734
 21
8.397834169756699
 31
0.0
  0
LINE
  5
B285
330
B274
100
AcDbEntity
  8
0
  6
CONTINUOUS
100
AcDbLine
 10
15.55613625537202
 20
6.593097936001196
 30
0.0
 11
16.87138245111079
 21
7.908344131739965
 31
0.0
  0
LINE
  5
B286
330
B274
100
AcDbEntity
  8
0
  6
CONTINUOUS
100
AcDbLine
 10
15.15036518892213
 20
5.513807660471122
 30
0.0
 11
17.05541162217424
 21
7.418854093723231
 31
0.0
  0
LINE
  5
B287
330
B274
100
AcDbEntity
  8
0
  6
CONTINUOUS
100
AcDbLine
 10
14.74459412247225
 20
4.434517384941048
 30
0.0
 11
17.2394407932377
 21
6.929364055706499
 31
0.0
  0
LINE
  5
B288
330
B274
100
AcDbEntity
  8
0
  6
CONTINUOUS
100
AcDbLine
 10
14.33882305602236
 20
3.355227109410975
 30
0.0
 11
17.42346996430115
 21
6.439874017689766
 31
0.0
  0
LINE
  5
B289
330
B274
100
AcDbEntity
  8
0
  6
CONTINUOUS
100
AcDbLine
 10
13.46705359186416
 20
1.809938436172586
 30
0.0
 11
16.0819338255367
 21
4.424818669845129
 31
0.0
  0
LINE
  5
B28A
330
B274
100
AcDbEntity
  8
0
  6
CONTINUOUS
100
AcDbLine
 10
16.63283254238972
 20
4.975717386698149
 30
0.0
 11
17.60749913536461
 21
5.950383979673033
 31
0.0
  0
LINE
  5
B28B
330
B274
100
AcDbEntity
  8
0
  6
CONTINUOUS
100
AcDbLine
 10
13.66663434263929
 20
1.335999977867529
 30
0.0
 11
15.67604797733754
 21
3.345413612565779
 31
0.0
  0
LINE
  5
B28C
330
B274
100
AcDbEntity
  8
0
  6
CONTINUOUS
100
AcDbLine
 10
13.86621509341442
 20
0.8620615195624723
 30
0.0
 11
15.27016212913838
 21
2.26600855528643
 31
0.0
  0
LINE
  5
B28D
330
B274
100
AcDbEntity
  8
0
  6
CONTINUOUS
100
AcDbLine
 10
16.81682257348267
 20
4.486188208710908
 30
0.0
 11
17.79152830642806
 21
5.460893941656299
 31
0.0
  0
LINE
  5
B28E
330
B274
100
AcDbEntity
  8
0
  6
CONTINUOUS
100
AcDbLine
 10
17.00081260457561
 20
3.996659030723667
 30
0.0
 11
17.97555747749151
 21
4.971403903639565
 31
0.0
  0
LINE
  5
B28F
330
B274
100
AcDbEntity
  8
0
  6
CONTINUOUS
100
AcDbLine
 10
20.74362343514722
 20
8.412989070375462
 30
0.0
 11
21.09373436476302
 21
8.763099999991256
 31
0.0
  0
LINE
  5
B290
330
B274
100
AcDbEntity
  8
0
  6
CONTINUOUS
100
AcDbLine
 10
20.25401257174777
 20
7.249858997895826
 30
0.0
 11
21.7672535738432
 21
8.763099999991255
 31
0.0
  0
LINE
  5
B291
330
B274
100
AcDbEntity
  8
0
  6
CONTINUOUS
100
AcDbLine
 10
14.06579584418955
 20
0.3881230612574149
 30
0.0
 11
14.86427628093921
 21
1.186603498007082
 31
0.0
  0
LINE
  5
B292
330
B274
100
AcDbEntity
  8
0
  6
CONTINUOUS
100
AcDbLine
 10
14.26537659496467
 20
-0.0858153970476412
 30
0.0
 11
14.45839043274005
 21
0.1071984407277329
 31
0.0
  0
LINE
  5
B293
330
B274
100
AcDbEntity
  8
0
  6
CONTINUOUS
100
AcDbLine
 10
17.18480263566856
 20
3.507129852736426
 30
0.0
 11
18.15958664855496
 21
4.481913865622833
 31
0.0
  0
LINE
  5
B294
330
B274
100
AcDbEntity
  8
0
  6
CONTINUOUS
100
AcDbLine
 10
17.3687926667615
 20
3.017600674749186
 30
0.0
 11
18.34361581961842
 21
3.9924238276061
 31
0.0
  0
LINE
  5
B295
330
B274
100
AcDbEntity
  8
0
  6
CONTINUOUS
100
AcDbLine
 10
19.76440170834832
 20
6.086728925416191
 30
0.0
 11
22.33924590259489
 21
8.661573119662755
 31
0.0
  0
LINE
  5
B296
330
B274
100
AcDbEntity
  8
0
  6
CONTINUOUS
100
AcDbLine
 10
19.27479084494887
 20
4.923598852936555
 30
0.0
 11
21.84929622842713
 21
7.498104236414807
 31
0.0
  0
LINE
  5
B297
330
B274
100
AcDbEntity
  8
0
  6
CONTINUOUS
100
AcDbLine
 10
17.55278269785445
 20
2.528071496761945
 30
0.0
 11
18.52764499068187
 21
3.502933789589366
 31
0.0
  0
LINE
  5
B298
330
B274
100
AcDbEntity
  8
0
  6
CONTINUOUS
100
AcDbLine
 10
18.78517998154942
 20
3.760468780456919
 30
0.0
 11
21.35934655425936
 21
6.33463535316686
 31
0.0
  0
LINE
  5
B299
330
B274
100
AcDbEntity
  8
0
  6
CONTINUOUS
100
AcDbLine
 10
17.73677272894739
 20
2.038542318774704
 30
0.0
 11
20.8693968800916
 21
5.171166469918914
 31
0.0
  0
LINE
  5
B29A
330
B274
100
AcDbEntity
  8
0
  6
CONTINUOUS
100
AcDbLine
 10
17.92076276004034
 20
1.549013140787464
 30
0.0
 11
20.37944720592384
 21
4.007697586670968
 31
0.0
  0
LINE
  5
B29B
330
B274
100
AcDbEntity
  8
0
  6
CONTINUOUS
100
AcDbLine
 10
18.10475279113329
 20
1.059483962800223
 30
0.0
 11
19.88949753175608
 21
2.84422870342302
 31
0.0
  0
LINE
  5
B29C
330
B274
100
AcDbEntity
  8
0
  6
CONTINUOUS
100
AcDbLine
 10
18.28874282222623
 20
0.5699547848129822
 30
0.0
 11
19.39954785758832
 21
1.680759820175074
 31
0.0
  0
LINE
  5
B29D
330
B274
100
AcDbEntity
  8
0
  6
CONTINUOUS
100
AcDbLine
 10
18.47273285331918
 20
0.0804256068257416
 30
0.0
 11
18.90959818342056
 21
0.517290936927127
 31
0.0
  0
LINE
  5
B29E
330
B274
100
AcDbEntity
  8
0
  6
CONTINUOUS
100
AcDbLine
 10
14.3590401358224
 20
-0.1570118376323384
 30
0.0
 11
14.24903296539946
 21
-0.0470046672093929
 31
0.0
  0
LINE
  5
B29F
330
B274
100
AcDbEntity
  8
0
  6
CONTINUOUS
100
AcDbLine
 10
14.54309291258661
 20
0.332454594683643
 30
0.0
 11
13.75908329123172
 21
1.116464216038529
 31
0.0
  0
LINE
  5
B2A0
330
B274
100
AcDbEntity
  8
0
  6
CONTINUOUS
100
AcDbLine
 10
14.72714568935081
 20
0.8219210269996244
 30
0.0
 11
13.26913361706399
 21
2.27993309928645
 31
0.0
  0
LINE
  5
B2A1
330
B274
100
AcDbEntity
  8
0
  6
CONTINUOUS
100
AcDbLine
 10
14.91119846611502
 20
1.311387459315606
 30
0.0
 11
12.77918394289625
 21
3.443401982534371
 31
0.0
  0
LINE
  5
B2A2
330
B274
100
AcDbEntity
  8
0
  6
CONTINUOUS
100
AcDbLine
 10
15.09525124287922
 20
1.800853891631587
 30
0.0
 11
12.28923426872852
 21
4.606870865782293
 31
0.0
  0
LINE
  5
B2A3
330
B274
100
AcDbEntity
  8
0
  6
CONTINUOUS
100
AcDbLine
 10
15.27930401964343
 20
2.290320323947569
 30
0.0
 11
11.79928459456078
 21
5.770339749030213
 31
0.0
  0
LINE
  5
B2A4
330
B274
100
AcDbEntity
  8
0
  6
CONTINUOUS
100
AcDbLine
 10
15.46335679640763
 20
2.77978675626355
 30
0.0
 11
14.48885470994921
 21
3.754288842721972
 31
0.0
  0
LINE
  5
B2A5
330
B274
100
AcDbEntity
  8
0
  6
CONTINUOUS
100
AcDbLine
 10
13.88507249233704
 20
4.358071060334137
 30
0.0
 11
11.30933492039305
 21
6.933808632278135
 31
0.0
  0
LINE
  5
B2A6
330
B274
100
AcDbEntity
  8
0
  6
CONTINUOUS
100
AcDbLine
 10
18.75840522805855
 20
0.1582575336928151
 30
0.0
 11
18.25383727664818
 21
0.6628254851031863
 31
0.0
  0
LINE
  5
B2A7
330
B274
100
AcDbEntity
  8
0
  6
CONTINUOUS
100
AcDbLine
 10
15.64740957317184
 20
3.269253188579531
 30
0.0
 11
14.67288388101266
 21
4.243778880738705
 31
0.0
  0
LINE
  5
B2A8
330
B274
100
AcDbEntity
  8
0
  6
CONTINUOUS
100
AcDbLine
 10
13.39509276772158
 20
5.521569994029786
 30
0.0
 11
10.81938524622531
 21
8.097277515526056
 31
0.0
  0
LINE
  5
B2A9
330
B274
100
AcDbEntity
  8
0
  6
CONTINUOUS
100
AcDbLine
 10
18.95798597883369
 20
0.6321959919978686
 30
0.0
 11
17.84825644852853
 21
1.741925522303024
 31
0.0
  0
LINE
  5
B2AA
330
B274
100
AcDbEntity
  8
0
  6
CONTINUOUS
100
AcDbLine
 10
19.15756672960882
 20
1.106134450302922
 30
0.0
 11
17.44267562040888
 21
2.821025559502861
 31
0.0
  0
LINE
  5
B2AB
330
B274
100
AcDbEntity
  8
0
  6
CONTINUOUS
100
AcDbLine
 10
15.83146234993604
 20
3.758719620895513
 30
0.0
 11
14.85691305207612
 21
4.733268918755439
 31
0.0
  0
LINE
  5
B2AC
330
B274
100
AcDbEntity
  8
0
  6
CONTINUOUS
100
AcDbLine
 10
16.01551512670025
 20
4.248186053211494
 30
0.0
 11
15.04094222313957
 21
5.222758956772172
 31
0.0
  0
LINE
  5
B2AD
330
B274
100
AcDbEntity
  8
0
  6
CONTINUOUS
100
AcDbLine
 10
12.90511304310612
 20
6.685068927725435
 30
0.0
 11
10.8270819708403
 21
8.763099999991255
 31
0.0
  0
LINE
  5
B2AE
330
B274
100
AcDbEntity
  8
0
  6
CONTINUOUS
100
AcDbLine
 10
12.41513331849066
 20
7.848567861421083
 30
0.0
 11
11.50060117992049
 21
8.763099999991255
 31
0.0
  0
LINE
  5
B2AF
330
B274
100
AcDbEntity
  8
0
  6
CONTINUOUS
100
AcDbLine
 10
19.35714748038395
 20
1.580072908607975
 30
0.0
 11
17.03709479228923
 21
3.900125596702697
 31
0.0
  0
LINE
  5
B2B0
330
B274
100
AcDbEntity
  8
0
  6
CONTINUOUS
100
AcDbLine
 10
19.55672823115909
 20
2.054011366913028
 30
0.0
 11
16.63151396416958
 21
4.979225633902534
 31
0.0
  0
LINE
  5
B2B1
330
B274
100
AcDbEntity
  8
0
  6
CONTINUOUS
100
AcDbLine
 10
16.19956790346445
 20
4.737652485527476
 30
0.0
 11
15.22497139420302
 21
5.712248994788904
 31
0.0
  0
LINE
  5
B2B2
330
B274
100
AcDbEntity
  8
0
  6
CONTINUOUS
100
AcDbLine
 10
16.38362068022866
 20
5.227118917843457
 30
0.0
 11
15.40900056526648
 21
6.201739032805637
 31
0.0
  0
LINE
  5
B2B3
330
B274
100
AcDbEntity
  8
0
  6
CONTINUOUS
100
AcDbLine
 10
19.75630898193422
 20
2.527949825218081
 30
0.0
 11
18.70774536448286
 21
3.576513442669441
 31
0.0
  0
LINE
  5
B2B4
330
B274
100
AcDbEntity
  8
0
  6
CONTINUOUS
100
AcDbLine
 10
19.95588973270936
 20
3.001888283523134
 30
0.0
 11
18.90726987211446
 21
4.050508144118028
 31
0.0
  0
LINE
  5
B2B5
330
B274
100
AcDbEntity
  8
0
  6
CONTINUOUS
100
AcDbLine
 10
20.15547048348449
 20
3.475826741828186
 30
0.0
 11
19.10679437974606
 21
4.524502845566614
 31
0.0
  0
LINE
  5
B2B6
330
B274
100
AcDbEntity
  8
0
  6
CONTINUOUS
100
AcDbLine
 10
20.35505123425962
 20
3.94976520013324
 30
0.0
 11
19.30631888737766
 21
4.998497547015201
 31
0.0
  0
LINE
  5
B2B7
330
B274
100
AcDbEntity
  8
0
  6
CONTINUOUS
100
AcDbLine
 10
20.55463198503475
 20
4.423703658438292
 30
0.0
 11
19.50584339500926
 21
5.472492248463787
 31
0.0
  0
LINE
  5
B2B8
330
B274
100
AcDbEntity
  8
0
  6
CONTINUOUS
100
AcDbLine
 10
18.37481191085755
 20
3.909446896294752
 30
0.0
 11
15.59302973632993
 21
6.691229070822371
 31
0.0
  0
LINE
  5
B2B9
330
B274
100
AcDbEntity
  8
0
  6
CONTINUOUS
100
AcDbLine
 10
17.96904084440766
 20
4.988737171824825
 30
0.0
 11
15.77705890739338
 21
7.180719108839104
 31
0.0
  0
LINE
  5
B2BA
330
B274
100
AcDbEntity
  8
0
  6
CONTINUOUS
100
AcDbLine
 10
17.56326977795777
 20
6.068027447354899
 30
0.0
 11
15.96108807845684
 21
7.670209146855838
 31
0.0
  0
LINE
  5
B2BB
330
B274
100
AcDbEntity
  8
0
  6
CONTINUOUS
100
AcDbLine
 10
17.15749871150789
 20
7.147317722884972
 30
0.0
 11
16.14511724952029
 21
8.15969918487257
 31
0.0
  0
LINE
  5
B2BC
330
B274
100
AcDbEntity
  8
0
  6
CONTINUOUS
100
AcDbLine
 10
16.751727645058
 20
8.226607998415046
 30
0.0
 11
16.32914642058374
 21
8.649189222889303
 31
0.0
  0
LINE
  5
B2BD
330
B274
100
AcDbEntity
  8
0
  6
CONTINUOUS
100
AcDbLine
 10
20.75421273580989
 20
4.897642116743345
 30
0.0
 11
19.70536790264086
 21
5.946486949912374
 31
0.0
  0
LINE
  5
B2BE
330
B274
100
AcDbEntity
  8
0
  6
CONTINUOUS
100
AcDbLine
 10
20.95379348658502
 20
5.371580575048398
 30
0.0
 11
19.90489241027246
 21
6.42048165136096
 31
0.0
  0
LINE
  5
B2BF
330
B274
100
AcDbEntity
  8
0
  6
CONTINUOUS
100
AcDbLine
 10
21.15337423736015
 20
5.845519033353452
 30
0.0
 11
20.10441691790406
 21
6.894476352809547
 31
0.0
  0
LINE
  5
B2C0
330
B274
100
AcDbEntity
  8
0
  6
CONTINUOUS
100
AcDbLine
 10
21.35295498813529
 20
6.319457491658505
 30
0.0
 11
20.30394142553566
 21
7.368471054258134
 31
0.0
  0
LINE
  5
B2C1
330
B274
100
AcDbEntity
  8
0
  6
CONTINUOUS
100
AcDbLine
 10
21.55253573891042
 20
6.793395949963558
 30
0.0
 11
20.50346593316726
 21
7.842465755706721
 31
0.0
  0
LINE
  5
B2C2
330
B274
100
AcDbEntity
  8
0
  6
CONTINUOUS
100
AcDbLine
 10
21.75211648968556
 20
7.267334408268612
 30
0.0
 11
20.70299044079886
 21
8.316460457155308
 31
0.0
  0
LINE
  5
B2C3
330
B274
100
AcDbEntity
  8
0
  6
CONTINUOUS
100
AcDbLine
 10
21.95169724046069
 20
7.741272866573663
 30
0.0
 11
20.9298701070431
 21
8.763099999991256
 31
0.0
  0
LINE
  5
B2C4
330
B274
100
AcDbEntity
  8
0
  6
CONTINUOUS
100
AcDbLine
 10
22.15127799123582
 20
8.215211324878716
 30
0.0
 11
21.60338931612328
 21
8.763099999991256
 31
0.0
  0
LINE
  5
B2C5
330
B274
100
AcDbEntity
  8
0
  6
CONTINUOUS
100
AcDbLine
 10
22.35085874201096
 20
8.689149783183769
 30
0.0
 11
22.27690852520347
 21
8.763099999991255
 31
0.0
  0
ENDBLK
  5
B3B7
330
B274
100
AcDbEntity
  8
0
100
AcDbBlockEnd
  0
BLOCK
  5
B3B8
330
B2C6
100
AcDbEntity
  8
0
100
AcDbBlockBegin
  2
*X52
 70
     1
 10
0.0
 20
0.0
 30
0.0
  3
*X52
  1

  0
LINE
  5
B2C7
330
B2C6
100
AcDbEntity
  8
0
  6
CONTINUOUS
100
AcDbLine
 10
23.19462913593892
 20
8.169917934846424
 30
0.0
 11
23.70775465517246
 21
8.683043454079957
 31
0.0
  0
LINE
  5
B2C8
330
B2C6
100
AcDbEntity
  8
0
  6
CONTINUOUS
100
AcDbLine
 10
22.64923161835078
 20
6.951001208178088
 30
0.0
 11
23.9159364069932
 21
8.217705996820516
 31
0.0
  0
LINE
  5
B2C9
330
B2C6
100
AcDbEntity
  8
0
  6
CONTINUOUS
100
AcDbLine
 10
22.10383410076263
 20
5.732084481509751
 30
0.0
 11
24.12411815881395
 21
7.752368539561078
 31
0.0
  0
LINE
  5
B2CA
330
B2C6
100
AcDbEntity
  8
0
  6
CONTINUOUS
100
AcDbLine
 10
21.55843658317447
 20
4.513167754841414
 30
0.0
 11
24.3322999106347
 21
7.287031082301639
 31
0.0
  0
LINE
  5
B2CB
330
B2C6
100
AcDbEntity
  8
0
  6
CONTINUOUS
100
AcDbLine
 10
21.01303906558632
 20
3.294251028173077
 30
0.0
 11
24.54048166245544
 21
6.821693625042199
 31
0.0
  0
LINE
  5
B2CC
330
B2C6
100
AcDbEntity
  8
0
  6
CONTINUOUS
100
AcDbLine
 10
20.46764154799817
 20
2.075334301504738
 30
0.0
 11
23.28571549467848
 21
4.89340824818505
 31
0.0
  0
LINE
  5
B2CD
330
B2C6
100
AcDbEntity
  8
0
  6
CONTINUOUS
100
AcDbLine
 10
19.92224403041002
 20
0.8564175748364002
 30
0.0
 11
22.74075865492779
 21
3.674932199354171
 31
0.0
  0
LINE
  5
B2CE
330
B2C6
100
AcDbEntity
  8
0
  6
CONTINUOUS
100
AcDbLine
 10
23.67305085490148
 20
5.280743608408048
 30
0.0
 11
24.74866341427619
 21
6.356356167782759
 31
0.0
  0
LINE
  5
B2CF
330
B2C6
100
AcDbEntity
  8
0
  6
CONTINUOUS
100
AcDbLine
 10
23.88118970842314
 20
4.815363252849522
 30
0.0
 11
24.95684516609694
 21
5.89101871052332
 31
0.0
  0
LINE
  5
B2D0
330
B2C6
100
AcDbEntity
  8
0
  6
CONTINUOUS
100
AcDbLine
 10
19.73925852647308
 20
-0.0000871381807288
 30
0.0
 11
23.4103456646501
 21
3.670999999996297
 31
0.0
  0
LINE
  5
B2D1
330
B2C6
100
AcDbEntity
  8
0
  6
CONTINUOUS
100
AcDbLine
 10
24.0893285619448
 20
4.349982897290997
 30
0.0
 11
25.16502691791769
 21
5.42568125326388
 31
0.0
  0
LINE
  5
B2D2
330
B2C6
100
AcDbEntity
  8
0
  6
CONTINUOUS
100
AcDbLine
 10
20.41282099582748
 20
-0.0000438779065108
 30
0.0
 11
21.64944178675636
 21
1.236576913022366
 31
0.0
  0
LINE
  5
B2D3
330
B2C6
100
AcDbEntity
  8
0
  6
CONTINUOUS
100
AcDbLine
 10
22.78126487373161
 20
2.36839999999762
 30
0.0
 11
24.08386487373029
 21
3.670999999996297
 31
0.0
  0
LINE
  5
B2D4
330
B2C6
100
AcDbEntity
  8
0
  6
CONTINUOUS
100
AcDbLine
 10
24.29746741546646
 20
3.884602541732471
 30
0.0
 11
25.37320866973843
 21
4.960343796004441
 31
0.0
  0
LINE
  5
B2D5
330
B2C6
100
AcDbEntity
  8
0
  6
CONTINUOUS
100
AcDbLine
 10
21.08638346518189
 20
-0.0000006176322938
 30
0.0
 11
21.10379033335899
 21
0.0174062505448083
 31
0.0
  0
LINE
  5
B2D6
330
B2C6
100
AcDbEntity
  8
0
  6
CONTINUOUS
100
AcDbLine
 10
23.4547840828118
 20
2.36839999999762
 30
0.0
 11
25.58139042155918
 21
4.495006338745002
 31
0.0
  0
LINE
  5
B2D7
330
B2C6
100
AcDbEntity
  8
0
  6
CONTINUOUS
100
AcDbLine
 10
29.30199999996933
 20
8.215615917155148
 30
0.0
 11
29.84948408280543
 21
8.763099999991255
 31
0.0
  0
LINE
  5
B2D8
330
B2C6
100
AcDbEntity
  8
0
  6
CONTINUOUS
100
AcDbLine
 10
24.12830329189199
 20
2.36839999999762
 30
0.0
 11
25.78957217337993
 21
4.029668881485562
 31
0.0
  0
LINE
  5
B2D9
330
B2C6
100
AcDbEntity
  8
0
  6
CONTINUOUS
100
AcDbLine
 10
29.30199999996933
 20
7.54209670807496
 30
0.0
 11
30.52300329188562
 21
8.763099999991255
 31
0.0
  0
LINE
  5
B2DA
330
B2C6
100
AcDbEntity
  8
0
  6
CONTINUOUS
100
AcDbLine
 10
24.80182250097217
 20
2.36839999999762
 30
0.0
 11
25.99775392520067
 21
3.564331424226122
 31
0.0
  0
LINE
  5
B2DB
330
B2C6
100
AcDbEntity
  8
0
  6
CONTINUOUS
100
AcDbLine
 10
29.30199999996933
 20
6.868577498994774
 30
0.0
 11
30.74199999996926
 21
8.308577498994712
 31
0.0
  0
LINE
  5
B2DC
330
B2C6
100
AcDbEntity
  8
0
  6
CONTINUOUS
100
AcDbLine
 10
25.13028238392013
 20
2.023340673865392
 30
0.0
 11
26.20593567702142
 21
3.098993966966683
 31
0.0
  0
LINE
  5
B2DD
330
B2C6
100
AcDbEntity
  8
0
  6
CONTINUOUS
100
AcDbLine
 10
25.33838066033617
 20
1.557919741201244
 30
0.0
 11
26.41411742884217
 21
2.633656509707244
 31
0.0
  0
LINE
  5
B2DE
330
B2C6
100
AcDbEntity
  8
0
  6
CONTINUOUS
100
AcDbLine
 10
25.54647893675221
 20
1.092498808537098
 30
0.0
 11
26.62229918066291
 21
2.168319052447804
 31
0.0
  0
LINE
  5
B2DF
330
B2C6
100
AcDbEntity
  8
0
  6
CONTINUOUS
100
AcDbLine
 10
25.75457721316825
 20
0.62707787587295
 30
0.0
 11
26.83048093248366
 21
1.702981595188365
 31
0.0
  0
LINE
  5
B2E0
330
B2C6
100
AcDbEntity
  8
0
  6
CONTINUOUS
100
AcDbLine
 10
29.30199999996933
 20
6.195058289914587
 30
0.0
 11
30.74199999996926
 21
7.635058289914522
 31
0.0
  0
LINE
  5
B2E1
330
B2C6
100
AcDbEntity
  8
0
  6
CONTINUOUS
100
AcDbLine
 10
29.30199999996933
 20
5.521539080834401
 30
0.0
 11
30.74199999996926
 21
6.961539080834331
 31
0.0
  0
LINE
  5
B2E2
330
B2C6
100
AcDbEntity
  8
0
  6
CONTINUOUS
100
AcDbLine
 10
29.30199999996933
 20
4.848019871754214
 30
0.0
 11
30.74199999996925
 21
6.288019871754143
 31
0.0
  0
LINE
  5
B2E3
330
B2C6
100
AcDbEntity
  8
0
  6
CONTINUOUS
100
AcDbLine
 10
29.30199999996933
 20
4.174500662674028
 30
0.0
 11
30.74199999996925
 21
5.614500662673953
 31
0.0
  0
LINE
  5
B2E4
330
B2C6
100
AcDbEntity
  8
0
  6
CONTINUOUS
100
AcDbLine
 10
25.96267548958429
 20
0.1616569432088024
 30
0.0
 11
27.18411854636669
 21
1.383099999991207
 31
0.0
  0
LINE
  5
B2E5
330
B2C6
100
AcDbEntity
  8
0
  6
CONTINUOUS
100
AcDbLine
 10
29.30199999996933
 20
3.500981453593841
 30
0.0
 11
30.74199999996925
 21
4.940981453593762
 31
0.0
  0
LINE
  5
B2E6
330
B2C6
100
AcDbEntity
  8
0
  6
CONTINUOUS
100
AcDbLine
 10
26.50763775544691
 20
0.0330999999912356
 30
0.0
 11
27.85763775544689
 21
1.383099999991223
 31
0.0
  0
LINE
  5
B2E7
330
B2C6
100
AcDbEntity
  8
0
  6
CONTINUOUS
100
AcDbLine
 10
29.30199999996933
 20
2.827462244513656
 30
0.0
 11
30.74199999996925
 21
4.267462244513574
 31
0.0
  0
LINE
  5
B2E8
330
B2C6
100
AcDbEntity
  8
0
  6
CONTINUOUS
100
AcDbLine
 10
27.18115696452709
 20
0.0330999999912356
 30
0.0
 11
28.6224847300034
 21
1.474427765467545
 31
0.0
  0
LINE
  5
B2E9
330
B2C6
100
AcDbEntity
  8
0
  6
CONTINUOUS
100
AcDbLine
 10
29.21067223449293
 20
2.062615269957069
 30
0.0
 11
30.74199999996924
 21
3.593943035433383
 31
0.0
  0
LINE
  5
B2EA
330
B2C6
100
AcDbEntity
  8
0
  6
CONTINUOUS
100
AcDbLine
 10
27.85467617360728
 20
0.0330999999912356
 30
0.0
 11
30.74199999996924
 21
2.920423826353195
 31
0.0
  0
LINE
  5
B2EB
330
B2C6
100
AcDbEntity
  8
0
  6
CONTINUOUS
100
AcDbLine
 10
28.57438609860264
 20
0.0792907159064073
 30
0.0
 11
30.69580928405405
 21
2.200713901357819
 31
0.0
  0
LINE
  5
B2EC
330
B2C6
100
AcDbEntity
  8
0
  6
CONTINUOUS
100
AcDbLine
 10
29.49443044814297
 20
0.3258158563665496
 30
0.0
 11
30.44928414359389
 21
1.280669551817477
 31
0.0
  0
LINE
  5
B2ED
330
B2C6
100
AcDbEntity
  8
0
  6
CONTINUOUS
100
AcDbLine
 10
19.59027867740337
 20
-0.0000967065718083
 30
0.0
 11
19.55485265190471
 21
0.035329318926844
 31
0.0
  0
LINE
  5
B2EE
330
B2C6
100
AcDbEntity
  8
0
  6
CONTINUOUS
100
AcDbLine
 10
20.26375463176586
 20
-0.0000534518541091
 30
0.0
 11
19.76305575737534
 21
0.5006454225364014
 31
0.0
  0
LINE
  5
B2EF
330
B2C6
100
AcDbEntity
  8
0
  6
CONTINUOUS
100
AcDbLine
 10
20.93723058612834
 20
-0.0000101971364099
 30
0.0
 11
19.97125886284597
 21
0.965961526145958
 31
0.0
  0
LINE
  5
B2F0
330
B2C6
100
AcDbEntity
  8
0
  6
CONTINUOUS
100
AcDbLine
 10
21.25514828313686
 20
0.355591314935257
 30
0.0
 11
20.1794619683166
 21
1.431277629755512
 31
0.0
  0
LINE
  5
B2F1
330
B2C6
100
AcDbEntity
  8
0
  6
CONTINUOUS
100
AcDbLine
 10
21.46338838394921
 20
0.8208704232030986
 30
0.0
 11
20.38766507378723
 21
1.896593733365069
 31
0.0
  0
LINE
  5
B2F2
330
B2C6
100
AcDbEntity
  8
0
  6
CONTINUOUS
100
AcDbLine
 10
21.67162848476155
 20
1.28614953147094
 30
0.0
 11
20.59586817925786
 21
2.361909836974626
 31
0.0
  0
LINE
  5
B2F3
330
B2C6
100
AcDbEntity
  8
0
  6
CONTINUOUS
100
AcDbLine
 10
21.8798685855739
 20
1.751428639738782
 30
0.0
 11
20.80407128472849
 21
2.827225940584183
 31
0.0
  0
LINE
  5
B2F4
330
B2C6
100
AcDbEntity
  8
0
  6
CONTINUOUS
100
AcDbLine
 10
22.08810868638624
 20
2.216707748006623
 30
0.0
 11
21.01227439019912
 21
3.292542044193739
 31
0.0
  0
LINE
  5
B2F5
330
B2C6
100
AcDbEntity
  8
0
  6
CONTINUOUS
100
AcDbLine
 10
22.60993564347543
 20
2.36839999999762
 30
0.0
 11
21.22047749566975
 21
3.757858147803296
 31
0.0
  0
LINE
  5
B2F6
330
B2C6
100
AcDbEntity
  8
0
  6
CONTINUOUS
100
AcDbLine
 10
23.28345485255561
 20
2.36839999999762
 30
0.0
 11
21.42868060114038
 21
4.223174251412853
 31
0.0
  0
LINE
  5
B2F7
330
B2C6
100
AcDbEntity
  8
0
  6
CONTINUOUS
100
AcDbLine
 10
26.29227406164219
 20
0.0330999999912356
 30
0.0
 11
25.80009199592872
 21
0.5252820657046957
 31
0.0
  0
LINE
  5
B2F8
330
B2C6
100
AcDbEntity
  8
0
  6
CONTINUOUS
100
AcDbLine
 10
23.9569740616358
 20
2.36839999999762
 30
0.0
 11
21.63688370661101
 21
4.688490355022409
 31
0.0
  0
LINE
  5
B2F9
330
B2C6
100
AcDbEntity
  8
0
  6
CONTINUOUS
100
AcDbLine
 10
26.96579327072237
 20
0.0330999999912356
 30
0.0
 11
25.2554132311971
 21
1.743480039516508
 31
0.0
  0
LINE
  5
B2FA
330
B2C6
100
AcDbEntity
  8
0
  6
CONTINUOUS
100
AcDbLine
 10
24.63049327071599
 20
2.36839999999762
 30
0.0
 11
23.32789327071731
 21
3.670999999996297
 31
0.0
  0
LINE
  5
B2FB
330
B2C6
100
AcDbEntity
  8
0
  6
CONTINUOUS
100
AcDbLine
 10
22.92098674744635
 20
4.077906523267254
 30
0.0
 11
21.84508681208164
 21
5.153806458631966
 31
0.0
  0
LINE
  5
B2FC
330
B2C6
100
AcDbEntity
  8
0
  6
CONTINUOUS
100
AcDbLine
 10
27.63931247980256
 20
0.0330999999912356
 30
0.0
 11
24.0014124797975
 21
3.670999999996297
 31
0.0
  0
LINE
  5
B2FD
330
B2C6
100
AcDbEntity
  8
0
  6
CONTINUOUS
100
AcDbLine
 10
23.129125600968
 20
4.5432868788258
 30
0.0
 11
22.05328991755227
 21
5.619122562241522
 31
0.0
  0
LINE
  5
B2FE
330
B2C6
100
AcDbEntity
  8
0
  6
CONTINUOUS
100
AcDbLine
 10
28.31283168888275
 20
0.0330999999912356
 30
0.0
 11
24.16488385994816
 21
4.181047828925828
 31
0.0
  0
LINE
  5
B2FF
330
B2C6
100
AcDbEntity
  8
0
  6
CONTINUOUS
100
AcDbLine
 10
23.33726445448964
 20
5.008667234384345
 30
0.0
 11
22.2614930230229
 21
6.084438665851079
 31
0.0
  0
LINE
  5
B300
330
B2C6
100
AcDbEntity
  8
0
  6
CONTINUOUS
100
AcDbLine
 10
28.86286302309502
 20
0.1565878748591523
 30
0.0
 11
27.63635089796295
 21
1.383099999991217
 31
0.0
  0
LINE
  5
B301
330
B2C6
100
AcDbEntity
  8
0
  6
CONTINUOUS
100
AcDbLine
 10
26.43704649509776
 20
2.582404402856405
 30
0.0
 11
23.61992702019732
 21
5.399523877756844
 31
0.0
  0
LINE
  5
B302
330
B2C6
100
AcDbEntity
  8
0
  6
CONTINUOUS
100
AcDbLine
 10
23.54540330801128
 20
5.47404758994289
 30
0.0
 11
22.46969612849353
 21
6.549754769460635
 31
0.0
  0
LINE
  5
B303
330
B2C6
100
AcDbEntity
  8
0
  6
CONTINUOUS
100
AcDbLine
 10
29.39405087596853
 20
0.2989192310658284
 30
0.0
 11
28.30987010704312
 21
1.383099999991234
 31
0.0
  0
LINE
  5
B304
330
B2C6
100
AcDbEntity
  8
0
  6
CONTINUOUS
100
AcDbLine
 10
25.89179548232307
 20
3.801174624711282
 30
0.0
 11
22.67789923396416
 21
7.015070873070191
 31
0.0
  0
LINE
  5
B305
330
B2C6
100
AcDbEntity
  8
0
  6
CONTINUOUS
100
AcDbLine
 10
29.79594438047407
 20
0.570544935640473
 30
0.0
 11
28.81310432793121
 21
1.553384988183336
 31
0.0
  0
LINE
  5
B306
330
B2C6
100
AcDbEntity
  8
0
  6
CONTINUOUS
100
AcDbLine
 10
25.34654446954838
 20
5.01994484656616
 30
0.0
 11
22.88610233943479
 21
7.480386976679748
 31
0.0
  0
LINE
  5
B307
330
B2C6
100
AcDbEntity
  8
0
  6
CONTINUOUS
100
AcDbLine
 10
30.13270398501416
 20
0.9073045401805646
 30
0.0
 11
29.14234640337737
 21
1.897662121817355
 31
0.0
  0
LINE
  5
B308
330
B2C6
100
AcDbEntity
  8
0
  6
CONTINUOUS
100
AcDbLine
 10
24.80129345677369
 20
6.238715068421037
 30
0.0
 11
23.09430544490542
 21
7.945703080289305
 31
0.0
  0
LINE
  5
B309
330
B2C6
100
AcDbEntity
  8
0
  6
CONTINUOUS
100
AcDbLine
 10
30.44581292956759
 20
1.26771480470732
 30
0.0
 11
29.30199999996933
 21
2.411527734305588
 31
0.0
  0
LINE
  5
B30A
330
B2C6
100
AcDbEntity
  8
0
  6
CONTINUOUS
100
AcDbLine
 10
30.58814428577427
 20
1.798902657580827
 30
0.0
 11
29.30199999996933
 21
3.085046943385775
 31
0.0
  0
LINE
  5
B30B
330
B2C6
100
AcDbEntity
  8
0
  6
CONTINUOUS
100
AcDbLine
 10
24.256042443999
 20
7.457485290275915
 30
0.0
 11
23.30250855037605
 21
8.411019183898862
 31
0.0
  0
LINE
  5
B30C
330
B2C6
100
AcDbEntity
  8
0
  6
CONTINUOUS
100
AcDbLine
 10
23.71079143122431
 20
8.676255512130794
 30
0.0
 11
23.51071165584668
 21
8.876335287508418
 31
0.0
  0
LINE
  5
B30D
330
B2C6
100
AcDbEntity
  8
0
  6
CONTINUOUS
100
AcDbLine
 10
30.73047564198095
 20
2.330090510454333
 30
0.0
 11
29.30199999996933
 21
3.758566152465961
 31
0.0
  0
LINE
  5
B30E
330
B2C6
100
AcDbEntity
  8
0
  6
CONTINUOUS
100
AcDbLine
 10
30.74199999996924
 20
2.992085361546236
 30
0.0
 11
29.30199999996933
 21
4.432085361546148
 31
0.0
  0
LINE
  5
B30F
330
B2C6
100
AcDbEntity
  8
0
  6
CONTINUOUS
100
AcDbLine
 10
30.74199999996924
 20
3.665604570626419
 30
0.0
 11
29.30199999996933
 21
5.105604570626333
 31
0.0
  0
LINE
  5
B310
330
B2C6
100
AcDbEntity
  8
0
  6
CONTINUOUS
100
AcDbLine
 10
30.74199999996925
 20
4.339123779706602
 30
0.0
 11
29.30199999996933
 21
5.77912377970652
 31
0.0
  0
LINE
  5
B311
330
B2C6
100
AcDbEntity
  8
0
  6
CONTINUOUS
100
AcDbLine
 10
30.74199999996925
 20
5.012642988786785
 30
0.0
 11
29.30199999996933
 21
6.452642988786707
 31
0.0
  0
LINE
  5
B312
330
B2C6
100
AcDbEntity
  8
0
  6
CONTINUOUS
100
AcDbLine
 10
30.74199999996925
 20
5.68616219786697
 30
0.0
 11
29.30199999996933
 21
7.126162197866894
 31
0.0
  0
LINE
  5
B313
330
B2C6
100
AcDbEntity
  8
0
  6
CONTINUOUS
100
AcDbLine
 10
30.74199999996925
 20
6.359681406947153
 30
0.0
 11
29.30199999996933
 21
7.799681406947081
 31
0.0
  0
LINE
  5
B314
330
B2C6
100
AcDbEntity
  8
0
  6
CONTINUOUS
100
AcDbLine
 10
30.74199999996926
 20
7.033200616027337
 30
0.0
 11
29.30199999996933
 21
8.473200616027269
 31
0.0
  0
LINE
  5
B315
330
B2C6
100
AcDbEntity
  8
0
  6
CONTINUOUS
100
AcDbLine
 10
30.74199999996926
 20
7.706719825107518
 30
0.0
 11
29.68561982508552
 21
8.763099999991255
 31
0.0
  0
LINE
  5
B316
330
B2C6
100
AcDbEntity
  8
0
  6
CONTINUOUS
100
AcDbLine
 10
30.74199999996926
 20
8.380239034187703
 30
0.0
 11
30.35913903416571
 21
8.763099999991255
 31
0.0
  0
ENDBLK
  5
B3B9
330
B2C6
100
AcDbEntity
  8
0
100
AcDbBlockEnd
  0
BLOCK
  5
B3BA
330
B317
100
AcDbEntity
  8
0
100
AcDbBlockBegin
  2
*X53
 70
     1
 10
0.0
 20
0.0
 30
0.0
  3
*X53
  1

  0
LINE
  5
B318
330
B317
100
AcDbEntity
  8
0
  6
CONTINUOUS
100
AcDbLine
 10
31.64199999996833
 20
8.5350582899136
 30
0.0
 11
31.87004171004599
 21
8.763099999991255
 31
0.0
  0
LINE
  5
B319
330
B317
100
AcDbEntity
  8
0
  6
CONTINUOUS
100
AcDbLine
 10
31.64199999996833
 20
7.861539080833413
 30
0.0
 11
32.54356091912618
 21
8.763099999991255
 31
0.0
  0
LINE
  5
B31A
330
B317
100
AcDbEntity
  8
0
  6
CONTINUOUS
100
AcDbLine
 10
31.64199999996833
 20
7.188019871753227
 30
0.0
 11
33.08199999996839
 21
8.628019871753281
 31
0.0
  0
LINE
  5
B31B
330
B317
100
AcDbEntity
  8
0
  6
CONTINUOUS
100
AcDbLine
 10
31.64199999996833
 20
6.514500662673041
 30
0.0
 11
33.08199999996839
 21
7.954500662673095
 31
0.0
  0
LINE
  5
B31C
330
B317
100
AcDbEntity
  8
0
  6
CONTINUOUS
100
AcDbLine
 10
31.64199999996833
 20
5.840981453592855
 30
0.0
 11
33.08199999996839
 21
7.28098145359291
 31
0.0
  0
LINE
  5
B31D
330
B317
100
AcDbEntity
  8
0
  6
CONTINUOUS
100
AcDbLine
 10
31.64199999996833
 20
5.167462244512668
 30
0.0
 11
33.08199999996839
 21
6.607462244512723
 31
0.0
  0
LINE
  5
B31E
330
B317
100
AcDbEntity
  8
0
  6
CONTINUOUS
100
AcDbLine
 10
31.64199999996833
 20
4.493943035432482
 30
0.0
 11
33.08199999996839
 21
5.933943035432536
 31
0.0
  0
LINE
  5
B31F
330
B317
100
AcDbEntity
  8
0
  6
CONTINUOUS
100
AcDbLine
 10
31.64199999996833
 20
3.820423826352294
 30
0.0
 11
33.08199999996839
 21
5.260423826352349
 31
0.0
  0
LINE
  5
B320
330
B317
100
AcDbEntity
  8
0
  6
CONTINUOUS
100
AcDbLine
 10
31.64199999996833
 20
3.146904617272108
 30
0.0
 11
33.08199999996839
 21
4.586904617272163
 31
0.0
  0
LINE
  5
B321
330
B317
100
AcDbEntity
  8
0
  6
CONTINUOUS
100
AcDbLine
 10
36.23199999996837
 20
8.410423826352327
 30
0.0
 11
36.58467617360729
 21
8.763099999991255
 31
0.0
  0
LINE
  5
B322
330
B317
100
AcDbEntity
  8
0
  6
CONTINUOUS
100
AcDbLine
 10
36.23199999996837
 20
7.73690461727214
 30
0.0
 11
37.25819538268748
 21
8.763099999991255
 31
0.0
  0
LINE
  5
B323
330
B317
100
AcDbEntity
  8
0
  6
CONTINUOUS
100
AcDbLine
 10
31.64323424774199
 20
2.474619655965573
 30
0.0
 11
33.08199999996839
 21
3.913385408191976
 31
0.0
  0
LINE
  5
B324
330
B317
100
AcDbEntity
  8
0
  6
CONTINUOUS
100
AcDbLine
 10
31.74419223861915
 20
1.902058437762552
 30
0.0
 11
33.08199999996839
 21
3.239866199111789
 31
0.0
  0
LINE
  5
B325
330
B317
100
AcDbEntity
  8
0
  6
CONTINUOUS
100
AcDbLine
 10
36.23199999996837
 20
7.063385408191953
 30
0.0
 11
37.67199999996831
 21
8.503385408191894
 31
0.0
  0
LINE
  5
B326
330
B317
100
AcDbEntity
  8
0
  6
CONTINUOUS
100
AcDbLine
 10
36.23199999996837
 20
6.389866199111767
 30
0.0
 11
37.67199999996831
 21
7.829866199111708
 31
0.0
  0
LINE
  5
B327
330
B317
100
AcDbEntity
  8
0
  6
CONTINUOUS
100
AcDbLine
 10
31.91111233414976
 20
1.39545932421297
 30
0.0
 11
33.08199999996839
 21
2.566346990031603
 31
0.0
  0
LINE
  5
B328
330
B317
100
AcDbEntity
  8
0
  6
CONTINUOUS
100
AcDbLine
 10
36.23199999996837
 20
5.71634699003158
 30
0.0
 11
37.67199999996831
 21
7.156346990031522
 31
0.0
  0
LINE
  5
B329
330
B317
100
AcDbEntity
  8
0
  6
CONTINUOUS
100
AcDbLine
 10
32.1576374746103
 20
0.9684652555933289
 30
0.0
 11
33.20642631446081
 21
2.017254095443838
 31
0.0
  0
LINE
  5
B32A
330
B317
100
AcDbEntity
  8
0
  6
CONTINUOUS
100
AcDbLine
 10
36.23199999996837
 20
5.042827780951393
 30
0.0
 11
37.67199999996831
 21
6.482827780951334
 31
0.0
  0
LINE
  5
B32B
330
B317
100
AcDbEntity
  8
0
  6
CONTINUOUS
100
AcDbLine
 10
32.47774023927325
 20
0.6150488111760914
 30
0.0
 11
33.49903056428258
 21
1.636339136185419
 31
0.0
  0
LINE
  5
B32C
330
B317
100
AcDbEntity
  8
0
  6
CONTINUOUS
100
AcDbLine
 10
36.23199999996837
 20
4.369308571871207
 30
0.0
 11
37.67199999996831
 21
5.809308571871148
 31
0.0
  0
LINE
  5
B32D
330
B317
100
AcDbEntity
  8
0
  6
CONTINUOUS
100
AcDbLine
 10
32.84396249154443
 20
0.3077518543670883
 30
0.0
 11
33.93324121824649
 21
1.397030581069146
 31
0.0
  0
LINE
  5
B32E
330
B317
100
AcDbEntity
  8
0
  6
CONTINUOUS
100
AcDbLine
 10
36.23199999996837
 20
3.695789362791021
 30
0.0
 11
37.67199999996831
 21
5.135789362790963
 31
0.0
  0
LINE
  5
B32F
330
B317
100
AcDbEntity
  8
0
  6
CONTINUOUS
100
AcDbLine
 10
33.30186329036846
 20
0.0921334441109263
 30
0.0
 11
34.46442907112041
 21
1.254699224862875
 31
0.0
  0
LINE
  5
B330
330
B317
100
AcDbEntity
  8
0
  6
CONTINUOUS
100
AcDbLine
 10
36.23199999996837
 20
3.022270153710834
 30
0.0
 11
37.67199999996831
 21
4.462270153710776
 31
0.0
  0
LINE
  5
B331
330
B317
100
AcDbEntity
  8
0
  6
CONTINUOUS
100
AcDbLine
 10
33.79565647746294
 20
-0.0875925778747773
 30
0.0
 11
35.24350171668284
 21
1.360252661345124
 31
0.0
  0
LINE
  5
B332
330
B317
100
AcDbEntity
  8
0
  6
CONTINUOUS
100
AcDbLine
 10
36.18336676155003
 20
2.300117706212308
 30
0.0
 11
37.67199999996831
 21
3.788750944630589
 31
0.0
  0
LINE
  5
B333
330
B317
100
AcDbEntity
  8
0
  6
CONTINUOUS
100
AcDbLine
 10
34.37182574910968
 20
-0.184942515308224
 30
0.0
 11
37.67199999996831
 21
3.115231735550402
 31
0.0
  0
LINE
  5
B334
330
B317
100
AcDbEntity
  8
0
  6
CONTINUOUS
100
AcDbLine
 10
35.0453449581892
 20
-0.1849425153088955
 30
0.0
 11
37.66345697088136
 21
2.433169497383271
 31
0.0
  0
LINE
  5
B335
330
B317
100
AcDbEntity
  8
0
  6
CONTINUOUS
100
AcDbLine
 10
35.98667157609191
 20
0.0828648935136398
 30
0.0
 11
37.51927401744566
 21
1.615467334867382
 31
0.0
  0
LINE
  5
B336
330
B317
100
AcDbEntity
  8
0
  6
CONTINUOUS
100
AcDbLine
 10
32.27747408544484
 20
0.7830920669904482
 30
0.0
 11
32.24716210471949
 21
0.8134040477157893
 31
0.0
  0
LINE
  5
B337
330
B317
100
AcDbEntity
  8
0
  6
CONTINUOUS
100
AcDbLine
 10
33.83656881101902
 20
-0.1024834495035494
 30
0.0
 11
31.72538911593758
 21
2.008696245577891
 31
0.0
  0
LINE
  5
B338
330
B317
100
AcDbEntity
  8
0
  6
CONTINUOUS
100
AcDbLine
 10
34.5925470859041
 20
-0.1849425153084434
 30
0.0
 11
31.64199999996833
 21
2.765604570627322
 31
0.0
  0
LINE
  5
B339
330
B317
100
AcDbEntity
  8
0
  6
CONTINUOUS
100
AcDbLine
 10
35.26201302775981
 20
-0.1808892480839752
 30
0.0
 11
31.64199999996833
 21
3.439123779707508
 31
0.0
  0
LINE
  5
B33A
330
B317
100
AcDbEntity
  8
0
  6
CONTINUOUS
100
AcDbLine
 10
35.75580621485512
 20
-0.0011632260990879
 30
0.0
 11
34.51294304365551
 21
1.241699945100514
 31
0.0
  0
LINE
  5
B33B
330
B317
100
AcDbEntity
  8
0
  6
CONTINUOUS
100
AcDbLine
 10
33.08199999996839
 20
2.672642988787641
 30
0.0
 11
31.64199999996833
 21
4.112642988787695
 31
0.0
  0
LINE
  5
B33C
330
B317
100
AcDbEntity
  8
0
  6
CONTINUOUS
100
AcDbLine
 10
36.24959940195042
 20
0.1785627958857976
 30
0.0
 11
35.10501653033629
 21
1.323145667499924
 31
0.0
  0
LINE
  5
B33D
330
B317
100
AcDbEntity
  8
0
  6
CONTINUOUS
100
AcDbLine
 10
33.08199999996839
 20
3.346162197867827
 30
0.0
 11
31.64199999996833
 21
4.786162197867881
 31
0.0
  0
LINE
  5
B33E
330
B317
100
AcDbEntity
  8
0
  6
CONTINUOUS
100
AcDbLine
 10
36.64615197150552
 20
0.4555294354108876
 30
0.0
 11
35.6362043832099
 21
1.465477023706505
 31
0.0
  0
LINE
  5
B33F
330
B317
100
AcDbEntity
  8
0
  6
CONTINUOUS
100
AcDbLine
 10
33.08199999996839
 20
4.019681406948013
 30
0.0
 11
31.64199999996833
 21
5.459681406948068
 31
0.0
  0
LINE
  5
B340
330
B317
100
AcDbEntity
  8
0
  6
CONTINUOUS
100
AcDbLine
 10
37.0123742237774
 20
0.7628263922191891
 30
0.0
 11
35.97691545773309
 21
1.798285158263504
 31
0.0
  0
LINE
  5
B341
330
B317
100
AcDbEntity
  8
0
  6
CONTINUOUS
100
AcDbLine
 10
33.08199999996839
 20
4.6932006160282
 30
0.0
 11
31.64199999996833
 21
6.133200616028255
 31
0.0
  0
LINE
  5
B342
330
B317
100
AcDbEntity
  8
0
  6
CONTINUOUS
100
AcDbLine
 10
37.27491524157143
 20
1.173804583505349
 30
0.0
 11
36.17602012811361
 21
2.272699696963169
 31
0.0
  0
LINE
  5
B343
330
B317
100
AcDbEntity
  8
0
  6
CONTINUOUS
100
AcDbLine
 10
33.08199999996839
 20
5.366719825108387
 30
0.0
 11
31.64199999996833
 21
6.806719825108441
 31
0.0
  0
LINE
  5
B344
330
B317
100
AcDbEntity
  8
0
  6
CONTINUOUS
100
AcDbLine
 10
37.51739996707661
 20
1.604839067080355
 30
0.0
 11
36.23199999996837
 21
2.890239034188595
 31
0.0
  0
LINE
  5
B345
330
B317
100
AcDbEntity
  8
0
  6
CONTINUOUS
100
AcDbLine
 10
37.6183579579535
 20
2.177400285283649
 30
0.0
 11
36.23199999996837
 21
3.563758243268782
 31
0.0
  0
LINE
  5
B346
330
B317
100
AcDbEntity
  8
0
  6
CONTINUOUS
100
AcDbLine
 10
33.08199999996839
 20
6.040239034188573
 30
0.0
 11
31.64199999996833
 21
7.480239034188628
 31
0.0
  0
LINE
  5
B347
330
B317
100
AcDbEntity
  8
0
  6
CONTINUOUS
100
AcDbLine
 10
33.08199999996839
 20
6.713758243268759
 30
0.0
 11
31.64199999996833
 21
8.153758243268815
 31
0.0
  0
LINE
  5
B348
330
B317
100
AcDbEntity
  8
0
  6
CONTINUOUS
100
AcDbLine
 10
37.67199999996831
 20
2.797277452349027
 30
0.0
 11
36.23199999996837
 21
4.237277452348969
 31
0.0
  0
LINE
  5
B349
330
B317
100
AcDbEntity
  8
0
  6
CONTINUOUS
100
AcDbLine
 10
37.67199999996831
 20
3.470796661429214
 30
0.0
 11
36.23199999996837
 21
4.910796661429155
 31
0.0
  0
LINE
  5
B34A
330
B317
100
AcDbEntity
  8
0
  6
CONTINUOUS
100
AcDbLine
 10
37.67199999996831
 20
4.1443158705094
 30
0.0
 11
36.23199999996837
 21
5.584315870509341
 31
0.0
  0
LINE
  5
B34B
330
B317
100
AcDbEntity
  8
0
  6
CONTINUOUS
100
AcDbLine
 10
33.08199999996839
 20
7.387277452348946
 30
0.0
 11
31.70617745232608
 21
8.763099999991255
 31
0.0
  0
LINE
  5
B34C
330
B317
100
AcDbEntity
  8
0
  6
CONTINUOUS
100
AcDbLine
 10
33.08199999996839
 20
8.060796661429134
 30
0.0
 11
32.37969666140626
 21
8.763099999991255
 31
0.0
  0
LINE
  5
B34D
330
B317
100
AcDbEntity
  8
0
  6
CONTINUOUS
100
AcDbLine
 10
33.08199999996839
 20
8.734315870509318
 30
0.0
 11
33.05321587048645
 21
8.763099999991255
 31
0.0
  0
LINE
  5
B34E
330
B317
100
AcDbEntity
  8
0
  6
CONTINUOUS
100
AcDbLine
 10
37.67199999996831
 20
4.817835079589586
 30
0.0
 11
36.23199999996837
 21
6.257835079589528
 31
0.0
  0
LINE
  5
B34F
330
B317
100
AcDbEntity
  8
0
  6
CONTINUOUS
100
AcDbLine
 10
37.67199999996831
 20
5.491354288669772
 30
0.0
 11
36.23199999996837
 21
6.931354288669715
 31
0.0
  0
LINE
  5
B350
330
B317
100
AcDbEntity
  8
0
  6
CONTINUOUS
100
AcDbLine
 10
37.67199999996831
 20
6.164873497749959
 30
0.0
 11
36.23199999996837
 21
7.6048734977499
 31
0.0
  0
LINE
  5
B351
330
B317
100
AcDbEntity
  8
0
  6
CONTINUOUS
100
AcDbLine
 10
37.67199999996831
 20
6.838392706830145
 30
0.0
 11
36.23199999996837
 21
8.278392706830086
 31
0.0
  0
LINE
  5
B352
330
B317
100
AcDbEntity
  8
0
  6
CONTINUOUS
100
AcDbLine
 10
37.67199999996831
 20
7.511911915910333
 30
0.0
 11
36.42081191588738
 21
8.763099999991255
 31
0.0
  0
LINE
  5
B353
330
B317
100
AcDbEntity
  8
0
  6
CONTINUOUS
100
AcDbLine
 10
37.67199999996831
 20
8.185431124990519
 30
0.0
 11
37.09433112496757
 21
8.763099999991255
 31
0.0
  0
ENDBLK
  5
B3BB
330
B317
100
AcDbEntity
  8
0
100
AcDbBlockEnd
  0
BLOCK
  5
B3BC
330
B354
100
AcDbEntity
  8
0
100
AcDbBlockBegin
  2
*X54
 70
     1
 10
0.0
 20
0.0
 30
0.0
  3
*X54
  1

  0
LINE
  5
B355
330
B354
100
AcDbEntity
  8
0
  6
CONTINUOUS
100
AcDbLine
 10
38.60499999996136
 20
8.762866199104765
 30
0.0
 11
38.71672554182345
 21
8.874591740966855
 31
0.0
  0
LINE
  5
B356
330
B354
100
AcDbEntity
  8
0
  6
CONTINUOUS
100
AcDbLine
 10
38.60499999996136
 20
8.089346990024577
 30
0.0
 11
39.03418785440363
 21
8.518534844466847
 31
0.0
  0
LINE
  5
B357
330
B354
100
AcDbEntity
  8
0
  6
CONTINUOUS
100
AcDbLine
 10
38.60499999996136
 20
7.41582778094439
 30
0.0
 11
39.35165016698382
 21
8.16247794796684
 31
0.0
  0
LINE
  5
B358
330
B354
100
AcDbEntity
  8
0
  6
CONTINUOUS
100
AcDbLine
 10
38.60499999996136
 20
6.742308571864204
 30
0.0
 11
39.66911247956399
 21
7.806421051466834
 31
0.0
  0
LINE
  5
B359
330
B354
100
AcDbEntity
  8
0
  6
CONTINUOUS
100
AcDbLine
 10
38.60499999996136
 20
6.068789362784018
 30
0.0
 11
39.98657479214418
 21
7.450364154966827
 31
0.0
  0
LINE
  5
B35A
330
B354
100
AcDbEntity
  8
0
  6
CONTINUOUS
100
AcDbLine
 10
38.60499999996136
 20
5.395270153703832
 30
0.0
 11
40.30403710472435
 21
7.09430725846682
 31
0.0
  0
LINE
  5
B35B
330
B354
100
AcDbEntity
  8
0
  6
CONTINUOUS
100
AcDbLine
 10
38.60499999996136
 20
4.721750944623645
 30
0.0
 11
40.62149941730453
 21
6.738250361966813
 31
0.0
  0
LINE
  5
B35C
330
B354
100
AcDbEntity
  8
0
  6
CONTINUOUS
100
AcDbLine
 10
38.60499999996136
 20
4.048231735543458
 30
0.0
 11
40.93896172988471
 21
6.382193465466806
 31
0.0
  0
LINE
  5
B35D
330
B354
100
AcDbEntity
  8
0
  6
CONTINUOUS
100
AcDbLine
 10
38.60499999996136
 20
3.374712526463272
 30
0.0
 11
40.02599999995994
 21
4.795712526461843
 31
0.0
  0
LINE
  5
B35E
330
B354
100
AcDbEntity
  8
0
  6
CONTINUOUS
100
AcDbLine
 10
38.60499999996136
 20
2.701193317383085
 30
0.0
 11
40.02599999995994
 21
4.122193317381657
 31
0.0
  0
LINE
  5
B35F
330
B354
100
AcDbEntity
  8
0
  6
CONTINUOUS
100
AcDbLine
 10
40.28339754687704
 20
5.053110073378947
 30
0.0
 11
41.25642404246489
 21
6.026136568966799
 31
0.0
  0
LINE
  5
B360
330
B354
100
AcDbEntity
  8
0
  6
CONTINUOUS
100
AcDbLine
 10
40.60085985945722
 20
4.697053176878939
 30
0.0
 11
41.57388635504507
 21
5.670079672466793
 31
0.0
  0
LINE
  5
B361
330
B354
100
AcDbEntity
  8
0
  6
CONTINUOUS
100
AcDbLine
 10
43.57899999995641
 20
8.348712526458318
 30
0.0
 11
43.99338747348935
 21
8.763099999991255
 31
0.0
  0
LINE
  5
B362
330
B354
100
AcDbEntity
  8
0
  6
CONTINUOUS
100
AcDbLine
 10
43.57899999995641
 20
7.675193317378131
 30
0.0
 11
44.66690668256953
 21
8.763099999991255
 31
0.0
  0
LINE
  5
B363
330
B354
100
AcDbEntity
  8
0
  6
CONTINUOUS
100
AcDbLine
 10
38.60499999996136
 20
2.027674108302898
 30
0.0
 11
40.02599999995994
 21
3.44867410830147
 31
0.0
  0
LINE
  5
B364
330
B354
100
AcDbEntity
  8
0
  6
CONTINUOUS
100
AcDbLine
 10
38.60499999996136
 20
1.354154899222712
 30
0.0
 11
40.02599999995994
 21
2.775154899221284
 31
0.0
  0
LINE
  5
B365
330
B354
100
AcDbEntity
  8
0
  6
CONTINUOUS
100
AcDbLine
 10
38.60499999996136
 20
0.6806356901425255
 30
0.0
 11
40.02599999995994
 21
2.101635690141098
 31
0.0
  0
LINE
  5
B366
330
B354
100
AcDbEntity
  8
0
  6
CONTINUOUS
100
AcDbLine
 10
38.60499999996136
 20
0.0071164810623383
 30
0.0
 11
40.02599999995994
 21
1.428116481060911
 31
0.0
  0
LINE
  5
B367
330
B354
100
AcDbEntity
  8
0
  6
CONTINUOUS
100
AcDbLine
 10
40.9183221720374
 20
4.340996280378933
 30
0.0
 11
41.89134866762525
 21
5.314022775966786
 31
0.0
  0
LINE
  5
B368
330
B354
100
AcDbEntity
  8
0
  6
CONTINUOUS
100
AcDbLine
 10
41.23578448461758
 20
3.984939383878926
 30
0.0
 11
42.20881098020543
 21
4.957965879466778
 31
0.0
  0
LINE
  5
B369
330
B354
100
AcDbEntity
  8
0
  6
CONTINUOUS
100
AcDbLine
 10
41.55324679719776
 20
3.628882487378919
 30
0.0
 11
42.52627329278561
 21
4.601908982966772
 31
0.0
  0
LINE
  5
B36A
330
B354
100
AcDbEntity
  8
0
  6
CONTINUOUS
100
AcDbLine
 10
41.87070910977793
 20
3.272825590878912
 30
0.0
 11
42.84373560536579
 21
4.245852086466765
 31
0.0
  0
LINE
  5
B36B
330
B354
100
AcDbEntity
  8
0
  6
CONTINUOUS
100
AcDbLine
 10
43.57899999995641
 20
7.001674108297943
 30
0.0
 11
44.99999999995498
 21
8.422674108296516
 31
0.0
  0
LINE
  5
B36C
330
B354
100
AcDbEntity
  8
0
  6
CONTINUOUS
100
AcDbLine
 10
43.57899999995641
 20
6.328154899217758
 30
0.0
 11
44.99999999995498
 21
7.749154899216329
 31
0.0
  0
LINE
  5
B36D
330
B354
100
AcDbEntity
  8
0
  6
CONTINUOUS
100
AcDbLine
 10
43.57899999995641
 20
5.654635690137571
 30
0.0
 11
44.99999999995498
 21
7.075635690136142
 31
0.0
  0
LINE
  5
B36E
330
B354
100
AcDbEntity
  8
0
  6
CONTINUOUS
100
AcDbLine
 10
43.57899999995641
 20
4.981116481057384
 30
0.0
 11
44.99999999995498
 21
6.402116481055955
 31
0.0
  0
LINE
  5
B36F
330
B354
100
AcDbEntity
  8
0
  6
CONTINUOUS
100
AcDbLine
 10
39.27140272797921
 20
-0.0000000000000009
 30
0.0
 11
40.02599999995994
 21
0.7545972719807246
 31
0.0
  0
LINE
  5
B370
330
B354
100
AcDbEntity
  8
0
  6
CONTINUOUS
100
AcDbLine
 10
39.9449219370594
 20
-0.0000000000000009
 30
0.0
 11
40.02599999995994
 21
0.0810780629005379
 31
0.0
  0
LINE
  5
B371
330
B354
100
AcDbEntity
  8
0
  6
CONTINUOUS
100
AcDbLine
 10
42.18817142235812
 20
2.916768694378905
 30
0.0
 11
43.16119791794597
 21
3.889795189966758
 31
0.0
  0
LINE
  5
B372
330
B354
100
AcDbEntity
  8
0
  6
CONTINUOUS
100
AcDbLine
 10
42.50563373493829
 20
2.560711797878898
 30
0.0
 11
43.47866023052615
 21
3.533738293466751
 31
0.0
  0
LINE
  5
B373
330
B354
100
AcDbEntity
  8
0
  6
CONTINUOUS
100
AcDbLine
 10
43.57899999995641
 20
4.307597271977198
 30
0.0
 11
44.99999999995498
 21
5.728597271975769
 31
0.0
  0
LINE
  5
B374
330
B354
100
AcDbEntity
  8
0
  6
CONTINUOUS
100
AcDbLine
 10
43.57899999995641
 20
3.634078062897011
 30
0.0
 11
44.99999999995498
 21
5.055078062895582
 31
0.0
  0
LINE
  5
B375
330
B354
100
AcDbEntity
  8
0
  6
CONTINUOUS
100
AcDbLine
 10
42.82309604751848
 20
2.204654901378891
 30
0.0
 11
44.99999999995498
 21
4.381558853815395
 31
0.0
  0
LINE
  5
B376
330
B354
100
AcDbEntity
  8
0
  6
CONTINUOUS
100
AcDbLine
 10
43.14055836009865
 20
1.848598004878885
 30
0.0
 11
44.99999999995498
 21
3.70803964473521
 31
0.0
  0
LINE
  5
B377
330
B354
100
AcDbEntity
  8
0
  6
CONTINUOUS
100
AcDbLine
 10
43.45802067267883
 20
1.492541108378878
 30
0.0
 11
44.99999999995498
 21
3.034520435655023
 31
0.0
  0
LINE
  5
B378
330
B354
100
AcDbEntity
  8
0
  6
CONTINUOUS
100
AcDbLine
 10
43.77548298525902
 20
1.136484211878871
 30
0.0
 11
44.99999999995498
 21
2.361001226574837
 31
0.0
  0
LINE
  5
B379
330
B354
100
AcDbEntity
  8
0
  6
CONTINUOUS
100
AcDbLine
 10
44.09294529783919
 20
0.7804273153788639
 30
0.0
 11
44.99999999995498
 21
1.687482017494649
 31
0.0
  0
LINE
  5
B37A
330
B354
100
AcDbEntity
  8
0
  6
CONTINUOUS
100
AcDbLine
 10
44.41040761041938
 20
0.4243704188788566
 30
0.0
 11
44.99999999995498
 21
1.013962808414463
 31
0.0
  0
LINE
  5
B37B
330
B354
100
AcDbEntity
  8
0
  6
CONTINUOUS
100
AcDbLine
 10
44.72786992299955
 20
0.0683135223788494
 30
0.0
 11
44.99999999995498
 21
0.340443599334276
 31
0.0
  0
LINE
  5
B37C
330
B354
100
AcDbEntity
  8
0
  6
CONTINUOUS
100
AcDbLine
 10
39.12223903415696
 20
-0.0000000000000009
 30
0.0
 11
38.60499999996136
 21
0.5172390341955961
 31
0.0
  0
LINE
  5
B37D
330
B354
100
AcDbEntity
  8
0
  6
CONTINUOUS
100
AcDbLine
 10
39.79575824323715
 20
-0.0000000000000009
 30
0.0
 11
38.60499999996136
 21
1.190758243275783
 31
0.0
  0
LINE
  5
B37E
330
B354
100
AcDbEntity
  8
0
  6
CONTINUOUS
100
AcDbLine
 10
40.02599999995994
 20
0.443277452357397
 30
0.0
 11
38.60499999996136
 21
1.864277452355969
 31
0.0
  0
LINE
  5
B37F
330
B354
100
AcDbEntity
  8
0
  6
CONTINUOUS
100
AcDbLine
 10
40.02599999995994
 20
1.116796661437583
 30
0.0
 11
38.60499999996136
 21
2.537796661436155
 31
0.0
  0
LINE
  5
B380
330
B354
100
AcDbEntity
  8
0
  6
CONTINUOUS
100
AcDbLine
 10
40.02599999995994
 20
1.79031587051777
 30
0.0
 11
38.60499999996136
 21
3.211315870516341
 31
0.0
  0
LINE
  5
B381
330
B354
100
AcDbEntity
  8
0
  6
CONTINUOUS
100
AcDbLine
 10
40.02599999995994
 20
2.463835079597956
 30
0.0
 11
38.60499999996136
 21
3.884835079596527
 31
0.0
  0
LINE
  5
B382
330
B354
100
AcDbEntity
  8
0
  6
CONTINUOUS
100
AcDbLine
 10
40.02599999995994
 20
3.137354288678143
 30
0.0
 11
38.60499999996136
 21
4.558354288676714
 31
0.0
  0
LINE
  5
B383
330
B354
100
AcDbEntity
  8
0
  6
CONTINUOUS
100
AcDbLine
 10
40.02599999995994
 20
3.810873497758329
 30
0.0
 11
38.60499999996136
 21
5.2318734977569
 31
0.0
  0
LINE
  5
B384
330
B354
100
AcDbEntity
  8
0
  6
CONTINUOUS
100
AcDbLine
 10
40.02599999995994
 20
4.484392706838515
 30
0.0
 11
38.60499999996136
 21
5.905392706837086
 31
0.0
  0
LINE
  5
B385
330
B354
100
AcDbEntity
  8
0
  6
CONTINUOUS
100
AcDbLine
 10
44.99999999995498
 20
0.183911915923658
 30
0.0
 11
41.53858364506288
 21
3.64532827081576
 31
0.0
  0
LINE
  5
B386
330
B354
100
AcDbEntity
  8
0
  6
CONTINUOUS
100
AcDbLine
 10
40.02599999995994
 20
5.157911915918703
 30
0.0
 11
38.60499999996136
 21
6.578911915917274
 31
0.0
  0
LINE
  5
B387
330
B354
100
AcDbEntity
  8
0
  6
CONTINUOUS
100
AcDbLine
 10
44.99999999995498
 20
0.8574311250038447
 30
0.0
 11
38.60499999996136
 21
7.25243112499746
 31
0.0
  0
LINE
  5
B388
330
B354
100
AcDbEntity
  8
0
  6
CONTINUOUS
100
AcDbLine
 10
44.99999999995498
 20
1.530950334084031
 30
0.0
 11
38.60499999996136
 21
7.925950334077647
 31
0.0
  0
LINE
  5
B389
330
B354
100
AcDbEntity
  8
0
  6
CONTINUOUS
100
AcDbLine
 10
44.99999999995498
 20
2.204469543164218
 30
0.0
 11
43.57899999995641
 21
3.625469543162789
 31
0.0
  0
LINE
  5
B38A
330
B354
100
AcDbEntity
  8
0
  6
CONTINUOUS
100
AcDbLine
 10
41.89876730984767
 20
5.305702233271528
 30
0.0
 11
38.60499999996136
 21
8.599469543157834
 31
0.0
  0
LINE
  5
B38B
330
B354
100
AcDbEntity
  8
0
  6
CONTINUOUS
100
AcDbLine
 10
44.99999999995498
 20
2.877988752244405
 30
0.0
 11
43.57899999995641
 21
4.298988752242975
 31
0.0
  0
LINE
  5
B38C
330
B354
100
AcDbEntity
  8
0
  6
CONTINUOUS
100
AcDbLine
 10
44.99999999995498
 20
3.551507961324591
 30
0.0
 11
43.57899999995641
 21
4.972507961323163
 31
0.0
  0
LINE
  5
B38D
330
B354
100
AcDbEntity
  8
0
  6
CONTINUOUS
100
AcDbLine
 10
44.99999999995498
 20
4.225027170404777
 30
0.0
 11
43.57899999995641
 21
5.646027170403348
 31
0.0
  0
LINE
  5
B38E
330
B354
100
AcDbEntity
  8
0
  6
CONTINUOUS
100
AcDbLine
 10
44.99999999995498
 20
4.898546379484964
 30
0.0
 11
43.57899999995641
 21
6.319546379483535
 31
0.0
  0
LINE
  5
B38F
330
B354
100
AcDbEntity
  8
0
  6
CONTINUOUS
100
AcDbLine
 10
44.99999999995498
 20
5.572065588565151
 30
0.0
 11
43.57899999995641
 21
6.993065588563722
 31
0.0
  0
LINE
  5
B390
330
B354
100
AcDbEntity
  8
0
  6
CONTINUOUS
100
AcDbLine
 10
44.99999999995498
 20
6.245584797645336
 30
0.0
 11
43.57899999995641
 21
7.666584797643908
 31
0.0
  0
LINE
  5
B391
330
B354
100
AcDbEntity
  8
0
  6
CONTINUOUS
100
AcDbLine
 10
44.99999999995498
 20
6.919104006725522
 30
0.0
 11
43.57899999995641
 21
8.340104006724093
 31
0.0
  0
LINE
  5
B392
330
B354
100
AcDbEntity
  8
0
  6
CONTINUOUS
100
AcDbLine
 10
44.99999999995498
 20
7.592623215805709
 30
0.0
 11
43.82952321576943
 21
8.763099999991255
 31
0.0
  0
LINE
  5
B393
330
B354
100
AcDbEntity
  8
0
  6
CONTINUOUS
100
AcDbLine
 10
44.99999999995498
 20
8.266142424885896
 30
0.0
 11
44.50304242484962
 21
8.763099999991255
 31
0.0
  0
ENDBLK
  5
B3BD
330
B354
100
AcDbEntity
  8
0
100
AcDbBlockEnd
  0
BLOCK
  5
B3BE
330
B394
100
AcDbEntity
  8
0
100
AcDbBlockBegin
  2
*X55
 70
     1
 10
0.0
 20
0.0
 30
0.0
  3
*X55
  1

  0
LINE
  5
B395
330
B394
100
AcDbEntity
  8
0
  6
CONTINUOUS
100
AcDbLine
 10
0.0
 20
8.548461116714023
 30
0.0
 11
0.2146388832772324
 21
8.763099999991255
 31
0.0
  0
LINE
  5
B396
330
B394
100
AcDbEntity
  8
0
  6
CONTINUOUS
100
AcDbLine
 10
-0.0000000000000002
 20
7.874941907633837
 30
0.0
 11
0.8881580923574184
 21
8.763099999991255
 31
0.0
  0
LINE
  5
B397
330
B394
100
AcDbEntity
  8
0
  6
CONTINUOUS
100
AcDbLine
 10
0.0
 20
7.20142269855365
 30
0.0
 11
1.420999999998572
 21
8.622422698552223
 31
0.0
  0
LINE
  5
B398
330
B394
100
AcDbEntity
  8
0
  6
CONTINUOUS
100
AcDbLine
 10
-0.0000000000000001
 20
6.527903489473465
 30
0.0
 11
1.420999999998571
 21
7.948903489472036
 31
0.0
  0
LINE
  5
B399
330
B394
100
AcDbEntity
  8
0
  6
CONTINUOUS
100
AcDbLine
 10
-0.0000000000000002
 20
5.854384280393278
 30
0.0
 11
1.420999999998571
 21
7.275384280391849
 31
0.0
  0
LINE
  5
B39A
330
B394
100
AcDbEntity
  8
0
  6
CONTINUOUS
100
AcDbLine
 10
-0.0000000000000002
 20
5.180865071313091
 30
0.0
 11
1.420999999998571
 21
6.601865071311663
 31
0.0
  0
LINE
  5
B39B
330
B394
100
AcDbEntity
  8
0
  6
CONTINUOUS
100
AcDbLine
 10
0.0
 20
4.507345862232905
 30
0.0
 11
1.420999999998571
 21
5.928345862231477
 31
0.0
  0
LINE
  5
B39C
330
B394
100
AcDbEntity
  8
0
  6
CONTINUOUS
100
AcDbLine
 10
-0.0000000000000003
 20
3.833826653152718
 30
0.0
 11
1.420999999998571
 21
5.25482665315129
 31
0.0
  0
LINE
  5
B39D
330
B394
100
AcDbEntity
  8
0
  6
CONTINUOUS
100
AcDbLine
 10
-0.0000000000000002
 20
3.160307444072532
 30
0.0
 11
1.420999999998571
 21
4.581307444071103
 31
0.0
  0
LINE
  5
B39E
330
B394
100
AcDbEntity
  8
0
  6
CONTINUOUS
100
AcDbLine
 10
-0.0000000000000001
 20
2.486788234992345
 30
0.0
 11
1.420999999998571
 21
3.907788234990917
 31
0.0
  0
LINE
  5
B39F
330
B394
100
AcDbEntity
  8
0
  6
CONTINUOUS
100
AcDbLine
 10
-0.0000000000000006
 20
1.813269025912159
 30
0.0
 11
1.420999999998571
 21
3.234269025910731
 31
0.0
  0
LINE
  5
B3A0
330
B394
100
AcDbEntity
  8
0
  6
CONTINUOUS
100
AcDbLine
 10
0.0
 20
1.139749816831973
 30
0.0
 11
1.420999999998571
 21
2.560749816830544
 31
0.0
  0
LINE
  5
B3A1
330
B394
100
AcDbEntity
  8
0
  6
CONTINUOUS
100
AcDbLine
 10
0.0000000000000002
 20
0.466230607751787
 30
0.0
 11
1.420999999998571
 21
1.887230607750358
 31
0.0
  0
LINE
  5
B3A2
330
B394
100
AcDbEntity
  8
0
  6
CONTINUOUS
100
AcDbLine
 10
0.2072886013284003
 20
-0.0000000000000009
 30
0.0
 11
1.420999999998571
 21
1.213711398670171
 31
0.0
  0
LINE
  5
B3A3
330
B394
100
AcDbEntity
  8
0
  6
CONTINUOUS
100
AcDbLine
 10
0.8808078104085864
 20
-0.0000000000000009
 30
0.0
 11
1.420999999998571
 21
0.5401921895899839
 31
0.0
  0
LINE
  5
B3A4
330
B394
100
AcDbEntity
  8
0
  6
CONTINUOUS
100
AcDbLine
 10
0.0581249075061505
 20
-0.0000000000000009
 30
0.0
 11
-0.0000000000000002
 21
0.0581249075061496
 31
0.0
  0
LINE
  5
B3A5
330
B394
100
AcDbEntity
  8
0
  6
CONTINUOUS
100
AcDbLine
 10
0.7316441165863372
 20
-0.0000000000000009
 30
0.0
 11
-0.0000000000000002
 21
0.7316441165863363
 31
0.0
  0
LINE
  5
B3A6
330
B394
100
AcDbEntity
  8
0
  6
CONTINUOUS
100
AcDbLine
 10
1.405163325666523
 20
-0.0000000000000009
 30
0.0
 11
-0.0000000000000002
 21
1.405163325666523
 31
0.0
  0
LINE
  5
B3A7
330
B394
100
AcDbEntity
  8
0
  6
CONTINUOUS
100
AcDbLine
 10
1.420999999998572
 20
0.6576825347481381
 30
0.0
 11
-0.0000000000000001
 21
2.07868253474671
 31
0.0
  0
LINE
  5
B3A8
330
B394
100
AcDbEntity
  8
0
  6
CONTINUOUS
100
AcDbLine
 10
1.420999999998571
 20
1.331201743828324
 30
0.0
 11
-0.0000000000000001
 21
2.752201743826896
 31
0.0
  0
LINE
  5
B3A9
330
B394
100
AcDbEntity
  8
0
  6
CONTINUOUS
100
AcDbLine
 10
1.420999999998571
 20
2.004720952908511
 30
0.0
 11
-0.0000000000000002
 21
3.425720952907082
 31
0.0
  0
LINE
  5
B3AA
330
B394
100
AcDbEntity
  8
0
  6
CONTINUOUS
100
AcDbLine
 10
1.420999999998571
 20
2.678240161988697
 30
0.0
 11
-0.0000000000000001
 21
4.099240161987269
 31
0.0
  0
LINE
  5
B3AB
330
B394
100
AcDbEntity
  8
0
  6
CONTINUOUS
100
AcDbLine
 10
1.420999999998572
 20
3.351759371068884
 30
0.0
 11
0.0
 21
4.772759371067455
 31
0.0
  0
LINE
  5
B3AC
330
B394
100
AcDbEntity
  8
0
  6
CONTINUOUS
100
AcDbLine
 10
1.420999999998571
 20
4.02527858014907
 30
0.0
 11
-0.0000000000000003
 21
5.446278580147642
 31
0.0
  0
LINE
  5
B3AD
330
B394
100
AcDbEntity
  8
0
  6
CONTINUOUS
100
AcDbLine
 10
1.420999999998571
 20
4.698797789229257
 30
0.0
 11
0.0
 21
6.119797789227828
 31
0.0
  0
LINE
  5
B3AE
330
B394
100
AcDbEntity
  8
0
  6
CONTINUOUS
100
AcDbLine
 10
1.420999999998571
 20
5.372316998309444
 30
0.0
 11
-0.0000000000000001
 21
6.793316998308015
 31
0.0
  0
LINE
  5
B3AF
330
B394
100
AcDbEntity
  8
0
  6
CONTINUOUS
100
AcDbLine
 10
1.420999999998572
 20
6.045836207389629
 30
0.0
 11
-0.0000000000000004
 21
7.466836207388202
 31
0.0
  0
LINE
  5
B3B0
330
B394
100
AcDbEntity
  8
0
  6
CONTINUOUS
100
AcDbLine
 10
1.420999999998571
 20
6.719355416469816
 30
0.0
 11
0.0
 21
8.140355416468388
 31
0.0
  0
LINE
  5
B3B1
330
B394
100
AcDbEntity
  8
0
  6
CONTINUOUS
100
AcDbLine
 10
1.420999999998571
 20
7.392874625550003
 30
0.0
 11
0.0507746255573185
 21
8.763099999991255
 31
0.0
  0
LINE
  5
B3B2
330
B394
100
AcDbEntity
  8
0
  6
CONTINUOUS
100
AcDbLine
 10
1.420999999998571
 20
8.06639383463019
 30
0.0
 11
0.7242938346375052
 21
8.763099999991255
 31
0.0
  0
LINE
  5
B3B3
330
B394
100
AcDbEntity
  8
0
  6
CONTINUOUS
100
AcDbLine
 10
1.420999999998571
 20
8.739913043710375
 30
0.0
 11
1.397813043717691
 21
8.763099999991255
 31
0.0
  0
ENDBLK
  5
B3BF
330
B394
100
AcDbEntity
  8
0
100
AcDbBlockEnd
  0
ENDSEC
  0
SECTION
  2
ENTITIES
  0
TEXT
  5
31B5
330
18
100
AcDbEntity
  8
1TEXT
100
AcDbText
 10
-228.8717997078622
 20
0.492227902675836
 30
0.0
 40
7.0
  1
PC-209-X
 41
1.0098214
100
AcDbText
  0
LINE
  5
86FC
330
18
100
AcDbEntity
  8
1DIM
100
AcDbLine
 10
-227.743876466427
 20
-24.38053505708388
 30
0.0
 11
-150.743876466427
 21
-24.38053505708388
 31
0.0
  0
TEXT
  5
86FD
330
18
100
AcDbEntity
  8
1TEXT
100
AcDbText
 10
-219.8105431330945
 20
-15.69144866865474
 30
0.0
 40
4.0
  1
クローム
 72
     1
 11
-210.3438764664278
 21
-15.69144866865474
 31
0.0
100
AcDbText
  0
TEXT
  5
86FE
330
18
100
AcDbEntity
  8
1TEXT
100
AcDbText
 10
-219.610543133094
 20
-8.880535057083875
 30
0.0
 40
4.0
  1
表面処理
 72
     1
 11
-210.3438764664274
 21
-8.880535057083875
 31
0.0
100
AcDbText
  0
LINE
  5
8700
330
18
100
AcDbEntity
  8
1DIM
100
AcDbLine
 10
-227.743876466427
 20
-3.380535057083875
 30
0.0
 11
-150.743876466427
 21
-3.380535057083875
 31
0.0
  0
LINE
  5
8701
330
18
100
AcDbEntity
  8
1DIM
100
AcDbLine
 10
-227.743876466427
 20
-10.38053505708388
 30
0.0
 11
-150.743876466427
 21
-10.38053505708388
 31
0.0
  0
LINE
  5
8702
330
18
100
AcDbEntity
  8
1DIM
100
AcDbLine
 10
-227.743876466427
 20
-17.38053505708388
 30
0.0
 11
-157.743876466427
 21
-17.38053505708388
 31
0.0
  0
LINE
  5
8703
330
18
100
AcDbEntity
  8
1DIM
100
AcDbLine
 10
-227.743876466427
 20
-17.38053505708388
 30
0.0
 11
-150.743876466427
 21
-17.38053505708388
 31
0.0
  0
LINE
  5
8704
330
18
100
AcDbEntity
  8
1DIM
100
AcDbLine
 10
-192.743876466427
 20
-3.380535057083875
 30
0.0
 11
-192.7438764664262
 21
-31.38053505708388
 31
0.0
  0
TEXT
  5
8706
330
18
100
AcDbEntity
  8
1TEXT
100
AcDbText
 10
-188.7448023923524
 20
-16.09489204073319
 30
0.0
 40
4.0
  1
PC-209-XC
 72
     1
 11
-171.7438764664265
 21
-16.09489204073319
 31
0.0
100
AcDbText
  0
TEXT
  5
8707
330
18
100
AcDbEntity
  8
1TEXT
100
AcDbText
 10
-178.6105431330936
 20
-8.880535057083788
 30
0.0
 40
4.0
  1
コード
 72
     1
 11
-171.7438764664269
 21
-8.880535057083788
 31
0.0
100
AcDbText
  0
LINE
  5
870B
330
18
100
AcDbEntity
  8
1DIM
100
AcDbLine
 10
-227.7438764664262
 20
-31.38053505708388
 30
0.0
 11
-227.743876466427
 21
-3.380535057083875
 31
0.0
  0
TEXT
  5
8711
330
18
100
AcDbEntity
  8
1TEXT
100
AcDbText
 10
-226.8772097997614
 20
-22.69144866865474
 30
0.0
 40
4.0
  1
サテンニッケル
 72
     1
 11
-210.3438764664281
 21
-22.69144866865474
 31
0.0
100
AcDbText
  0
TEXT
  5
8712
330
18
100
AcDbEntity
  8
1TEXT
100
AcDbText
 10
-188.7448023923526
 20
-23.09489204073319
 30
0.0
 40
4.0
  1
PC-209-XN
 72
     1
 11
-171.7438764664267
 21
-23.09489204073319
 31
0.0
100
AcDbText
  0
LINE
  5
891C
330
18
100
AcDbEntity
  8
1DIM
100
AcDbLine
 10
-227.7438764664274
 20
-31.38053505708388
 30
0.0
 11
-150.743876466427
 21
-31.38053505708388
 31
0.0
  0
LINE
  5
8BFB
330
18
100
AcDbEntity
  8
01
100
AcDbLine
 10
-15.74387646641335
 20
131.6194649429165
 30
0.0
 11
-71.74387646641514
 21
131.6194649429156
 31
0.0
  0
LINE
  5
8BFC
330
18
100
AcDbEntity
  8
01
100
AcDbLine
 10
-15.74387646641881
 20
46.61946494291463
 30
0.0
 11
-71.74387646641512
 21
46.61946494291919
 31
0.0
  0
LINE
  5
8BFD
330
18
100
AcDbEntity
  8
01
100
AcDbLine
 10
-22.74387646641517
 20
123.1194649429146
 30
0.0
 11
-22.74387646641517
 21
55.11946494291463
 31
0.0
  0
LINE
  5
8BFE
330
18
100
AcDbEntity
  8
01
100
AcDbLine
 10
-44.74387646641523
 20
123.1194649429147
 30
0.0
 11
-44.74387646641333
 21
55.11946494291465
 31
0.0
  0
ARC
  5
8BFF
330
18
100
AcDbEntity
  8
01
100
AcDbCircle
 10
-43.7438764664152
 20
123.1194649429147
 30
0.0
 40
1.0
100
AcDbArc
 50
90.0
 51
180.0000000000015
  0
LINE
  5
8C00
330
18
100
AcDbEntity
  8
01
100
AcDbLine
 10
-15.24387646641335
 20
131.1194649429165
 30
0.0
 11
-15.24387646641881
 21
47.11946494291463
 31
0.0
  0
LINE
  5
8C01
330
18
100
AcDbEntity
  8
01
100
AcDbLine
 10
-43.74387646641333
 20
54.11946494291465
 30
0.0
 11
-23.74387646641517
 21
54.11946494291463
 31
0.0
  0
ARC
  5
8C02
330
18
100
AcDbEntity
  8
01
100
AcDbCircle
 10
-23.74387646641523
 20
55.11946494291469
 30
0.0
 40
1.0
100
AcDbArc
 50
270.0
 51
0.0
  0
ARC
  5
8C03
330
18
100
AcDbEntity
  8
01
100
AcDbCircle
 10
-15.74387646641887
 20
47.11946494291469
 30
0.0
 40
0.5
100
AcDbArc
 50
270.0
 51
0.0
  0
ARC
  5
8C04
330
18
100
AcDbEntity
  8
01
100
AcDbCircle
 10
-43.74387646641338
 20
55.11946494291466
 30
0.0
 40
1.0
100
AcDbArc
 50
180.0
 51
270.0
  0
LINE
  5
8C05
330
18
100
AcDbEntity
  8
01
100
AcDbLine
 10
-23.74387646641517
 20
124.1194649429146
 30
0.0
 11
-43.74387646641523
 21
124.1194649429147
 31
0.0
  0
ARC
  5
8C06
330
18
100
AcDbEntity
  8
01
100
AcDbCircle
 10
-23.74387646641523
 20
123.1194649429144
 30
0.0
 40
1.0
100
AcDbArc
 50
0.0
 51
90.0
  0
ARC
  5
8C07
330
18
100
AcDbEntity
  8
01
100
AcDbCircle
 10
-15.74387646641341
 20
131.1194649429162
 30
0.0
 40
0.5
100
AcDbArc
 50
0.0
 51
90.0
  0
LINE
  5
8C0E
330
18
100
AcDbEntity
  8
01
100
AcDbLine
 10
-72.24387646641514
 20
131.1194649429156
 30
0.0
 11
-72.24387646641512
 21
47.11946494291919
 31
0.0
  0
ARC
  5
8C0F
330
18
100
AcDbEntity
  8
01
100
AcDbCircle
 10
-71.74387646641514
 20
131.1194649429156
 30
0.0
 40
0.5
100
AcDbArc
 50
90.0000000000009
 51
180.0
  0
ARC
  5
8C10
330
18
100
AcDbEntity
  8
01
100
AcDbCircle
 10
-71.74387646641517
 20
47.11946494291919
 30
0.0
 40
0.5
100
AcDbArc
 50
180.0
 51
270.0
  0
LINE
  5
8C2F
330
18
100
AcDbEntity
  8
01
100
AcDbLine
 10
-72.24387646641429
 20
5.11946494289657
 30
0.0
 11
-15.24387646641614
 21
5.119464942920239
 31
0.0
  0
LINE
  5
8C30
330
18
100
AcDbEntity
  8
01
100
AcDbLine
 10
-67.74387646641338
 20
-6.880535057098186
 30
0.0
 11
-21.24387646641335
 21
-6.880535057082938
 31
0.0
  0
LINE
  5
8C31
330
18
100
AcDbEntity
  8
01
100
AcDbLine
 10
-71.74387646641429
 20
6.619464942916125
 30
0.0
 11
-15.74387646641614
 21
6.619464942920239
 31
0.0
  0
LINE
  5
8C32
330
18
100
AcDbEntity
  8
01
100
AcDbLine
 10
-20.94387646641431
 20
-7.880535057091578
 30
0.0
 11
-46.54387646641104
 21
-7.880535057084309
 31
0.0
  0
LINE
  5
8C33
330
18
100
AcDbEntity
  8
01
100
AcDbLine
 10
-46.54387646641104
 20
-6.880535057083399
 30
0.0
 11
-20.94387646641431
 21
-6.880535057090668
 31
0.0
  0
LINE
  5
8C34
330
18
100
AcDbEntity
  8
01
100
AcDbLine
 10
-20.94387646641431
 20
-7.880535057091578
 30
0.0
 11
-20.94387646641431
 21
-6.880535057090668
 31
0.0
  0
ARC
  5
8C35
330
18
100
AcDbEntity
  8
01
100
AcDbCircle
 10
-15.74387646641617
 20
6.119464942920366
 30
0.0
 40
0.5
100
AcDbArc
 50
0.0
 51
90.0
  0
LINE
  5
8C36
330
18
100
AcDbEntity
  8
01
100
AcDbLine
 10
-15.24387646641614
 20
6.119464942920239
 30
0.0
 11
-15.24387646641614
 21
5.119464942920239
 31
0.0
  0
LINE
  5
8C37
330
18
100
AcDbEntity
  8
01
100
AcDbLine
 10
-20.74387646641387
 20
0.1194649429197909
 30
0.0
 11
-19.24387646641568
 21
0.1194649429200112
 31
0.0
  0
LINE
  5
8C38
330
18
100
AcDbEntity
  8
01
100
AcDbLine
 10
-19.24387646641568
 20
0.1194649429200112
 30
0.0
 11
-20.74387646641381
 21
-1.880535057080209
 31
0.0
  0
ARC
  5
8C39
330
18
100
AcDbEntity
  8
01
100
AcDbCircle
 10
-21.24387646641344
 20
-6.38053505708281
 30
0.0
 40
0.5
100
AcDbArc
 50
270.000000000013
 51
0.0
  0
LINE
  5
8C3A
330
18
100
AcDbEntity
  8
01
100
AcDbLine
 10
-20.74387646641432
 20
5.119464942917972
 30
0.0
 11
-20.74387646641335
 21
-6.380535057082938
 31
0.0
  0
LINE
  5
8C3B
330
18
100
AcDbEntity
  8
01
100
AcDbLine
 10
-46.54387646641104
 20
-6.880535057083399
 30
0.0
 11
-46.54387646641104
 21
-7.880535057084309
 31
0.0
  0
ARC
  5
8C3D
330
18
100
AcDbEntity
  8
01
100
AcDbCircle
 10
-71.74387646641435
 20
6.11946494291626
 30
0.0
 40
0.5
100
AcDbArc
 50
90.0
 51
180.0
  0
LINE
  5
8C3E
330
18
100
AcDbEntity
  8
01
100
AcDbLine
 10
-72.24387646641429
 20
6.119464942916125
 30
0.0
 11
-72.24387646641429
 21
5.11946494289657
 31
0.0
  0
LINE
  5
8C3F
330
18
100
AcDbEntity
  8
01
100
AcDbLine
 10
-69.74387646641384
 20
0.1194649429163519
 30
0.0
 11
-68.24387646641384
 21
0.1194649429163519
 31
0.0
  0
LINE
  5
8C40
330
18
100
AcDbEntity
  8
01
100
AcDbLine
 10
-68.24387646641384
 20
-1.880535057083648
 30
0.0
 11
-69.74387646641384
 21
0.1194649429163519
 31
0.0
  0
ARC
  5
8C41
330
18
100
AcDbEntity
  8
01
100
AcDbCircle
 10
-67.74387646641344
 20
-6.380535057098065
 30
0.0
 40
0.5
100
AcDbArc
 50
180.0
 51
270.000000000013
  0
LINE
  5
8C42
330
18
100
AcDbEntity
  8
01
100
AcDbLine
 10
-68.24387646641338
 20
-6.3805350570982
 30
0.0
 11
-68.24387646641429
 21
5.119464942916352
 31
0.0
  0
LINE
  5
8C73
330
18
100
AcDbEntity
  8
1CENTER
100
AcDbLine
 10
-27.74387646641927
 20
0.6194649429188814
 30
0.0
 11
-39.74387646641927
 21
0.6194649429188814
 31
0.0
  0
LINE
  5
8C74
330
18
100
AcDbEntity
  8
1CENTER
100
AcDbLine
 10
-33.74387646641927
 20
6.619464942918867
 30
0.0
 11
-33.74387646641921
 21
-5.380535057081119
 31
0.0
  0
LINE
  5
9436
330
18
100
AcDbEntity
  8
01
100
AcDbLine
 10
-199.0438764664245
 20
127.4194649429191
 30
0.0
 11
-179.4438764664278
 21
127.4194649429191
 31
0.0
  0
LINE
  5
9437
330
18
100
AcDbEntity
  8
01
100
AcDbLine
 10
-179.4438764664278
 20
50.81946494291962
 30
0.0
 11
-199.0438764664245
 21
50.81946494291964
 31
0.0
  0
LINE
  5
9438
330
18
100
AcDbEntity
  8
01
100
AcDbLine
 10
-179.2438764664288
 20
127.6194649429162
 30
0.0
 11
-220.7438764664252
 21
127.6194649429171
 31
0.0
  0
LINE
  5
9439
330
18
100
AcDbEntity
  8
01
100
AcDbLine
 10
-179.2438764664288
 20
50.61946494291708
 30
0.0
 11
-220.743876466427
 21
50.61946494292437
 31
0.0
  0
LINE
  5
943A
330
18
100
AcDbEntity
  8
01
100
AcDbLine
 10
-171.2438764664307
 20
46.61946494291617
 30
0.0
 11
-227.243876466427
 21
46.61946494292073
 31
0.0
  0
LINE
  5
943B
330
18
100
AcDbEntity
  8
01
100
AcDbLine
 10
-171.2438764664252
 20
131.619464942918
 30
0.0
 11
-227.243876466427
 21
131.619464942917
 31
0.0
  0
LINE
  5
943C
330
18
100
AcDbEntity
  8
01
100
AcDbLine
 10
-202.0438764664245
 20
124.4194649429191
 30
0.0
 11
-202.0438764664245
 21
53.81946494291964
 31
0.0
  0
LINE
  5
943D
330
18
100
AcDbEntity
  8
01
100
AcDbLine
 10
-227.743876466427
 20
131.119464942917
 30
0.0
 11
-227.743876466427
 21
47.11946494292073
 31
0.0
  0
LINE
  5
943E
330
18
100
AcDbEntity
  8
01
100
AcDbLine
 10
-223.743876466427
 20
63.11946494291891
 30
0.0
 11
-225.243876466427
 21
64.11946494291891
 31
0.0
  0
LINE
  5
943F
330
18
100
AcDbEntity
  8
01
100
AcDbLine
 10
-202.2438764664288
 20
124.1194649429153
 30
0.0
 11
-202.2438764664234
 21
54.11946494291982
 31
0.0
  0
LINE
  5
9440
330
18
100
AcDbEntity
  8
01
100
AcDbLine
 10
-222.243876466427
 20
124.1194649429162
 30
0.0
 11
-222.243876466427
 21
54.11946494292164
 31
0.0
  0
LINE
  5
9441
330
18
100
AcDbEntity
  8
01
100
AcDbLine
 10
-223.7438764664252
 20
124.6194649429171
 30
0.0
 11
-223.743876466427
 21
53.61946494292073
 31
0.0
  0
LINE
  5
9442
330
18
100
AcDbEntity
  8
01
100
AcDbLine
 10
-204.2438764664234
 20
52.11946494291982
 30
0.0
 11
-220.243876466427
 21
52.11946494292164
 31
0.0
  0
ARC
  5
9443
330
18
100
AcDbEntity
  8
01
100
AcDbCircle
 10
-227.2438764664269
 20
47.11946494292076
 30
0.0
 40
0.5
100
AcDbArc
 50
180.0
 51
270.0
  0
ARC
  5
9444
330
18
100
AcDbEntity
  8
01
100
AcDbCircle
 10
-220.7438764664269
 20
53.61946494292076
 30
0.0
 40
3.0
100
AcDbArc
 50
180.0
 51
270.0
  0
ARC
  5
9445
330
18
100
AcDbEntity
  8
01
100
AcDbCircle
 10
-220.2438764664269
 20
54.11946494292167
 30
0.0
 40
2.0
100
AcDbArc
 50
180.0
 51
270.0
  0
ARC
  5
9446
330
18
100
AcDbEntity
  8
01
100
AcDbCircle
 10
-199.0438764664241
 20
53.81946494291988
 30
0.0
 40
3.0
100
AcDbArc
 50
180.0
 51
270.0
  0
ARC
  5
9447
330
18
100
AcDbEntity
  8
01
100
AcDbCircle
 10
-204.2438764664232
 20
54.11946494291983
 30
0.0
 40
2.0
100
AcDbArc
 50
270.0
 51
0.0000000000000325
  0
CIRCLE
  5
9448
330
18
100
AcDbEntity
  8
01
100
AcDbCircle
 10
-189.2438764664225
 20
52.61946494291938
 30
0.0
 40
1.599999999998317
  0
LINE
  5
9449
330
18
100
AcDbEntity
  8
01
100
AcDbLine
 10
-225.243876466427
 20
64.11946494291891
 30
0.0
 11
-223.743876466427
 21
65.11946494291891
 31
0.0
  0
LINE
  5
944A
330
18
100
AcDbEntity
  8
01
100
AcDbLine
 10
-225.243876466427
 20
114.1194649429189
 30
0.0
 11
-223.743876466427
 21
113.1194649429189
 31
0.0
  0
LINE
  5
944B
330
18
100
AcDbEntity
  8
01
100
AcDbLine
 10
-223.743876466427
 20
115.1194649429189
 30
0.0
 11
-225.243876466427
 21
114.1194649429189
 31
0.0
  0
LINE
  5
944C
330
18
100
AcDbEntity
  8
01
100
AcDbLine
 10
-204.2438764664288
 20
126.1194649429153
 30
0.0
 11
-220.243876466427
 21
126.1194649429162
 31
0.0
  0
ARC
  5
944D
330
18
100
AcDbEntity
  8
01
100
AcDbCircle
 10
-227.2438764664269
 20
131.119464942917
 30
0.0
 40
0.5
100
AcDbArc
 50
90.0
 51
180.0
  0
ARC
  5
944E
330
18
100
AcDbEntity
  8
01
100
AcDbCircle
 10
-220.2438764664269
 20
124.1194649429161
 30
0.0
 40
2.0
100
AcDbArc
 50
90.0
 51
180.0
  0
ARC
  5
944F
330
18
100
AcDbEntity
  8
01
100
AcDbCircle
 10
-220.743876466425
 20
124.619464942917
 30
0.0
 40
3.0
100
AcDbArc
 50
90.0
 51
180.0
  0
ARC
  5
9450
330
18
100
AcDbEntity
  8
01
100
AcDbCircle
 10
-199.0438764664238
 20
124.4194649429186
 30
0.0
 40
3.0
100
AcDbArc
 50
90.00000000001303
 51
179.999999999987
  0
ARC
  5
9451
330
18
100
AcDbEntity
  8
01
100
AcDbCircle
 10
-204.2438764664286
 20
124.1194649429152
 30
0.0
 40
2.0
100
AcDbArc
 50
0.0000000000000325
 51
90.0
  0
CIRCLE
  5
9452
330
18
100
AcDbEntity
  8
01
100
AcDbCircle
 10
-189.243876466425
 20
125.6194649429188
 30
0.0
 40
1.599999999998317
  0
LINE
  5
9453
330
18
100
AcDbEntity
  8
01
100
AcDbLine
 10
-176.4438764664278
 20
124.4194649429191
 30
0.0
 11
-176.4438764664278
 21
53.81946494291962
 31
0.0
  0
LINE
  5
9454
330
18
100
AcDbEntity
  8
01
100
AcDbLine
 10
-176.2438764664288
 20
63.11946494291708
 30
0.0
 11
-174.7438764664288
 21
64.11946494291709
 31
0.0
  0
LINE
  5
9455
330
18
100
AcDbEntity
  8
01
100
AcDbLine
 10
-176.2438764664288
 20
124.6194649429162
 30
0.0
 11
-176.2438764664288
 21
53.61946494291708
 31
0.0
  0
LINE
  5
9456
330
18
100
AcDbEntity
  8
01
100
AcDbLine
 10
-170.7438764664252
 20
131.119464942918
 30
0.0
 11
-170.7438764664307
 21
47.11946494291617
 31
0.0
  0
ARC
  5
9457
330
18
100
AcDbEntity
  8
01
100
AcDbCircle
 10
-179.4438764664279
 20
53.81946494291989
 30
0.0
 40
3.0
100
AcDbArc
 50
270.0
 51
0.0000000000000325
  0
ARC
  5
9458
330
18
100
AcDbEntity
  8
01
100
AcDbCircle
 10
-171.2438764664305
 20
47.1194649429162
 30
0.0
 40
0.5
100
AcDbArc
 50
270.0
 51
0.0000000000000325
  0
ARC
  5
9459
330
18
100
AcDbEntity
  8
01
100
AcDbCircle
 10
-179.2438764664287
 20
53.61946494291712
 30
0.0
 40
3.0
100
AcDbArc
 50
270.0
 51
0.0000000000000325
  0
LINE
  5
945A
330
18
100
AcDbEntity
  8
01
100
AcDbLine
 10
-174.7438764664288
 20
64.11946494291709
 30
0.0
 11
-176.2438764664288
 21
65.11946494291709
 31
0.0
  0
LINE
  5
945B
330
18
100
AcDbEntity
  8
01
100
AcDbLine
 10
-174.7438764664288
 20
114.1194649429171
 30
0.0
 11
-176.2438764664288
 21
113.1194649429171
 31
0.0
  0
LINE
  5
945C
330
18
100
AcDbEntity
  8
01
100
AcDbLine
 10
-176.2438764664288
 20
115.1194649429171
 30
0.0
 11
-174.7438764664288
 21
114.1194649429171
 31
0.0
  0
ARC
  5
945D
330
18
100
AcDbEntity
  8
01
100
AcDbCircle
 10
-179.4438764664279
 20
124.4194649429185
 30
0.0
 40
3.0
100
AcDbArc
 50
0.0000000000130346
 51
90.0
  0
ARC
  5
945E
330
18
100
AcDbEntity
  8
01
100
AcDbCircle
 10
-171.2438764664251
 20
131.1194649429179
 30
0.0
 40
0.5
100
AcDbArc
 50
0.0000000000000325
 51
90.0
  0
ARC
  5
945F
330
18
100
AcDbEntity
  8
01
100
AcDbCircle
 10
-179.2438764664287
 20
124.6194649429161
 30
0.0
 40
3.0
100
AcDbArc
 50
0.0000000000000325
 51
90.0
  0
LINE
  5
9460
330
18
100
AcDbEntity
  8
01
100
AcDbLine
 10
-116.7438764664161
 20
127.4194649429187
 30
0.0
 11
-116.7438764664197
 21
50.81946494291924
 31
0.0
  0
LINE
  5
9461
330
18
100
AcDbEntity
  8
01
100
AcDbLine
 10
-115.7438764664161
 20
50.81946494291924
 30
0.0
 11
-115.7438764664179
 21
127.4194649429187
 31
0.0
  0
LINE
  5
9462
330
18
100
AcDbEntity
  8
01
100
AcDbLine
 10
-108.7438764664134
 20
63.11946494291305
 30
0.0
 11
-110.7438764664134
 21
64.11946494291396
 31
0.0
  0
LINE
  5
9463
330
18
100
AcDbEntity
  8
01
100
AcDbLine
 10
-108.7438764664134
 20
63.11946494291305
 30
0.0
 11
-108.7438764664136
 21
65.11946494291398
 31
0.0
  0
LINE
  5
9464
330
18
100
AcDbEntity
  8
01
100
AcDbLine
 10
-103.7438764664151
 20
131.6194649429199
 30
0.0
 11
-103.7438764664152
 21
46.61946494291897
 31
0.0
  0
LINE
  5
9465
330
18
100
AcDbEntity
  8
01
100
AcDbLine
 10
-102.2438764664151
 20
131.1194649429199
 30
0.0
 11
-102.2438764664152
 21
47.11946494291897
 31
0.0
  0
LINE
  5
9466
330
18
100
AcDbEntity
  8
01
100
AcDbLine
 10
-115.743876466417
 20
127.119464942919
 30
0.0
 11
-115.743876466417
 21
51.11946494291988
 31
0.0
  0
LINE
  5
9467
330
18
100
AcDbEntity
  8
01
100
AcDbLine
 10
-103.7438764664152
 20
50.61946494291988
 30
0.0
 11
-115.243876466417
 21
50.61946494291988
 31
0.0
  0
ARC
  5
9468
330
18
100
AcDbEntity
  8
01
100
AcDbCircle
 10
-102.7438764664153
 20
47.11946494291897
 30
0.0
 40
0.5
100
AcDbArc
 50
270.0
 51
0.0000000000000325
  0
LINE
  5
9469
330
18
100
AcDbEntity
  8
01
100
AcDbLine
 10
-102.7438764664152
 20
46.61946494291897
 30
0.0
 11
-103.7438764664152
 21
46.61946494291897
 31
0.0
  0
LINE
  5
946A
330
18
100
AcDbEntity
  8
01
100
AcDbLine
 10
-116.7438764664197
 20
50.81946494291924
 30
0.0
 11
-115.7438764664161
 21
50.81946494291924
 31
0.0
  0
ARC
  5
946B
330
18
100
AcDbEntity
  8
01
100
AcDbCircle
 10
-115.2438764664171
 20
51.11946494291988
 30
0.0
 40
0.5
100
AcDbArc
 50
180.0
 51
270.0
  0
LINE
  5
946C
330
18
100
AcDbEntity
  8
01
100
AcDbLine
 10
-110.7438764664134
 20
64.11946494291396
 30
0.0
 11
-108.7438764664136
 21
65.11946494291398
 31
0.0
  0
LINE
  5
946D
330
18
100
AcDbEntity
  8
01
100
AcDbLine
 10
-108.7438764664134
 20
64.11946494291398
 30
0.0
 11
-110.7438764664134
 21
64.11946494291396
 31
0.0
  0
LINE
  5
946E
330
18
100
AcDbEntity
  8
01
100
AcDbLine
 10
-108.7438764664152
 20
114.1194649429217
 30
0.0
 11
-110.7438764664152
 21
114.1194649429217
 31
0.0
  0
LINE
  5
946F
330
18
100
AcDbEntity
  8
01
100
AcDbLine
 10
-110.7438764664152
 20
114.1194649429217
 30
0.0
 11
-108.7438764664152
 21
113.1194649429217
 31
0.0
  0
LINE
  5
9470
330
18
100
AcDbEntity
  8
01
100
AcDbLine
 10
-108.7438764664152
 20
115.1194649429226
 30
0.0
 11
-110.7438764664152
 21
114.1194649429217
 31
0.0
  0
LINE
  5
9471
330
18
100
AcDbEntity
  8
01
100
AcDbLine
 10
-108.7438764664152
 20
115.1194649429226
 30
0.0
 11
-108.7438764664152
 21
113.1194649429217
 31
0.0
  0
LINE
  5
9472
330
18
100
AcDbEntity
  8
01
100
AcDbLine
 10
-103.7438764664151
 20
127.619464942919
 30
0.0
 11
-115.243876466417
 21
127.619464942919
 31
0.0
  0
ARC
  5
9473
330
18
100
AcDbEntity
  8
01
100
AcDbCircle
 10
-102.7438764664152
 20
131.1194649429198
 30
0.0
 40
0.5
100
AcDbArc
 50
0.0000000000000325
 51
90.0
  0
LINE
  5
9474
330
18
100
AcDbEntity
  8
01
100
AcDbLine
 10
-102.7438764664151
 20
131.6194649429199
 30
0.0
 11
-103.7438764664151
 21
131.6194649429199
 31
0.0
  0
LINE
  5
9475
330
18
100
AcDbEntity
  8
01
100
AcDbLine
 10
-116.7438764664161
 20
127.4194649429187
 30
0.0
 11
-115.7438764664179
 21
127.4194649429187
 31
0.0
  0
ARC
  5
9476
330
18
100
AcDbEntity
  8
01
100
AcDbCircle
 10
-115.2438764664171
 20
127.1194649429189
 30
0.0
 40
0.5
100
AcDbArc
 50
90.0
 51
180.0
  0
LINE
  5
947F
330
18
100
AcDbEntity
  8
1CENTER
100
AcDbLine
 10
-195.2438764664252
 20
125.6194649429162
 30
0.0
 11
-183.2438764664252
 21
125.6194649429162
 31
0.0
  0
LINE
  5
9480
330
18
100
AcDbEntity
  8
1CENTER
100
AcDbLine
 10
-189.2438764664252
 20
131.6194649429162
 30
0.0
 11
-189.2438764664252
 21
119.6194649429162
 31
0.0
  0
LINE
  5
9481
330
18
100
AcDbEntity
  8
1CENTER
100
AcDbLine
 10
-195.243876466427
 20
52.61946494291763
 30
0.0
 11
-183.243876466427
 21
52.61946494291765
 31
0.0
  0
LINE
  5
9482
330
18
100
AcDbEntity
  8
1CENTER
100
AcDbLine
 10
-189.243876466427
 20
58.61946494291763
 30
0.0
 11
-189.243876466427
 21
46.61946494291763
 31
0.0
  0
LINE
  5
9693
330
18
100
AcDbEntity
  8
01
100
AcDbLine
 10
-225.243876466427
 20
114.1194649429189
 30
0.0
 11
-223.7438764664255
 21
114.1194649429189
 31
0.0
  0
LINE
  5
9694
330
18
100
AcDbEntity
  8
01
100
AcDbLine
 10
-174.7438764664288
 20
114.1194649429171
 30
0.0
 11
-176.2438764664288
 21
114.1194649429171
 31
0.0
  0
LINE
  5
9695
330
18
100
AcDbEntity
  8
01
100
AcDbLine
 10
-225.243876466427
 20
64.11946494291891
 30
0.0
 11
-223.7438764664268
 21
64.11946494291891
 31
0.0
  0
LINE
  5
9696
330
18
100
AcDbEntity
  8
01
100
AcDbLine
 10
-174.7438764664288
 20
64.11946494291709
 30
0.0
 11
-176.2438764664288
 21
64.11946494291709
 31
0.0
  0
LINE
  5
97B2
330
18
100
AcDbEntity
  8
1PHANTOM
100
AcDbLine
 10
109.0073440915701
 20
127.6194649429162
 30
0.0
 11
67.50734409157377
 21
127.6194649429171
 31
0.0
  0
LINE
  5
97B3
330
18
100
AcDbEntity
  8
1PHANTOM
100
AcDbLine
 10
109.0073440915701
 20
50.61946494291709
 30
0.0
 11
67.50734409157195
 21
50.61946494292437
 31
0.0
  0
LINE
  5
97BB
330
18
100
AcDbEntity
  8
1PHANTOM
100
AcDbLine
 10
64.50734409157377
 20
124.6194649429171
 30
0.0
 11
64.50734409157195
 21
53.61946494292073
 31
0.0
  0
ARC
  5
97BE
330
18
100
AcDbEntity
  8
1PHANTOM
100
AcDbCircle
 10
67.50734409157212
 20
53.61946494292076
 30
0.0
 40
3.0
100
AcDbArc
 50
180.0
 51
270.0
  0
ARC
  5
97C9
330
18
100
AcDbEntity
  8
1PHANTOM
100
AcDbCircle
 10
67.50734409157394
 20
124.619464942917
 30
0.0
 40
3.0
100
AcDbArc
 50
90.0
 51
180.0
  0
LINE
  5
97CF
330
18
100
AcDbEntity
  8
1PHANTOM
100
AcDbLine
 10
112.0073440915701
 20
124.6194649429162
 30
0.0
 11
112.0073440915701
 21
53.61946494291708
 31
0.0
  0
ARC
  5
97D3
330
18
100
AcDbEntity
  8
1PHANTOM
100
AcDbCircle
 10
109.0073440915702
 20
53.61946494291712
 30
0.0
 40
3.0
100
AcDbArc
 50
270.0
 51
0.0000000000000325
  0
ARC
  5
97D9
330
18
100
AcDbEntity
  8
1PHANTOM
100
AcDbCircle
 10
109.0073440915702
 20
124.6194649429161
 30
0.0
 40
3.0
100
AcDbArc
 50
0.0000000000000325
 51
90.0
  0
LINE
  5
97DE
330
18
100
AcDbEntity
  8
1PHANTOM
100
AcDbLine
 10
52.37940433222286
 20
131.6194649429199
 30
0.0
 11
52.3794043322228
 21
46.61946494291898
 31
0.0
  0
LINE
  5
97E1
330
18
100
AcDbEntity
  8
1PHANTOM
100
AcDbLine
 10
52.3794043322228
 20
50.61946494291989
 30
0.0
 11
38.87940433222282
 21
50.61946494291989
 31
0.0
  0
LINE
  5
97EC
330
18
100
AcDbEntity
  8
1PHANTOM
100
AcDbLine
 10
52.37940433222286
 20
127.619464942919
 30
0.0
 11
38.87940433222286
 21
127.619464942919
 31
0.0
  0
LINE
  5
98DB
330
18
100
AcDbEntity
  8
1PHANTOM
100
AcDbLine
 10
38.87940433222286
 20
127.619464942919
 30
0.0
 11
38.87940433222282
 21
50.61946494291989
 31
0.0
  0
TEXT
  5
98E3
330
18
100
AcDbEntity
  8
1TEXT
100
AcDbText
 10
50.1373311881589
 20
15.01674070923389
 30
0.0
 40
4.0
  1
切欠図(S=1:1)
100
AcDbText
  0
TEXT
  5
9A4B
330
18
100
AcDbEntity
  8
1TEXT
100
AcDbText
 10
-226.4772097997586
 20
-29.88053505708387
 30
0.0
 40
4.0
  1
パールブラック
 72
     1
 11
-210.3438764664253
 21
-29.88053505708387
 31
0.0
100
AcDbText
  0
TEXT
  5
9A4D
330
18
100
AcDbEntity
  8
1TEXT
100
AcDbText
 10
-188.7642468367958
 20
-30.09489204073318
 30
0.0
 40
4.0
  1
PC-209-GQ
 72
     1
 11
-171.7438764664254
 21
-30.09489204073318
 31
0.0
100
AcDbText
  0
LINE
  5
9A90
330
18
100
AcDbEntity
  8
1DIM
100
AcDbLine
 10
-150.7438764664263
 20
-31.38053505708388
 30
0.0
 11
-150.743876466427
 21
-3.380535057083728
 31
0.0
  0
LINE
  5
9C18
330
18
100
AcDbEntity
  8
1CENTER
100
AcDbLine
 10
-132.3654207761419
 20
-19.34453554104641
 30
0.0
 11
-116.0593466567884
 21
-19.34453554104641
 31
0.0
  0
LINE
  5
9C19
330
18
100
AcDbEntity
  8
01
100
AcDbLine
 10
-129.4305226862816
 20
-20.04453554104623
 30
0.0
 11
-117.6429582515806
 21
-20.04453554104623
 31
0.0
  0
LINE
  5
9C1A
330
18
100
AcDbEntity
  8
01
100
AcDbLine
 10
-129.4305226862816
 20
-18.64453554104659
 30
0.0
 11
-117.6429582515806
 21
-18.64453554104659
 31
0.0
  0
LINE
  5
9C1C
330
18
100
AcDbEntity
  8
01
100
AcDbLine
 10
-130.6429582515802
 20
-19.34453554104641
 30
0.0
 11
-129.4305226862816
 21
-20.04453554104623
 31
0.0
  0
LINE
  5
9C1E
330
18
100
AcDbEntity
  8
01
100
AcDbLine
 10
-130.6429582515802
 20
-19.34453554104641
 30
0.0
 11
-129.4305226862816
 21
-18.64453554104659
 31
0.0
  0
LINE
  5
9C1F
330
18
100
AcDbEntity
  8
01
100
AcDbLine
 10
-117.6429582515802
 20
-17.74453554104605
 30
0.0
 11
-117.6429582515802
 21
-20.94453554104632
 31
0.0
  0
ARC
  5
9C20
330
18
100
AcDbEntity
  8
01
100
AcDbCircle
 10
-118.8221496588648
 20
-19.34453554104641
 30
0.0
 40
1.987584557952786
100
AcDbArc
 50
306.3900152781711
 51
53.60998472186407
  0
LINE
  5
9C23
330
18
100
AcDbEntity
  8
1CENTER
100
AcDbLine
 10
-132.3654207761419
 20
-8.63066737565498
 30
0.0
 11
-116.0593466567884
 21
-8.63066737565498
 31
0.0
  0
LINE
  5
9C24
330
18
100
AcDbEntity
  8
01
100
AcDbLine
 10
-129.4305226862817
 20
-9.330667375654855
 30
0.0
 11
-117.6429582515806
 21
-9.330667375654798
 31
0.0
  0
LINE
  5
9C25
330
18
100
AcDbEntity
  8
01
100
AcDbLine
 10
-129.4305226862816
 20
-7.930667375655219
 30
0.0
 11
-117.6429582515806
 21
-7.930667375655162
 31
0.0
  0
LINE
  5
9C26
330
18
100
AcDbEntity
  8
01
100
AcDbLine
 10
-130.6429582515802
 20
-8.63066737565498
 30
0.0
 11
-129.4305226862816
 21
-9.330667375654798
 31
0.0
  0
LINE
  5
9C27
330
18
100
AcDbEntity
  8
01
100
AcDbLine
 10
-130.6429582515802
 20
-8.63066737565498
 30
0.0
 11
-129.4305226862816
 21
-7.930667375655162
 31
0.0
  0
LINE
  5
9C28
330
18
100
AcDbEntity
  8
01
100
AcDbLine
 10
-117.6429582515802
 20
-7.030667375654616
 30
0.0
 11
-117.6429582515802
 21
-10.23066737565489
 31
0.0
  0
ARC
  5
9C29
330
18
100
AcDbEntity
  8
01
100
AcDbCircle
 10
-118.8221496588648
 20
-8.63066737565498
 30
0.0
 40
1.987584557952786
100
AcDbArc
 50
306.3900152781711
 51
53.60998472186407
  0
CIRCLE
  5
9CE0
330
18
100
AcDbEntity
  8
01
100
AcDbCircle
 10
-33.74387646641387
 20
0.619464942918988
 30
0.0
 40
0.9
  0
LINE
  5
B0C4
330
18
100
AcDbEntity
  8
1DIM
100
AcDbLine
 10
-27.74387646641927
 20
0.6194649429188802
 30
0.0
 11
5.756123533583605
 21
0.6194649429188708
 31
0.0
  0
LINE
  5
B0C5
330
18
100
AcDbEntity
  8
1DIM
100
AcDbLine
 10
-15.74387646641625
 20
6.61946494292024
 30
0.0
 11
5.756123533583605
 21
6.619464942920235
 31
0.0
  0
LINE
  5
B0C6
330
18
100
AcDbEntity
  8
1DIM
100
AcDbLine
 10
4.756123533583604
 20
2.619464942918871
 30
0.0
 11
4.756123533583604
 21
4.619464942920235
 31
0.0
  0
LINE
  5
B0CA
330
18
100
AcDbEntity
  8
1DIM
100
AcDbLine
 10
-23.74387646641523
 20
124.1194649429144
 30
0.0
 11
5.756123533583618
 21
124.1194649429144
 31
0.0
  0
LINE
  5
B0CB
330
18
100
AcDbEntity
  8
1DIM
100
AcDbLine
 10
-23.7438764664152
 20
54.11946494291465
 30
0.0
 11
5.756123533583606
 21
54.11946494291464
 31
0.0
  0
LINE
  5
B0CC
330
18
100
AcDbEntity
  8
1DIM
100
AcDbLine
 10
4.75612353358362
 20
122.1194649429144
 30
0.0
 11
4.756123533583605
 21
56.11946494291464
 31
0.0
  0
LINE
  5
B0D0
330
18
100
AcDbEntity
  8
1DIM
100
AcDbLine
 10
-15.74387646641335
 20
131.6194649429165
 30
0.0
 11
15.75612353358339
 21
131.6194649429165
 31
0.0
  0
LINE
  5
B0D1
330
18
100
AcDbEntity
  8
1DIM
100
AcDbLine
 10
-15.74387646641878
 20
46.61946494291465
 30
0.0
 11
15.75612353358338
 21
46.61946494291465
 31
0.0
  0
LINE
  5
B0D2
330
18
100
AcDbEntity
  8
1DIM
100
AcDbLine
 10
14.75612353358339
 20
129.6194649429165
 30
0.0
 11
14.75612353358338
 21
48.61946494291465
 31
0.0
  0
LINE
  5
B0D6
330
18
100
AcDbEntity
  8
1DIM
100
AcDbLine
 10
-22.74387646641514
 20
55.11946494291465
 30
0.0
 11
-22.74387646641515
 21
25.61946494291612
 31
0.0
  0
LINE
  5
B0D7
330
18
100
AcDbEntity
  8
1DIM
100
AcDbLine
 10
-15.24387646641617
 20
47.11946494291465
 30
0.0
 11
-15.24387646641617
 21
25.61946494291612
 31
0.0
  0
LINE
  5
B0D8
330
18
100
AcDbEntity
  8
1DIM
100
AcDbLine
 10
-20.74387646641514
 20
26.61946494291612
 30
0.0
 11
-17.24387646641617
 21
26.61946494291612
 31
0.0
  0
LINE
  5
B0D9
330
18
100
AcDbEntity
  8
1DIM
100
AcDbLine
 10
-15.24387646641617
 20
26.61946494291612
 30
0.0
 11
-4.510543133082839
 21
26.61946494291612
 31
0.0
  0
LINE
  5
B0DD
330
18
100
AcDbEntity
  8
1DIM
100
AcDbLine
 10
-44.7438764664133
 20
55.11946494291465
 30
0.0
 11
-44.7438764664133
 21
25.61946494291612
 31
0.0
  0
LINE
  5
B0DE
330
18
100
AcDbEntity
  8
1DIM
100
AcDbLine
 10
-22.74387646641526
 20
26.61946494291612
 30
0.0
 11
-22.74387646641526
 21
27.61946494291612
 31
0.0
  0
LINE
  5
B0DF
330
18
100
AcDbEntity
  8
1DIM
100
AcDbLine
 10
-42.7438764664133
 20
26.61946494291612
 30
0.0
 11
-24.74387646641526
 21
26.61946494291612
 31
0.0
  0
LINE
  5
B0E3
330
18
100
AcDbEntity
  8
1DIM
100
AcDbLine
 10
-15.24387646641611
 20
26.61946494291612
 30
0.0
 11
-15.24387646641611
 21
15.61946494291611
 31
0.0
  0
LINE
  5
B0E4
330
18
100
AcDbEntity
  8
1DIM
100
AcDbLine
 10
-72.24387646641517
 20
47.11946494291921
 30
0.0
 11
-72.24387646641517
 21
15.61946494291611
 31
0.0
  0
LINE
  5
B0E5
330
18
100
AcDbEntity
  8
1DIM
100
AcDbLine
 10
-17.24387646641611
 20
16.61946494291611
 30
0.0
 11
-70.24387646641517
 21
16.61946494291611
 31
0.0
  0
LINE
  5
B0E9
330
18
100
AcDbEntity
  8
1DIM
100
AcDbLine
 10
-103.7438764664152
 20
46.61946494291897
 30
0.0
 11
-103.7438764664152
 21
25.61946494291618
 31
0.0
  0
LINE
  5
B0EA
330
18
100
AcDbEntity
  8
1DIM
100
AcDbLine
 10
-116.7438764664179
 20
47.11946494291635
 30
0.0
 11
-116.7438764664179
 21
25.61946494291618
 31
0.0
  0
LINE
  5
B0EB
330
18
100
AcDbEntity
  8
1DIM
100
AcDbLine
 10
-105.7438764664152
 20
26.61946494291618
 30
0.0
 11
-114.7438764664179
 21
26.61946494291618
 31
0.0
  0
LINE
  5
B0EF
330
18
100
AcDbEntity
  8
1DIM
100
AcDbLine
 10
-103.7438764664152
 20
26.61946494291619
 30
0.0
 11
-103.7438764664152
 21
27.61946494291619
 31
0.0
  0
LINE
  5
B0F0
330
18
100
AcDbEntity
  8
1DIM
100
AcDbLine
 10
-102.2438764664152
 20
47.11946494291897
 30
0.0
 11
-102.2438764664152
 21
25.61946494291619
 31
0.0
  0
LINE
  5
B0F1
330
18
100
AcDbEntity
  8
1DIM
100
AcDbLine
 10
-105.7438764664152
 20
26.61946494291619
 30
0.0
 11
-107.7438764664152
 21
26.61946494291619
 31
0.0
  0
LINE
  5
B0F2
330
18
100
AcDbEntity
  8
1DIM
100
AcDbLine
 10
-100.2438764664152
 20
26.61946494291619
 30
0.0
 11
-90.01054313308185
 21
26.61946494291619
 31
0.0
  0
LINE
  5
B0F3
330
18
100
AcDbEntity
  8
1DIM
100
AcDbLine
 10
-103.7438764664152
 20
26.61946494291619
 30
0.0
 11
-102.2438764664152
 21
26.61946494291619
 31
0.0
  0
LINE
  5
B0F7
330
18
100
AcDbEntity
  8
1DIM
100
AcDbLine
 10
-116.7438764664178
 20
26.61946494291615
 30
0.0
 11
-116.7438764664178
 21
15.61946494291617
 31
0.0
  0
LINE
  5
B0F8
330
18
100
AcDbEntity
  8
1DIM
100
AcDbLine
 10
-102.2438764664171
 20
26.61946494291616
 30
0.0
 11
-102.2438764664171
 21
15.61946494291617
 31
0.0
  0
LINE
  5
B0F9
330
18
100
AcDbEntity
  8
1DIM
100
AcDbLine
 10
-114.7438764664178
 20
16.61946494291617
 30
0.0
 11
-104.2438764664171
 21
16.61946494291617
 31
0.0
  0
LINE
  5
B0FD
330
18
100
AcDbEntity
  8
1DIM
100
AcDbLine
 10
-175.8987221282537
 20
49.90329185037074
 30
0.0
 11
-157.9466086062567
 21
29.96006816601809
 31
0.0
  0
LINE
  5
B0FE
330
18
100
AcDbEntity
  8
1DIM
100
AcDbLine
 10
-179.2438764664252
 20
53.61946494292022
 30
0.0
 11
-177.2367838635229
 21
51.38976108739122
 31
0.0
  0
LINE
  5
B101
330
18
100
AcDbEntity
  8
1DIM
100
AcDbLine
 10
-176.2438764664287
 20
53.61946494291708
 30
0.0
 11
-176.2438764664287
 21
25.61946494291617
 31
0.0
  0
LINE
  5
B102
330
18
100
AcDbEntity
  8
1DIM
100
AcDbLine
 10
-189.243876466427
 20
46.6194649429162
 30
0.0
 11
-189.243876466427
 21
25.61946494291617
 31
0.0
  0
LINE
  5
B103
330
18
100
AcDbEntity
  8
1DIM
100
AcDbLine
 10
-178.2438764664287
 20
26.61946494291617
 30
0.0
 11
-187.243876466427
 21
26.61946494291617
 31
0.0
  0
LINE
  5
B107
330
18
100
AcDbEntity
  8
1DIM
100
AcDbLine
 10
-176.2438764664287
 20
26.61946494291617
 30
0.0
 11
-176.2438764664287
 21
15.61946494291623
 31
0.0
  0
LINE
  5
B108
330
18
100
AcDbEntity
  8
1DIM
100
AcDbLine
 10
-223.7438764664269
 20
53.61946494292073
 30
0.0
 11
-223.7438764664269
 21
15.61946494291622
 31
0.0
  0
LINE
  5
B109
330
18
100
AcDbEntity
  8
1DIM
100
AcDbLine
 10
-178.2438764664287
 20
16.61946494291623
 30
0.0
 11
-221.7438764664269
 21
16.61946494291623
 31
0.0
  0
LINE
  5
B10D
330
18
100
AcDbEntity
  8
1DIM
100
AcDbLine
 10
-176.2438764664287
 20
16.61946494291618
 30
0.0
 11
-176.2438764664287
 21
17.61946494291619
 31
0.0
  0
LINE
  5
B10E
330
18
100
AcDbEntity
  8
1DIM
100
AcDbLine
 10
-170.7438764664307
 20
47.53631938924779
 30
0.0
 11
-170.7438764664307
 21
15.61946494291619
 31
0.0
  0
LINE
  5
B10F
330
18
100
AcDbEntity
  8
1DIM
100
AcDbLine
 10
-174.2438764664287
 20
16.61946494291619
 30
0.0
 11
-172.7438764664307
 21
16.61946494291619
 31
0.0
  0
LINE
  5
B110
330
18
100
AcDbEntity
  8
1DIM
100
AcDbLine
 10
-170.7438764664307
 20
16.61946494291619
 30
0.0
 11
-160.0105431330973
 21
16.61946494291619
 31
0.0
  0
LINE
  5
B114
330
18
100
AcDbEntity
  8
1DIM
100
AcDbLine
 10
-223.743876466427
 20
16.6194649429162
 30
0.0
 11
-223.743876466427
 21
15.6194649429162
 31
0.0
  0
LINE
  5
B115
330
18
100
AcDbEntity
  8
1DIM
100
AcDbLine
 10
-227.743876466427
 20
47.11946494292073
 30
0.0
 11
-227.743876466427
 21
15.6194649429162
 31
0.0
  0
LINE
  5
B116
330
18
100
AcDbEntity
  8
1DIM
100
AcDbLine
 10
-221.743876466427
 20
16.6194649429162
 30
0.0
 11
-219.743876466427
 21
16.6194649429162
 31
0.0
  0
LINE
  5
B117
330
18
100
AcDbEntity
  8
1DIM
100
AcDbLine
 10
-229.743876466427
 20
16.6194649429162
 30
0.0
 11
-235.643876466427
 21
16.6194649429162
 31
0.0
  0
LINE
  5
B118
330
18
100
AcDbEntity
  8
1DIM
100
AcDbLine
 10
-223.743876466427
 20
16.6194649429162
 30
0.0
 11
-227.743876466427
 21
16.6194649429162
 31
0.0
  0
LINE
  5
B11C
330
18
100
AcDbEntity
  8
1DIM
100
AcDbLine
 10
-211.5505675177277
 20
125.6194649429162
 30
0.0
 11
-155.7438764664197
 21
125.6194649429162
 31
0.0
  0
LINE
  5
B11D
330
18
100
AcDbEntity
  8
1DIM
100
AcDbLine
 10
-211.5505675177277
 20
52.61946494292074
 30
0.0
 11
-155.7438764664197
 21
52.61946494292073
 31
0.0
  0
LINE
  5
B11E
330
18
100
AcDbEntity
  8
1DIM
100
AcDbLine
 10
-156.7438764664197
 20
123.6194649429162
 30
0.0
 11
-156.7438764664197
 21
54.61946494292073
 31
0.0
  0
LINE
  5
B122
330
18
100
AcDbEntity
  8
1DIM
100
AcDbLine
 10
-183.7438764664217
 20
127.619464942917
 30
0.0
 11
-145.7438764664197
 21
127.619464942917
 31
0.0
  0
LINE
  5
B123
330
18
100
AcDbEntity
  8
1DIM
100
AcDbLine
 10
-183.7438764664199
 20
50.61946494292073
 30
0.0
 11
-145.7438764664197
 21
50.61946494292072
 31
0.0
  0
LINE
  5
B124
330
18
100
AcDbEntity
  8
1DIM
100
AcDbLine
 10
-146.7438764664197
 20
125.619464942917
 30
0.0
 11
-146.7438764664197
 21
52.61946494292072
 31
0.0
  0
LINE
  5
B128
330
18
100
AcDbEntity
  8
1DIM
100
AcDbLine
 10
-146.7438764664197
 20
127.619464942917
 30
0.0
 11
-147.7438764664197
 21
127.619464942917
 31
0.0
  0
LINE
  5
B129
330
18
100
AcDbEntity
  8
1DIM
100
AcDbLine
 10
-177.2438764664197
 20
131.6194649429171
 30
0.0
 11
-145.7438764664197
 21
131.6194649429171
 31
0.0
  0
LINE
  5
B12A
330
18
100
AcDbEntity
  8
1DIM
100
AcDbLine
 10
-146.7438764664197
 20
125.619464942917
 30
0.0
 11
-146.7438764664197
 21
123.619464942917
 31
0.0
  0
LINE
  5
B12B
330
18
100
AcDbEntity
  8
1DIM
100
AcDbLine
 10
-146.7438764664197
 20
133.6194649429171
 30
0.0
 11
-146.7438764664197
 21
139.5194649429171
 31
0.0
  0
LINE
  5
B12C
330
18
100
AcDbEntity
  8
1DIM
100
AcDbLine
 10
-146.7438764664197
 20
127.619464942917
 30
0.0
 11
-146.7438764664197
 21
131.6194649429171
 31
0.0
  0
LINE
  5
B130
330
18
100
AcDbEntity
  8
1DIM
100
AcDbLine
 10
-146.7438764664197
 20
50.61946494292077
 30
0.0
 11
-147.7438764664197
 21
50.61946494292077
 31
0.0
  0
LINE
  5
B131
330
18
100
AcDbEntity
  8
1DIM
100
AcDbLine
 10
-177.2438764664199
 20
46.61946494291618
 30
0.0
 11
-145.7438764664197
 21
46.61946494291617
 31
0.0
  0
LINE
  5
B132
330
18
100
AcDbEntity
  8
1DIM
100
AcDbLine
 10
-146.7438764664197
 20
52.61946494292077
 30
0.0
 11
-146.7438764664197
 21
54.61946494292077
 31
0.0
  0
LINE
  5
B133
330
18
100
AcDbEntity
  8
1DIM
100
AcDbLine
 10
-146.7438764664197
 20
44.61946494291617
 30
0.0
 11
-146.7438764664197
 21
38.71946494291618
 31
0.0
  0
LINE
  5
B134
330
18
100
AcDbEntity
  8
1DIM
100
AcDbLine
 10
-146.7438764664197
 20
50.61946494292077
 30
0.0
 11
-146.7438764664197
 21
46.61946494291617
 31
0.0
  0
LINE
  5
B138
330
18
100
AcDbEntity
  8
1DIM
100
AcDbLine
 10
64.77744545503953
 20
128.8084568782455
 30
0.0
 11
59.82722926079049
 21
136.4044955876413
 31
0.0
  0
LINE
  5
B139
330
18
100
AcDbEntity
  8
1DIM
100
AcDbLine
 10
67.5073440915739
 20
124.619464942917
 30
0.0
 11
65.8694049096533
 21
127.1328601041141
 31
0.0
  0
LINE
  5
B13C
330
18
100
AcDbEntity
  8
1DIM
100
AcDbLine
 10
64.50734409157195
 20
53.61946494292073
 30
0.0
 11
64.50734409157195
 21
33.23033450268213
 31
0.0
  0
LINE
  5
B13D
330
18
100
AcDbEntity
  8
1DIM
100
AcDbLine
 10
112.0073440915702
 20
53.61946494291712
 30
0.0
 11
112.0073440915702
 21
33.23033450268213
 31
0.0
  0
LINE
  5
B13E
330
18
100
AcDbEntity
  8
1DIM
100
AcDbLine
 10
66.50734409157195
 20
34.23033450268213
 30
0.0
 11
110.0073440915702
 21
34.23033450268213
 31
0.0
  0
LINE
  5
B142
330
18
100
AcDbEntity
  8
1DIM
100
AcDbLine
 10
52.3794043322228
 20
46.61946494291898
 30
0.0
 11
52.3794043322228
 21
33.23033450268213
 31
0.0
  0
LINE
  5
B143
330
18
100
AcDbEntity
  8
1DIM
100
AcDbLine
 10
38.87940433222282
 20
50.61946494291989
 30
0.0
 11
38.87940433222282
 21
33.23033450268213
 31
0.0
  0
LINE
  5
B144
330
18
100
AcDbEntity
  8
1DIM
100
AcDbLine
 10
50.3794043322228
 20
34.23033450268213
 30
0.0
 11
40.87940433222282
 21
34.23033450268213
 31
0.0
  0
LINE
  5
B148
330
18
100
AcDbEntity
  8
1DIM
100
AcDbLine
 10
109.0073440915702
 20
127.6194649429161
 30
0.0
 11
125.9919161144553
 21
127.6194649429161
 31
0.0
  0
LINE
  5
B149
330
18
100
AcDbEntity
  8
1DIM
100
AcDbLine
 10
109.0073440915697
 20
50.61946494291708
 30
0.0
 11
125.9919161144553
 21
50.61946494291708
 31
0.0
  0
LINE
  5
B14A
330
18
100
AcDbEntity
  8
1DIM
100
AcDbLine
 10
124.9919161144553
 20
125.6194649429161
 30
0.0
 11
124.9919161144553
 21
52.61946494291708
 31
0.0
  0
LINE
  5
B14E
330
18
100
AcDbEntity
  8
1DIM
100
AcDbLine
 10
-117.6429582515806
 20
-20.94453554104632
 30
0.0
 11
-117.6429582515806
 21
-35.13089060880259
 31
0.0
  0
LINE
  5
B14F
330
18
100
AcDbEntity
  8
1DIM
100
AcDbLine
 10
-130.6429582515802
 20
-19.34453554104641
 30
0.0
 11
-130.6429582515802
 21
-35.13089060880259
 31
0.0
  0
LINE
  5
B150
330
18
100
AcDbEntity
  8
1DIM
100
AcDbLine
 10
-119.6429582515806
 20
-34.13089060880259
 30
0.0
 11
-128.6429582515802
 21
-34.13089060880259
 31
0.0
  0
LINE
  5
B154
330
18
100
AcDbEntity
  8
1DIM
100
AcDbLine
 10
-129.4305226862816
 20
-18.64453554104659
 30
0.0
 11
-142.5062221493317
 21
-18.64453554104659
 31
0.0
1001
ACAD
1000
DSTYLE
1002
{
1070
     3
1000
φ<>
1002
}
  0
LINE
  5
B155
330
18
100
AcDbEntity
  8
1DIM
100
AcDbLine
 10
-129.4305226862816
 20
-20.04453554104623
 30
0.0
 11
-142.5062221493317
 21
-20.04453554104623
 31
0.0
1001
ACAD
1000
DSTYLE
1002
{
1070
     3
1000
φ<>
1002
}
  0
LINE
  5
B156
330
18
100
AcDbEntity
  8
1DIM
100
AcDbLine
 10
-141.5062221493317
 20
-16.64453554104659
 30
0.0
 11
-141.5062221493317
 21
-14.64453554104659
 31
0.0
1001
ACAD
1000
DSTYLE
1002
{
1070
     3
1000
φ<>
1002
}
  0
LINE
  5
B157
330
18
100
AcDbEntity
  8
1DIM
100
AcDbLine
 10
-141.5062221493317
 20
-22.04453554104623
 30
0.0
 11
-141.5062221493317
 21
-36.94453554104624
 31
0.0
1001
ACAD
1000
DSTYLE
1002
{
1070
     3
1000
φ<>
1002
}
  0
LINE
  5
B158
330
18
100
AcDbEntity
  8
1DIM
100
AcDbLine
 10
-141.5062221493317
 20
-18.64453554104659
 30
0.0
 11
-141.5062221493317
 21
-20.04453554104623
 31
0.0
1001
ACAD
1000
DSTYLE
1002
{
1070
     3
1000
φ<>
1002
}
  0
LINE
  5
B15C
330
18
100
AcDbEntity
  8
1DIM
100
AcDbLine
 10
-147.743876466427
 20
-3.380535057083875
 30
0.0
 11
-109.4859012983265
 21
-3.380535057083875
 31
0.0
  0
LINE
  5
B15D
330
18
100
AcDbEntity
  8
1DIM
100
AcDbLine
 10
-109.4859012983265
 20
-3.380535057083875
 30
0.0
 11
-109.4859012983265
 21
-44.93646607214407
 31
0.0
  0
LINE
  5
B15E
330
18
100
AcDbEntity
  8
1DIM
100
AcDbLine
 10
-109.4859012983265
 20
-44.93646607214407
 30
0.0
 11
-147.743876466427
 21
-44.93646607214407
 31
0.0
  0
LINE
  5
B15F
330
18
100
AcDbEntity
  8
1DIM
100
AcDbLine
 10
-147.743876466427
 20
-44.93646607214407
 30
0.0
 11
-147.743876466427
 21
-3.380535057083875
 31
0.0
  0
TEXT
  5
B160
330
18
100
AcDbEntity
  8
1TEXT
  6
CONTINUOUS
100
AcDbText
 10
-135.6801545236198
 20
-42.44766416320192
 30
0.0
 40
4.0
  1
付属品
100
AcDbText
  0
LINE
  5
B161
330
18
100
AcDbEntity
  8
1DIM
100
AcDbLine
 10
-32.3392173775997
 20
3.156576064689533
 30
0.0
 11
-31.37048697152097
 21
4.906307872807147
 31
0.0
1001
ACAD_DSTYLE_DIMRADIAL_EXTE
1070
   387
1070
     1
1070
   388
1040
0.0
1070
   390
1040
0.0
1001
ACAD
1000
DSTYLE
1002
{
1070
     3
1000
φ<>
1002
}
  0
LINE
  5
B162
330
18
100
AcDbEntity
  8
1DIM
100
AcDbLine
 10
-35.14853555522802
 20
-1.917646178851546
 30
0.0
 11
-46.85292588268455
 21
-23.0582482721344
 31
0.0
1001
ACAD_DSTYLE_DIMRADIAL_EXTE
1070
   387
1070
     1
1070
   388
1040
0.0
1070
   390
1040
0.0
1001
ACAD
1000
DSTYLE
1002
{
1070
     3
1000
φ<>
1002
}
  0
LINE
  5
B163
330
18
100
AcDbEntity
  8
1DIM
100
AcDbLine
 10
-33.30794778367843
 20
1.406844256571921
 30
0.0
 11
-34.1798051491493
 21
-0.1679143707339321
 31
0.0
1001
ACAD_DSTYLE_DIMRADIAL_EXTE
1070
   387
1070
     1
1070
   388
1040
0.0
1070
   390
1040
0.0
1001
ACAD
1000
DSTYLE
1002
{
1070
     3
1000
φ<>
1002
}
  0
LINE
  5
B168
330
18
100
AcDbEntity
  8
1DIM
  6
BYBLOCK
100
AcDbLine
 10
-129.3499814584594
 20
144.3266198718498
 30
0.0
 11
-175.9166481251261
 21
144.3266198718498
 31
0.0
  0
LINE
  5
B16A
330
18
100
AcDbEntity
  8
1DIM
  6
BYBLOCK
100
AcDbLine
 10
-118.0888047209134
 20
123.7002445307729
 30
0.0
 11
-129.3499814584594
 21
144.3266198718498
 31
0.0
  0
LINE
  5
B16C
330
18
100
AcDbEntity
  8
1DIM
  6
BYBLOCK
100
AcDbLine
 10
-93.5134838069878
 20
142.9211142977964
 30
0.0
 11
-46.94681714032112
 21
142.9211142977964
 31
0.0
  0
LINE
  5
B16E
330
18
100
AcDbEntity
  8
1DIM
  6
BYBLOCK
100
AcDbLine
 10
-101.3128949712297
 20
128.0918393725845
 30
0.0
 11
-93.5134838069878
 21
142.9211142977964
 31
0.0
  0
LINE
  5
B16F
330
18
100
AcDbEntity
  8
0
  6
BYBLOCK
100
AcDbLine
 10
5.292021913583604
 20
2.619464942918871
 30
0.0
 11
4.756123533583603
 21
0.619464942918871
 31
0.0
  0
LINE
  5
B170
330
18
100
AcDbEntity
  8
0
  6
BYBLOCK
100
AcDbLine
 10
4.756123533583603
 20
0.619464942918871
 30
0.0
 11
4.220225153583603
 21
2.619464942918871
 31
0.0
  0
LINE
  5
B171
330
18
100
AcDbEntity
  8
0
  6
BYBLOCK
100
AcDbLine
 10
4.756123533583603
 20
0.619464942918871
 30
0.0
 11
4.756123533583603
 21
2.619464942918871
 31
0.0
  0
LINE
  5
B172
330
18
100
AcDbEntity
  8
0
  6
BYBLOCK
100
AcDbLine
 10
4.220225153583605
 20
4.619464942920235
 30
0.0
 11
4.756123533583605
 21
6.619464942920235
 31
0.0
  0
LINE
  5
B173
330
18
100
AcDbEntity
  8
0
  6
BYBLOCK
100
AcDbLine
 10
4.756123533583605
 20
6.619464942920235
 30
0.0
 11
5.292021913583604
 21
4.619464942920235
 31
0.0
  0
LINE
  5
B174
330
18
100
AcDbEntity
  8
0
  6
BYBLOCK
100
AcDbLine
 10
4.756123533583605
 20
6.619464942920235
 30
0.0
 11
4.756123533583605
 21
4.619464942920235
 31
0.0
  0
TEXT
  5
B175
330
18
100
AcDbEntity
  8
1DIM
  6
CONTINUOUS
100
AcDbText
 10
4.056123533583603
 20
2.452798276252887
 30
0.0
 40
3.5
  1
6
 50
90.0
100
AcDbText
  0
LINE
  5
B176
330
18
100
AcDbEntity
  8
0
  6
BYBLOCK
100
AcDbLine
 10
4.22022515358362
 20
122.1194649429144
 30
0.0
 11
4.75612353358362
 21
124.1194649429144
 31
0.0
  0
LINE
  5
B177
330
18
100
AcDbEntity
  8
0
  6
BYBLOCK
100
AcDbLine
 10
4.75612353358362
 20
124.1194649429144
 30
0.0
 11
5.29202191358362
 21
122.1194649429144
 31
0.0
  0
LINE
  5
B178
330
18
100
AcDbEntity
  8
0
  6
BYBLOCK
100
AcDbLine
 10
4.75612353358362
 20
124.1194649429144
 30
0.0
 11
4.75612353358362
 21
122.1194649429144
 31
0.0
  0
LINE
  5
B179
330
18
100
AcDbEntity
  8
0
  6
BYBLOCK
100
AcDbLine
 10
5.292021913583605
 20
56.11946494291464
 30
0.0
 11
4.756123533583605
 21
54.11946494291464
 31
0.0
  0
LINE
  5
B17A
330
18
100
AcDbEntity
  8
0
  6
BYBLOCK
100
AcDbLine
 10
4.756123533583605
 20
54.11946494291464
 30
0.0
 11
4.220225153583605
 21
56.11946494291464
 31
0.0
  0
LINE
  5
B17B
330
18
100
AcDbEntity
  8
0
  6
BYBLOCK
100
AcDbLine
 10
4.756123533583605
 20
54.11946494291464
 30
0.0
 11
4.756123533583605
 21
56.11946494291464
 31
0.0
  0
TEXT
  5
B17C
330
18
100
AcDbEntity
  8
1DIM
  6
CONTINUOUS
100
AcDbText
 10
4.056123533583602
 20
86.42154827624786
 30
0.0
 40
3.5
  1
70
 50
90.0
100
AcDbText
  0
LINE
  5
B17D
330
18
100
AcDbEntity
  8
0
  6
BYBLOCK
100
AcDbLine
 10
14.22022515358339
 20
129.6194649429165
 30
0.0
 11
14.75612353358339
 21
131.6194649429165
 31
0.0
  0
LINE
  5
B17E
330
18
100
AcDbEntity
  8
0
  6
BYBLOCK
100
AcDbLine
 10
14.75612353358339
 20
131.6194649429165
 30
0.0
 11
15.29202191358339
 21
129.6194649429165
 31
0.0
  0
LINE
  5
B17F
330
18
100
AcDbEntity
  8
0
  6
BYBLOCK
100
AcDbLine
 10
14.75612353358339
 20
131.6194649429165
 30
0.0
 11
14.75612353358339
 21
129.6194649429165
 31
0.0
  0
LINE
  5
B180
330
18
100
AcDbEntity
  8
0
  6
BYBLOCK
100
AcDbLine
 10
15.29202191358338
 20
48.61946494291465
 30
0.0
 11
14.75612353358338
 21
46.61946494291465
 31
0.0
  0
LINE
  5
B181
330
18
100
AcDbEntity
  8
0
  6
BYBLOCK
100
AcDbLine
 10
14.75612353358338
 20
46.61946494291465
 30
0.0
 11
14.22022515358338
 21
48.61946494291465
 31
0.0
  0
LINE
  5
B182
330
18
100
AcDbEntity
  8
0
  6
BYBLOCK
100
AcDbLine
 10
14.75612353358338
 20
46.61946494291465
 30
0.0
 11
14.75612353358338
 21
48.61946494291465
 31
0.0
  0
TEXT
  5
B183
330
18
100
AcDbEntity
  8
1DIM
  6
CONTINUOUS
100
AcDbText
 10
14.05612353358339
 20
86.2027982762489
 30
0.0
 40
3.5
  1
85
 50
90.0
100
AcDbText
  0
LINE
  5
B184
330
18
100
AcDbEntity
  8
0
  6
BYBLOCK
100
AcDbLine
 10
-20.74387646641514
 20
26.08356656291612
 30
0.0
 11
-22.74387646641514
 21
26.61946494291612
 31
0.0
  0
LINE
  5
B185
330
18
100
AcDbEntity
  8
0
  6
BYBLOCK
100
AcDbLine
 10
-22.74387646641514
 20
26.61946494291612
 30
0.0
 11
-20.74387646641514
 21
27.15536332291612
 31
0.0
  0
LINE
  5
B186
330
18
100
AcDbEntity
  8
0
  6
BYBLOCK
100
AcDbLine
 10
-22.74387646641514
 20
26.61946494291612
 30
0.0
 11
-20.74387646641514
 21
26.61946494291612
 31
0.0
  0
LINE
  5
B187
330
18
100
AcDbEntity
  8
0
  6
BYBLOCK
100
AcDbLine
 10
-17.24387646641617
 20
27.15536332291612
 30
0.0
 11
-15.24387646641617
 21
26.61946494291612
 31
0.0
  0
LINE
  5
B188
330
18
100
AcDbEntity
  8
0
  6
BYBLOCK
100
AcDbLine
 10
-15.24387646641617
 20
26.61946494291612
 30
0.0
 11
-17.24387646641617
 21
26.08356656291612
 31
0.0
  0
LINE
  5
B189
330
18
100
AcDbEntity
  8
0
  6
BYBLOCK
100
AcDbLine
 10
-15.24387646641617
 20
26.61946494291612
 30
0.0
 11
-17.24387646641617
 21
26.61946494291612
 31
0.0
  0
TEXT
  5
B18A
330
18
100
AcDbEntity
  8
1DIM
  6
CONTINUOUS
100
AcDbText
 10
-12.3772097997495
 20
27.31946494291612
 30
0.0
 40
3.5
  1
7.5
100
AcDbText
  0
LINE
  5
B18B
330
18
100
AcDbEntity
  8
0
  6
BYBLOCK
100
AcDbLine
 10
-42.7438764664133
 20
26.08356656291612
 30
0.0
 11
-44.7438764664133
 21
26.61946494291612
 31
0.0
  0
LINE
  5
B18C
330
18
100
AcDbEntity
  8
0
  6
BYBLOCK
100
AcDbLine
 10
-44.7438764664133
 20
26.61946494291612
 30
0.0
 11
-42.7438764664133
 21
27.15536332291612
 31
0.0
  0
LINE
  5
B18D
330
18
100
AcDbEntity
  8
0
  6
BYBLOCK
100
AcDbLine
 10
-44.7438764664133
 20
26.61946494291612
 30
0.0
 11
-42.7438764664133
 21
26.61946494291612
 31
0.0
  0
LINE
  5
B18E
330
18
100
AcDbEntity
  8
0
  6
BYBLOCK
100
AcDbLine
 10
-24.74387646641526
 20
27.15536332291612
 30
0.0
 11
-22.74387646641526
 21
26.61946494291612
 31
0.0
  0
LINE
  5
B18F
330
18
100
AcDbEntity
  8
0
  6
BYBLOCK
100
AcDbLine
 10
-22.74387646641526
 20
26.61946494291612
 30
0.0
 11
-24.74387646641526
 21
26.08356656291612
 31
0.0
  0
LINE
  5
B190
330
18
100
AcDbEntity
  8
0
  6
BYBLOCK
100
AcDbLine
 10
-22.74387646641526
 20
26.61946494291612
 30
0.0
 11
-24.74387646641526
 21
26.61946494291612
 31
0.0
  0
TEXT
  5
B191
330
18
100
AcDbEntity
  8
1DIM
  6
CONTINUOUS
100
AcDbText
 10
-36.66054313308094
 20
27.31946494291612
 30
0.0
 40
3.5
  1
22
100
AcDbText
  0
LINE
  5
B192
330
18
100
AcDbEntity
  8
0
  6
BYBLOCK
100
AcDbLine
 10
-17.24387646641611
 20
17.15536332291611
 30
0.0
 11
-15.24387646641611
 21
16.61946494291611
 31
0.0
  0
LINE
  5
B193
330
18
100
AcDbEntity
  8
0
  6
BYBLOCK
100
AcDbLine
 10
-15.24387646641611
 20
16.61946494291611
 30
0.0
 11
-17.24387646641611
 21
16.08356656291611
 31
0.0
  0
LINE
  5
B194
330
18
100
AcDbEntity
  8
0
  6
BYBLOCK
100
AcDbLine
 10
-15.24387646641611
 20
16.61946494291611
 30
0.0
 11
-17.24387646641611
 21
16.61946494291611
 31
0.0
  0
LINE
  5
B195
330
18
100
AcDbEntity
  8
0
  6
BYBLOCK
100
AcDbLine
 10
-70.24387646641517
 20
16.08356656291611
 30
0.0
 11
-72.24387646641517
 21
16.61946494291611
 31
0.0
  0
LINE
  5
B196
330
18
100
AcDbEntity
  8
0
  6
BYBLOCK
100
AcDbLine
 10
-72.24387646641517
 20
16.61946494291611
 30
0.0
 11
-70.24387646641517
 21
17.15536332291611
 31
0.0
  0
LINE
  5
B197
330
18
100
AcDbEntity
  8
0
  6
BYBLOCK
100
AcDbLine
 10
-72.24387646641517
 20
16.61946494291611
 30
0.0
 11
-70.24387646641517
 21
16.61946494291611
 31
0.0
  0
TEXT
  5
B198
330
18
100
AcDbEntity
  8
1DIM
  6
CONTINUOUS
100
AcDbText
 10
-46.67269591086009
 20
17.31946494291611
 30
0.0
 40
3.5
  1
57
100
AcDbText
  0
LINE
  5
B199
330
18
100
AcDbEntity
  8
0
  6
BYBLOCK
100
AcDbLine
 10
-105.7438764664152
 20
27.15536332291618
 30
0.0
 11
-103.7438764664152
 21
26.61946494291618
 31
0.0
  0
LINE
  5
B19A
330
18
100
AcDbEntity
  8
0
  6
BYBLOCK
100
AcDbLine
 10
-103.7438764664152
 20
26.61946494291618
 30
0.0
 11
-105.7438764664152
 21
26.08356656291618
 31
0.0
  0
LINE
  5
B19B
330
18
100
AcDbEntity
  8
0
  6
BYBLOCK
100
AcDbLine
 10
-103.7438764664152
 20
26.61946494291618
 30
0.0
 11
-105.7438764664152
 21
26.61946494291618
 31
0.0
  0
LINE
  5
B19C
330
18
100
AcDbEntity
  8
0
  6
BYBLOCK
100
AcDbLine
 10
-114.7438764664179
 20
26.08356656291618
 30
0.0
 11
-116.7438764664179
 21
26.61946494291618
 31
0.0
  0
LINE
  5
B19D
330
18
100
AcDbEntity
  8
0
  6
BYBLOCK
100
AcDbLine
 10
-116.7438764664179
 20
26.61946494291618
 30
0.0
 11
-114.7438764664179
 21
27.15536332291618
 31
0.0
  0
LINE
  5
B19E
330
18
100
AcDbEntity
  8
0
  6
BYBLOCK
100
AcDbLine
 10
-116.7438764664179
 20
26.61946494291618
 30
0.0
 11
-114.7438764664179
 21
26.61946494291618
 31
0.0
  0
TEXT
  5
B19F
330
18
100
AcDbEntity
  8
1DIM
  6
CONTINUOUS
100
AcDbText
 10
-112.5772097997499
 20
27.31946494291618
 30
0.0
 40
3.5
  1
13
100
AcDbText
  0
LINE
  5
B1A0
330
18
100
AcDbEntity
  8
0
  6
BYBLOCK
100
AcDbLine
 10
-105.7438764664152
 20
27.15536332291619
 30
0.0
 11
-103.7438764664152
 21
26.61946494291619
 31
0.0
  0
LINE
  5
B1A1
330
18
100
AcDbEntity
  8
0
  6
BYBLOCK
100
AcDbLine
 10
-103.7438764664152
 20
26.61946494291619
 30
0.0
 11
-105.7438764664152
 21
26.08356656291619
 31
0.0
  0
LINE
  5
B1A2
330
18
100
AcDbEntity
  8
0
  6
BYBLOCK
100
AcDbLine
 10
-103.7438764664152
 20
26.61946494291619
 30
0.0
 11
-105.7438764664152
 21
26.61946494291619
 31
0.0
  0
LINE
  5
B1A3
330
18
100
AcDbEntity
  8
0
  6
BYBLOCK
100
AcDbLine
 10
-100.2438764664152
 20
26.08356656291619
 30
0.0
 11
-102.2438764664152
 21
26.61946494291619
 31
0.0
  0
LINE
  5
B1A4
330
18
100
AcDbEntity
  8
0
  6
BYBLOCK
100
AcDbLine
 10
-102.2438764664152
 20
26.61946494291619
 30
0.0
 11
-100.2438764664152
 21
27.15536332291619
 31
0.0
  0
LINE
  5
B1A5
330
18
100
AcDbEntity
  8
0
  6
BYBLOCK
100
AcDbLine
 10
-102.2438764664152
 20
26.61946494291619
 30
0.0
 11
-100.2438764664152
 21
26.61946494291619
 31
0.0
  0
TEXT
  5
B1A6
330
18
100
AcDbEntity
  8
1DIM
  6
CONTINUOUS
100
AcDbText
 10
-97.0438764664152
 20
27.31946494291619
 30
0.0
 40
3.5
  1
1.5
100
AcDbText
  0
LINE
  5
B1A7
330
18
100
AcDbEntity
  8
0
  6
BYBLOCK
100
AcDbLine
 10
-114.7438764664178
 20
16.08356656291618
 30
0.0
 11
-116.7438764664178
 21
16.61946494291617
 31
0.0
  0
LINE
  5
B1A8
330
18
100
AcDbEntity
  8
0
  6
BYBLOCK
100
AcDbLine
 10
-116.7438764664178
 20
16.61946494291617
 30
0.0
 11
-114.7438764664178
 21
17.15536332291617
 31
0.0
  0
LINE
  5
B1A9
330
18
100
AcDbEntity
  8
0
  6
BYBLOCK
100
AcDbLine
 10
-116.7438764664178
 20
16.61946494291617
 30
0.0
 11
-114.7438764664178
 21
16.61946494291617
 31
0.0
  0
LINE
  5
B1AA
330
18
100
AcDbEntity
  8
0
  6
BYBLOCK
100
AcDbLine
 10
-104.2438764664171
 20
17.15536332291617
 30
0.0
 11
-102.2438764664171
 21
16.61946494291617
 31
0.0
  0
LINE
  5
B1AB
330
18
100
AcDbEntity
  8
0
  6
BYBLOCK
100
AcDbLine
 10
-102.2438764664171
 20
16.61946494291617
 30
0.0
 11
-104.2438764664171
 21
16.08356656291618
 31
0.0
  0
LINE
  5
B1AC
330
18
100
AcDbEntity
  8
0
  6
BYBLOCK
100
AcDbLine
 10
-102.2438764664171
 20
16.61946494291617
 30
0.0
 11
-104.2438764664171
 21
16.61946494291617
 31
0.0
  0
TEXT
  5
B1AD
330
18
100
AcDbEntity
  8
1DIM
  6
CONTINUOUS
100
AcDbText
 10
-114.1605431330841
 20
17.31946494291617
 30
0.0
 40
3.5
  1
14.5
100
AcDbText
  0
LINE
  5
B1AE
330
18
100
AcDbEntity
  8
0
  6
BYBLOCK
100
AcDbLine
 10
-176.2970203562732
 20
49.54475929223536
 30
0.0
 11
-177.2367838635229
 21
51.38976108739122
 31
0.0
  0
LINE
  5
B1AF
330
18
100
AcDbEntity
  8
0
  6
BYBLOCK
100
AcDbLine
 10
-177.2367838635229
 20
51.38976108739122
 30
0.0
 11
-175.5004239002341
 21
50.26182440850614
 31
0.0
  0
LINE
  5
B1B0
330
18
100
AcDbEntity
  8
0
  6
BYBLOCK
100
AcDbLine
 10
-177.2367838635229
 20
51.38976108739122
 30
0.0
 11
-175.8987221282536
 21
49.90329185037074
 31
0.0
  0
TEXT
  5
B1B1
330
18
100
AcDbEntity
  8
1DIM
  6
CONTINUOUS
100
AcDbText
 10
-166.7035724044997
 20
40.734576483371
 30
0.0
 40
3.5
  1
4-R3
 50
311.9923107010567
100
AcDbText
  0
LINE
  5
B1B2
330
18
100
AcDbEntity
  8
0
  6
BYBLOCK
100
AcDbLine
 10
-178.2438764664287
 20
27.15536332291617
 30
0.0
 11
-176.2438764664287
 21
26.61946494291617
 31
0.0
  0
LINE
  5
B1B3
330
18
100
AcDbEntity
  8
0
  6
BYBLOCK
100
AcDbLine
 10
-176.2438764664287
 20
26.61946494291617
 30
0.0
 11
-178.2438764664287
 21
26.08356656291617
 31
0.0
  0
LINE
  5
B1B4
330
18
100
AcDbEntity
  8
0
  6
BYBLOCK
100
AcDbLine
 10
-176.2438764664287
 20
26.61946494291617
 30
0.0
 11
-178.2438764664287
 21
26.61946494291617
 31
0.0
  0
LINE
  5
B1B5
330
18
100
AcDbEntity
  8
0
  6
BYBLOCK
100
AcDbLine
 10
-187.243876466427
 20
26.08356656291617
 30
0.0
 11
-189.243876466427
 21
26.61946494291617
 31
0.0
  0
LINE
  5
B1B6
330
18
100
AcDbEntity
  8
0
  6
BYBLOCK
100
AcDbLine
 10
-189.243876466427
 20
26.61946494291617
 30
0.0
 11
-187.243876466427
 21
27.15536332291617
 31
0.0
  0
LINE
  5
B1B7
330
18
100
AcDbEntity
  8
0
  6
BYBLOCK
100
AcDbLine
 10
-189.243876466427
 20
26.61946494291617
 30
0.0
 11
-187.243876466427
 21
26.61946494291617
 31
0.0
  0
TEXT
  5
B1B8
330
18
100
AcDbEntity
  8
1DIM
  6
CONTINUOUS
100
AcDbText
 10
-185.0772097997612
 20
27.31946494291617
 30
0.0
 40
3.5
  1
13
100
AcDbText
  0
LINE
  5
B1B9
330
18
100
AcDbEntity
  8
0
  6
BYBLOCK
100
AcDbLine
 10
-178.2438764664287
 20
17.15536332291623
 30
0.0
 11
-176.2438764664287
 21
16.61946494291623
 31
0.0
  0
LINE
  5
B1BA
330
18
100
AcDbEntity
  8
0
  6
BYBLOCK
100
AcDbLine
 10
-176.2438764664287
 20
16.61946494291623
 30
0.0
 11
-178.2438764664287
 21
16.08356656291623
 31
0.0
  0
LINE
  5
B1BB
330
18
100
AcDbEntity
  8
0
  6
BYBLOCK
100
AcDbLine
 10
-176.2438764664287
 20
16.61946494291623
 30
0.0
 11
-178.2438764664287
 21
16.61946494291623
 31
0.0
  0
LINE
  5
B1BC
330
18
100
AcDbEntity
  8
0
  6
BYBLOCK
100
AcDbLine
 10
-221.7438764664269
 20
16.08356656291623
 30
0.0
 11
-223.7438764664269
 21
16.61946494291623
 31
0.0
  0
LINE
  5
B1BD
330
18
100
AcDbEntity
  8
0
  6
BYBLOCK
100
AcDbLine
 10
-223.7438764664269
 20
16.61946494291623
 30
0.0
 11
-221.7438764664269
 21
17.15536332291623
 31
0.0
  0
LINE
  5
B1BE
330
18
100
AcDbEntity
  8
0
  6
BYBLOCK
100
AcDbLine
 10
-223.7438764664269
 20
16.61946494291623
 30
0.0
 11
-221.7438764664269
 21
16.61946494291623
 31
0.0
  0
TEXT
  5
B1BF
330
18
100
AcDbEntity
  8
1DIM
  6
CONTINUOUS
100
AcDbText
 10
-205.2438764664278
 20
17.31946494291623
 30
0.0
 40
3.5
  1
47.5
100
AcDbText
  0
LINE
  5
B1C0
330
18
100
AcDbEntity
  8
0
  6
BYBLOCK
100
AcDbLine
 10
-174.2438764664287
 20
16.08356656291619
 30
0.0
 11
-176.2438764664287
 21
16.61946494291619
 31
0.0
  0
LINE
  5
B1C1
330
18
100
AcDbEntity
  8
0
  6
BYBLOCK
100
AcDbLine
 10
-176.2438764664287
 20
16.61946494291619
 30
0.0
 11
-174.2438764664287
 21
17.15536332291619
 31
0.0
  0
LINE
  5
B1C2
330
18
100
AcDbEntity
  8
0
  6
BYBLOCK
100
AcDbLine
 10
-176.2438764664287
 20
16.61946494291619
 30
0.0
 11
-174.2438764664287
 21
16.61946494291619
 31
0.0
  0
LINE
  5
B1C3
330
18
100
AcDbEntity
  8
0
  6
BYBLOCK
100
AcDbLine
 10
-172.7438764664307
 20
17.15536332291619
 30
0.0
 11
-170.7438764664307
 21
16.61946494291619
 31
0.0
  0
LINE
  5
B1C4
330
18
100
AcDbEntity
  8
0
  6
BYBLOCK
100
AcDbLine
 10
-170.7438764664307
 20
16.61946494291619
 30
0.0
 11
-172.7438764664307
 21
16.08356656291619
 31
0.0
  0
LINE
  5
B1C5
330
18
100
AcDbEntity
  8
0
  6
BYBLOCK
100
AcDbLine
 10
-170.7438764664307
 20
16.61946494291619
 30
0.0
 11
-172.7438764664307
 21
16.61946494291619
 31
0.0
  0
TEXT
  5
B1C6
330
18
100
AcDbEntity
  8
1DIM
  6
CONTINUOUS
100
AcDbText
 10
-167.8893625775418
 20
17.31946494291619
 30
0.0
 40
3.5
  1
5.5
100
AcDbText
  0
LINE
  5
B1C7
330
18
100
AcDbEntity
  8
0
  6
BYBLOCK
100
AcDbLine
 10
-221.743876466427
 20
16.0835665629162
 30
0.0
 11
-223.743876466427
 21
16.6194649429162
 31
0.0
  0
LINE
  5
B1C8
330
18
100
AcDbEntity
  8
0
  6
BYBLOCK
100
AcDbLine
 10
-223.743876466427
 20
16.6194649429162
 30
0.0
 11
-221.743876466427
 21
17.15536332291619
 31
0.0
  0
LINE
  5
B1C9
330
18
100
AcDbEntity
  8
0
  6
BYBLOCK
100
AcDbLine
 10
-223.743876466427
 20
16.6194649429162
 30
0.0
 11
-221.743876466427
 21
16.6194649429162
 31
0.0
  0
LINE
  5
B1CA
330
18
100
AcDbEntity
  8
0
  6
BYBLOCK
100
AcDbLine
 10
-229.743876466427
 20
17.15536332291619
 30
0.0
 11
-227.743876466427
 21
16.6194649429162
 31
0.0
  0
LINE
  5
B1CB
330
18
100
AcDbEntity
  8
0
  6
BYBLOCK
100
AcDbLine
 10
-227.743876466427
 20
16.6194649429162
 30
0.0
 11
-229.743876466427
 21
16.0835665629162
 31
0.0
  0
LINE
  5
B1CC
330
18
100
AcDbEntity
  8
0
  6
BYBLOCK
100
AcDbLine
 10
-227.743876466427
 20
16.6194649429162
 30
0.0
 11
-229.743876466427
 21
16.6194649429162
 31
0.0
  0
TEXT
  5
B1CD
330
18
100
AcDbEntity
  8
1DIM
  6
CONTINUOUS
100
AcDbText
 10
-234.8605431330937
 20
17.31946494291619
 30
0.0
 40
3.5
  1
4
100
AcDbText
  0
LINE
  5
B1CE
330
18
100
AcDbEntity
  8
0
  6
BYBLOCK
100
AcDbLine
 10
-157.2797748464197
 20
123.6194649429162
 30
0.0
 11
-156.7438764664197
 21
125.6194649429162
 31
0.0
  0
LINE
  5
B1CF
330
18
100
AcDbEntity
  8
0
  6
BYBLOCK
100
AcDbLine
 10
-156.7438764664197
 20
125.6194649429162
 30
0.0
 11
-156.2079780864197
 21
123.6194649429162
 31
0.0
  0
LINE
  5
B1D0
330
18
100
AcDbEntity
  8
0
  6
BYBLOCK
100
AcDbLine
 10
-156.7438764664197
 20
125.6194649429162
 30
0.0
 11
-156.7438764664197
 21
123.6194649429162
 31
0.0
  0
LINE
  5
B1D1
330
18
100
AcDbEntity
  8
0
  6
BYBLOCK
100
AcDbLine
 10
-156.2079780864198
 20
54.61946494292073
 30
0.0
 11
-156.7438764664197
 21
52.61946494292073
 31
0.0
  0
LINE
  5
B1D2
330
18
100
AcDbEntity
  8
0
  6
BYBLOCK
100
AcDbLine
 10
-156.7438764664197
 20
52.61946494292073
 30
0.0
 11
-157.2797748464197
 21
54.61946494292073
 31
0.0
  0
LINE
  5
B1D3
330
18
100
AcDbEntity
  8
0
  6
BYBLOCK
100
AcDbLine
 10
-156.7438764664197
 20
52.61946494292073
 30
0.0
 11
-156.7438764664197
 21
54.61946494292073
 31
0.0
  0
TEXT
  5
B1D4
330
18
100
AcDbEntity
  8
1DIM
  6
CONTINUOUS
100
AcDbText
 10
-157.4438764664197
 20
86.20279827625177
 30
0.0
 40
3.5
  1
73
 50
90.0
100
AcDbText
  0
LINE
  5
B1D5
330
18
100
AcDbEntity
  8
0
  6
BYBLOCK
100
AcDbLine
 10
-147.2797748464197
 20
125.619464942917
 30
0.0
 11
-146.7438764664197
 21
127.619464942917
 31
0.0
  0
LINE
  5
B1D6
330
18
100
AcDbEntity
  8
0
  6
BYBLOCK
100
AcDbLine
 10
-146.7438764664197
 20
127.619464942917
 30
0.0
 11
-146.2079780864197
 21
125.619464942917
 31
0.0
  0
LINE
  5
B1D7
330
18
100
AcDbEntity
  8
0
  6
BYBLOCK
100
AcDbLine
 10
-146.7438764664197
 20
127.619464942917
 30
0.0
 11
-146.7438764664197
 21
125.619464942917
 31
0.0
  0
LINE
  5
B1D8
330
18
100
AcDbEntity
  8
0
  6
BYBLOCK
100
AcDbLine
 10
-146.2079780864198
 20
52.61946494292072
 30
0.0
 11
-146.7438764664197
 21
50.61946494292072
 31
0.0
  0
LINE
  5
B1D9
330
18
100
AcDbEntity
  8
0
  6
BYBLOCK
100
AcDbLine
 10
-146.7438764664197
 20
50.61946494292072
 30
0.0
 11
-147.2797748464197
 21
52.61946494292072
 31
0.0
  0
LINE
  5
B1DA
330
18
100
AcDbEntity
  8
0
  6
BYBLOCK
100
AcDbLine
 10
-146.7438764664197
 20
50.61946494292072
 30
0.0
 11
-146.7438764664197
 21
52.61946494292072
 31
0.0
  0
TEXT
  5
B1DB
330
18
100
AcDbEntity
  8
1DIM
  6
CONTINUOUS
100
AcDbText
 10
-147.4438764664197
 20
86.20279827625217
 30
0.0
 40
3.5
  1
77
 50
90.0
100
AcDbText
  0
LINE
  5
B1DC
330
18
100
AcDbEntity
  8
0
  6
BYBLOCK
100
AcDbLine
 10
-147.2797748464197
 20
125.619464942917
 30
0.0
 11
-146.7438764664197
 21
127.619464942917
 31
0.0
  0
LINE
  5
B1DD
330
18
100
AcDbEntity
  8
0
  6
BYBLOCK
100
AcDbLine
 10
-146.7438764664197
 20
127.619464942917
 30
0.0
 11
-146.2079780864198
 21
125.619464942917
 31
0.0
  0
LINE
  5
B1DE
330
18
100
AcDbEntity
  8
0
  6
BYBLOCK
100
AcDbLine
 10
-146.7438764664197
 20
127.619464942917
 30
0.0
 11
-146.7438764664197
 21
125.619464942917
 31
0.0
  0
LINE
  5
B1DF
330
18
100
AcDbEntity
  8
0
  6
BYBLOCK
100
AcDbLine
 10
-146.2079780864198
 20
133.6194649429171
 30
0.0
 11
-146.7438764664197
 21
131.6194649429171
 31
0.0
  0
LINE
  5
B1E0
330
18
100
AcDbEntity
  8
0
  6
BYBLOCK
100
AcDbLine
 10
-146.7438764664197
 20
131.6194649429171
 30
0.0
 11
-147.2797748464197
 21
133.6194649429171
 31
0.0
  0
LINE
  5
B1E1
330
18
100
AcDbEntity
  8
0
  6
BYBLOCK
100
AcDbLine
 10
-146.7438764664197
 20
131.6194649429171
 30
0.0
 11
-146.7438764664197
 21
133.6194649429171
 31
0.0
  0
TEXT
  5
B1E2
330
18
100
AcDbEntity
  8
1DIM
  6
CONTINUOUS
100
AcDbText
 10
-147.4438764664198
 20
136.4027982762504
 30
0.0
 40
3.5
  1
4
 50
90.0
100
AcDbText
  0
LINE
  5
B1E3
330
18
100
AcDbEntity
  8
0
  6
BYBLOCK
100
AcDbLine
 10
-146.2079780864198
 20
52.61946494292077
 30
0.0
 11
-146.7438764664197
 21
50.61946494292077
 31
0.0
  0
LINE
  5
B1E4
330
18
100
AcDbEntity
  8
0
  6
BYBLOCK
100
AcDbLine
 10
-146.7438764664197
 20
50.61946494292077
 30
0.0
 11
-147.2797748464197
 21
52.61946494292077
 31
0.0
  0
LINE
  5
B1E5
330
18
100
AcDbEntity
  8
0
  6
BYBLOCK
100
AcDbLine
 10
-146.7438764664197
 20
50.61946494292077
 30
0.0
 11
-146.7438764664197
 21
52.61946494292077
 31
0.0
  0
LINE
  5
B1E6
330
18
100
AcDbEntity
  8
0
  6
BYBLOCK
100
AcDbLine
 10
-147.2797748464197
 20
44.61946494291617
 30
0.0
 11
-146.7438764664197
 21
46.61946494291617
 31
0.0
  0
LINE
  5
B1E7
330
18
100
AcDbEntity
  8
0
  6
BYBLOCK
100
AcDbLine
 10
-146.7438764664197
 20
46.61946494291617
 30
0.0
 11
-146.2079780864198
 21
44.61946494291617
 31
0.0
  0
LINE
  5
B1E8
330
18
100
AcDbEntity
  8
0
  6
BYBLOCK
100
AcDbLine
 10
-146.7438764664197
 20
46.61946494291617
 30
0.0
 11
-146.7438764664197
 21
44.61946494291617
 31
0.0
  0
TEXT
  5
B1E9
330
18
100
AcDbEntity
  8
1DIM
  6
CONTINUOUS
100
AcDbText
 10
-147.4438764664197
 20
39.50279827624948
 30
0.0
 40
3.5
  1
4
 50
90.0
100
AcDbText
  0
LINE
  5
B1EA
330
18
100
AcDbEntity
  8
0
  6
BYBLOCK
100
AcDbLine
 10
65.22642025343467
 20
129.1010465296221
 30
0.0
 11
65.8694049096533
 21
127.1328601041141
 31
0.0
  0
LINE
  5
B1EB
330
18
100
AcDbEntity
  8
0
  6
BYBLOCK
100
AcDbLine
 10
65.8694049096533
 20
127.1328601041141
 30
0.0
 11
64.32847065664441
 21
128.5158672268689
 31
0.0
  0
LINE
  5
B1EC
330
18
100
AcDbEntity
  8
0
  6
BYBLOCK
100
AcDbLine
 10
65.8694049096533
 20
127.1328601041141
 30
0.0
 11
64.77744545503954
 21
128.8084568782455
 31
0.0
  0
TEXT
  5
B1ED
330
18
100
AcDbEntity
  8
1DIM
  6
CONTINUOUS
100
AcDbText
 10
60.75037563024244
 20
136.2700390580656
 30
0.0
 40
3.5
  1
R3
 50
303.0916402219601
100
AcDbText
  0
LINE
  5
B1EE
330
18
100
AcDbEntity
  8
0
  6
BYBLOCK
100
AcDbLine
 10
66.50734409157195
 20
33.69443612268213
 30
0.0
 11
64.50734409157195
 21
34.23033450268213
 31
0.0
  0
LINE
  5
B1EF
330
18
100
AcDbEntity
  8
0
  6
BYBLOCK
100
AcDbLine
 10
64.50734409157195
 20
34.23033450268213
 30
0.0
 11
66.50734409157195
 21
34.76623288268213
 31
0.0
  0
LINE
  5
B1F0
330
18
100
AcDbEntity
  8
0
  6
BYBLOCK
100
AcDbLine
 10
64.50734409157195
 20
34.23033450268213
 30
0.0
 11
66.50734409157195
 21
34.23033450268213
 31
0.0
  0
LINE
  5
B1F1
330
18
100
AcDbEntity
  8
0
  6
BYBLOCK
100
AcDbLine
 10
110.0073440915702
 20
34.76623288268213
 30
0.0
 11
112.0073440915702
 21
34.23033450268213
 31
0.0
  0
LINE
  5
B1F2
330
18
100
AcDbEntity
  8
0
  6
BYBLOCK
100
AcDbLine
 10
112.0073440915702
 20
34.23033450268213
 30
0.0
 11
110.0073440915702
 21
33.69443612268213
 31
0.0
  0
LINE
  5
B1F3
330
18
100
AcDbEntity
  8
0
  6
BYBLOCK
100
AcDbLine
 10
112.0073440915702
 20
34.23033450268213
 30
0.0
 11
110.0073440915702
 21
34.23033450268213
 31
0.0
  0
TEXT
  5
B1F4
330
18
100
AcDbEntity
  8
1DIM
  6
CONTINUOUS
100
AcDbText
 10
83.0073440915711
 20
34.93033450268213
 30
0.0
 40
3.5
  1
47.5
100
AcDbText
  0
LINE
  5
B1F5
330
18
100
AcDbEntity
  8
0
  6
BYBLOCK
100
AcDbLine
 10
50.3794043322228
 20
34.76623288268213
 30
0.0
 11
52.3794043322228
 21
34.23033450268213
 31
0.0
  0
LINE
  5
B1F6
330
18
100
AcDbEntity
  8
0
  6
BYBLOCK
100
AcDbLine
 10
52.3794043322228
 20
34.23033450268213
 30
0.0
 11
50.3794043322228
 21
33.69443612268213
 31
0.0
  0
LINE
  5
B1F7
330
18
100
AcDbEntity
  8
0
  6
BYBLOCK
100
AcDbLine
 10
52.3794043322228
 20
34.23033450268213
 30
0.0
 11
50.3794043322228
 21
34.23033450268213
 31
0.0
  0
LINE
  5
B1F8
330
18
100
AcDbEntity
  8
0
  6
BYBLOCK
100
AcDbLine
 10
40.87940433222282
 20
33.69443612268213
 30
0.0
 11
38.87940433222282
 21
34.23033450268213
 31
0.0
  0
LINE
  5
B1F9
330
18
100
AcDbEntity
  8
0
  6
BYBLOCK
100
AcDbLine
 10
38.87940433222282
 20
34.23033450268213
 30
0.0
 11
40.87940433222282
 21
34.76623288268213
 31
0.0
  0
LINE
  5
B1FA
330
18
100
AcDbEntity
  8
0
  6
BYBLOCK
100
AcDbLine
 10
38.87940433222282
 20
34.23033450268213
 30
0.0
 11
40.87940433222282
 21
34.23033450268213
 31
0.0
  0
TEXT
  5
B1FB
330
18
100
AcDbEntity
  8
1DIM
  6
CONTINUOUS
100
AcDbText
 10
40.96273766555615
 20
34.93033450268213
 30
0.0
 40
3.5
  1
13.5
100
AcDbText
  0
LINE
  5
B1FC
330
18
100
AcDbEntity
  8
0
  6
BYBLOCK
100
AcDbLine
 10
124.4560177344553
 20
125.6194649429161
 30
0.0
 11
124.9919161144553
 21
127.6194649429161
 31
0.0
  0
LINE
  5
B1FD
330
18
100
AcDbEntity
  8
0
  6
BYBLOCK
100
AcDbLine
 10
124.9919161144553
 20
127.6194649429161
 30
0.0
 11
125.5278144944553
 21
125.6194649429161
 31
0.0
  0
LINE
  5
B1FE
330
18
100
AcDbEntity
  8
0
  6
BYBLOCK
100
AcDbLine
 10
124.9919161144553
 20
127.6194649429161
 30
0.0
 11
124.9919161144553
 21
125.6194649429161
 31
0.0
  0
LINE
  5
B1FF
330
18
100
AcDbEntity
  8
0
  6
BYBLOCK
100
AcDbLine
 10
125.5278144944553
 20
52.61946494291708
 30
0.0
 11
124.9919161144553
 21
50.61946494291708
 31
0.0
  0
LINE
  5
B200
330
18
100
AcDbEntity
  8
0
  6
BYBLOCK
100
AcDbLine
 10
124.9919161144553
 20
50.61946494291708
 30
0.0
 11
124.4560177344553
 21
52.61946494291708
 31
0.0
  0
LINE
  5
B201
330
18
100
AcDbEntity
  8
0
  6
BYBLOCK
100
AcDbLine
 10
124.9919161144553
 20
50.61946494291708
 30
0.0
 11
124.9919161144553
 21
52.61946494291708
 31
0.0
  0
TEXT
  5
B202
330
18
100
AcDbEntity
  8
1DIM
  6
CONTINUOUS
100
AcDbText
 10
124.2919161144553
 20
86.20279827624992
 30
0.0
 40
3.5
  1
77
 50
90.0
100
AcDbText
  0
LINE
  5
B203
330
18
100
AcDbEntity
  8
0
  6
BYBLOCK
100
AcDbLine
 10
-119.6429582515806
 20
-33.59499222880259
 30
0.0
 11
-117.6429582515806
 21
-34.13089060880259
 31
0.0
  0
LINE
  5
B204
330
18
100
AcDbEntity
  8
0
  6
BYBLOCK
100
AcDbLine
 10
-117.6429582515806
 20
-34.13089060880259
 30
0.0
 11
-119.6429582515806
 21
-34.66678898880259
 31
0.0
  0
LINE
  5
B205
330
18
100
AcDbEntity
  8
0
  6
BYBLOCK
100
AcDbLine
 10
-117.6429582515806
 20
-34.13089060880259
 30
0.0
 11
-119.6429582515806
 21
-34.13089060880259
 31
0.0
  0
LINE
  5
B206
330
18
100
AcDbEntity
  8
0
  6
BYBLOCK
100
AcDbLine
 10
-128.6429582515802
 20
-34.66678898880259
 30
0.0
 11
-130.6429582515802
 21
-34.13089060880259
 31
0.0
  0
LINE
  5
B207
330
18
100
AcDbEntity
  8
0
  6
BYBLOCK
100
AcDbLine
 10
-130.6429582515802
 20
-34.13089060880259
 30
0.0
 11
-128.6429582515802
 21
-33.59499222880259
 31
0.0
  0
LINE
  5
B208
330
18
100
AcDbEntity
  8
0
  6
BYBLOCK
100
AcDbLine
 10
-130.6429582515802
 20
-34.13089060880259
 30
0.0
 11
-128.6429582515802
 21
-34.13089060880259
 31
0.0
  0
TEXT
  5
B209
330
18
100
AcDbEntity
  8
1DIM
  6
CONTINUOUS
100
AcDbText
 10
-126.4762915849137
 20
-33.43089060880259
 30
0.0
 40
3.5
  1
13
100
AcDbText
  0
LINE
  5
B20A
330
18
100
AcDbEntity
  8
0
  6
BYBLOCK
100
AcDbLine
 10
-140.9703237693317
 20
-16.64453554104659
 30
0.0
 11
-141.5062221493317
 21
-18.64453554104659
 31
0.0
  0
LINE
  5
B20B
330
18
100
AcDbEntity
  8
0
  6
BYBLOCK
100
AcDbLine
 10
-141.5062221493317
 20
-18.64453554104659
 30
0.0
 11
-142.0421205293317
 21
-16.64453554104659
 31
0.0
  0
LINE
  5
B20C
330
18
100
AcDbEntity
  8
0
  6
BYBLOCK
100
AcDbLine
 10
-141.5062221493317
 20
-18.64453554104659
 30
0.0
 11
-141.5062221493317
 21
-16.64453554104659
 31
0.0
  0
LINE
  5
B20D
330
18
100
AcDbEntity
  8
0
  6
BYBLOCK
100
AcDbLine
 10
-142.0421205293317
 20
-22.04453554104623
 30
0.0
 11
-141.5062221493317
 21
-20.04453554104623
 31
0.0
  0
LINE
  5
B20E
330
18
100
AcDbEntity
  8
0
  6
BYBLOCK
100
AcDbLine
 10
-141.5062221493317
 20
-20.04453554104623
 30
0.0
 11
-140.9703237693317
 21
-22.04453554104623
 31
0.0
  0
LINE
  5
B20F
330
18
100
AcDbEntity
  8
0
  6
BYBLOCK
100
AcDbLine
 10
-141.5062221493317
 20
-20.04453554104623
 30
0.0
 11
-141.5062221493317
 21
-22.04453554104623
 31
0.0
  0
TEXT
  5
B210
330
18
100
AcDbEntity
  8
1DIM
  6
CONTINUOUS
100
AcDbText
 10
-142.2062221493317
 20
-35.9778688743796
 30
0.0
 40
3.5
  1
φ1.4
 50
90.0
100
AcDbText
1001
ACAD
1000
DSTYLE
1002
{
1070
     3
1000
φ<>
1002
}
  0
LINE
  5
B211
330
18
100
AcDbEntity
  8
0
  6
BYBLOCK
100
AcDbLine
 10
-31.87037815689735
 20
2.897005537052367
 30
0.0
 11
-33.30794778367843
 21
1.406844256571921
 31
0.0
  0
LINE
  5
B212
330
18
100
AcDbEntity
  8
0
  6
BYBLOCK
100
AcDbLine
 10
-33.30794778367843
 20
1.406844256571921
 30
0.0
 11
-32.80805659830204
 21
3.416146592326702
 31
0.0
  0
LINE
  5
B213
330
18
100
AcDbEntity
  8
0
  6
BYBLOCK
100
AcDbLine
 10
-33.30794778367843
 20
1.406844256571921
 30
0.0
 11
-32.3392173775997
 21
3.156576064689534
 31
0.0
  0
LINE
  5
B214
330
18
100
AcDbEntity
  8
0
  6
BYBLOCK
100
AcDbLine
 10
-35.61737477593038
 20
-1.658075651214378
 30
0.0
 11
-34.1798051491493
 21
-0.1679143707339321
 31
0.0
  0
LINE
  5
B215
330
18
100
AcDbEntity
  8
0
  6
BYBLOCK
100
AcDbLine
 10
-34.1798051491493
 20
-0.1679143707339321
 30
0.0
 11
-34.67969633452568
 21
-2.177216706488713
 31
0.0
  0
LINE
  5
B216
330
18
100
AcDbEntity
  8
0
  6
BYBLOCK
100
AcDbLine
 10
-34.1798051491493
 20
-0.1679143707339321
 30
0.0
 11
-35.14853555522803
 21
-1.917646178851546
 31
0.0
  0
TEXT
  5
B217
330
18
100
AcDbEntity
  8
1DIM
  6
CONTINUOUS
100
AcDbText
 10
-47.03747608617428
 20
-21.94639441475489
 30
0.0
 40
3.5
  1
φ1.8
 50
61.02910939031646
100
AcDbText
1001
ACAD_DSTYLE_DIMRADIAL_EXTE
1070
   387
1070
     1
1070
   388
1040
0.0
1070
   390
1040
0.0
1001
ACAD
1000
DSTYLE
1002
{
1070
     3
1000
φ<>
1002
}
  0
TEXT
  5
B218
330
18
100
AcDbEntity
  8
1DIM
  6
CONTINUOUS
100
AcDbText
 10
-176.1499814584594
 20
150.8599532051831
 30
0.0
 40
3.5
  1
材質：亜鉛ダイキャスト
100
AcDbText
  0
TEXT
  5
B219
330
18
100
AcDbEntity
  8
1DIM
  6
CONTINUOUS
100
AcDbText
 10
-168.2166481251261
 20
145.0266198718498
 30
0.0
 40
3.5
  1
仕上げ；各種メッキ
100
AcDbText
  0
LINE
  5
B21A
330
18
100
AcDbEntity
  8
0
  6
BYBLOCK
100
AcDbLine
 10
-117.618441894087
 20
123.9570438392348
 30
0.0
 11
-117.1304166456896
 21
121.944826547138
 31
0.0
  0
LINE
  5
B21B
330
18
100
AcDbEntity
  8
0
  6
BYBLOCK
100
AcDbLine
 10
-117.1304166456896
 20
121.944826547138
 30
0.0
 11
-118.5591675477398
 21
123.443445222311
 31
0.0
  0
LINE
  5
B21C
330
18
100
AcDbEntity
  8
0
  6
BYBLOCK
100
AcDbLine
 10
-117.1304166456896
 20
121.944826547138
 30
0.0
 11
-118.0888047209134
 21
123.7002445307729
 31
0.0
  0
TEXT
  5
B21D
330
18
100
AcDbEntity
  8
1DIM
  6
CONTINUOUS
100
AcDbText
 10
-91.74681714032113
 20
149.4544476311297
 30
0.0
 40
3.5
  1
材質：亜鉛ダイキャスト
100
AcDbText
  0
TEXT
  5
B21E
330
18
100
AcDbEntity
  8
1DIM
  6
CONTINUOUS
100
AcDbText
 10
-91.63015047365445
 20
143.6211142977964
 30
0.0
 40
3.5
  1
仕上げ；各種メッキ
100
AcDbText
  0
LINE
  5
B21F
330
18
100
AcDbEntity
  8
0
  6
BYBLOCK
100
AcDbLine
 10
-100.8385966382208
 20
127.8423836350446
 30
0.0
 11
-102.2438764664151
 21
126.3217338797897
 31
0.0
  0
LINE
  5
B220
330
18
100
AcDbEntity
  8
0
  6
BYBLOCK
100
AcDbLine
 10
-102.2438764664151
 20
126.3217338797897
 30
0.0
 11
-101.7871933042386
 21
128.3412951101245
 31
0.0
  0
LINE
  5
B221
330
18
100
AcDbEntity
  8
0
  6
BYBLOCK
100
AcDbLine
 10
-102.2438764664151
 20
126.3217338797897
 30
0.0
 11
-101.3128949712297
 21
128.0918393725845
 31
0.0
  0
VIEWPORT
  5
57
330
15
100
AcDbEntity
 67
     1
  8
0
100
AcDbViewport
 68
     1
 10
0.0
 20
0.0
 30
0.0
 40
634.7234042553191
 41
297.0
 68
     1
 69
     1
1001
ACAD
1000
MVIEW
1002
{
1070
    16
1010
0.0
1020
0.0
1030
0.0
1010
0.0
1020
0.0
1030
1.0
1040
0.0
1040
297.0
1040
-3.508236514224933
1040
25.23096217430975
1040
50.0
1040
0.0
1040
0.0
1070
    16
1070
   100
1070
     0
1070
     1
1070
     0
1070
     0
1070
     0
1070
     0
1040
0.0
1040
0.0
1040
0.0
1040
10.0
1040
10.0
1040
10.0
1040
10.0
1070
     0
1002
{
1002
}
1002
}
  0
ENDSEC
  0
SECTION
  2
OBJECTS
  0
DICTIONARY
  5
C
330
0
100
AcDbDictionary
  3
ACAD_CIP_PREVIOUS_PRODUCT_INFO
350
9B1A
  3
ACAD_COLOR
350
2D0
  3
ACAD_GROUP
350
D
  3
ACAD_LAYOUT
350
2D1
  3
ACAD_MATERIAL
350
2CF
  3
ACAD_MLEADERSTYLE
350
9A0E
  3
ACAD_MLINESTYLE
350
1B
  3
ACAD_PLOTSETTINGS
350
2D2
  3
ACAD_SCALELIST
350
99EC
  3
ACAD_VISUALSTYLE
350
99DB
  3
ACDBHEADERROUNDTRIPXREC
350
B222
  3
ACDBVARIABLEDICTIONARY
350
37
  3
CONTENTDICTIONARY
350
D8
  3
DRAWINGVARIABLESDICT
350
20
  3
DWGPROPS
350
B225
1001
ACAD
1000
TREAT_AS_HARD
1070
     0
  0
DICTIONARY
  5
9A15
330
2
100
AcDbDictionary
  3
ACAD_LAYERSTATES
360
9A16
1001
ACAD
1000
TREAT_AS_HARD
1070
     1
  0
DICTIONARY
  5
9A4F
330
E
100
AcDbDictionary
  3
ADSK_XREC_LAYER_RECONCILED
360
9A50
1001
ACAD
1000
TREAT_AS_HARD
1070
     1
  0
DICTIONARY
  5
9A51
330
29
100
AcDbDictionary
  3
ADSK_XREC_LAYER_RECONCILED
360
9A52
1001
ACAD
1000
TREAT_AS_HARD
1070
     1
  0
DICTIONARY
  5
9A53
330
31
100
AcDbDictionary
  3
ADSK_XREC_LAYER_RECONCILED
360
9A54
1001
ACAD
1000
TREAT_AS_HARD
1070
     1
  0
DICTIONARY
  5
9A59
330
101
100
AcDbDictionary
  3
ADSK_XREC_LAYER_RECONCILED
360
9A5A
1001
ACAD
1000
TREAT_AS_HARD
1070
     1
  0
DICTIONARY
  5
9A5B
330
103
100
AcDbDictionary
  3
ADSK_XREC_LAYER_RECONCILED
360
9A5C
1001
ACAD
1000
TREAT_AS_HARD
1070
     1
  0
DICTIONARY
  5
9A5F
330
6DD
100
AcDbDictionary
  3
ADSK_XREC_LAYER_RECONCILED
360
9A60
1001
ACAD
1000
TREAT_AS_HARD
1070
     1
  0
DICTIONARY
  5
9A61
330
6DE
100
AcDbDictionary
  3
ADSK_XREC_LAYER_RECONCILED
360
9A62
1001
ACAD
1000
TREAT_AS_HARD
1070
     1
  0
DICTIONARY
  5
9A63
330
6DF
100
AcDbDictionary
  3
ADSK_XREC_LAYER_RECONCILED
360
9A64
1001
ACAD
1000
TREAT_AS_HARD
1070
     1
  0
DICTIONARY
  5
9A65
330
6E0
100
AcDbDictionary
  3
ADSK_XREC_LAYER_RECONCILED
360
9A66
1001
ACAD
1000
TREAT_AS_HARD
1070
     1
  0
DICTIONARY
  5
6E9
330
18
100
AcDbDictionary
  3
ACAD_SORTENTS
360
6EA
1001
ACAD
1000
TREAT_AS_HARD
1070
     1
  0
DICTIONARY
  5
59B
330
15
100
AcDbDictionary
  3
ACAD_SORTENTS
360
59C
1001
ACAD
1000
TREAT_AS_HARD
1070
     1
  0
DICTIONARY
  5
A6E1
330
A6E0
100
AcDbDictionary
  3
ACAD_SORTENTS
360
A6E2
1001
ACAD
1000
TREAT_AS_HARD
1070
     1
  0
DICTIONARY
  5
A719
330
A718
100
AcDbDictionary
  3
ACAD_SORTENTS
360
A71A
1001
ACAD
1000
TREAT_AS_HARD
1070
     1
  0
XRECORD
  5
9B1A
102
{ACAD_REACTORS
330
C
102
}
330
C
100
AcDbXrecord
300
ACDLT
300
2012
300
ACDLT_F_S
  0
DICTIONARY
  5
2D0
102
{ACAD_REACTORS
330
C
102
}
330
C
100
AcDbDictionary
1001
ACAD
1000
TREAT_AS_HARD
1070
     0
  0
DICTIONARY
  5
D
102
{ACAD_REACTORS
330
C
102
}
330
C
100
AcDbDictionary
1001
ACAD
1000
TREAT_AS_HARD
1070
     0
  0
DICTIONARY
  5
2D1
102
{ACAD_REACTORS
330
C
102
}
330
C
100
AcDbDictionary
1001
ACAD
1000
TREAT_AS_HARD
1070
     0
  0
DICTIONARY
  5
2CF
102
{ACAD_REACTORS
330
C
102
}
330
C
100
AcDbDictionary
  3
BYBLOCK
350
99CB
  3
BYLAYER
350
99C3
  3
GLOBAL
350
99D3
1001
ACAD
1000
TREAT_AS_HARD
1070
     0
  0
DICTIONARY
  5
9A0E
102
{ACAD_REACTORS
330
C
102
}
330
C
100
AcDbDictionary
  3
BALLOON3
350
A717
  3
BALLOONA
350
A6FD
  3
BALLOONS005
350
A6F0
  3
BALLOONS01
350
A6E7
  3
BALLOONS02
350
A6ED
  3
BALLOONS03
350
A6EF
  3
BALLOONS05
350
A6F1
  3
BALLOONS07
350
A6EE
  3
BALLOONS1
350
A6DF
  3
BALLOONS10
350
A6EC
  3
BALLOONS100
350
A6F8
  3
BALLOONS13
350
A6FA
  3
BALLOONS15
350
A6FB
  3
BALLOONS2
350
A6E8
  3
BALLOONS20
350
A6F5
  3
BALLOONS200
350
A6F9
  3
BALLOONS25
350
A6F6
  3
BALLOONS3
350
A6EA
  3
BALLOONS30
350
A6F3
  3
BALLOONS4
350
A6EB
  3
BALLOONS40
350
A6F4
  3
BALLOONS5
350
A6E9
  3
BALLOONS50
350
A6F2
  3
BALLOONS500
350
A6F7
  3
BALLOONS7
350
A6FC
  3
LEADERMULTI
350
A6FE
  3
LEADERMULTIA
350
A716
  3
LEADERMULTIS005
350
A710
  3
LEADERMULTIS01
350
A711
  3
LEADERMULTIS02
350
A712
  3
LEADERMULTIS03
350
A713
  3
LEADERMULTIS05
350
A714
  3
LEADERMULTIS07
350
A715
  3
LEADERMULTIS1
350
A703
  3
LEADERMULTIS10
350
A705
  3
LEADERMULTIS100
350
A706
  3
LEADERMULTIS13
350
A707
  3
LEADERMULTIS15
350
A708
  3
LEADERMULTIS2
350
A6FF
  3
LEADERMULTIS20
350
A709
  3
LEADERMULTIS200
350
A70A
  3
LEADERMULTIS25
350
A70B
  3
LEADERMULTIS3
350
A700
  3
LEADERMULTIS30
350
A70C
  3
LEADERMULTIS4
350
A701
  3
LEADERMULTIS40
350
A70D
  3
LEADERMULTIS5
350
A702
  3
LEADERMULTIS50
350
A70E
  3
LEADERMULTIS500
350
A70F
  3
LEADERMULTIS7
350
A704
  3
STANDARD
350
9A0F
1001
ACAD
1000
TREAT_AS_HARD
1070
     0
  0
DICTIONARY
  5
1B
102
{ACAD_REACTORS
330
C
102
}
330
C
100
AcDbDictionary
  3
STANDARD
350
1C
1001
ACAD
1000
TREAT_AS_HARD
1070
     0
  0
DICTIONARY
  5
2D2
102
{ACAD_REACTORS
330
C
102
}
330
C
100
AcDbDictionary
1001
ACAD
1000
TREAT_AS_HARD
1070
     0
  0
DICTIONARY
  5
99EC
102
{ACAD_REACTORS
330
C
102
}
330
C
100
AcDbDictionary
  3
*A1
350
A740
  3
*A10
350
A749
  3
*A11
350
A74A
  3
*A12
350
A74B
  3
*A13
350
A74C
  3
*A14
350
A74D
  3
*A15
350
A74E
  3
*A16
350
A74F
  3
*A2
350
A741
  3
*A3
350
A742
  3
*A4
350
A743
  3
*A5
350
A744
  3
*A6
350
A745
  3
*A7
350
A746
  3
*A8
350
A747
  3
*A9
350
A748
  3
A0
350
99ED
  3
A1
350
99EE
  3
A2
350
99EF
  3
A3
350
99F0
  3
A4
350
99F1
  3
A5
350
99F2
  3
A6
350
99F3
  3
A7
350
99F4
  3
A8
350
99F5
  3
A9
350
99F6
  3
B0
350
99F7
  3
B1
350
99F8
  3
B2
350
99F9
  3
B3
350
99FA
  3
B4
350
99FB
  3
B5
350
99FC
  3
B6
350
99FD
  3
B7
350
99FE
  3
B8
350
99FF
  3
B9
350
9A00
  3
C0
350
9A01
  3
C1
350
9A02
  3
C2
350
9A03
  3
C3
350
9A04
  3
C4
350
9A05
  3
C5
350
9A06
  3
C6
350
9A07
  3
C7
350
9A08
  3
C8
350
9A09
  3
C9
350
9A0A
  3
D0
350
9A0B
  3
D1
350
9A0C
  3
D2
350
9A0D
1001
ACAD
1000
TREAT_AS_HARD
1070
     0
  0
DICTIONARY
  5
99DB
102
{ACAD_REACTORS
330
C
102
}
330
C
100
AcDbDictionary
  3
2DWIREFRAME
350
99E1
  3
3D_HIDDEN
350
99E3
  3
3DWIREFRAME
350
99E2
  3
BASIC
350
99E0
  3
BRIGHTEN
350
99E7
  3
COLORCHANGE
350
99EB
  3
CONCEPTUAL
350
99E4
  3
DIM
350
99E6
  3
EDGECOLOROFF
350
9B15
  3
FACEPATTERN
350
99EA
  3
FLAT
350
99DC
  3
FLATWITHEDGES
350
99DD
  3
GOURAUD
350
99DE
  3
GOURAUDWITHEDGES
350
99DF
  3
HIDDEN
350
9B0D
  3
JITTEROFF
350
9B13
  3
LINEPATTERN
350
99E9
  3
MODELING
350
9E5F
  3
OVERHANGOFF
350
9B14
  3
REALISTIC
350
99E5
  3
SHADED
350
9B12
  3
SHADED_WITH_EDGES
350
9B11
  3
SHADES_OF_GRAY
350
9B0E
  3
SKETCHY
350
9B0F
  3
THICKEN
350
99E8
  3
WIREFRAME
350
9B0C
  3
X-RAY
350
9B10
1001
ACAD
1000
TREAT_AS_HARD
1070
     0
  0
DICTIONARY
  5
B222
102
{ACAD_REACTORS
330
C
102
}
330
C
100
AcDbDictionary
  3
COLORDICT
350
B223
  3
MATERIALDICT
350
B224
1001
ACAD
1000
TREAT_AS_HARD
1070
     0
  0
DICTIONARY
  5
37
102
{ACAD_REACTORS
330
C
102
}
330
C
100
AcDbDictionary
  3
CANNOSCALE
350
9A88
  3
CMLEADERSTYLE
350
9A87
  3
CTABLESTYLE
350
4F1
  3
DIMADEC
350
38
  3
DIMASSOC
350
408
  3
HIDETEXT
350
1891
  3
INDEXCTL
350
9A8A
  3
INTERSECTIONCOLOR
350
1895
  3
INTERSECTIONDISPLAY
350
1894
  3
MSLTSCALE
350
A6A6
  3
OBSCOLOR
350
1892
  3
OBSLTYPE
350
1893
  3
PROJECTNAME
350
409
  3
SORTENTS
350
9A89
  3
XCLIPFRAME
350
9E5E
1001
ACAD
1000
TREAT_AS_HARD
1070
     0
  0
DICTIONARY
  5
D8
102
{ACAD_REACTORS
330
C
102
}
330
C
100
AcDbDictionary
1001
CONTENTTABDATA
1070
    11
1000
Child
1000
D:\ACLT\TABset\CHILDREN.dwg
1070
     0
1070
     0
1070
     1
1000
PK
1000
D:\ACLT\TABset\PK.dwg
1070
     0
1070
     0
1070
     1
1000
Lev1
1000
D:\ACLT\TABset\Lever01.dwg
1070
     0
1070
     0
1070
     1
1000
Lev2
1000
D:\ACLT\TABset\Lever02.dwg
1070
     0
1070
     0
1070
     1
1000
L3
1000
D:\Aclt\TABset\Lever03.dwg
1070
     0
1070
     0
1070
     1
1000
Form
1000
D:\ACLT\FORMAT
1070
     1
1070
     0
1070
     1
1000
Jnt
1000
D:\ACLT\TABset\JOINTPARTS.dwg
1070
     0
1070
     0
1070
     1
1000
ISO
1000
D:\ACLT\TABset\Isome01.dwg
1070
     0
1070
     0
1070
     1
1000
R
1000
D:\ACLT\TABset\REGION.dwg
1070
     0
1070
     0
1070
     1
1000
std
1000
D:\ACLT\TABset\std_sym_all.dwg
1070
     0
1070
     0
1070
     1
1000
丸
1000
D:\Aclt\TABset\MARU.dwg
1070
     0
1070
     0
1070
     1
1001
CONTENTCURRENTTAB
1070
     0
1001
ACAD
1000
TREAT_AS_HARD
1070
     0
  0
DICTIONARY
  5
20
102
{ACAD_REACTORS
330
C
102
}
330
C
100
AcDbDictionary
1001
DRAWINGVARIABLESXDATA
1000
POLARANG
1000
0.261799387799149410000000
1000
POLARMODE
1000
1
1000
POLARSTYLE
1000
1
1001
ACAD
1000
TREAT_AS_HARD
1070
     0
  0
XRECORD
  5
B225
102
{ACAD_REACTORS
330
C
102
}
330
C
100
AcDbXrecord
  1
DWGPROPS COOKIE
  2

  3

  4

  6

  7

  8
3684
  9

300
=
301
=
302
=
303
=
304
=
305
=
306
=
307
=
308
=
309
=
 40
0.0
 41
2453033.357663484
 42
2459311.112522546
  1

 90
        0
  0
DICTIONARY
  5
9A16
102
{ACAD_REACTORS
330
9A15
102
}
330
9A15
100
AcDbDictionary
  3
_LAYISO_STATE
350
A868
1001
ACAD
1000
TREAT_AS_HARD
1070
     0
  0
ACAD_PROXY_OBJECT
  5
9A50
102
{ACAD_REACTORS
330
9A4F
102
}
330
9A4F
100
AcDbZombieObject
 90
      499
 91
      517
 93
       34
310
40C8804040
  0
ACAD_PROXY_OBJECT
  5
9A52
102
{ACAD_REACTORS
330
9A51
102
}
330
9A51
100
AcDbZombieObject
 90
      499
 91
      517
 93
       34
310
40C8804040
  0
ACAD_PROXY_OBJECT
  5
9A54
102
{ACAD_REACTORS
330
9A53
102
}
330
9A53
100
AcDbZombieObject
 90
      499
 91
      517
 93
       34
310
40C8804040
  0
ACAD_PROXY_OBJECT
  5
9A5A
102
{ACAD_REACTORS
330
9A59
102
}
330
9A59
100
AcDbZombieObject
 90
      499
 91
      517
 93
       34
310
40C8804040
  0
ACAD_PROXY_OBJECT
  5
9A5C
102
{ACAD_REACTORS
330
9A5B
102
}
330
9A5B
100
AcDbZombieObject
 90
      499
 91
      517
 93
       34
310
40C8804040
  0
ACAD_PROXY_OBJECT
  5
9A60
102
{ACAD_REACTORS
330
9A5F
102
}
330
9A5F
100
AcDbZombieObject
 90
      499
 91
      517
 93
       34
310
40C8804040
  0
ACAD_PROXY_OBJECT
  5
9A62
102
{ACAD_REACTORS
330
9A61
102
}
330
9A61
100
AcDbZombieObject
 90
      499
 91
      517
 93
       34
310
40C8804040
  0
ACAD_PROXY_OBJECT
  5
9A64
102
{ACAD_REACTORS
330
9A63
102
}
330
9A63
100
AcDbZombieObject
 90
      499
 91
      517
 93
       34
310
40C8804040
  0
ACAD_PROXY_OBJECT
  5
9A66
102
{ACAD_REACTORS
330
9A65
102
}
330
9A65
100
AcDbZombieObject
 90
      499
 91
      517
 93
       34
310
40C8804040
  0
SORTENTSTABLE
  5
6EA
102
{ACAD_REACTORS
330
6E9
102
}
330
6E9
100
AcDbSortentsTable
330
18
331
0
  5
86FD
331
86FC
  5
86FE
331
86FD
  5
86FF
331
86FE
  5
8700
331
8700
  5
8702
331
8701
  5
8703
331
8702
  5
8704
331
8703
  5
8705
331
8704
  5
8706
331
8706
  5
8709
331
8707
  5
870A
331
870B
  5
870F
331
8711
  5
8872
331
8712
  5
8873
331
891C
  5
8957
331
8BFB
  5
8BFD
331
8BFC
  5
8BFE
331
8BFD
  5
8BFF
331
8BFE
  5
8C00
331
8BFF
  5
8C01
331
8C00
  5
8C02
331
8C01
  5
8C03
331
8C02
  5
8C04
331
8C03
  5
8C05
331
8C04
  5
8C06
331
8C05
  5
8C07
331
8C06
  5
8C0E
331
8C07
  5
8C0F
331
8C0E
  5
8C10
331
8C0F
  5
8C2F
331
8C10
  5
8C30
331
8C2F
  5
8C31
331
8C30
  5
8C32
331
8C31
  5
8C33
331
8C32
  5
8C34
331
8C33
  5
8C35
331
8C34
  5
8C36
331
8C35
  5
8C37
331
8C36
  5
8C38
331
8C37
  5
8C39
331
8C38
  5
8C3A
331
8C39
  5
8C3B
331
8C3A
  5
8C3C
331
8C3B
  5
8C3D
331
8C3D
  5
8C3F
331
8C3E
  5
8C40
331
8C3F
  5
8C41
331
8C40
  5
8C42
331
8C41
  5
8C72
331
8C42
  5
8C73
331
8C73
  5
8C75
331
8C74
  5
8C76
331
0
  5
8C77
331
0
  5
8C78
331
0
  5
8C79
331
0
  5
8C7A
331
0
  5
9436
331
0
  5
9437
331
9436
  5
97DE
331
9437
  5
97E1
331
9438
  5
97EC
331
9439
  5
98DB
331
943A
  5
98E3
331
943B
  5
98E4
331
943C
  5
98EE
331
943D
  5
9A90
331
943E
  5
9A91
331
943F
  5
9C18
331
9440
  5
9C19
331
9441
  5
9C1A
331
9442
  5
9C1C
331
9443
  5
9C1E
331
9444
  5
9C1F
331
9445
  5
9C20
331
9446
  5
9C23
331
9447
  5
9C24
331
9448
  5
9C25
331
9449
  5
9C26
331
944A
  5
9C27
331
944B
  5
9C28
331
944C
  5
9C29
331
944D
  5
9CE0
331
944E
  5
B0C4
331
944F
  5
B0C5
331
9450
  5
B0C9
331
9451
  5
B0CA
331
9452
  5
B0CB
331
9453
  5
B0CC
331
9454
  5
B0CD
331
9455
  5
B0D1
331
9456
  5
B0D2
331
9457
  5
B0D3
331
9458
  5
B0D7
331
9459
  5
B0D8
331
945A
  5
B0DB
331
945B
  5
B0DC
331
945C
  5
B0DD
331
945D
  5
B0DE
331
945E
  5
B0DF
331
945F
  5
B0E0
331
9460
  5
B0E1
331
9461
  5
B0E5
331
9462
  5
B0E6
331
9463
  5
B0E7
331
9464
  5
B0EB
331
9465
  5
B0EC
331
9466
  5
B0ED
331
9467
  5
B0EE
331
9468
  5
B0F2
331
9469
  5
B0F3
331
946A
  5
B0F4
331
946B
  5
B0F5
331
946C
  5
B0F6
331
946D
  5
B0FA
331
946E
  5
B0FB
331
946F
  5
B0FC
331
9470
  5
B100
331
9471
  5
B101
331
9472
  5
B102
331
9473
  5
B106
331
9474
  5
B107
331
9475
  5
B108
331
9476
  5
B109
331
0
  5
9479
331
0
  5
947E
331
0
  5
947F
331
0
  5
9480
331
947F
  5
B141
331
9480
  5
B142
331
9481
  5
B143
331
9482
  5
B144
331
0
  5
9485
331
0
  5
9486
331
0
  5
9487
331
0
  5
9488
331
0
  5
9489
331
0
  5
948A
331
0
  5
9599
331
0
  5
959A
331
0
  5
959B
331
0
  5
959C
331
0
  5
9693
331
0
  5
9694
331
9693
  5
B1A9
331
9694
  5
B1AA
331
9695
  5
B1AB
331
9696
  5
B1AC
331
0
  5
97B2
331
0
  5
97B3
331
97B2
  5
B1AD
331
97B3
  5
B1AE
331
97BB
  5
B1AF
331
97BE
  5
B1B0
331
97C9
  5
B1B1
331
97CF
  5
B1B2
331
97D3
  5
B1B3
331
97D9
  5
B1B4
331
97DE
  5
B1B5
331
97E1
  5
B1B7
331
97EC
  5
B1B8
331
98DB
  5
B1B6
331
98E3
  5
B1B9
331
0
  5
98FB
331
0
  5
9908
331
0
  5
9A4B
331
0
  5
9A4D
331
9A4B
  5
B1DE
331
9A4D
  5
B1DF
331
9A90
  5
8714
331
9C18
  5
B1E0
331
9C19
  5
B1E1
331
9C1A
  5
B1E2
331
9C1C
  5
B1ED
331
9C1E
  5
B1FA
331
9C1F
  5
B1FB
331
9C20
  5
B1FC
331
9C23
  5
B202
331
9C24
  5
B203
331
9C25
  5
B204
331
9C26
  5
B205
331
9C27
  5
B206
331
9C28
  5
B207
331
9C29
  5
B208
331
9CE0
  5
B209
331
B0C4
  5
9438
331
B0C5
  5
9439
331
B0C6
  5
943A
331
0
  5
943B
331
0
  5
943C
331
0
  5
943D
331
B0CA
  5
944B
331
B0CB
  5
944C
331
B0CC
  5
944D
331
0
  5
9441
331
0
  5
9442
331
0
  5
9443
331
B0D0
  5
945E
331
B0D1
  5
945F
331
B0D2
  5
9460
331
0
  5
9447
331
0
  5
9448
331
0
  5
9449
331
B0D6
  5
9468
331
B0D7
  5
9469
331
B0D8
  5
946A
331
B0D9
  5
946B
331
0
  5
944E
331
0
  5
944F
331
0
  5
9450
331
B0DD
  5
9473
331
B0DE
  5
9474
331
B0DF
  5
9475
331
0
  5
9454
331
0
  5
9455
331
0
  5
9456
331
B0E3
  5
9695
331
B0E4
  5
9696
331
B0E5
  5
96AB
331
0
  5
945A
331
0
  5
945B
331
0
  5
945C
331
B0E9
  5
B10A
331
B0EA
  5
B10E
331
B0EB
  5
B10F
331
0
  5
B0C6
331
0
  5
B0C7
331
0
  5
B0C8
331
B0EF
  5
B11A
331
B0F0
  5
B11B
331
B0F1
  5
B11C
331
B0F2
  5
B11D
331
B0F3
  5
B11E
331
0
  5
B0CE
331
0
  5
B0CF
331
0
  5
B0D0
331
B0F7
  5
B126
331
B0F8
  5
B127
331
B0F9
  5
B128
331
0
  5
B0D4
331
0
  5
B0D5
331
0
  5
B0D6
331
B0FD
  5
B138
331
B0FE
  5
B139
331
0
  5
B0D9
331
0
  5
B0DA
331
B101
  5
B148
331
B102
  5
B149
331
B103
  5
B14A
331
0
  5
B0E2
331
0
  5
B0E3
331
0
  5
B0E4
331
B107
  5
B155
331
B108
  5
B156
331
B109
  5
B157
331
0
  5
B0E8
331
0
  5
B0E9
331
0
  5
B0EA
331
B10D
  5
B15F
331
B10E
  5
B160
331
B10F
  5
B161
331
B110
  5
B162
331
0
  5
B0EF
331
0
  5
B0F0
331
0
  5
B0F1
331
B114
  5
B171
331
B115
  5
B172
331
B116
  5
B173
331
B117
  5
B174
331
B118
  5
B175
331
0
  5
B0F7
331
0
  5
B0F8
331
0
  5
B0F9
331
B11C
  5
B17D
331
B11D
  5
B17E
331
B11E
  5
B17F
331
0
  5
B0FD
331
0
  5
B0FE
331
0
  5
B0FF
331
B122
  5
B187
331
B123
  5
B188
331
B124
  5
B189
331
0
  5
B103
331
0
  5
B104
331
0
  5
B105
331
B128
  5
B191
331
B129
  5
B192
331
B12A
  5
B193
331
B12B
  5
B194
331
B12C
  5
B195
331
0
  5
B10B
331
0
  5
B10C
331
0
  5
B10D
331
B130
  5
B19D
331
B131
  5
B19E
331
B132
  5
B19F
331
B133
  5
B1A0
331
B134
  5
B1A1
331
0
  5
B113
331
0
  5
B114
331
0
  5
B115
331
B138
  5
B1BA
331
B139
  5
B1BB
331
0
  5
B129
331
0
  5
B12A
331
B13C
  5
B1C0
331
B13D
  5
B1C1
331
B13E
  5
B1C2
331
0
  5
B12E
331
0
  5
B12F
331
0
  5
B130
331
B142
  5
B1CA
331
B143
  5
B1CB
331
B144
  5
B1CC
331
0
  5
B134
331
0
  5
B135
331
0
  5
B136
331
B148
  5
B1D4
331
B149
  5
B1D5
331
B14A
  5
B1D6
331
0
  5
B13A
331
0
  5
B13B
331
0
  5
B13C
331
B14E
  5
B1E3
331
B14F
  5
B1E4
331
B150
  5
B1E5
331
0
  5
B145
331
0
  5
B146
331
0
  5
B147
331
B154
  5
B1EE
331
B155
  5
B1EF
331
B156
  5
B1F0
331
B157
  5
B1F1
331
B158
  5
B1F2
331
0
  5
B14E
331
0
  5
B14F
331
0
  5
B150
331
B15C
  5
B1FD
331
B15D
  5
B1FE
331
B15E
  5
B1FF
331
B15F
  5
B200
331
B160
  5
B201
331
B161
  5
B20A
331
B162
  5
B20B
331
B163
  5
B20C
331
B168
  5
B216
331
B16A
  5
B21A
331
B16C
  5
B21D
331
B16E
  5
B221
331
B16F
  5
943E
331
B170
  5
943F
331
B171
  5
9440
331
B172
  5
9444
331
B173
  5
9445
331
B174
  5
9446
331
B175
  5
944A
331
B176
  5
9451
331
B177
  5
9452
331
B178
  5
9453
331
B179
  5
9457
331
B17A
  5
9458
331
B17B
  5
9459
331
B17C
  5
945D
331
B17D
  5
9461
331
B17E
  5
9462
331
B17F
  5
9463
331
B180
  5
9464
331
B181
  5
9465
331
B182
  5
9466
331
B183
  5
9467
331
B184
  5
946C
331
B185
  5
946D
331
B186
  5
946E
331
B187
  5
946F
331
B188
  5
9470
331
B189
  5
9471
331
B18A
  5
9472
331
B18B
  5
9476
331
B18C
  5
9477
331
B18D
  5
9478
331
B18E
  5
9481
331
B18F
  5
9482
331
B190
  5
9483
331
B191
  5
9484
331
B192
  5
96AC
331
B193
  5
97BB
331
B194
  5
97BE
331
B195
  5
97C9
331
B196
  5
97CF
331
B197
  5
97D3
331
B198
  5
97D9
331
B199
  5
B110
331
B19A
  5
B111
331
B19B
  5
B112
331
B19C
  5
B116
331
B19D
  5
B117
331
B19E
  5
B118
331
B19F
  5
B119
331
B1A0
  5
B11F
331
B1A1
  5
B120
331
B1A2
  5
B121
331
B1A3
  5
B122
331
B1A4
  5
B123
331
B1A5
  5
B124
331
B1A6
  5
B125
331
B1A7
  5
B12B
331
B1A8
  5
B12C
331
B1A9
  5
B12D
331
B1AA
  5
B131
331
B1AB
  5
B132
331
B1AC
  5
B133
331
B1AD
  5
B137
331
B1AE
  5
B13D
331
B1AF
  5
B13E
331
B1B0
  5
B13F
331
B1B1
  5
B140
331
B1B2
  5
B14B
331
B1B3
  5
B14C
331
B1B4
  5
B14D
331
B1B5
  5
B151
331
B1B6
  5
B152
331
B1B7
  5
B153
331
B1B8
  5
B154
331
B1B9
  5
B158
331
B1BA
  5
B159
331
B1BB
  5
B15A
331
B1BC
  5
B15B
331
B1BD
  5
B15C
331
B1BE
  5
B15D
331
B1BF
  5
B15E
331
B1C0
  5
B163
331
B1C1
  5
B168
331
B1C2
  5
B16A
331
B1C3
  5
B16C
331
B1C4
  5
B16E
331
B1C5
  5
B16F
331
B1C6
  5
B170
331
B1C7
  5
B176
331
B1C8
  5
B177
331
B1C9
  5
B178
331
B1CA
  5
B179
331
B1CB
  5
B17A
331
B1CC
  5
B17B
331
B1CD
  5
B17C
331
B1CE
  5
B180
331
B1CF
  5
B181
331
B1D0
  5
B182
331
B1D1
  5
B183
331
B1D2
  5
B184
331
B1D3
  5
B185
331
B1D4
  5
B186
331
B1D5
  5
B18A
331
B1D6
  5
B18B
331
B1D7
  5
B18C
331
B1D8
  5
B18D
331
B1D9
  5
B18E
331
B1DA
  5
B18F
331
B1DB
  5
B190
331
B1DC
  5
B196
331
B1DD
  5
B197
331
B1DE
  5
B198
331
B1DF
  5
B199
331
B1E0
  5
B19A
331
B1E1
  5
B19B
331
B1E2
  5
B19C
331
B1E3
  5
B1A2
331
B1E4
  5
B1A3
331
B1E5
  5
B1A4
331
B1E6
  5
B1A5
331
B1E7
  5
B1A6
331
B1E8
  5
B1A7
331
B1E9
  5
B1A8
331
B1EA
  5
B1BC
331
B1EB
  5
B1BD
331
B1EC
  5
B1BE
331
B1ED
  5
B1BF
331
B1EE
  5
B1C3
331
B1EF
  5
B1C4
331
B1F0
  5
B1C5
331
B1F1
  5
B1C6
331
B1F2
  5
B1C7
331
B1F3
  5
B1C8
331
B1F4
  5
B1C9
331
B1F5
  5
B1CD
331
B1F6
  5
B1CE
331
B1F7
  5
B1CF
331
B1F8
  5
B1D0
331
B1F9
  5
B1D1
331
B1FA
  5
B1D2
331
B1FB
  5
B1D3
331
B1FC
  5
B1D7
331
B1FD
  5
B1D8
331
B1FE
  5
B1D9
331
B1FF
  5
B1DA
331
B200
  5
B1DB
331
B201
  5
B1DC
331
B202
  5
B1DD
331
B203
  5
B1E6
331
B204
  5
B1E7
331
B205
  5
B1E8
331
B206
  5
B1E9
331
B207
  5
B1EA
331
B208
  5
B1EB
331
B209
  5
B1EC
331
B20A
  5
B1F3
331
B20B
  5
B1F4
331
B20C
  5
B1F5
331
B20D
  5
B1F6
331
B20E
  5
B1F7
331
B20F
  5
B1F8
331
B210
  5
B1F9
331
B211
  5
B20D
331
B212
  5
B20E
331
B213
  5
B20F
331
B214
  5
B210
331
B215
  5
B211
331
B216
  5
B212
331
B217
  5
B213
331
B218
  5
B214
331
B219
  5
B215
331
B21A
  5
B217
331
B21B
  5
B218
331
B21C
  5
B219
331
B21D
  5
B21B
331
B21E
  5
B21C
331
B21F
  5
B21E
331
B220
  5
B21F
331
B221
  5
B220
  0
SORTENTSTABLE
  5
59C
102
{ACAD_REACTORS
330
59B
102
}
330
59B
100
AcDbSortentsTable
330
15
331
57
  5
57
331
0
  5
70
  0
SORTENTSTABLE
  5
A6E2
102
{ACAD_REACTORS
330
A6E1
102
}
330
A6E1
100
AcDbSortentsTable
330
A6E0
331
A6E4
  5
A6E5
331
A6E5
  5
A6E4
  0
SORTENTSTABLE
  5
A71A
102
{ACAD_REACTORS
330
A719
102
}
330
A719
100
AcDbSortentsTable
330
A718
331
A71C
  5
A71D
331
A71D
  5
A71C
  0
MATERIAL
  5
99CB
102
{ACAD_REACTORS
330
2CF
102
}
102
{ACAD_XDICTIONARY
360
B3C0
102
}
330
2CF
100
AcDbMaterial
  1
BYBLOCK
 72
     0
 73
     2
 43
0.0208333333333333
 43
0.0
 43
0.0
 43
0.0
 43
0.0
 43
0.0208333333333333
 43
0.0
 43
0.0
 43
0.0
 43
0.0
 43
1.0
 43
0.0
 43
0.0
 43
0.0
 43
0.0
 43
1.0
 77
     0
 78
     2
 47
0.0208333333333333
 47
0.0
 47
0.0
 47
0.0
 47
0.0
 47
0.0208333333333333
 47
0.0
 47
0.0
 47
0.0
 47
0.0
 47
1.0
 47
0.0
 47
0.0
 47
0.0
 47
0.0
 47
1.0
171
     0
172
     2
 49
0.0208333333333333
 49
0.0
 49
0.0
 49
0.0
 49
0.0
 49
0.0208333333333333
 49
0.0
 49
0.0
 49
0.0
 49
0.0
 49
1.0
 49
0.0
 49
0.0
 49
0.0
 49
0.0
 49
1.0
175
     0
176
     2
142
0.0208333333333333
142
0.0
142
0.0
142
0.0
142
0.0
142
0.0208333333333333
142
0.0
142
0.0
142
0.0
142
0.0
142
1.0
142
0.0
142
0.0
142
0.0
142
0.0
142
1.0
179
     0
270
     2
144
0.0208333333333333
144
0.0
144
0.0
144
0.0
144
0.0
144
0.0208333333333333
144
0.0
144
0.0
144
0.0
144
0.0
144
1.0
144
0.0
144
0.0
144
0.0
144
0.0
144
1.0
274
     2
147
0.0208333333333333
147
0.0
147
0.0
147
0.0
147
0.0
147
0.0208333333333333
147
0.0
147
0.0
147
0.0
147
0.0
147
1.0
147
0.0
147
0.0
147
0.0
147
0.0
147
1.0
  0
MATERIAL
  5
99C3
102
{ACAD_REACTORS
330
2CF
102
}
102
{ACAD_XDICTIONARY
360
B3C2
102
}
330
2CF
100
AcDbMaterial
  1
BYLAYER
 72
     0
 73
     2
 43
0.0208333333333333
 43
0.0
 43
0.0
 43
0.0
 43
0.0
 43
0.0208333333333333
 43
0.0
 43
0.0
 43
0.0
 43
0.0
 43
1.0
 43
0.0
 43
0.0
 43
0.0
 43
0.0
 43
1.0
 77
     0
 78
     2
 47
0.0208333333333333
 47
0.0
 47
0.0
 47
0.0
 47
0.0
 47
0.0208333333333333
 47
0.0
 47
0.0
 47
0.0
 47
0.0
 47
1.0
 47
0.0
 47
0.0
 47
0.0
 47
0.0
 47
1.0
171
     0
172
     2
 49
0.0208333333333333
 49
0.0
 49
0.0
 49
0.0
 49
0.0
 49
0.0208333333333333
 49
0.0
 49
0.0
 49
0.0
 49
0.0
 49
1.0
 49
0.0
 49
0.0
 49
0.0
 49
0.0
 49
1.0
175
     0
176
     2
142
0.0208333333333333
142
0.0
142
0.0
142
0.0
142
0.0
142
0.0208333333333333
142
0.0
142
0.0
142
0.0
142
0.0
142
1.0
142
0.0
142
0.0
142
0.0
142
0.0
142
1.0
179
     0
270
     2
144
0.0208333333333333
144
0.0
144
0.0
144
0.0
144
0.0
144
0.0208333333333333
144
0.0
144
0.0
144
0.0
144
0.0
144
1.0
144
0.0
144
0.0
144
0.0
144
0.0
144
1.0
274
     2
147
0.0208333333333333
147
0.0
147
0.0
147
0.0
147
0.0
147
0.0208333333333333
147
0.0
147
0.0
147
0.0
147
0.0
147
1.0
147
0.0
147
0.0
147
0.0
147
0.0
147
1.0
  0
MATERIAL
  5
99D3
102
{ACAD_REACTORS
330
2CF
102
}
102
{ACAD_XDICTIONARY
360
B3C4
102
}
330
2CF
100
AcDbMaterial
  1
GLOBAL
 72
     0
 73
     2
 43
0.0208333333333333
 43
0.0
 43
0.0
 43
0.0
 43
0.0
 43
0.0208333333333333
 43
0.0
 43
0.0
 43
0.0
 43
0.0
 43
1.0
 43
0.0
 43
0.0
 43
0.0
 43
0.0
 43
1.0
 77
     0
 78
     2
 47
0.0208333333333333
 47
0.0
 47
0.0
 47
0.0
 47
0.0
 47
0.0208333333333333
 47
0.0
 47
0.0
 47
0.0
 47
0.0
 47
1.0
 47
0.0
 47
0.0
 47
0.0
 47
0.0
 47
1.0
171
     0
172
     2
 49
0.0208333333333333
 49
0.0
 49
0.0
 49
0.0
 49
0.0
 49
0.0208333333333333
 49
0.0
 49
0.0
 49
0.0
 49
0.0
 49
1.0
 49
0.0
 49
0.0
 49
0.0
 49
0.0
 49
1.0
175
     0
176
     2
142
0.0208333333333333
142
0.0
142
0.0
142
0.0
142
0.0
142
0.0208333333333333
142
0.0
142
0.0
142
0.0
142
0.0
142
1.0
142
0.0
142
0.0
142
0.0
142
0.0
142
1.0
179
     0
270
     2
144
0.0208333333333333
144
0.0
144
0.0
144
0.0
144
0.0
144
0.0208333333333333
144
0.0
144
0.0
144
0.0
144
0.0
144
1.0
144
0.0
144
0.0
144
0.0
144
0.0
144
1.0
274
     2
147
0.0208333333333333
147
0.0
147
0.0
147
0.0
147
0.0
147
0.0208333333333333
147
0.0
147
0.0
147
0.0
147
0.0
147
1.0
147
0.0
147
0.0
147
0.0
147
0.0
147
1.0
  0
ACAD_PROXY_OBJECT
  5
A717
102
{ACAD_REACTORS
330
A837
330
9A0E
330
AA04
330
ABC3
330
AD8A
330
AF49
102
}
330
9A0E
100
AcDbZombieObject
 90
      499
 91
      512
 93
      546
310
40501902A4063FBFFFFFE4D4CCCCCCCCCEC9FC00000000000020C08000000000000004090140501A26A666666666724FC00000000000005102575014000000000000039000
340
12
340
42
340
F
340
A718
 94
        0
1001
ACAD_MLEADERVER
1070
     2
  0
ACAD_PROXY_OBJECT
  5
A6FD
102
{ACAD_REACTORS
330
A7C9
330
9A0E
330
A996
330
AB55
330
AD1C
330
AEDB
102
}
330
9A0E
100
AcDbZombieObject
 90
      499
 91
      512
 93
      546
310
40501902A4063FBFFFFFE0000000000000020000000000000020408000000000000004090140501A0000000000000410000000000000004102575016000000000000039000
340
12
340
42
340
F
340
A6E0
 94
        0
1001
ACAD_MLEADERVER
1070
     2
  0
ACAD_PROXY_OBJECT
  5
A6F0
102
{ACAD_REACTORS
330
A795
330
9A0E
330
A962
330
AB21
330
ACE8
330
AEA7
102
}
330
9A0E
100
AcDbZombieObject
 90
      499
 91
      512
 93
      610
310
40501902A4063FBFFFFFE0000000000000020000000000000020408000000000000004090140501A00000000000004100000000000000041025750126A6666666666A4FC000000000000039000
340
12
340
42
340
F
340
A6E0
 94
        0
1001
ACAD_MLEADERVER
1070
     2
  0
ACAD_PROXY_OBJECT
  5
A6E7
102
{ACAD_REACTORS
330
A76D
330
9A0E
330
A93A
330
AAF9
330
ACC0
330
AE7F
102
}
330
9A0E
100
AcDbZombieObject
 90
      499
 91
      512
 93
      610
310
40501902A4063FBFFFFFE0000000000000020000000000000020408000000000000004090140501A00000000000004100000000000000041025750126A6666666666E4FC000000000000039000
340
12
340
42
340
F
340
A6E0
 94
        0
1001
ACAD_MLEADERVER
1070
     2
  0
ACAD_PROXY_OBJECT
  5
A6ED
102
{ACAD_REACTORS
330
A789
330
9A0E
330
A956
330
AB15
330
ACDC
330
AE9B
102
}
330
9A0E
100
AcDbZombieObject
 90
      499
 91
      512
 93
      610
310
40501902A4063FBFFFFFE0000000000000020000000000000020408000000000000004090140501A00000000000004100000000000000041025750126A666666666724FC000000000000039000
340
12
340
42
340
F
340
A6E0
 94
        0
1001
ACAD_MLEADERVER
1070
     2
  0
ACAD_PROXY_OBJECT
  5
A6EF
102
{ACAD_REACTORS
330
A791
330
9A0E
330
A95E
330
AB1D
330
ACE4
330
AEA3
102
}
330
9A0E
100
AcDbZombieObject
 90
      499
 91
      512
 93
      610
310
40501902A4063FBFFFFFE0000000000000020000000000000020408000000000000004090140501A0000000000000410000000000000004102575010CCCCCCCCCCCF4CFC000000000000039000
340
12
340
42
340
F
340
A6E0
 94
        0
1001
ACAD_MLEADERVER
1070
     2
  0
ACAD_PROXY_OBJECT
  5
A6F1
102
{ACAD_REACTORS
330
A799
330
9A0E
330
A966
330
AB25
330
ACEC
330
AEAB
102
}
330
9A0E
100
AcDbZombieObject
 90
      499
 91
      512
 93
      610
310
40501902A4063FBFFFFFE0000000000000020000000000000020408000000000000004090140501A000000000000041000000000000000410257501000000000000380FC000000000000039000
340
12
340
42
340
F
340
A6E0
 94
        0
1001
ACAD_MLEADERVER
1070
     2
  0
ACAD_PROXY_OBJECT
  5
A6EE
102
{ACAD_REACTORS
330
A78D
330
9A0E
330
A95A
330
AB19
330
ACE0
330
AE9F
102
}
330
9A0E
100
AcDbZombieObject
 90
      499
 91
      512
 93
      610
310
40501902A4063FBFFFFFE0000000000000020000000000000020408000000000000004090140501A000000000000041000000000000000410257501199999999999B98FC000000000000039000
340
12
340
42
340
F
340
A6E0
 94
        0
1001
ACAD_MLEADERVER
1070
     2
  0
ACAD_PROXY_OBJECT
  5
A6DF
102
{ACAD_REACTORS
330
A771
330
9A0E
330
A93E
330
AAFD
330
ACC4
330
AE83
102
}
330
9A0E
100
AcDbZombieObject
 90
      499
 91
      512
 93
      546
310
40501902A4063FBFFFFFE0000000000000020000000000000020408000000000000004090140501A0000000000000410000000000000004102575014000000000000039000
340
12
340
42
340
F
340
A6E0
 94
        0
1001
ACAD_MLEADERVER
1070
     2
  0
ACAD_PROXY_OBJECT
  5
A6EC
102
{ACAD_REACTORS
330
A785
330
9A0E
330
A952
330
AB11
330
ACD8
330
AE97
102
}
330
9A0E
100
AcDbZombieObject
 90
      499
 91
      512
 93
      610
310
40501902A4063FBFFFFFE0000000000000020000000000000020408000000000000004090140501A00000000000004100000000000000041025750100000000000009100000000000000039000
340
12
340
42
340
F
340
A6E0
 94
        0
1001
ACAD_MLEADERVER
1070
     2
  0
ACAD_PROXY_OBJECT
  5
A6F8
102
{ACAD_REACTORS
330
A7B5
330
9A0E
330
A982
330
AB41
330
AD08
330
AEC7
102
}
330
9A0E
100
AcDbZombieObject
 90
      499
 91
      512
 93
      610
310
40501902A4063FBFFFFFE0000000000000020000000000000020408000000000000004090140501A00000000000004100000000000000041025750100000000000016500000000000000039000
340
12
340
42
340
F
340
A6E0
 94
        0
1001
ACAD_MLEADERVER
1070
     2
  0
ACAD_PROXY_OBJECT
  5
A6FA
102
{ACAD_REACTORS
330
A7BD
330
9A0E
330
A98A
330
AB49
330
AD10
330
AECF
102
}
330
9A0E
100
AcDbZombieObject
 90
      499
 91
      512
 93
      610
310
40501902A4063FBFFFFFE0000000000000020000000000000020408000000000000004090140501A0000000000000410000000000000004102575013373333333333D0FC000000000000039000
340
12
340
42
340
F
340
A6E0
 94
        0
1001
ACAD_MLEADERVER
1070
     2
  0
ACAD_PROXY_OBJECT
  5
A6FB
102
{ACAD_REACTORS
330
A7C1
330
9A0E
330
A98E
330
AB4D
330
AD14
330
AED3
102
}
330
9A0E
100
AcDbZombieObject
 90
      499
 91
      512
 93
      610
310
40501902A4063FBFFFFFE0000000000000020000000000000020408000000000000004090140501A0000000000000410000000000000004102575010000000000000B900000000000000039000
340
12
340
42
340
F
340
A6E0
 94
        0
1001
ACAD_MLEADERVER
1070
     2
  0
ACAD_PROXY_OBJECT
  5
A6E8
102
{ACAD_REACTORS
330
A775
330
9A0E
330
A942
330
AB01
330
ACC8
330
AE87
102
}
330
9A0E
100
AcDbZombieObject
 90
      499
 91
      512
 93
      610
310
40501902A4063FBFFFFFE0000000000000020000000000000020408000000000000004090140501A00000000000004100000000000000041025750100000000000000100000000000000039000
340
12
340
42
340
F
340
A6E0
 94
        0
1001
ACAD_MLEADERVER
1070
     2
  0
ACAD_PROXY_OBJECT
  5
A6F5
102
{ACAD_REACTORS
330
A7A9
330
9A0E
330
A976
330
AB35
330
ACFC
330
AEBB
102
}
330
9A0E
100
AcDbZombieObject
 90
      499
 91
      512
 93
      610
310
40501902A4063FBFFFFFE0000000000000020000000000000020408000000000000004090140501A0000000000000410000000000000004102575010000000000000D100000000000000039000
340
12
340
42
340
F
340
A6E0
 94
        0
1001
ACAD_MLEADERVER
1070
     2
  0
ACAD_PROXY_OBJECT
  5
A6F9
102
{ACAD_REACTORS
330
A7B9
330
9A0E
330
A986
330
AB45
330
AD0C
330
AECB
102
}
330
9A0E
100
AcDbZombieObject
 90
      499
 91
      512
 93
      610
310
40501902A4063FBFFFFFE0000000000000020000000000000020408000000000000004090140501A0000000000000410000000000000004102575010000000000001A500000000000000039000
340
12
340
42
340
F
340
A6E0
 94
        0
1001
ACAD_MLEADERVER
1070
     2
  0
ACAD_PROXY_OBJECT
  5
A6F6
102
{ACAD_REACTORS
330
A7AD
330
9A0E
330
A97A
330
AB39
330
AD00
330
AEBF
102
}
330
9A0E
100
AcDbZombieObject
 90
      499
 91
      512
 93
      610
310
40501902A4063FBFFFFFE0000000000000020000000000000020408000000000000004090140501A0000000000000410000000000000004102575010000000000000E500000000000000039000
340
12
340
42
340
F
340
A6E0
 94
        0
1001
ACAD_MLEADERVER
1070
     2
  0
ACAD_PROXY_OBJECT
  5
A6EA
102
{ACAD_REACTORS
330
A77D
330
9A0E
330
A94A
330
AB09
330
ACD0
330
AE8F
102
}
330
9A0E
100
AcDbZombieObject
 90
      499
 91
      512
 93
      610
310
40501902A4063FBFFFFFE0000000000000020000000000000020408000000000000004090140501A00000000000004100000000000000041025750100000000000002100000000000000039000
340
12
340
42
340
F
340
A6E0
 94
        0
1001
ACAD_MLEADERVER
1070
     2
  0
ACAD_PROXY_OBJECT
  5
A6F3
102
{ACAD_REACTORS
330
A7A1
330
9A0E
330
A96E
330
AB2D
330
ACF4
330
AEB3
102
}
330
9A0E
100
AcDbZombieObject
 90
      499
 91
      512
 93
      610
310
40501902A4063FBFFFFFE0000000000000020000000000000020408000000000000004090140501A0000000000000410000000000000004102575010000000000000F900000000000000039000
340
12
340
42
340
F
340
A6E0
 94
        0
1001
ACAD_MLEADERVER
1070
     2
  0
ACAD_PROXY_OBJECT
  5
A6EB
102
{ACAD_REACTORS
330
A781
330
9A0E
330
A94E
330
AB0D
330
ACD4
330
AE93
102
}
330
9A0E
100
AcDbZombieObject
 90
      499
 91
      512
 93
      610
310
40501902A4063FBFFFFFE0000000000000020000000000000020408000000000000004090140501A00000000000004100000000000000041025750100000000000004100000000000000039000
340
12
340
42
340
F
340
A6E0
 94
        0
1001
ACAD_MLEADERVER
1070
     2
  0
ACAD_PROXY_OBJECT
  5
A6F4
102
{ACAD_REACTORS
330
A7A5
330
9A0E
330
A972
330
AB31
330
ACF8
330
AEB7
102
}
330
9A0E
100
AcDbZombieObject
 90
      499
 91
      512
 93
      610
310
40501902A4063FBFFFFFE0000000000000020000000000000020408000000000000004090140501A00000000000004100000000000000041025750100000000000011100000000000000039000
340
12
340
42
340
F
340
A6E0
 94
        0
1001
ACAD_MLEADERVER
1070
     2
  0
ACAD_PROXY_OBJECT
  5
A6E9
102
{ACAD_REACTORS
330
A779
330
9A0E
330
A946
330
AB05
330
ACCC
330
AE8B
102
}
330
9A0E
100
AcDbZombieObject
 90
      499
 91
      512
 93
      610
310
40501902A4063FBFFFFFE0000000000000020000000000000020408000000000000004090140501A00000000000004100000000000000041025750100000000000005100000000000000039000
340
12
340
42
340
F
340
A6E0
 94
        0
1001
ACAD_MLEADERVER
1070
     2
  0
ACAD_PROXY_OBJECT
  5
A6F2
102
{ACAD_REACTORS
330
A79D
330
9A0E
330
A96A
330
AB29
330
ACF0
330
AEAF
102
}
330
9A0E
100
AcDbZombieObject
 90
      499
 91
      512
 93
      610
310
40501902A4063FBFFFFFE0000000000000020000000000000020408000000000000004090140501A00000000000004100000000000000041025750100000000000012500000000000000039000
340
12
340
42
340
F
340
A6E0
 94
        0
1001
ACAD_MLEADERVER
1070
     2
  0
ACAD_PROXY_OBJECT
  5
A6F7
102
{ACAD_REACTORS
330
A7B1
330
9A0E
330
A97E
330
AB3D
330
AD04
330
AEC3
102
}
330
9A0E
100
AcDbZombieObject
 90
      499
 91
      512
 93
      610
310
40501902A4063FBFFFFFE0000000000000020000000000000020408000000000000004090140501A0000000000000410000000000000004102575010000000000101FD00000000000000039000
340
12
340
42
340
F
340
A6E0
 94
        0
1001
ACAD_MLEADERVER
1070
     2
  0
ACAD_PROXY_OBJECT
  5
A6FC
102
{ACAD_REACTORS
330
A7C5
330
9A0E
330
A992
330
AB51
330
AD18
330
AED7
102
}
330
9A0E
100
AcDbZombieObject
 90
      499
 91
      512
 93
      610
310
40501902A4063FBFFFFFE0000000000000020000000000000020408000000000000004090140501A00000000000004100000000000000041025750100000000000007100000000000000039000
340
12
340
42
340
F
340
A6E0
 94
        0
1001
ACAD_MLEADERVER
1070
     2
  0
ACAD_PROXY_OBJECT
  5
A6FE
102
{ACAD_REACTORS
330
A7CF
330
9A0E
330
A99C
330
AB5B
330
AD22
330
AEE1
102
}
330
9A0E
100
AcDbZombieObject
 90
      499
 91
      512
 93
      546
310
40901902A4063FBFFFFFE0000000000000020400000000000020C080000000000000040905415019C900000000000003100000000000000041025764000000000000039000
340
12
340
42
340
F
340
0
 94
        0
1001
ACAD_MLEADERVER
1070
     2
  0
ACAD_PROXY_OBJECT
  5
A716
102
{ACAD_REACTORS
330
9A0E
102
}
330
9A0E
100
AcDbZombieObject
 90
      499
 91
      512
 93
      546
310
40901902A4063FBFFFFFE0000000000000020400000000000020C080000000000000040905415019C900000000000003100000000000000041025766000000000000039000
340
12
340
42
340
F
340
0
 94
        0
1001
ACAD_MLEADERVER
1070
     2
  0
ACAD_PROXY_OBJECT
  5
A710
102
{ACAD_REACTORS
330
A833
330
9A0E
330
AA00
330
ABBF
330
AD86
330
AF45
102
}
330
9A0E
100
AcDbZombieObject
 90
      499
 91
      512
 93
      610
310
40901902A4063FBFFFFFE0000000000000020400000000000020C080000000000000040905415019C9000000000000031000000000000000410257626A6666666666A4FC000000000000039000
340
12
340
42
340
F
340
0
 94
        0
1001
ACAD_MLEADERVER
1070
     2
  0
ACAD_PROXY_OBJECT
  5
A711
102
{ACAD_REACTORS
330
A82F
330
9A0E
330
A9FC
330
ABBB
330
AD82
330
AF41
102
}
330
9A0E
100
AcDbZombieObject
 90
      499
 91
      512
 93
      610
310
40901902A4063FBFFFFFE0000000000000020400000000000020C080000000000000040905415019C9000000000000031000000000000000410257626A6666666666E4FC000000000000039000
340
12
340
42
340
F
340
0
 94
        0
1001
ACAD_MLEADERVER
1070
     2
  0
ACAD_PROXY_OBJECT
  5
A712
102
{ACAD_REACTORS
330
A82B
330
9A0E
330
A9F8
330
ABB7
330
AD7E
330
AF3D
102
}
330
9A0E
100
AcDbZombieObject
 90
      499
 91
      512
 93
      610
310
40901902A4063FBFFFFFE0000000000000020400000000000020C080000000000000040905415019C9000000000000031000000000000000410257626A666666666724FC000000000000039000
340
12
340
42
340
F
340
0
 94
        0
1001
ACAD_MLEADERVER
1070
     2
  0
ACAD_PROXY_OBJECT
  5
A713
102
{ACAD_REACTORS
330
A827
330
9A0E
330
A9F4
330
ABB3
330
AD7A
330
AF39
102
}
330
9A0E
100
AcDbZombieObject
 90
      499
 91
      512
 93
      610
310
40901902A4063FBFFFFFE0000000000000020400000000000020C080000000000000040905415019C900000000000003100000000000000041025760CCCCCCCCCCCF4CFC000000000000039000
340
12
340
42
340
F
340
0
 94
        0
1001
ACAD_MLEADERVER
1070
     2
  0
ACAD_PROXY_OBJECT
  5
A714
102
{ACAD_REACTORS
330
A823
330
9A0E
330
A9F0
330
ABAF
330
AD76
330
AF35
102
}
330
9A0E
100
AcDbZombieObject
 90
      499
 91
      512
 93
      610
310
40901902A4063FBFFFFFE0000000000000020400000000000020C080000000000000040905415019C90000000000000310000000000000004102576000000000000380FC000000000000039000
340
12
340
42
340
F
340
0
 94
        0
1001
ACAD_MLEADERVER
1070
     2
  0
ACAD_PROXY_OBJECT
  5
A715
102
{ACAD_REACTORS
330
A81F
330
9A0E
330
A9EC
330
ABAB
330
AD72
330
AF31
102
}
330
9A0E
100
AcDbZombieObject
 90
      499
 91
      512
 93
      610
310
40901902A4063FBFFFFFE0000000000000020400000000000020C080000000000000040905415019C90000000000000310000000000000004102576199999999999B98FC000000000000039000
340
12
340
42
340
F
340
0
 94
        0
1001
ACAD_MLEADERVER
1070
     2
  0
ACAD_PROXY_OBJECT
  5
A703
102
{ACAD_REACTORS
330
A81B
330
9A0E
330
A9E8
330
ABA7
330
AD6E
330
AF2D
102
}
330
9A0E
100
AcDbZombieObject
 90
      499
 91
      512
 93
      546
310
40901902A4063FBFFFFFE0000000000000020400000000000020C080000000000000040905415019C900000000000003100000000000000041025764000000000000039000
340
12
340
42
340
F
340
0
 94
        0
1001
ACAD_MLEADERVER
1070
     2
  0
ACAD_PROXY_OBJECT
  5
A705
102
{ACAD_REACTORS
330
A7E3
330
9A0E
330
A9B0
330
AB6F
330
AD36
330
AEF5
102
}
330
9A0E
100
AcDbZombieObject
 90
      499
 91
      512
 93
      610
310
40901902A4063FBFFFFFE0000000000000020400000000000020C080000000000000040905415019C9000000000000031000000000000000410257600000000000009100000000000000039000
340
12
340
42
340
F
340
0
 94
        0
1001
ACAD_MLEADERVER
1070
     2
  0
ACAD_PROXY_OBJECT
  5
A706
102
{ACAD_REACTORS
330
A7FF
330
9A0E
330
A9CC
330
AB8B
330
AD52
330
AF11
102
}
330
9A0E
100
AcDbZombieObject
 90
      499
 91
      512
 93
      610
310
40901902A4063FBFFFFFE0000000000000020400000000000020C080000000000000040905415019C9000000000000031000000000000000410257600000000000016500000000000000039000
340
12
340
42
340
F
340
0
 94
        0
1001
ACAD_MLEADERVER
1070
     2
  0
ACAD_PROXY_OBJECT
  5
A707
102
{ACAD_REACTORS
330
A817
330
9A0E
330
A9E4
330
ABA3
330
AD6A
330
AF29
102
}
330
9A0E
100
AcDbZombieObject
 90
      499
 91
      512
 93
      610
310
40901902A4063FBFFFFFE0000000000000020400000000000020C080000000000000040905415019C900000000000003100000000000000041025763373333333333D0FC000000000000039000
340
12
340
42
340
F
340
0
 94
        0
1001
ACAD_MLEADERVER
1070
     2
  0
ACAD_PROXY_OBJECT
  5
A708
102
{ACAD_REACTORS
330
9A0E
102
}
330
9A0E
100
AcDbZombieObject
 90
      499
 91
      512
 93
      610
310
40901902A4063FBFFFFFE0000000000000020400000000000020C080000000000000040905415019C900000000000003100000000000000041025760000000000000B900000000000000039000
340
12
340
42
340
F
340
0
 94
        0
1001
ACAD_MLEADERVER
1070
     2
  0
ACAD_PROXY_OBJECT
  5
A6FF
102
{ACAD_REACTORS
330
A7D3
330
9A0E
330
A9A0
330
AB5F
330
AD26
330
AEE5
102
}
330
9A0E
100
AcDbZombieObject
 90
      499
 91
      512
 93
      610
310
40901902A4063FBFFFFFE0000000000000020400000000000020C080000000000000040905415019C9000000000000031000000000000000410257600000000000000100000000000000039000
340
12
340
42
340
F
340
0
 94
        0
1001
ACAD_MLEADERVER
1070
     2
  0
ACAD_PROXY_OBJECT
  5
A709
102
{ACAD_REACTORS
330
A7EF
330
9A0E
330
A9BC
330
AB7B
330
AD42
330
AF01
102
}
330
9A0E
100
AcDbZombieObject
 90
      499
 91
      512
 93
      610
310
40901902A4063FBFFFFFE0000000000000020400000000000020C080000000000000040905415019C900000000000003100000000000000041025760000000000000D100000000000000039000
340
12
340
42
340
F
340
0
 94
        0
1001
ACAD_MLEADERVER
1070
     2
  0
ACAD_PROXY_OBJECT
  5
A70A
102
{ACAD_REACTORS
330
A803
330
9A0E
330
A9D0
330
AB8F
330
AD56
330
AF15
102
}
330
9A0E
100
AcDbZombieObject
 90
      499
 91
      512
 93
      610
310
40901902A4063FBFFFFFE0000000000000020400000000000020C080000000000000040905415019C900000000000003100000000000000041025760000000000001A500000000000000039000
340
12
340
42
340
F
340
0
 94
        0
1001
ACAD_MLEADERVER
1070
     2
  0
ACAD_PROXY_OBJECT
  5
A70B
102
{ACAD_REACTORS
330
A7EB
330
A807
330
A80B
330
A80F
330
9A0E
330
A9B8
330
A9D4
330
A9D8
330
A9DC
330
AB77
330
AB93
330
AB97
330
AB9B
330
AD3E
330
AD5A
330
AD5E
330
AD62
330
AEFD
330
AF19
330
AF1D
330
AF21
102
}
330
9A0E
100
AcDbZombieObject
 90
      499
 91
      512
 93
      610
310
40901902A4063FBFFFFFE0000000000000020400000000000020C080000000000000040905415019C900000000000003100000000000000041025760000000000000E500000000000000039000
340
12
340
42
340
F
340
0
 94
        0
1001
ACAD_MLEADERVER
1070
     2
  0
ACAD_PROXY_OBJECT
  5
A700
102
{ACAD_REACTORS
330
A7D7
330
9A0E
330
A9A4
330
AB63
330
AD2A
330
AEE9
102
}
330
9A0E
100
AcDbZombieObject
 90
      499
 91
      512
 93
      610
310
40901902A4063FBFFFFFE0000000000000020400000000000020C080000000000000040905415019C9000000000000031000000000000000410257600000000000002100000000000000039000
340
12
340
42
340
F
340
0
 94
        0
1001
ACAD_MLEADERVER
1070
     2
  0
ACAD_PROXY_OBJECT
  5
A70C
102
{ACAD_REACTORS
330
A7F3
330
9A0E
330
A9C0
330
AB7F
330
AD46
330
AF05
102
}
330
9A0E
100
AcDbZombieObject
 90
      499
 91
      512
 93
      610
310
40901902A4063FBFFFFFE0000000000000020400000000000020C080000000000000040905415019C900000000000003100000000000000041025760000000000000F900000000000000039000
340
12
340
42
340
F
340
0
 94
        0
1001
ACAD_MLEADERVER
1070
     2
  0
ACAD_PROXY_OBJECT
  5
A701
102
{ACAD_REACTORS
330
A7DB
330
9A0E
330
A9A8
330
AB67
330
AD2E
330
AEED
102
}
330
9A0E
100
AcDbZombieObject
 90
      499
 91
      512
 93
      610
310
40901902A4063FBFFFFFE0000000000000020400000000000020C080000000000000040905415019C9000000000000031000000000000000410257600000000000004100000000000000039000
340
12
340
42
340
F
340
0
 94
        0
1001
ACAD_MLEADERVER
1070
     2
  0
ACAD_PROXY_OBJECT
  5
A70D
102
{ACAD_REACTORS
330
A7F7
330
9A0E
330
A9C4
330
AB83
330
AD4A
330
AF09
102
}
330
9A0E
100
AcDbZombieObject
 90
      499
 91
      512
 93
      610
310
40901902A4063FBFFFFFE0000000000000020400000000000020C080000000000000040905415019C9000000000000031000000000000000410257600000000000011100000000000000039000
340
12
340
42
340
F
340
0
 94
        0
1001
ACAD_MLEADERVER
1070
     2
  0
ACAD_PROXY_OBJECT
  5
A702
102
{ACAD_REACTORS
330
A7DF
330
9A0E
330
A9AC
330
AB6B
330
AD32
330
AEF1
102
}
330
9A0E
100
AcDbZombieObject
 90
      499
 91
      512
 93
      610
310
40901902A4063FBFFFFFE0000000000000020400000000000020C080000000000000040905415019C9000000000000031000000000000000410257600000000000005100000000000000039000
340
12
340
42
340
F
340
0
 94
        0
1001
ACAD_MLEADERVER
1070
     2
  0
ACAD_PROXY_OBJECT
  5
A70E
102
{ACAD_REACTORS
330
A7FB
330
9A0E
330
A9C8
330
AB87
330
AD4E
330
AF0D
102
}
330
9A0E
100
AcDbZombieObject
 90
      499
 91
      512
 93
      610
310
40901902A4063FBFFFFFE0000000000000020400000000000020C080000000000000040905415019C9000000000000031000000000000000410257600000000000012500000000000000039000
340
12
340
42
340
F
340
0
 94
        0
1001
ACAD_MLEADERVER
1070
     2
  0
ACAD_PROXY_OBJECT
  5
A70F
102
{ACAD_REACTORS
330
A813
330
9A0E
330
A9E0
330
AB9F
330
AD66
330
AF25
102
}
330
9A0E
100
AcDbZombieObject
 90
      499
 91
      512
 93
      610
310
40901902A4063FBFFFFFE0000000000000020400000000000020C080000000000000040905415019C900000000000003100000000000000041025760000000000101FD00000000000000039000
340
12
340
42
340
F
340
0
 94
        0
1001
ACAD_MLEADERVER
1070
     2
  0
ACAD_PROXY_OBJECT
  5
A704
102
{ACAD_REACTORS
330
A7E7
330
9A0E
330
A9B4
330
AB73
330
AD3A
330
AEF9
102
}
330
9A0E
100
AcDbZombieObject
 90
      499
 91
      512
 93
      610
310
40901902A4063FBFFFFFE0000000000000020400000000000020C080000000000000040905415019C9000000000000031000000000000000410257600000000000007100000000000000039000
340
12
340
42
340
F
340
0
 94
        0
1001
ACAD_MLEADERVER
1070
     2
  0
ACAD_PROXY_OBJECT
  5
9A0F
102
{ACAD_REACTORS
330
9A0E
102
}
330
9A0E
100
AcDbZombieObject
 90
      499
 91
      512
 93
      610
310
40901902A4063FBFFFFFE000000000000002040AD7A3703D0AD73F4214DD185B99185C990000000000000104090141901A00000000000004100000000000000041025764000000000000300FC0
340
12
340
0
340
F
340
0
 94
        0
1001
ACAD_MLEADERVER
1070
     2
  0
MLINESTYLE
  5
1C
102
{ACAD_REACTORS
330
1B
102
}
330
1B
100
AcDbMlineStyle
  2
STANDARD
 70
     0
  3

 62
   256
 51
90.0
 52
90.0
 71
     2
 49
0.5
 62
   256
  6
BYLAYER
 49
-0.5
 62
   256
  6
BYLAYER
  0
ACAD_PROXY_OBJECT
  5
A740
102
{ACAD_REACTORS
330
99EC
102
}
330
99EC
100
AcDbZombieObject
 90
      499
 91
      511
 93
      153
310
909313A34305F585245464000000000000444000
  0
ACAD_PROXY_OBJECT
  5
A749
102
{ACAD_REACTORS
330
99EC
102
}
330
99EC
100
AcDbZombieObject
 90
      499
 91
      511
 93
      145
310
908313A345F585245464000000000000104000
  0
ACAD_PROXY_OBJECT
  5
A74A
102
{ACAD_REACTORS
330
99EC
102
}
330
99EC
100
AcDbZombieObject
 90
      499
 91
      511
 93
      145
310
908313A355F585245464000000000000144000
  0
ACAD_PROXY_OBJECT
  5
A74B
102
{ACAD_REACTORS
330
99EC
102
}
330
99EC
100
AcDbZombieObject
 90
      499
 91
      511
 93
      145
310
908313A385F585245464000000000000204000
  0
ACAD_PROXY_OBJECT
  5
A74C
102
{ACAD_REACTORS
330
99EC
102
}
330
99EC
100
AcDbZombieObject
 90
      499
 91
      511
 93
      153
310
909313A31305F585245464000000000000244000
  0
ACAD_PROXY_OBJECT
  5
A74D
102
{ACAD_REACTORS
330
99EC
102
}
330
99EC
100
AcDbZombieObject
 90
      499
 91
      511
 93
      153
310
909313A31365F585245464000000000000304000
  0
ACAD_PROXY_OBJECT
  5
A74E
102
{ACAD_REACTORS
330
99EC
102
}
330
99EC
100
AcDbZombieObject
 90
      499
 91
      511
 93
      153
310
909313A32305F585245464000000000000344000
  0
ACAD_PROXY_OBJECT
  5
A74F
102
{ACAD_REACTORS
330
99EC
102
}
330
99EC
100
AcDbZombieObject
 90
      499
 91
      511
 93
      153
310
909313A33305F5852454640000000000003E4000
  0
ACAD_PROXY_OBJECT
  5
A741
102
{ACAD_REACTORS
330
99EC
102
}
330
99EC
100
AcDbZombieObject
 90
      499
 91
      511
 93
      153
310
909313A35305F585245464000000000000494000
  0
ACAD_PROXY_OBJECT
  5
A742
102
{ACAD_REACTORS
330
99EC
102
}
330
99EC
100
AcDbZombieObject
 90
      499
 91
      511
 93
      161
310
90A313A3130305F585245464000000000000594000
  0
ACAD_PROXY_OBJECT
  5
A743
102
{ACAD_REACTORS
330
99EC
102
}
330
99EC
100
AcDbZombieObject
 90
      499
 91
      511
 93
      145
310
908323A315F585245460000000000000010100
  0
ACAD_PROXY_OBJECT
  5
A744
102
{ACAD_REACTORS
330
99EC
102
}
330
99EC
100
AcDbZombieObject
 90
      499
 91
      511
 93
      145
310
908343A315F585245460000000000000410100
  0
ACAD_PROXY_OBJECT
  5
A745
102
{ACAD_REACTORS
330
99EC
102
}
330
99EC
100
AcDbZombieObject
 90
      499
 91
      511
 93
      145
310
908383A315F585245460000000000000810100
  0
ACAD_PROXY_OBJECT
  5
A746
102
{ACAD_REACTORS
330
99EC
102
}
330
99EC
100
AcDbZombieObject
 90
      499
 91
      511
 93
      153
310
90931303A315F585245460000000000000910100
  0
ACAD_PROXY_OBJECT
  5
A747
102
{ACAD_REACTORS
330
99EC
102
}
330
99EC
100
AcDbZombieObject
 90
      499
 91
      511
 93
      161
310
90A3130303A315F585245460000000000001650100
  0
ACAD_PROXY_OBJECT
  5
A748
102
{ACAD_REACTORS
330
99EC
102
}
330
99EC
100
AcDbZombieObject
 90
      499
 91
      511
 93
      145
310
908313A325F585245464000000000000004000
  0
ACAD_PROXY_OBJECT
  5
99ED
102
{ACAD_REACTORS
330
99EC
102
}
330
99EC
100
AcDbZombieObject
 90
      499
 91
      511
 93
       41
310
903313A31580
  0
ACAD_PROXY_OBJECT
  5
99EE
102
{ACAD_REACTORS
330
99EC
102
}
330
99EC
100
AcDbZombieObject
 90
      499
 91
      511
 93
      105
310
903313A324000000000000004000
  0
ACAD_PROXY_OBJECT
  5
99EF
102
{ACAD_REACTORS
330
99EC
102
}
330
99EC
100
AcDbZombieObject
 90
      499
 91
      511
 93
      105
310
903313A344000000000000104000
  0
ACAD_PROXY_OBJECT
  5
99F0
102
{ACAD_REACTORS
330
99EC
102
}
330
99EC
100
AcDbZombieObject
 90
      499
 91
      511
 93
      105
310
903313A354000000000000144000
  0
ACAD_PROXY_OBJECT
  5
99F1
102
{ACAD_REACTORS
330
99EC
102
}
330
99EC
100
AcDbZombieObject
 90
      499
 91
      511
 93
      105
310
903313A384000000000000204000
  0
ACAD_PROXY_OBJECT
  5
99F2
102
{ACAD_REACTORS
330
99EC
102
}
330
99EC
100
AcDbZombieObject
 90
      499
 91
      511
 93
      113
310
904313A31304000000000000244000
  0
ACAD_PROXY_OBJECT
  5
99F3
102
{ACAD_REACTORS
330
99EC
102
}
330
99EC
100
AcDbZombieObject
 90
      499
 91
      511
 93
      113
310
904313A31364000000000000304000
  0
ACAD_PROXY_OBJECT
  5
99F4
102
{ACAD_REACTORS
330
99EC
102
}
330
99EC
100
AcDbZombieObject
 90
      499
 91
      511
 93
      113
310
904313A32304000000000000344000
  0
ACAD_PROXY_OBJECT
  5
99F5
102
{ACAD_REACTORS
330
99EC
102
}
330
99EC
100
AcDbZombieObject
 90
      499
 91
      511
 93
      113
310
904313A333040000000000003E4000
  0
ACAD_PROXY_OBJECT
  5
99F6
102
{ACAD_REACTORS
330
99EC
102
}
330
99EC
100
AcDbZombieObject
 90
      499
 91
      511
 93
      113
310
904313A34304000000000000444000
  0
ACAD_PROXY_OBJECT
  5
99F7
102
{ACAD_REACTORS
330
99EC
102
}
330
99EC
100
AcDbZombieObject
 90
      499
 91
      511
 93
      113
310
904313A35304000000000000494000
  0
ACAD_PROXY_OBJECT
  5
99F8
102
{ACAD_REACTORS
330
99EC
102
}
330
99EC
100
AcDbZombieObject
 90
      499
 91
      511
 93
      121
310
905313A3130304000000000000594000
  0
ACAD_PROXY_OBJECT
  5
99F9
102
{ACAD_REACTORS
330
99EC
102
}
330
99EC
100
AcDbZombieObject
 90
      499
 91
      511
 93
      105
310
903323A310000000000000010100
  0
ACAD_PROXY_OBJECT
  5
99FA
102
{ACAD_REACTORS
330
99EC
102
}
330
99EC
100
AcDbZombieObject
 90
      499
 91
      511
 93
      105
310
903343A310000000000000410100
  0
ACAD_PROXY_OBJECT
  5
99FB
102
{ACAD_REACTORS
330
99EC
102
}
330
99EC
100
AcDbZombieObject
 90
      499
 91
      511
 93
      105
310
903383A310000000000000810100
  0
ACAD_PROXY_OBJECT
  5
99FC
102
{ACAD_REACTORS
330
99EC
102
}
330
99EC
100
AcDbZombieObject
 90
      499
 91
      511
 93
      113
310
90431303A310000000000000910100
  0
ACAD_PROXY_OBJECT
  5
99FD
102
{ACAD_REACTORS
330
99EC
102
}
330
99EC
100
AcDbZombieObject
 90
      499
 91
      511
 93
      121
310
9053130303A310000000000001650100
  0
ACAD_PROXY_OBJECT
  5
99FE
102
{ACAD_REACTORS
330
99EC
102
}
330
99EC
100
AcDbZombieObject
 90
      499
 91
      511
 93
      257
310
90E312F31323822203D2031272D3022000000000000200FC000000000000284000
  0
ACAD_PROXY_OBJECT
  5
99FF
102
{ACAD_REACTORS
330
99EC
102
}
330
99EC
100
AcDbZombieObject
 90
      499
 91
      511
 93
      249
310
90D312F363422203D2031272D3022000000000000240FC000000000000284000
  0
ACAD_PROXY_OBJECT
  5
9A00
102
{ACAD_REACTORS
330
99EC
102
}
330
99EC
100
AcDbZombieObject
 90
      499
 91
      511
 93
      249
310
90D312F333222203D2031272D3022000000000000280FC000000000000284000
  0
ACAD_PROXY_OBJECT
  5
9A01
102
{ACAD_REACTORS
330
99EC
102
}
330
99EC
100
AcDbZombieObject
 90
      499
 91
      511
 93
      249
310
90D312F313622203D2031272D30220000000000002C0FC000000000000284000
  0
ACAD_PROXY_OBJECT
  5
9A02
102
{ACAD_REACTORS
330
99EC
102
}
330
99EC
100
AcDbZombieObject
 90
      499
 91
      511
 93
      249
310
90D332F333222203D2031272D30220000000000002E0FC000000000000284000
  0
ACAD_PROXY_OBJECT
  5
9A03
102
{ACAD_REACTORS
330
99EC
102
}
330
99EC
100
AcDbZombieObject
 90
      499
 91
      511
 93
      241
310
90C312F3822203D2031272D3022000000000000300FC000000000000284000
  0
ACAD_PROXY_OBJECT
  5
9A04
102
{ACAD_REACTORS
330
99EC
102
}
330
99EC
100
AcDbZombieObject
 90
      499
 91
      511
 93
      249
310
90D332F313622203D2031272D3022000000000000320FC000000000000284000
  0
ACAD_PROXY_OBJECT
  5
9A05
102
{ACAD_REACTORS
330
99EC
102
}
330
99EC
100
AcDbZombieObject
 90
      499
 91
      511
 93
      241
310
90C312F3422203D2031272D3022000000000000340FC000000000000284000
  0
ACAD_PROXY_OBJECT
  5
9A06
102
{ACAD_REACTORS
330
99EC
102
}
330
99EC
100
AcDbZombieObject
 90
      499
 91
      511
 93
      241
310
90C332F3822203D2031272D3022000000000000360FC000000000000284000
  0
ACAD_PROXY_OBJECT
  5
9A07
102
{ACAD_REACTORS
330
99EC
102
}
330
99EC
100
AcDbZombieObject
 90
      499
 91
      511
 93
      241
310
90C312F3222203D2031272D3022000000000000380FC000000000000284000
  0
ACAD_PROXY_OBJECT
  5
9A08
102
{ACAD_REACTORS
330
99EC
102
}
330
99EC
100
AcDbZombieObject
 90
      499
 91
      511
 93
      241
310
90C332F3422203D2031272D30220000000000003A0FC000000000000284000
  0
ACAD_PROXY_OBJECT
  5
9A09
102
{ACAD_REACTORS
330
99EC
102
}
330
99EC
100
AcDbZombieObject
 90
      499
 91
      511
 93
      161
310
90A3122203D2031272D30224000000000000284000
  0
ACAD_PROXY_OBJECT
  5
9A0A
102
{ACAD_REACTORS
330
99EC
102
}
330
99EC
100
AcDbZombieObject
 90
      499
 91
      511
 93
      257
310
90E312D312F3222203D2031272D30220000000000003E0FC000000000000284000
  0
ACAD_PROXY_OBJECT
  5
9A0B
102
{ACAD_REACTORS
330
99EC
102
}
330
99EC
100
AcDbZombieObject
 90
      499
 91
      511
 93
      225
310
90A3322203D2031272D302200000000000002100000000000000284000
  0
ACAD_PROXY_OBJECT
  5
9A0C
102
{ACAD_REACTORS
330
99EC
102
}
330
99EC
100
AcDbZombieObject
 90
      499
 91
      511
 93
      225
310
90A3622203D2031272D302200000000000006100000000000000284000
  0
ACAD_PROXY_OBJECT
  5
9A0D
102
{ACAD_REACTORS
330
99EC
102
}
330
99EC
100
AcDbZombieObject
 90
      499
 91
      511
 93
      249
310
90D31272D3022203D2031272D30220000000000000A100000000000000284000
  0
ACAD_PROXY_OBJECT
  5
99E1
102
{ACAD_REACTORS
330
99DB
102
}
330
99DB
100
AcDbZombieObject
 90
      499
 91
      510
 93
      436
310
42CC9915DA5C99599C985B595049028333333333333E3BF0000000000000FB0107901411070040501600405405064090741402480A0340
1001
ACAD
1000
AcDbSavedByObjectVersion
1070
     0
  0
ACAD_PROXY_OBJECT
  5
99E3
102
{ACAD_REACTORS
330
99DB
102
}
330
99DB
100
AcDbZombieObject
 90
      499
 91
      510
 93
      500
310
424CD108121A5919195B90640502408333333333333E3BF0000000000000FB01079024090700405020000000000001110200405405064090740C02480A0340
1001
ACAD
1000
AcDbSavedByObjectVersion
1070
     0
  0
ACAD_PROXY_OBJECT
  5
99E2
102
{ACAD_REACTORS
330
99DB
102
}
330
99DB
100
AcDbZombieObject
 90
      499
 91
      510
 93
      436
310
42CCD915DA5C99599C985B595059028333333333333E3BF0000000000000FB0107901411070040501600405405064090741402480A0340
1001
ACAD
1000
AcDbSavedByObjectVersion
1070
     0
  0
ACAD_PROXY_OBJECT
  5
99E0
102
{ACAD_REACTORS
330
99DB
102
}
330
99DB
100
AcDbZombieObject
 90
      499
 91
      510
 93
      388
310
4150985CDA58D07406404333333333333E3BF0000000000000FB0107A41107004050150841D405064090741402480A0350
1001
ACAD
1000
AcDbSavedByObjectVersion
1070
     0
  0
ACAD_PROXY_OBJECT
  5
99E7
102
{ACAD_REACTORS
330
99DB
102
}
330
99DB
100
AcDbZombieObject
 90
      499
 91
      510
 93
      428
310
42109C9A59DA1D195B90C409028333333333333E3BF0000000000000FB010790141107004050150841D405064090741402480A029950
1001
ACAD
1000
AcDbSavedByObjectVersion
1070
     0
  0
ACAD_PROXY_OBJECT
  5
99EB
102
{ACAD_REACTORS
330
99DB
102
}
330
99DB
100
AcDbZombieObject
 90
      499
 91
      510
 93
      452
310
42D0DBDB1BDC90DA185B99D95104090240C333333333333E3BF0000000000000FB0108901411070040501508421405064090741402480A0350
1001
ACAD
1000
AcDbSavedByObjectVersion
1070
     0
  0
ACAD_PROXY_OBJECT
  5
99E4
102
{ACAD_REACTORS
330
99DB
102
}
330
99DB
100
AcDbZombieObject
 90
      499
 91
      510
 93
      500
310
4290DBDB98D95C1D1D585B10940D028333333333333E3BF0000000000000FB0107902409070040501000000000000111010841D405064090740C02480A0340
1001
ACAD
1000
AcDbSavedByObjectVersion
1070
     0
  0
ACAD_PROXY_OBJECT
  5
99E6
102
{ACAD_REACTORS
330
99DB
102
}
330
99DB
100
AcDbZombieObject
 90
      499
 91
      510
 93
      412
310
40D11A5B50B409028333333333333E3BF0000000000000FB010790141107004050150841D405064090741402480A02677FFFFFD0
1001
ACAD
1000
AcDbSavedByObjectVersion
1070
     0
  0
ACAD_PROXY_OBJECT
  5
9B15
102
{ACAD_REACTORS
330
99DB
102
}
330
99DB
100
AcDbZombieObject
 90
      499
 91
      510
 93
      452
310
43115919D950DBDB1BDC93D999916409028333333333333E3BF0000000000000FB010790141107004050150841D405064090741402480A0350
1001
ACAD
1000
AcDbSavedByObjectVersion
1070
     0
  0
ACAD_PROXY_OBJECT
  5
99EA
102
{ACAD_REACTORS
330
99DB
102
}
330
99DB
100
AcDbZombieObject
 90
      499
 91
      510
 93
      444
310
42D19858D95C185D1D195C9B90F409028333333333333E3BF0000000000000FB010790141107004050150841D405064090741402480A0350
1001
ACAD
1000
AcDbSavedByObjectVersion
1070
     0
  0
ACAD_PROXY_OBJECT
  5
99DC
102
{ACAD_REACTORS
330
99DB
102
}
330
99DB
100
AcDbZombieObject
 90
      499
 91
      510
 93
      388
310
41119B185D240901404333333333333E3BF0000000000000F9010740A41107004050150841D405064090741402480A1B50
1001
ACAD
1000
AcDbSavedByObjectVersion
1070
     0
  0
ACAD_PROXY_OBJECT
  5
99DD
102
{ACAD_REACTORS
330
99DB
102
}
330
99DB
100
AcDbZombieObject
 90
      499
 91
      510
 93
      476
310
43519B185D15DA5D1A115919D95CD0140901404333333333333E3BF0000000000000F9010740901411070040501600405405064090741402480A1B50
1001
ACAD
1000
AcDbSavedByObjectVersion
1070
     0
  0
ACAD_PROXY_OBJECT
  5
99DE
102
{ACAD_REACTORS
330
99DB
102
}
330
99DB
100
AcDbZombieObject
 90
      499
 91
      510
 93
      412
310
41D1DBDD5C985D5910240902404333333333333E3BF0000000000000F9010740A411070040501641D405064090741402480A1B50
1001
ACAD
1000
AcDbSavedByObjectVersion
1070
     0
  0
ACAD_PROXY_OBJECT
  5
99DF
102
{ACAD_REACTORS
330
99DB
102
}
330
99DB
100
AcDbZombieObject
 90
      499
 91
      510
 93
      500
310
4411DBDD5C985D5915DA5D1A115919D95CD0340902404333333333333E3BF0000000000000F9010740901411070040501600405405064090741402480A1B50
1001
ACAD
1000
AcDbSavedByObjectVersion
1070
     0
  0
ACAD_PROXY_OBJECT
  5
9B0D
102
{ACAD_REACTORS
330
99DB
102
}
330
99DB
100
AcDbZombieObject
 90
      499
 91
      510
 93
      476
310
41921A5919195B90640502408333333333333E3BF0000000000000FB01079024090700405020000000000001110200405405064090740C02480A0340
1001
ACAD
1000
AcDbSavedByObjectVersion
1070
     0
  0
ACAD_PROXY_OBJECT
  5
9B13
102
{ACAD_REACTORS
330
99DB
102
}
330
99DB
100
AcDbZombieObject
 90
      499
 91
      510
 93
      428
310
42529A5D1D195C93D999914409028333333333333E3BF0000000000000FB010790141107004050150A41D405064090741402480A0350
1001
ACAD
1000
AcDbSavedByObjectVersion
1070
     0
  0
ACAD_PROXY_OBJECT
  5
99E9
102
{ACAD_REACTORS
330
99DB
102
}
330
99DB
100
AcDbZombieObject
 90
      499
 91
      510
 93
      444
310
42D31A5B995C185D1D195C9B90E409028333333333333E3BF0000000000000FB010790141107004050750841D405064090741402483A0350
1001
ACAD
1000
AcDbSavedByObjectVersion
1070
     0
  0
ACAD_PROXY_OBJECT
  5
9E5F
102
{ACAD_REACTORS
330
99DB
102
}
330
99DB
100
AcDbZombieObject
 90
      499
 91
      510
 93
      484
310
42135BD9195B1A5B99D0A409038333333333333E33F0000000000000F901074090290700405010000000000201990108421405064090741402480A1B40
1001
ACAD
1000
AcDbSavedByObjectVersion
1070
     0
  0
ACAD_PROXY_OBJECT
  5
9B14
102
{ACAD_REACTORS
330
99DB
102
}
330
99DB
100
AcDbZombieObject
 90
      499
 91
      510
 93
      444
310
42D3DD995C9A185B99D3D999915409028333333333333E3BF0000000000000FB010790141107004050150941D405064090741402480A0350
1001
ACAD
1000
AcDbSavedByObjectVersion
1070
     0
  0
ACAD_PROXY_OBJECT
  5
99E5
102
{ACAD_REACTORS
330
99DB
102
}
330
99DB
100
AcDbZombieObject
 90
      499
 91
      510
 93
      420
310
425499585B1A5CDD1A58D08409028333333333333E3BF0000000000000FB01079019070040501508421405064090741402480A1B40
1001
ACAD
1000
AcDbSavedByObjectVersion
1070
     0
  0
ACAD_PROXY_OBJECT
  5
9B12
102
{ACAD_REACTORS
330
99DB
102
}
330
99DB
100
AcDbZombieObject
 90
      499
 91
      510
 93
      420
310
4194DA1859195911B40902404333333333333E3BF0000000000000F9010740A41107004050150800405405064090840C02480A0B40
1001
ACAD
1000
AcDbSavedByObjectVersion
1070
     0
  0
ACAD_PROXY_OBJECT
  5
9B11
102
{ACAD_REACTORS
330
99DB
102
}
330
99DB
100
AcDbZombieObject
 90
      499
 91
      510
 93
      516
310
4454DA18591959081DDA5D1A08195919D95CD1A40902404333333333333E3BF0000000000000F901074090142907004050250800405405064090740C02480A0B40
1001
ACAD
1000
AcDbSavedByObjectVersion
1070
     0
  0
ACAD_PROXY_OBJECT
  5
9B0E
102
{ACAD_REACTORS
330
99DB
102
}
330
99DB
100
AcDbZombieObject
 90
      499
 91
      510
 93
      532
310
4394DA1859195CC81BD98811DC985E5174090240C333333333333E3BF0000000000000FB01079024090741D01000000000000111010841D405064090740C02480A0340
1001
ACAD
1000
AcDbSavedByObjectVersion
1070
     0
  0
ACAD_PROXY_OBJECT
  5
9B0F
102
{ACAD_REACTORS
330
99DB
102
}
330
99DB
100
AcDbZombieObject
 90
      499
 91
      510
 93
      476
310
41D4DAD95D18DA1E51840502408333333333333E3BF0000000000000FB01079024090741D01000000000000111010B41D405064090741802480A0340
1001
ACAD
1000
AcDbSavedByObjectVersion
1070
     0
  0
ACAD_PROXY_OBJECT
  5
99E8
102
{ACAD_REACTORS
330
99DB
102
}
330
99DB
100
AcDbZombieObject
 90
      499
 91
      510
 93
      412
310
41D51A1A58DAD95B90D409028333333333333E3BF0000000000000FB010790141107004050150C41D405064090741402480A0350
1001
ACAD
1000
AcDbSavedByObjectVersion
1070
     0
  0
ACAD_PROXY_OBJECT
  5
9B0C
102
{ACAD_REACTORS
330
99DB
102
}
330
99DB
100
AcDbZombieObject
 90
      499
 91
      510
 93
      420
310
4255DA5C99599C985B595059028333333333333E3BF0000000000000FB0107901411070040501600405405064090740C02480A0340
1001
ACAD
1000
AcDbSavedByObjectVersion
1070
     0
  0
ACAD_PROXY_OBJECT
  5
9B10
102
{ACAD_REACTORS
330
99DB
102
}
330
99DB
100
AcDbZombieObject
 90
      499
 91
      510
 93
      404
310
41560B54985E51940902404000000000000E03F0000000000000FB010740501907004050150841D405064090740C02480A1B40
1001
ACAD
1000
AcDbSavedByObjectVersion
1070
     0
  0
XRECORD
  5
B223
102
{ACAD_REACTORS
330
B222
102
}
330
B222
100
AcDbXrecord
340
2D0
  0
XRECORD
  5
B224
102
{ACAD_REACTORS
330
B222
102
}
330
B222
100
AcDbXrecord
340
2CF
  0
DICTIONARYVAR
  5
9A88
102
{ACAD_REACTORS
330
37
102
}
330
37
100
DictionaryVariables
280
     0
  1
1:1
  0
DICTIONARYVAR
  5
9A87
102
{ACAD_REACTORS
330
37
102
}
330
37
100
DictionaryVariables
280
     0
  1
LeaderMulti
  0
DICTIONARYVAR
  5
4F1
102
{ACAD_REACTORS
330
37
102
}
330
37
100
DictionaryVariables
280
     0
  1
Standard
  0
DICTIONARYVAR
  5
38
102
{ACAD_REACTORS
330
37
102
}
330
37
100
DictionaryVariables
280
     0
  1
-1
  0
DICTIONARYVAR
  5
408
102
{ACAD_REACTORS
330
37
102
}
330
37
100
DictionaryVariables
280
     0
  1
2
  0
DICTIONARYVAR
  5
1891
102
{ACAD_REACTORS
330
37
102
}
330
37
100
DictionaryVariables
280
     0
  1
1
  0
DICTIONARYVAR
  5
9A8A
102
{ACAD_REACTORS
330
37
102
}
330
37
100
DictionaryVariables
280
     0
  1
0
  0
DICTIONARYVAR
  5
1895
102
{ACAD_REACTORS
330
37
102
}
330
37
100
DictionaryVariables
280
     0
  1
8
  0
DICTIONARYVAR
  5
1894
102
{ACAD_REACTORS
330
37
102
}
330
37
100
DictionaryVariables
280
     0
  1
1
  0
DICTIONARYVAR
  5
A6A6
102
{ACAD_REACTORS
330
37
102
}
330
37
100
DictionaryVariables
280
     0
  1
0
  0
DICTIONARYVAR
  5
1892
102
{ACAD_REACTORS
330
37
102
}
330
37
100
DictionaryVariables
280
     0
  1
8
  0
DICTIONARYVAR
  5
1893
102
{ACAD_REACTORS
330
37
102
}
330
37
100
DictionaryVariables
280
     0
  1
2
  0
DICTIONARYVAR
  5
409
102
{ACAD_REACTORS
330
37
102
}
330
37
100
DictionaryVariables
280
     0
  1

  0
DICTIONARYVAR
  5
9A89
102
{ACAD_REACTORS
330
37
102
}
330
37
100
DictionaryVariables
280
     0
  1
127
  0
DICTIONARYVAR
  5
9E5E
102
{ACAD_REACTORS
330
37
102
}
330
37
100
DictionaryVariables
280
     0
  1
2
  0
ACAD_PROXY_OBJECT
  5
A868
102
{ACAD_REACTORS
330
9A16
330
9A16
102
}
330
9A16
100
AcDbZombieObject
 90
      499
 91
      517
 93
    49362
310
0586000016C005C080000B404000098880400B8041000996969616128043800000000000001680020000000F8001C01C80478012C04500000000000000004001C00990DBDB1BDC97CDEE0040000000128040000000000000001680020000000F8037401C80448012C04500000000000000004002400990DBDB1BDC97CC8C8C
310
6E0040000000128040000000000000001680020000000F8002001C80448012C04500000000000000004001C00990DBDB1BDC97CE2E0040000000128040000000000000001680020000000F8002001C80448012C04000000000000000004001C00990DBDB1BDC97CE2E0040000000128040000000000000001680020000000F
310
8032401C80464012C04500000000000000004002400990DBDB1BDC97CC8C0C6E0040000000128040000000000000001680020000000F8037401C80448012C04500000000000000004002400990DBDB1BDC97CC8C8C6E0040000000128040000000000000001680024000000F8000401C807F7FD2C045000000000000000040
310
01C00990DBDB1BDC97CC6E0040000000128040000000000000001680020000000F803F401C80434012C04500000000000000004002400990DBDB1BDC97CC8D4CEE0040000000128040000000000000001680000000000F8001C01C807F7FD2C04500000000000000004001C00990DBDB1BDC97CDEE00400000001280400000
310
00000000001680020000000F8002001C80448012C04500000000000000004001C00990DBDB1BDC97CE2E0040000000128040000000000000001680020000000F803F801C80434012C04000000000000000004002400990DBDB1BDC97CC8D4D2E0040000000128040000000000000001680020000000F8037401C80448012C0
310
4500000000000000004002400990DBDB1BDC97CC8C8C6E0040000000128040000000000000001680020000000F8000801C80478012C04500000000000000004001C00990DBDB1BDC97CCAE0040000000128040000000000000001680020000000F8035401C80478012C04500000000000000004002400990DBDB1BDC97CC8C
310
4CEE0040000000128040000000000000001680020000000F8038401C807F7FD2C04500000000000000004002400990DBDB1BDC97CC8C8D6E0040000000128040000000000000001680020000000F8001C01C807F7FD2C04500000000000000004001C00990DBDB1BDC97CDEE00400000001280400000000000000016800200
310
00000F8007801C807F7FD2C04500000000000000004002000990DBDB1BDC97CCCC2E0040000000128040000000000000001680020000000F803F001C804F0012C04500000000000000004002400990DBDB1BDC97CC8D4CAE0040000000128040000000000000001680024000000F8002001C807F7FD2C04500000000000000
310
004001C00990DBDB1BDC97CE2E0040000000128040000000000000001680020000000F8001801C80478012C04500000000000000004001C00990DBDB1BDC97CDAE0040000000128040000000000000001680020000000F8037801C807F7FD2C04500000000000000004002400990DBDB1BDC97CC8C8CAE0040000000128040
310
000000000000001680020000000F8000401C807F7FD2C04500000000000000004001C00990DBDB1BDC97CC6E0040000000128040000000000000001680020000000F8017C01C80478012C04500000000000000004002000990DBDB1BDC97CE4D6E0040000000128040000000000000001680000000000F803CC01C807F7FD2
310
C04500000000000000004002400990DBDB1BDC97CC8D0CEE0040000000128040000000000000001680020000000F8001001C80478012C04500000000000000004001C00990DBDB1BDC97CD2E0040000000128040000000000000001680020000000F8017401C80434012C04500000000000000004002000990DBDB1BDC97CE
310
4CEE0040000000128040000000000000001680020000000F8039C01C80434012C04500000000000000004002400990DBDB1BDC97CC8CCC6E0040000000128040000000000000001680020000000F8007C01C80434012C04500000000000000004002000990DBDB1BDC97CCCC6E004000000012804000000000000000168002
310
0000000F8001C01C80450012C04500000000000000004001C00990DBDB1BDC97CDEE0040000000128040000000000000001680020000000F8001401C80434012C04000000000000000004001C00990DBDB1BDC97CD6E0040000000128040000000000000001680020000000F8000401C80434012C040000000000000000040
310
01C00990DBDB1BDC97CC6E0040000000128040000000000000001680020000000F8002001C8043C012C04000000000000000004001C00990DBDB1BDC97CE2E0040000000128040000000000000001680020000000F8000401C80478012C04500000000000000004001C00990DBDB1BDC97CC6E004000000012804000000000
310
0000001680020000000F8000C01C80478012C04500000000000000004001C00990DBDB1BDC97CCEE0040000000128040000000000000001680020000000F8023401C80434012C04500000000000000004002400990DBDB1BDC97CC4D0C6E0040000000128040000000000000001680020000000F8014401C80434012C04500
310
000000000000004002000990DBDB1BDC97CE0C6E0040000000128040000000000000001680020000000F8003401C80434012C04500000000000000004002000990DBDB1BDC97CC4CEE0040000000128040000000000000001680020000000F800DC01C80434012C04500000000000000004002000990DBDB1BDC97CD4D6E00
310
40000000128040000000000000001680020000000F800D401C80434012C04500000000000000004002000990DBDB1BDC97CD4CEE0040000000128040000000000000001680020000000F8021801C80434012C04500000000000000004002400990DBDB1BDC97CC4CCD2E004000000012804000000000000000168002000000
310
0F800FC01C80434012C04500000000000000004002000990DBDB1BDC97CD8CEE0040000000128040000000000000001680020000000F803AC01C80434012C04500000000000000004002400990DBDB1BDC97CC8CCD6E0040000000128040000000000000001680020000000F8023401C80434012C045000000000000000040
310
02400990DBDB1BDC97CC4D0C6E0040000000128040000000000000001680020000000F8001401C80478012C04500000000000000004001C00990DBDB1BDC97CD6E0040000000128040000000000000001680020000000F8023C01C80478012C04500000000000000004002400990DBDB1BDC97CC4D0CEE0040000000128040
310
000000000000001680020000000F8003C01C80478012C04500000000000000004002000990DBDB1BDC97CC4D6E0040000000128040000000000000001680020000000F8001C01C80478012C04500000000000000004001C00990DBDB1BDC97CDEE0040000000128040000000000000001680020000000F803F801C80448012
310
C04500000000000000004002400990DBDB1BDC97CC8D4D2E0040000000128040000000000000001680020000000F8002001C80448012C04500000000000000004001C00990DBDB1BDC97CE2E0040000000128040000000000000001680020000000F8001C01C807F7FD2C04000000000000000004001C00990DBDB1BDC97CD
310
EE0040000000128040000000000000001680020000000F8001C01C807F7FD2C04000000000000000004001C00990DBDB1BDC97CDEE0040000000128040000000000000001680020000000F8001C01C807F7FD2C04000000000000000004001C00990DBDB1BDC97CDEE0040000000128040000000000000001680020000000F
310
8001C01C807F7FD2C04000000000000000004001C00990DBDB1BDC97CDEE0040000000128040000000000000001680020000000F8001C01C807F7FD2C04000000000000000004001C00990DBDB1BDC97CDEE0040000000128040000000000000001680020000000F8001C01C807F7FD2C04000000000000000004001C00990
310
DBDB1BDC97CDEE0040000000128040000000000000001680020000000F8002401C80450012C04500000000000000004001C00990DBDB1BDC97CE6E0040000000128040000000000000001680020000000F8001001C80400012C04000000000000000004001C00990DBDB1BDC97CD2E00400000001280400000000000000016
310
80020000000F8001001C80400012C04500000000000000004001C00990DBDB1BDC97CD2E0040000000128040000000000000001680020000000F8001001C80400012C04500000000000000004001C00990DBDB1BDC97CD2E0040000000128040000000000000001680020000000F8000401C80400012C04500000000000000
310
004001C00990DBDB1BDC97CC6E0040000000128040000000000000001680020000000F8001C01C80434012C04500000000000000004001C00990DBDB1BDC97CDEE0040000000128040000000000000001680020000000F8011801C80400012C04500000000000000004002000990DBDB1BDC97CDCC2E004000000012804000
310
0000000000001680020000000F8001001C80400012C04500000000000000004001C00990DBDB1BDC97CD2E0040000000128040000000000000001680020000000F8001C01C80448012C04500000000000000004001C00990DBDB1BDC97CDEE0040000000128040000000000000001680020000000F803F401C80434012C045
310
00000000000000004002400990DBDB1BDC97CC8D4CEE0040000000128040000000000000001680020000000F8000401C80478012C04500000000000000004001C00990DBDB1BDC97CC6E0040000000128040000000000000001680020000000F803F001C807F7FD2C04500000000000000004002400990DBDB1BDC97CC8D4C
310
AE0040000000128040000000000000001680020000000F800DC01C80434012C04500000000000000004002000990DBDB1BDC97CD4D6E0040000000128040000000000000001680020000000F8002801C807F7FD2C04500000000000000004002000990DBDB1BDC97CC4C2E0040000000128040000000000000001680020000
310
000F8002C01C807F7FD2C04500000000000000004002000990DBDB1BDC97CC4C6E0040000000128040000000000000001680020000000F8005401C807F7FD2C04500000000000000004002000990DBDB1BDC97CC8C6E0040000000128040000000000000001680020000000F8003001C807F7FD2C045000000000000000040
310
02000990DBDB1BDC97CC4CAE0040000000128040000000000000001680020000000F8005801C807F7FD2C04500000000000000004002000990DBDB1BDC97CC8CAE0040000000128040000000000000001680020000000F8008001C807F7FD2C04500000000000000004002000990DBDB1BDC97CCCCAE004000000012804000
310
0000000000001680020000000F8003C01C807F7FD2C04500000000000000004002000990DBDB1BDC97CC4D6E0040000000128040000000000000001680020000000F803C401C807F7FD2C04500000000000000004002400990DBDB1BDC97CC8D0C6E0040000000128040000000000000001680020000000F8000801C807F7F
310
D2C04500000000000000004001C00990DBDB1BDC97CCAE0040000000128040000000000000001680020000000F800D401C807F7FD2C04500000000000000004002000990DBDB1BDC97CD4CEE0040000000128040000000000000001680020000000F800DC01C807F7FD2C04500000000000000004002000990DBDB1BDC97CD
310
4D6E0040000000128040000000000000001680020000000F800D001C807F7FD2C04500000000000000004002000990DBDB1BDC97CD4CAE0040000000128040000000000000001680020000000F800A001C807F7FD2C04500000000000000004002000990DBDB1BDC97CD0C2E00400000001280400000000000000016800200
310
00000F800A401C807F7FD2C04500000000000000004002000990DBDB1BDC97CD0C6E0040000000128040000000000000001680020000000F800AC01C807F7FD2C04500000000000000004002000990DBDB1BDC97CD0CEE0040000000128040000000000000001680020000000F800A801C807F7FD2C0450000000000000000
310
4002000990DBDB1BDC97CD0CAE0040000000128040000000000000001680020000000F800B001C807F7FD2C04500000000000000004002000990DBDB1BDC97CD0D2E0040000000128040000000000000001680020000000F800B801C807F7FD2C04500000000000000004002000990DBDB1BDC97CD0DAE0040000000128040
310
000000000000001680020000000F800B401C807F7FD2C04500000000000000004002000990DBDB1BDC97CD0D6E0040000000128040000000000000001680020000000F800BC01C807F7FD2C04500000000000000004002000990DBDB1BDC97CD0DEE0040000000128040000000000000001680020000000F800E001C807F7F
310
D2C04500000000000000004002000990DBDB1BDC97CD4DAE0040000000128040000000000000001680020000000F8000C01C807F7FD2C04500000000000000004001C00990DBDB1BDC97CCEE0040000000128040000000000000001680020000000F800F001C807F7FD2C04500000000000000004002000990DBDB1BDC97CD
310
8C2E0040000000128040000000000000001680020000000F8014001C807F7FD2C04500000000000000004002000990DBDB1BDC97CE0C2E0040000000128040000000000000001680020000000F8019001C807F7FD2C04500000000000000004002400990DBDB1BDC97CC4C0C2E004000000012804000000000000000168002
310
0000000F800F401C807F7FD2C04500000000000000004002000990DBDB1BDC97CD8C6E0040000000128040000000000000001680020000000F8014401C807F7FD2C04500000000000000004002000990DBDB1BDC97CE0C6E0040000000128040000000000000001680020000000F8019401C807F7FD2C04500000000000000
310
004002400990DBDB1BDC97CC4C0C6E0040000000128040000000000000001680020000000F800FC01C807F7FD2C04500000000000000004002000990DBDB1BDC97CD8CEE0040000000128040000000000000001680020000000F8017401C807F7FD2C04500000000000000004002000990DBDB1BDC97CE4CEE004000000012
310
8040000000000000001680020000000F8012C01C807F7FD2C04500000000000000004002000990DBDB1BDC97CDCD6E0040000000128040000000000000001680020000000F801A401C807F7FD2C04500000000000000004002400990DBDB1BDC97CC4C0D6E0040000000128040000000000000001680020000000F8012801C
310
807F7FD2C04500000000000000004002000990DBDB1BDC97CDCD2E0040000000128040000000000000001680020000000F801A801C807F7FD2C04500000000000000004002400990DBDB1BDC97CC4C0DAE0040000000128040000000000000001680020000000F8001001C807F7FD2C04500000000000000004001C00990DB
310
DB1BDC97CD2E0040000000128040000000000000001680020000000F8021001C807F7FD2C04500000000000000004002400990DBDB1BDC97CC4CCCAE0040000000128040000000000000001680020000000F8022001C807F7FD2C04500000000000000004002400990DBDB1BDC97CC4CCDAE00400000001280400000000000
310
00001680020000000F8023001C807F7FD2C04500000000000000004002400990DBDB1BDC97CC4D0C2E0040000000128040000000000000001680020000000F8023801C807F7FD2C04500000000000000004002400990DBDB1BDC97CC4D0CAE0040000000128040000000000000001680020000000F8024001C807F7FD2C045
310
00000000000000004002400990DBDB1BDC97CC4D0D2E0040000000128040000000000000001680020000000F801EC01C807F7FD2C04500000000000000004002400990DBDB1BDC97CC4C8CEE0040000000128040000000000000001680020000000F8021C01C807F7FD2C04500000000000000004002400990DBDB1BDC97CC
310
4CCD6E0040000000128040000000000000001680020000000F8025C01C807F7FD2C04500000000000000004002400990DBDB1BDC97CC4D4C6E0040000000128040000000000000001680020000000F8028401C807F7FD2C04500000000000000004002400990DBDB1BDC97CC4D8C6E00400000001280400000000000000016
310
80020000000F8026001C807F7FD2C04500000000000000004002400990DBDB1BDC97CC4D4CAE0040000000128040000000000000001680020000000F8001401C807F7FD2C04500000000000000004001C00990DBDB1BDC97CD6E0040000000128040000000000000001680020000000F803F001C807F7FD2C0450000000000
310
0000004002400990DBDB1BDC97CC8D4CAE0040000000128040000000000000001680020000000F8001C01C807F7FD2C04500000000000000004001C00990DBDB1BDC97CDEE004000000000
  0
DICTIONARY
  5
B3C0
330
99CB
100
AcDbDictionary
  3
ACAD_XREC_ROUNDTRIP
360
B3C1
1001
ACAD
1000
TREAT_AS_HARD
1070
     1
  0
DICTIONARY
  5
B3C2
330
99C3
100
AcDbDictionary
  3
ACAD_XREC_ROUNDTRIP
360
B3C3
1001
ACAD
1000
TREAT_AS_HARD
1070
     1
  0
DICTIONARY
  5
B3C4
330
99D3
100
AcDbDictionary
  3
ACAD_XREC_ROUNDTRIP
360
B3C5
1001
ACAD
1000
TREAT_AS_HARD
1070
     1
  0
XRECORD
  5
B3C1
102
{ACAD_REACTORS
330
B3C0
102
}
330
B3C0
100
AcDbXrecord
102
MATERIAL
148
0.0
149
0.0
149
0.0
 93
        0
 94
      127
282
     0
 72
     0
 77
     0
171
     0
175
     0
179
     0
273
     0
  0
XRECORD
  5
B3C3
102
{ACAD_REACTORS
330
B3C2
102
}
330
B3C2
100
AcDbXrecord
102
MATERIAL
148
0.0
149
0.0
149
0.0
 93
        0
 94
      127
282
     0
 72
     0
 77
     0
171
     0
175
     0
179
     0
273
     0
  0
XRECORD
  5
B3C5
102
{ACAD_REACTORS
330
B3C4
102
}
330
B3C4
100
AcDbXrecord
102
MATERIAL
148
0.0
149
0.0
149
0.0
 93
        0
 94
      127
282
     0
 72
     0
 77
     0
171
     0
175
     0
179
     0
273
     0
  0
ENDSEC
  0
EOF
