  0
SECTION
  2
HEADER
  9
$ACADVER
  1
AC1009
  9
$INSBASE
 10
0.0
 20
0.0
 30
0.0
  9
$EXTMIN
 10
21.067635237618049
 20
-72.280770404326304
 30
0.0
  9
$EXTMAX
 10
653.4747174297454
 20
129.21724299394899
 30
0.0
  9
$LIMMIN
 10
0.0
 20
0.0
  9
$LIMMAX
 10
420.0
 20
297.0
  9
$ORTHOMODE
 70
     0
  9
$REGENMODE
 70
     1
  9
$FILLMODE
 70
     1
  9
$QTEXTMODE
 70
     0
  9
$MIRRTEXT
 70
     1
  9
$DRAGMODE
 70
     2
  9
$LTSCALE
 40
0.5
  9
$OSMODE
 70
    63
  9
$ATTMODE
 70
     1
  9
$TEXTSIZE
 40
4.0
  9
$TRACEWID
 40
1.0
  9
$TEXTSTYLE
  7
STANDARD
  9
$CLAYER
  8
1TEXT
  9
$CELTYPE
  6
BYLAYER
  9
$CECOLOR
 62
   256
  9
$DIMSCALE
 40
1.0
  9
$DIMASZ
 40
2.0
  9
$DIMEXO
 40
0.0
  9
$DIMDLI
 40
7.0
  9
$DIMRND
 40
0.0
  9
$DIMDLE
 40
0.0
  9
$DIMEXE
 40
1.0
  9
$DIMTP
 40
0.0
  9
$DIMTM
 40
0.0
  9
$DIMTXT
 40
3.5
  9
$DIMCEN
 40
0.0
  9
$DIMTSZ
 40
0.0
  9
$DIMTOL
 70
     0
  9
$DIMLIM
 70
     0
  9
$DIMTIH
 70
     0
  9
$DIMTOH
 70
     0
  9
$DIMSE1
 70
     0
  9
$DIMSE2
 70
     0
  9
$DIMTAD
 70
     1
  9
$DIMZIN
 70
     8
  9
$DIMBLK
  1

  9
$DIMASO
 70
     1
  9
$DIMSHO
 70
     1
  9
$DIMPOST
  1
 
  9
$DIMAPOST
  1

  9
$DIMALT
 70
     0
  9
$DIMALTD
 70
     2
  9
$DIMALTF
 40
25.399999999999999
  9
$DIMLFAC
 40
1.0
  9
$DIMTOFL
 70
     1
  9
$DIMTVP
 40
0.0
  9
$DIMTIX
 70
     0
  9
$DIMSOXD
 70
     0
  9
$DIMSAH
 70
     1
  9
$DIMBLK1
  1
OPEN30
  9
$DIMBLK2
  1
OPEN30
  9
$DIMSTYLE
  2
NEWX10
  9
$DIMCLRD
 70
   256
  9
$DIMCLRE
 70
   256
  9
$DIMCLRT
 70
   201
  9
$DIMTFAC
 40
0.7
  9
$DIMGAP
 40
0.7
  9
$LUNITS
 70
     2
  9
$LUPREC
 70
     4
  9
$SKETCHINC
 40
1.0
  9
$FILLETRAD
 40
0.0
  9
$AUNITS
 70
     0
  9
$AUPREC
 70
     2
  9
$MENU
  1
acad
  9
$ELEVATION
 40
0.0
  9
$PELEVATION
 40
0.0
  9
$THICKNESS
 40
0.0
  9
$LIMCHECK
 70
     0
  9
$BLIPMODE
 70
     0
  9
$CHAMFERA
 40
10.0
  9
$CHAMFERB
 40
10.0
  9
$SKPOLY
 70
     0
  9
$TDCREATE
 40
2453033.7326634838
  9
$TDUPDATE
 40
2456875.71449978
  9
$TDINDWG
 40
0.27947875
  9
$TDUSRTIMER
 40
0.27947875
  9
$USRTIMER
 70
     1
  9
$ANGBASE
 50
0.0
  9
$ANGDIR
 70
     0
  9
$PDMODE
 70
     0
  9
$PDSIZE
 40
0.0
  9
$PLINEWID
 40
0.0
  9
$COORDS
 70
     0
  9
$SPLFRAME
 70
     0
  9
$SPLINETYPE
 70
     6
  9
$SPLINESEGS
 70
     8
  9
$ATTDIA
 70
     0
  9
$ATTREQ
 70
     1
  9
$HANDLING
 70
     1
  9
$HANDSEED
  5
9B03
  9
$SURFTAB1
 70
     6
  9
$SURFTAB2
 70
     6
  9
$SURFTYPE
 70
     6
  9
$SURFU
 70
     6
  9
$SURFV
 70
     6
  9
$UCSNAME
  2

  9
$UCSORG
 10
0.0
 20
0.0
 30
0.0
  9
$UCSXDIR
 10
1.0
 20
0.0
 30
0.0
  9
$UCSYDIR
 10
0.0
 20
1.0
 30
0.0
  9
$PUCSNAME
  2

  9
$PUCSORG
 10
0.0
 20
0.0
 30
0.0
  9
$PUCSXDIR
 10
1.0
 20
0.0
 30
0.0
  9
$PUCSYDIR
 10
0.0
 20
1.0
 30
0.0
  9
$USERI1
 70
     0
  9
$USERI2
 70
     0
  9
$USERI3
 70
     0
  9
$USERI4
 70
     0
  9
$USERI5
 70
     0
  9
$USERR1
 40
0.0
  9
$USERR2
 40
0.0
  9
$USERR3
 40
0.0
  9
$USERR4
 40
0.0
  9
$USERR5
 40
0.0
  9
$WORLDVIEW
 70
     1
  9
$SHADEDGE
 70
     3
  9
$SHADEDIF
 70
    70
  9
$TILEMODE
 70
     1
  9
$MAXACTVP
 70
    48
  9
$PLIMCHECK
 70
     0
  9
$PEXTMIN
 10
1.0000000000000000E+020
 20
1.0000000000000000E+020
 30
1.0000000000000000E+020
  9
$PEXTMAX
 10
-1.0000000000000000E+020
 20
-1.0000000000000000E+020
 30
-1.0000000000000000E+020
  9
$PLIMMIN
 10
0.0
 20
0.0
  9
$PLIMMAX
 10
420.0
 20
297.0
  9
$UNITMODE
 70
     0
  9
$VISRETAIN
 70
     1
  9
$PLINEGEN
 70
     0
  9
$PSLTSCALE
 70
     1
  0
ENDSEC
  0
SECTION
  2
TABLES
  0
TABLE
  2
VPORT
 70
     1
  0
VPORT
  2
*ACTIVE
 70
     0
 10
0.0
 20
0.0
 11
1.0
 21
1.0
 12
337.25701092744742
 22
28.471867308719979
 13
0.0
 23
0.0
 14
10.0
 24
10.0
 15
10.0
 25
10.0
 16
0.0
 26
0.0
 36
1.0
 17
0.0
 27
0.0
 37
0.0
 40
306.835169429465
 41
2.1771217712177111
 42
50.0
 43
0.0
 44
0.0
 50
0.0
 51
0.0
 71
     0
 72
   100
 73
     1
 74
     1
 75
     0
 76
     0
 77
     0
 78
     0
  0
ENDTAB
  0
TABLE
  2
LTYPE
 70
    13
  0
LTYPE
  2
CONTINUOUS
 70
     0
  3
Solid line
 72
    65
 73
     0
 40
0.0
  0
LTYPE
  2
XREF1|CENTER2
 70
    48
  3
Center (.5x) ___ _ ___ _ ___ _ ___ _ ___ _ ___
 72
    65
 73
     4
 40
28.574999999999999
 49
19.050000000000001
 49
-3.1749999999999989
 49
3.1749999999999989
 49
-3.1749999999999989
  0
LTYPE
  2
A3WAKUDAKE|CENTER2
 70
    48
  3
Center (.5x) ___ _ ___ _ ___ _ ___ _ ___ _ ___
 72
    65
 73
     4
 40
28.574999999999999
 49
19.050000000000001
 49
-3.1749999999999989
 49
3.1749999999999989
 49
-3.1749999999999989
  0
ENDTAB
  0
TABLE
  2
LAYER
 70
    40
  0
LAYER
  2
0
 70
     0
 62
     7
  6
CONTINUOUS
  0
LAYER
  2
1TEXT
 70
     0
 62
     7
  6
CONTINUOUS
  0
LAYER
  2
A3WAKUDAKE|THICK
 70
    48
 62
     7
  6
CONTINUOUS
  0
LAYER
  2
A3WAKUDAKE|POINT
 70
    48
 62
     7
  6
CONTINUOUS
  0
LAYER
  2
A3WAKUDAKE|1CENTER
 70
    48
 62
     7
  6
A3WAKUDAKE|CENTER2
  0
LAYER
  2
A3WAKUDAKE|0-6
 70
    48
 62
     7
  6
CONTINUOUS
  0
LAYER
  2
01
 70
     0
 62
     1
  6
CONTINUOUS
  0
LAYER
  2
A3WAKUDAKE|1DIM
 70
    48
 62
     7
  6
CONTINUOUS
  0
LAYER
  2
XREF1|1CENTER
 70
    48
 62
     7
  6
XREF1|CENTER2
  0
ENDTAB
  0
TABLE
  2
STYLE
 70
    14
  0
STYLE
  2
STANDARD
 70
     0
 40
0.0
 41
1.0
 50
0.0
 71
     0
 42
4.0
  3
romans.shx
  4
extfont2.shx
  0
ENDTAB
  0
TABLE
  2
VIEW
 70
     7
  0
ENDTAB
  0
TABLE
  2
UCS
 70
     0
  0
ENDTAB
  0
TABLE
  2
APPID
 70
    13
  0
APPID
  2
ACAD
 70
     0
  0
APPID
  2
DRAWINGVARIABLESXDATA
 70
     0
  0
APPID
  2
CONTENTTABDATA
 70
     0
  0
APPID
  2
CONTENTCURRENTTAB
 70
     0
  0
APPID
  2
CONTENTBLOCKDESCRIPTION
 70
     0
  0
APPID
  2
CONTENTBLOCKICON
 70
     0
  0
APPID
  2
CONTENTLONGBLOCKNAME
 70
     0
  0
APPID
  2
ACAD_PSEXT
 70
     0
  0
APPID
  2
ACAD_DSTYLE_DIMTEXT_FILL
 70
     0
  0
APPID
  2
ACAD_MLEADERVER
 70
     0
  0
APPID
  2
ACAD_NAV_VCDISPLAY
 70
     0
  0
APPID
  2
ACAD_EXEMPT_FROM_CAD_STANDARDS
 70
     0
  0
APPID
  2
ACAD_DSTYLE_DIMRADIAL_EXTENSION
 70
     0
  0
ENDTAB
  0
TABLE
  2
DIMSTYLE
 70
     6
  0
DIMSTYLE
  2
NEWX10
 70
     0
  3
 
  4

  5

  6
OPEN30
  7
OPEN30
 40
1.0
 41
2.0
 42
0.0
 43
7.0
 44
1.0
 45
0.0
 46
0.0
 47
0.0
 48
0.0
140
3.5
141
0.0
142
0.0
143
25.399999999999999
144
1.0
145
0.0
146
0.7
147
0.7
 71
     0
 72
     0
 73
     0
 74
     0
 75
     0
 76
     0
 77
     1
 78
     8
170
     0
171
     2
172
     1
173
     1
174
     0
175
     0
176
   256
177
   256
178
   201
  0
ENDTAB
  0
ENDSEC
  0
SECTION
  2
BLOCKS
  0
BLOCK
  8
0
  2
$MODEL_SPACE
 70
     0
 10
0.0
 20
0.0
 30
0.0
  3
$MODEL_SPACE
  1

  0
ENDBLK
  5
1A
  8
0
  0
BLOCK
 67
     1
  8
0
  2
$PAPER_SPACE
 70
     0
 10
0.0
 20
0.0
 30
0.0
  3
$PAPER_SPACE
  1

  0
ENDBLK
  5
17
 67
     1
  8
0
  0
BLOCK
  8
0
  2
_OPEN30
 70
     0
 10
0.0
 20
0.0
 30
0.0
  3
_OPEN30
  1

  0
LINE
  5
44
  8
0
  6
BYBLOCK
 62
     0
 10
-1.0
 20
0.26794919
 30
0.0
 11
0.0
 21
0.0
 31
0.0
  0
LINE
  5
45
  8
0
  6
BYBLOCK
 62
     0
 10
0.0
 20
0.0
 30
0.0
 11
-1.0
 21
-0.26794919
 31
0.0
  0
LINE
  5
46
  8
0
  6
BYBLOCK
 62
     0
 10
0.0
 20
0.0
 30
0.0
 11
-1.0
 21
0.0
 31
0.0
  0
ENDBLK
  5
47
  8
0
  0
BLOCK
  8
0
  2
XREF1
 70
    36
 10
0.0
 20
0.0
 30
0.0
  3
XREF1
  1
D:\ACLT\FORMAT\KAWAJUN(9)図面用.dwg
  0
ENDBLK
  5
5D
  8
0
  0
BLOCK
  8
0
  2
A3WAKUDAKE
 70
    36
 10
0.0
 20
0.0
 30
0.0
  3
A3WAKUDAKE
  1
D:\ACLT\FORMAT\A3WAKUdake.dwg
  0
ENDBLK
  5
6DC
  8
0
  0
BLOCK
  8
0
  2
*U29
 70
     1
 10
0.0
 20
0.0
 30
0.0
  3
*U29
  1

  0
TEXT
  5
9B00
  8
1TEXT
 62
   201
 10
242.09915316558809
 20
103.4885874435322
 30
0.0
 40
3.5
  1
\U+03C61.5
 50
72.278027215519032
  0
ENDBLK
  5
9B02
  8
0
  0
ENDSEC
  0
SECTION
  2
ENTITIES
  0
LINE
  5
86C1
  8
01
 10
191.13430190428289
 20
102.217242993949
 30
0.0
 11
32.134301904282921
 21
102.217242993949
 31
0.0
  0
LINE
  5
86C2
  8
01
 10
191.13430190428289
 20
72.217242993949014
 30
0.0
 11
32.134301904282921
 21
72.217242993949043
 31
0.0
  0
LINE
  5
86C3
  8
01
 10
180.13430190428269
 20
97.717242993945376
 30
0.0
 11
43.13430190428646
 21
97.717242993945405
 31
0.0
  0
LINE
  5
86C4
  8
01
 10
180.1343019042759
 20
76.717242993948986
 30
0.0
 11
43.134301904283063
 21
76.717242993945433
 31
0.0
  0
LINE
  5
86C9
  8
01
 10
41.634301904282921
 20
78.217242993949043
 30
0.0
 11
41.634301904282921
 21
96.217242993945405
 31
0.0
  0
LINE
  5
86CA
  8
01
 10
31.634301904282921
 20
72.717242993949043
 30
0.0
 11
31.634301904282921
 21
101.717242993949
 31
0.0
  0
ARC
  5
86CB
  8
01
 10
32.134301904282921
 20
101.717242993949
 30
0.0
 40
0.5
 50
89.999999999999986
 51
180.0
  0
ARC
  5
86CC
  8
01
 10
32.134301904282921
 20
72.717242993949043
 30
0.0
 40
0.5
 50
180.0
 51
270.0
  0
LINE
  5
86CE
  8
01
 10
181.6343019042759
 20
78.217242993948403
 30
0.0
 11
181.63430190428269
 21
96.217242993944808
 31
0.0
  0
LINE
  5
86CF
  8
01
 10
191.63430190428289
 20
72.717242993949014
 30
0.0
 11
191.63430190428289
 21
101.717242993949
 31
0.0
  0
ARC
  5
86D0
  8
01
 10
191.13430190428289
 20
101.717242993949
 30
0.0
 40
0.5
 50
0.0
 51
89.999999999999986
  0
ARC
  5
86D1
  8
01
 10
191.13430190428289
 20
72.717242993949014
 30
0.0
 40
0.5
 50
270.0
 51
0.0
  0
LINE
  5
86D3
  8
01
 10
231.6343019042848
 20
101.717242993949
 30
0.0
 11
231.6343019042848
 21
72.717242993949014
 31
0.0
  0
LINE
  5
86D4
  8
01
 10
233.13430190428471
 20
102.217242993949
 30
0.0
 11
233.13430190428471
 21
72.217242993949014
 31
0.0
  0
LINE
  5
86D5
  8
01
 10
242.6343019042811
 20
95.321439957343173
 30
0.0
 11
242.63430190428471
 21
79.113046030559786
 31
0.0
  0
LINE
  5
86D6
  8
01
 10
232.13430190428471
 20
102.217242993949
 30
0.0
 11
233.13430190428471
 21
102.217242993949
 31
0.0
  0
ARC
  5
86D7
  8
01
 10
232.13430190428471
 20
101.717242993949
 30
0.0
 40
0.5
 50
89.999999999999986
 51
180.0
  0
LINE
  5
86D9
  8
01
 10
232.13430190428471
 20
72.217242993949014
 30
0.0
 11
233.13430190428471
 21
72.217242993949014
 31
0.0
  0
ARC
  5
86DA
  8
01
 10
232.13430190428471
 20
72.717242993949014
 30
0.0
 40
0.5
 50
180.0
 51
270.0
  0
LINE
  5
86E1
  8
01
 10
41.634301904283021
 20
78.217242993945703
 30
0.0
 11
41.634301904286467
 21
96.217242993945689
 31
0.0
  0
ARC
  5
86E3
  8
01
 10
44.134301904284719
 20
-30.280770404323079
 30
0.0
 40
6.0
 50
89.999999999999986
 51
180.0
  0
ARC
  5
86E4
  8
01
 10
44.134301904284719
 20
-42.280770404330347
 30
0.0
 40
6.0
 50
180.0
 51
270.0
  0
LINE
  5
86E5
  8
01
 10
38.134301904284733
 20
-30.2807704043231
 30
0.0
 11
38.134301904284733
 21
-42.280770404330369
 31
0.0
  0
LINE
  5
86E6
  8
01
 10
185.13430190428471
 20
-30.280770404323111
 30
0.0
 11
185.13430190428471
 21
-42.280770404330383
 31
0.0
  0
ARC
  5
86E7
  8
01
 10
179.13430190428471
 20
-42.280770404330383
 30
0.0
 40
6.0
 50
270.0
 51
0.0
  0
ARC
  5
86E8
  8
01
 10
179.13430190428471
 20
-30.280770404323111
 30
0.0
 40
6.0
 50
0.0
 51
89.999999999999986
  0
ARC
  5
86E9
  8
01
 10
191.13430190428471
 20
-50.780770404326738
 30
0.0
 40
0.5
 50
270.0
 51
0.0
  0
ARC
  5
86EA
  8
01
 10
191.13430190428471
 20
-21.780770404326748
 30
0.0
 40
0.5
 50
0.0
 51
89.999999999999986
  0
LINE
  5
86EB
  8
01
 10
191.63430190428471
 20
-50.780770404326759
 30
0.0
 11
191.63430190428471
 21
-21.780770404326759
 31
0.0
  0
ARC
  5
86EE
  8
01
 10
32.134301904284719
 20
-50.780770404326709
 30
0.0
 40
0.5
 50
180.0
 51
270.0
  0
ARC
  5
86EF
  8
01
 10
32.134301904284719
 20
-21.78077040432672
 30
0.0
 40
0.5
 50
89.999999999999986
 51
180.0
  0
LINE
  5
86F0
  8
01
 10
31.63430190428473
 20
-50.780770404326709
 30
0.0
 11
31.63430190428473
 21
-21.78077040432672
 31
0.0
  0
LINE
  5
86F2
  8
01
 10
179.13430190428471
 20
-24.280770404323111
 30
0.0
 11
152.63429860428869
 21
-24.280770404323111
 31
0.0
  0
LINE
  5
86F3
  8
01
 10
179.13430190428471
 20
-48.280770404326738
 30
0.0
 11
152.6343023042804
 21
-48.280770404326738
 31
0.0
  0
LINE
  5
86F6
  8
01
 10
191.13430190428471
 20
-51.280770404326759
 30
0.0
 11
32.134301904284733
 21
-51.280770404326709
 31
0.0
  0
LINE
  5
86F7
  8
01
 10
191.13430190428471
 20
-21.280770404326759
 30
0.0
 11
32.134301904284733
 21
-21.28077040432672
 31
0.0
  0
LINE
  5
870F
  8
01
 10
233.13430190428471
 20
99.140689844028955
 30
0.0
 11
239.31747775112899
 21
98.816643328983531
 31
0.0
  0
LINE
  5
8710
  8
01
 10
233.13430190428471
 20
75.293796143869073
 30
0.0
 11
239.31747775113439
 21
75.617842658917951
 31
0.0
  0
LINE
  5
8733
  8
01
 10
71.634298604283259
 20
13.71725399394662
 30
0.0
 11
72.634298604283259
 21
15.71725399394662
 31
0.0
  0
LINE
  5
8734
  8
01
 10
71.634301904282921
 20
13.71725399394662
 30
0.0
 11
70.634301504283513
 21
15.717261993945691
 31
0.0
  0
LINE
  5
8735
  8
01
 10
70.634299604283598
 20
15.717261993945691
 30
0.0
 11
72.634299604283598
 21
15.717261993945691
 31
0.0
  0
LINE
  5
8737
  8
01
 10
191.63430190428289
 20
20.717261993945709
 30
0.0
 11
31.634301904282911
 21
20.717261993945709
 31
0.0
  0
LINE
  5
873B
  8
01
 10
184.73174683795779
 20
13.036053748825211
 30
0.0
 11
185.13430190429381
 21
20.717261993949322
 31
0.0
  0
LINE
  5
873E
  8
01
 10
191.13430190427931
 20
22.217261993949311
 30
0.0
 11
32.134301904282907
 21
22.217261993945701
 31
0.0
  0
LINE
  5
8740
  8
01
 10
181.23654346631679
 20
9.7192295956748023
 30
0.0
 11
42.032060342252343
 21
9.7192295956711767
 31
0.0
  0
LINE
  5
8742
  8
01
 10
31.634301904282911
 20
21.717261993945709
 30
0.0
 11
31.634301904282911
 21
20.717261993945709
 31
0.0
  0
ARC
  5
8743
  8
01
 10
32.134301904282907
 20
21.717261993945709
 30
0.0
 40
0.5
 50
89.999999999999986
 51
180.0
  0
LINE
  5
8745
  8
01
 10
191.63430190427931
 20
21.717261993949322
 30
0.0
 11
191.63430190428289
 21
20.717261993949322
 31
0.0
  0
LINE
  5
8746
  8
01
 10
38.536856970611268
 20
13.0360537488202
 30
0.0
 11
38.134301904272192
 21
20.717261993945709
 31
0.0
  0
LINE
  5
8748
  8
01
 10
152.63430420428219
 20
15.71726199394568
 30
0.0
 11
150.63430420428219
 21
15.71726199394568
 31
0.0
  0
LINE
  5
8749
  8
01
 10
151.63430190428289
 20
13.71725399394661
 30
0.0
 11
152.6343023042823
 21
15.71726199394568
 31
0.0
  0
LINE
  5
874A
  8
01
 10
151.63430520428261
 20
13.71725399394661
 30
0.0
 11
150.63430520428261
 21
15.71725399394661
 31
0.0
  0
ARC
  5
8764
  8
01
 10
191.1343019042792
 20
21.717261993949322
 30
0.0
 40
0.5
 50
0.0
 51
89.999999999999986
  0
LINE
  5
879F
  8
01
 10
72.63429860428505
 20
-24.280770404330369
 30
0.0
 11
71.634301904284712
 21
-23.080770404326
 31
0.0
  0
LINE
  5
87A0
  8
01
 10
71.634301904284712
 20
-23.080770404326
 30
0.0
 11
70.634301504285304
 21
-24.280770404330369
 31
0.0
  0
LINE
  5
87A1
  8
01
 10
71.634301904284712
 20
-23.080770404326
 30
0.0
 11
71.634301904284712
 21
-24.724178009226861
 31
0.0
  0
ARC
  5
87A2
  8
01
 10
70.98247152530304
 20
-21.904808052161219
 30
0.0
 40
2.8937397598553591
 50
283.01789444730838
 51
304.80797042984261
  0
ARC
  5
87A3
  8
01
 10
72.286132283266411
 20
-21.904808052161219
 30
0.0
 40
2.8937397598553591
 50
235.19202957015739
 51
256.98210555269162
  0
ARC
  5
87A4
  8
01
 10
72.286132283266397
 20
-50.656732756492239
 30
0.0
 40
2.8937397598553591
 50
103.01789444730839
 51
124.8079704298426
  0
ARC
  5
87A5
  8
01
 10
70.982471525303026
 20
-50.656732756492239
 30
0.0
 40
2.8937397598553591
 50
55.192029570157374
 51
76.982105552691564
  0
LINE
  5
87A6
  8
01
 10
71.634301904284712
 20
-49.480770404327458
 30
0.0
 11
71.634301904284712
 21
-47.8373627994266
 31
0.0
  0
LINE
  5
87A7
  8
01
 10
71.634301904284712
 20
-49.480770404327458
 30
0.0
 11
70.634301504285304
 21
-48.280770404323093
 31
0.0
  0
LINE
  5
87A8
  8
01
 10
72.63429860428505
 20
-48.280770404323093
 30
0.0
 11
71.634301904284712
 21
-49.480770404327458
 31
0.0
  0
LINE
  5
87A9
  8
01
 10
150.6343052042844
 20
-48.280770404323107
 30
0.0
 11
151.63430190428471
 21
-49.480770404327473
 31
0.0
  0
LINE
  5
87AA
  8
01
 10
151.63430190428471
 20
-49.480770404327473
 30
0.0
 11
152.63430230428409
 21
-48.280770404323107
 31
0.0
  0
LINE
  5
87AB
  8
01
 10
151.63430190428471
 20
-49.480770404327473
 30
0.0
 11
151.63430190428471
 21
-47.837362799426607
 31
0.0
  0
ARC
  5
87AC
  8
01
 10
152.2861322832664
 20
-50.656732756492261
 30
0.0
 40
2.8937397598553591
 50
103.01789444730839
 51
124.8079704298426
  0
ARC
  5
87AD
  8
01
 10
150.982471525303
 20
-50.656732756492261
 30
0.0
 40
2.8937397598553591
 50
55.192029570157374
 51
76.982105552691564
  0
ARC
  5
87AE
  8
01
 10
150.982471525303
 20
-21.904808052161229
 30
0.0
 40
2.8937397598553591
 50
283.01789444730838
 51
304.80797042984261
  0
ARC
  5
87AF
  8
01
 10
152.2861322832664
 20
-21.904808052161229
 30
0.0
 40
2.8937397598553591
 50
235.19202957015739
 51
256.98210555269162
  0
LINE
  5
87B0
  8
01
 10
151.63430190428471
 20
-23.080770404326021
 30
0.0
 11
151.63430190428471
 21
-24.724178009226879
 31
0.0
  0
LINE
  5
87B1
  8
01
 10
151.63430190428471
 20
-23.080770404326021
 30
0.0
 11
152.63430230428409
 21
-24.280770404330379
 31
0.0
  0
LINE
  5
87B2
  8
01
 10
150.6343052042844
 20
-24.280770404330379
 30
0.0
 11
151.63430190428471
 21
-23.080770404326021
 31
0.0
  0
LINE
  5
87B3
  8
01
 10
70.634305204284374
 20
-48.280770404326731
 30
0.0
 11
44.134301904284719
 21
-48.280770404326731
 31
0.0
  0
LINE
  5
87B4
  8
01
 10
70.634301504278014
 20
-24.280770404330369
 30
0.0
 11
44.134301904284719
 21
-24.280770404330369
 31
0.0
  0
LINE
  5
87B5
  8
01
 10
150.63430520429159
 20
-48.280770404330383
 30
0.0
 11
72.634298604281412
 21
-48.280770404323093
 31
0.0
  0
LINE
  5
87B6
  8
01
 10
150.63430520428071
 20
-24.280770404323111
 30
0.0
 11
72.634298604281412
 21
-24.280770404326731
 31
0.0
  0
TEXT
  5
8C83
  8
01
 10
245.74561873404409
 20
35.983270580271949
 30
0.0
 40
4.0
  1
材質：亜鉛ダイキャスト
 72
     1
 11
271.61228540071079
 21
35.983270580271949
 31
0.0
  0
LINE
  5
8C84
  8
01
 10
245.93430190428489
 20
11.217242993949689
 30
0.0
 11
322.93430190428489
 21
11.217242993949689
 31
0.0
  0
TEXT
  5
8C85
  8
01
 10
254.2676352376179
 20
12.90632938237883
 30
0.0
 40
4.0
  1
クローム
 72
     1
 11
263.33430190428447
 21
12.90632938237883
 31
0.0
  0
TEXT
  5
8C86
  8
01
 10
254.2676352376179
 20
26.7172429939497
 30
0.0
 40
4.0
  1
表面処理
 72
     1
 11
263.33430190428447
 21
26.7172429939497
 31
0.0
  0
TEXT
  5
8C87
  8
01
 10
251.86763523761789
 20
19.881954334425298
 30
0.0
 40
4.0
  1
本金メッキ
 72
     1
 11
263.33430190428447
 21
19.881954334425298
 31
0.0
  0
LINE
  5
8C88
  8
01
 10
245.93430190428489
 20
32.217242993949696
 30
0.0
 11
322.93430190428489
 21
32.217242993949696
 31
0.0
  0
LINE
  5
8C89
  8
01
 10
245.93430190428489
 20
25.2172429939497
 30
0.0
 11
322.93430190428489
 21
25.2172429939497
 31
0.0
  0
LINE
  5
8C8A
  8
01
 10
245.93430190428489
 20
18.2172429939497
 30
0.0
 11
315.93430190428489
 21
18.2172429939497
 31
0.0
  0
LINE
  5
8C8B
  8
01
 10
245.93430190428489
 20
18.2172429939497
 30
0.0
 11
322.93430190428489
 21
18.2172429939497
 31
0.0
  0
LINE
  5
8C8C
  8
01
 10
280.93430190428489
 20
32.217242993949696
 30
0.0
 11
280.93430190428569
 21
-9.7827570060503035
 31
0.0
  0
TEXT
  5
8C8D
  8
01
 10
283.26763523761917
 20
19.502886010300369
 30
0.0
 40
4.0
  1
PC-303-XG
 72
     1
 11
301.93430190428592
 21
19.502886010300369
 31
0.0
  0
TEXT
  5
8C8E
  8
01
 10
283.26763523761917
 20
12.502886010300371
 30
0.0
 40
4.0
  1
PC-303-XC
 72
     1
 11
301.93430190428592
 21
12.502886010300371
 31
0.0
  0
TEXT
  5
8C8F
  8
01
 10
295.26763523761832
 20
26.717242993949771
 30
0.0
 40
4.0
  1
コード
 72
     1
 11
301.93430190428501
 21
26.717242993949771
 31
0.0
  0
LINE
  5
8C90
  8
01
 10
245.9343019042858
 20
4.2172429939496956
 30
0.0
 11
322.93430190428489
 21
4.2172429939496956
 31
0.0
  0
LINE
  5
8C93
  8
01
 10
245.9343019042858
 20
-9.7827570060503035
 30
0.0
 11
245.93430190428489
 21
32.217242993949696
 31
0.0
  0
LINE
  5
8C95
  8
01
 10
245.93430190428489
 20
-2.7827570060503031
 30
0.0
 11
322.93430190428489
 21
-2.7827570060503031
 31
0.0
  0
LINE
  5
8C98
  8
01
 10
245.93430190428489
 20
-9.7827570060503035
 30
0.0
 11
322.93430190428489
 21
-9.7827570060503035
 31
0.0
  0
TEXT
  5
8C99
  8
01
 10
247.06763523761751
 20
5.9063293823788321
 30
0.0
 40
4.0
  1
サテンニッケル
 72
     1
 11
263.33430190428419
 21
5.9063293823788321
 31
0.0
  0
TEXT
  5
8C9A
  8
01
 10
283.26763523761889
 20
5.5028860103003749
 30
0.0
 40
4.0
  1
PC-303-XN
 72
     1
 11
301.93430190428558
 21
5.5028860103003749
 31
0.0
  0
LINE
  5
8D4E
  8
01
 10
237.63430190428471
 20
81.217242993989771
 30
0.0
 11
237.63430190428471
 21
93.217242993989785
 31
0.0
  0
LINE
  5
8D4F
  8
01
 10
231.63430190428471
 20
87.217242993989757
 30
0.0
 11
243.63430190428471
 21
87.217242993989757
 31
0.0
  0
TEXT
  5
8E36
  8
01
 10
32.09303335754251
 20
122.217242993949
 30
0.0
 40
7.0
  1
PC-303-X
 41
1.0098214000000001
  0
TEXT
  5
9027
  8
01
 10
247.06763523761839
 20
-1.093670617621167
 30
0.0
 40
4.0
  1
パールクローム
 72
     1
 11
263.3343019042851
 21
-1.093670617621167
 31
0.0
  0
TEXT
  5
9028
  8
01
 10
283.2676352376198
 20
-1.4971139896996239
 30
0.0
 40
4.0
  1
PC-303-XB
 72
     1
 11
301.93430190428649
 21
-1.4971139896996239
 31
0.0
  0
ARC
  5
91AB
  8
01
 10
42.032060342252251
 20
13.21922959567118
 30
0.0
 40
3.5
 50
183.000000000011
 51
270.00000000000148
  0
ARC
  5
91AC
  8
01
 10
181.2365434663167
 20
13.2192295956748
 30
0.0
 40
3.5
 50
270.00000000000148
 51
357.00000000001171
  0
ARC
  5
91AD
  8
01
 10
239.13430190428099
 20
95.321439957342363
 30
0.0
 40
3.5
 50
0.0000000000129258
 51
87.000000000038796
  0
ARC
  5
91AE
  8
01
 10
239.13430190428471
 20
79.113046030558991
 30
0.0
 40
3.5
 50
272.99999999999022
 51
0.0000000000131039
  0
ARC
  5
91AF
  8
01
 10
43.13430190428646
 20
96.217242993945405
 30
0.0
 40
1.5
 50
90.0
 51
179.999999999989
  0
ARC
  5
91B0
  8
01
 10
43.134301904283006
 20
78.217242993945433
 30
0.0
 40
1.5
 50
179.999999999989
 51
270.00000000000148
  0
ARC
  5
91B1
  8
01
 10
180.13430190428269
 20
96.217242993945376
 30
0.0
 40
1.5
 50
359.99999999997812
 51
90.0
  0
ARC
  5
91B2
  8
01
 10
180.1343019042759
 20
78.217242993948986
 30
0.0
 40
1.5
 50
270.00000000000148
 51
359.999999999978
  0
TEXT
  5
922B
  8
01
 10
247.0676352376195
 20
-8.2827570060503035
 30
0.0
 40
4.0
  1
パールブラック
 72
     1
 11
263.33430190428618
 21
-8.2827570060503035
 31
0.0
  0
TEXT
  5
922C
  8
01
 10
283.07715904714382
 20
-8.4971139896996242
 30
0.0
 40
4.0
  1
PC-303-GQ
 72
     1
 11
301.9343019042866
 21
-8.4971139896996242
 31
0.0
  0
LINE
  5
924D
  8
01
 10
322.9343019042858
 20
-9.7827570060501525
 30
0.0
 11
322.93430190428489
 21
32.217242993949853
 31
0.0
  0
LINE
  5
92BC
  8
01
 10
622.63040900845601
 20
111.30360047549721
 30
0.0
 11
487.63040900845601
 21
111.30360047549701
 31
0.0
  0
ARC
  5
92BD
  8
01
 10
622.63040900845601
 20
105.30360047549721
 30
0.0
 40
6.0
 50
0.0
 51
90.0
  0
LINE
  5
92BE
  8
01
 10
481.6304090084559
 20
105.30360047549701
 30
0.0
 11
481.63040900845641
 21
93.303600475496978
 31
0.0
  0
ARC
  5
92BF
  8
01
 10
487.63040900845641
 20
93.303600475496978
 30
0.0
 40
6.0
 50
180.0
 51
270.0
  0
ARC
  5
92C0
  8
01
 10
487.63040900845601
 20
105.30360047549701
 30
0.0
 40
6.0
 50
90.0
 51
180.0
  0
LINE
  5
92C1
  8
01
 10
487.63040900845641
 20
87.303600475496978
 30
0.0
 11
622.63040900845601
 21
87.303600475497205
 31
0.0
  0
ARC
  5
92C2
  8
01
 10
622.63040900845601
 20
93.303600475497205
 30
0.0
 40
6.0
 50
270.0
 51
0.0
  0
LINE
  5
92C3
  8
01
 10
628.63040900845601
 20
93.303600475497205
 30
0.0
 11
628.63040900845601
 21
105.30360047549721
 31
0.0
  0
LINE
  5
92C5
  8
01
 10
628.63040900845601
 20
58.825783183448152
 30
0.0
 11
628.63040900845601
 21
46.325783183448152
 31
0.0
  0
LINE
  5
92C6
  8
01
 10
481.63040900845641
 20
58.825783183448152
 30
0.0
 11
481.6304090084567
 21
46.325783183448152
 31
0.0
  0
LINE
  5
92C7
  8
01
 10
638.63040900845601
 20
58.825783183448152
 30
0.0
 11
471.63040900845641
 21
58.825783183448152
 31
0.0
  0
LINE
  5
92C8
  8
01
 10
628.63040900845601
 20
46.325783183448152
 30
0.0
 11
481.6304090084567
 21
46.325783183448152
 31
0.0
  0
LINE
  5
97C1
  8
01
 10
260.89018639780352
 20
-37.244770888289743
 30
0.0
 11
277.61883171392361
 21
-37.244770888289743
 31
0.0
  0
LINE
  5
97C2
  8
01
 10
264.24765568443053
 20
-37.944770888289547
 30
0.0
 11
276.0352201191314
 21
-37.944770888289547
 31
0.0
  0
LINE
  5
97C3
  8
01
 10
264.24765568443053
 20
-36.544770888289918
 30
0.0
 11
276.0352201191314
 21
-36.544770888289918
 31
0.0
  0
LINE
  5
97C5
  8
01
 10
263.03522011913179
 20
-37.244770888289743
 30
0.0
 11
264.24765568443053
 21
-37.944770888289547
 31
0.0
  0
LINE
  5
97C7
  8
01
 10
263.03522011913179
 20
-37.244770888289743
 30
0.0
 11
264.24765568443053
 21
-36.544770888289918
 31
0.0
  0
LINE
  5
97C8
  8
01
 10
276.03522011913179
 20
-35.644770888289372
 30
0.0
 11
276.03522011913179
 21
-38.844770888289652
 31
0.0
  0
ARC
  5
97C9
  8
01
 10
274.85602871184722
 20
-37.244770888289743
 30
0.0
 40
1.9875845579527851
 50
306.39001527817038
 51
53.609984721861977
  0
LINE
  5
97CC
  8
01
 10
260.89018639780352
 20
-26.530902722898301
 30
0.0
 11
277.61883171392361
 21
-26.530902722898301
 31
0.0
  0
LINE
  5
97CD
  8
01
 10
264.24765568443053
 20
-27.230902722898179
 30
0.0
 11
276.0352201191314
 21
-27.230902722898119
 31
0.0
  0
LINE
  5
97CE
  8
01
 10
264.24765568443053
 20
-25.830902722898539
 30
0.0
 11
276.0352201191314
 21
-25.83090272289849
 31
0.0
  0
LINE
  5
97CF
  8
01
 10
263.03522011913179
 20
-26.530902722898301
 30
0.0
 11
264.24765568443053
 21
-27.230902722898119
 31
0.0
  0
LINE
  5
97D0
  8
01
 10
263.03522011913179
 20
-26.530902722898301
 30
0.0
 11
264.24765568443053
 21
-25.83090272289849
 31
0.0
  0
LINE
  5
97D1
  8
01
 10
276.03522011913179
 20
-24.93090272289794
 30
0.0
 11
276.03522011913179
 21
-28.13090272289822
 31
0.0
  0
ARC
  5
97D2
  8
01
 10
274.85602871184722
 20
-26.530902722898301
 30
0.0
 40
1.9875845579527851
 50
306.39001527817038
 51
53.609984721861977
  0
CIRCLE
  5
98FC
  8
01
 10
237.63430190428471
 20
87.217242993981955
 30
0.0
 40
0.9
  0
LINE
  5
99A3
  8
01
 10
236.7515465970823
 20
84.454863029602308
 30
0.0
 11
236.14274983349449
 21
82.549773398995654
 31
0.0
  0
LINE
  5
99A6
  8
01
 10
238.5170572114871
 20
89.979622958361617
 30
0.0
 11
246.49736812085089
 21
114.9521728662305
 31
0.0
  0
LINE
  5
99A7
  8
01
 10
237.36034336067021
 20
86.359952660208975
 30
0.0
 11
237.90826044789929
 21
88.074533327754935
 31
0.0
  0
TEXT
  5
99AB
  8
01
 10
257.99802384709221
 20
-60.347899510445238
 30
0.0
 40
4.0
  1
付属品
  0
LINE
  5
99AC
  8
01
 10
245.93430190428501
 20
-21.2807704043272
 30
0.0
 11
284.19227707238548
 21
-21.2807704043272
 31
0.0
  0
LINE
  5
99AD
  8
01
 10
284.19227707238548
 20
-21.2807704043272
 30
0.0
 11
284.19227707238548
 21
-62.836701419387389
 31
0.0
  0
LINE
  5
99AE
  8
01
 10
284.19227707238548
 20
-62.836701419387389
 30
0.0
 11
245.93430190428501
 21
-62.836701419387389
 31
0.0
  0
LINE
  5
99AF
  8
01
 10
245.93430190428501
 20
-62.836701419387389
 30
0.0
 11
245.93430190428501
 21
-21.2807704043272
 31
0.0
  0
LINE
  5
99B0
  8
01
 10
264.24765568443053
 20
-36.544770888289918
 30
0.0
 11
251.17195622138041
 21
-36.544770888289918
 31
0.0
  0
LINE
  5
99B1
  8
01
 10
264.24765568443053
 20
-37.944770888289547
 30
0.0
 11
251.17195622138041
 21
-37.944770888289547
 31
0.0
  0
LINE
  5
99B2
  8
01
 10
252.17195622138041
 20
-34.544770888289918
 30
0.0
 11
252.17195622138041
 21
-32.544770888289918
 31
0.0
  0
LINE
  5
99B3
  8
01
 10
252.17195622138041
 20
-39.944770888289561
 30
0.0
 11
252.17195622138041
 21
-54.84477088828956
 31
0.0
  0
LINE
  5
99B4
  8
01
 10
252.17195622138041
 20
-36.544770888289918
 30
0.0
 11
252.17195622138041
 21
-37.944770888289547
 31
0.0
  0
LINE
  5
99B8
  8
01
 10
276.0352201191314
 20
-38.844770888289652
 30
0.0
 11
276.0352201191314
 21
-53.031125956045912
 31
0.0
  0
LINE
  5
99B9
  8
01
 10
263.03522011913179
 20
-37.244770888289743
 30
0.0
 11
263.03522011913179
 21
-53.031125956045912
 31
0.0
  0
LINE
  5
99BA
  8
01
 10
274.0352201191314
 20
-52.031125956045912
 30
0.0
 11
265.03522011913179
 21
-52.031125956045912
 31
0.0
  0
TEXT
  5
99BE
  8
01
 10
280.64825106383569
 20
85.768143366383754
 30
0.0
 40
4.0
  1
切欠図(S=1:2)
  0
LINE
  5
99BF
  8
01
 10
622.63040900845738
 20
93.303600475495784
 30
0.0
 11
625.44051361281981
 21
90.456968761956773
 31
0.0
  0
LINE
  5
99C0
  8
01
 10
626.84556591500166
 20
89.033652905186671
 30
0.0
 11
649.18589751969387
 21
66.402930782541262
 31
0.0
  0
LINE
  5
99C3
  8
01
 10
481.63040900845641
 20
93.303600475496751
 30
0.0
 11
481.63040900845641
 21
70.303600475497205
 31
0.0
  0
LINE
  5
99C4
  8
01
 10
628.63040900845601
 20
93.303600475497205
 30
0.0
 11
628.63040900845601
 21
70.303600475497205
 31
0.0
  0
LINE
  5
99C5
  8
01
 10
483.63040900845641
 20
72.303600475497205
 30
0.0
 11
626.63040900845601
 21
72.303600475497205
 31
0.0
  0
LINE
  5
99C9
  8
01
 10
471.63040900845641
 20
58.825783183448152
 30
0.0
 11
464.63040900845618
 21
58.825783183448152
 31
0.0
  0
LINE
  5
99CA
  8
01
 10
481.6304090084567
 20
46.325783183448152
 30
0.0
 11
464.63040900845618
 21
46.325783183448152
 31
0.0
  0
LINE
  5
99CB
  8
01
 10
466.63040900845618
 20
56.825783183448152
 30
0.0
 11
466.63040900845618
 21
48.325783183448152
 31
0.0
  0
LINE
  5
99CC
  8
01
 10
466.63040900845618
 20
46.325783183448152
 30
0.0
 11
466.63040900845618
 21
21.192449850114819
 31
0.0
  0
LINE
  5
99D0
  8
01
 10
487.63040900845601
 20
111.30360047549701
 30
0.0
 11
464.63040900845618
 21
111.30360047549701
 31
0.0
  0
LINE
  5
99D1
  8
01
 10
487.63040900845641
 20
87.303600475496978
 30
0.0
 11
464.63040900845618
 21
87.303600475497007
 31
0.0
  0
LINE
  5
99D2
  8
01
 10
466.63040900845618
 20
109.30360047549701
 30
0.0
 11
466.63040900845618
 21
89.303600475496992
 31
0.0
  0
LINE
  5
99D6
  8
01
 10
191.63430190428289
 20
20.717261993949311
 30
0.0
 11
212.6343019042848
 21
20.7172619939493
 31
0.0
  0
LINE
  5
99D7
  8
01
 10
181.18413568703511
 20
9.7192295956748023
 30
0.0
 11
212.6343019042848
 21
9.7192295956747934
 31
0.0
  0
LINE
  5
99D8
  8
01
 10
211.63430190428471
 20
18.7172619939493
 30
0.0
 11
211.63430190428471
 21
11.71922959567479
 31
0.0
  0
TEXT
  5
99DC
  8
01
 10
103.7284101893846
 20
34.491537008582839
 30
0.0
 40
3.5
  1
材質：亜鉛ダイキャスト
  0
LINE
  5
99DF
  8
01
 10
191.13430190428289
 20
72.217242993948901
 30
0.0
 11
222.63430190428471
 21
72.217242993948901
 31
0.0
  0
LINE
  5
99E0
  8
01
 10
191.13430190428289
 20
102.217242993949
 30
0.0
 11
222.63430190428471
 21
102.217242993949
 31
0.0
  0
LINE
  5
99E1
  8
01
 10
221.63430190428471
 20
74.217242993948901
 30
0.0
 11
221.63430190428471
 21
100.217242993949
 31
0.0
  0
LINE
  5
99E5
  8
01
 10
180.63430190427559
 20
76.717242993949014
 30
0.0
 11
212.6343019042848
 21
76.717242993949014
 31
0.0
  0
LINE
  5
99E6
  8
01
 10
180.63430190427559
 20
97.717242993945376
 30
0.0
 11
212.6343019042848
 21
97.717242993945376
 31
0.0
  0
LINE
  5
99E7
  8
01
 10
211.63430190428471
 20
78.717242993949014
 30
0.0
 11
211.63430190428471
 21
95.717242993945376
 31
0.0
  0
LINE
  5
99EB
  8
01
 10
237.6343019042848
 20
81.217242993989771
 30
0.0
 11
237.6343019042848
 21
51.217242993949228
 31
0.0
  0
LINE
  5
99EC
  8
01
 10
233.13430190428471
 20
72.217242993948844
 30
0.0
 11
233.13430190428471
 21
51.217242993949228
 31
0.0
  0
LINE
  5
99ED
  8
01
 10
239.6343019042848
 20
52.217242993949228
 30
0.0
 11
241.6343019042848
 21
52.217242993949228
 31
0.0
  0
LINE
  5
99EE
  8
01
 10
231.13430190428471
 20
52.217242993949228
 30
0.0
 11
225.40096857095139
 21
52.217242993949228
 31
0.0
  0
LINE
  5
99EF
  8
01
 10
237.6343019042848
 20
52.217242993949228
 30
0.0
 11
233.13430190428471
 21
52.217242993949228
 31
0.0
  0
LINE
  5
99F3
  8
01
 10
38.134301904284719
 20
-42.280770404330347
 30
0.0
 11
38.134301904284719
 21
-72.280770404326304
 31
0.0
  0
LINE
  5
99F4
  8
01
 10
31.634301904284719
 20
-50.780770404326709
 30
0.0
 11
31.634301904284719
 21
-72.280770404326304
 31
0.0
  0
LINE
  5
99F5
  8
01
 10
36.134301904284719
 20
-71.280770404326304
 30
0.0
 11
33.634301904284719
 21
-71.280770404326304
 31
0.0
  0
LINE
  5
99F6
  8
01
 10
31.634301904284719
 20
-71.280770404326304
 30
0.0
 11
21.067635237618049
 21
-71.280770404326304
 31
0.0
  0
LINE
  5
99FA
  8
01
 10
185.13430190428471
 20
-42.280770404330383
 30
0.0
 11
185.13430190428471
 21
-72.280770404326304
 31
0.0
  0
LINE
  5
99FB
  8
01
 10
191.63430190428471
 20
-50.780770404326738
 30
0.0
 11
191.63430190428471
 21
-72.280770404326304
 31
0.0
  0
LINE
  5
99FC
  8
01
 10
187.13430190428471
 20
-71.280770404326304
 30
0.0
 11
189.63430190428471
 21
-71.280770404326304
 31
0.0
  0
LINE
  5
99FD
  8
01
 10
191.63430190428471
 20
-71.280770404326304
 30
0.0
 11
202.2009685709514
 21
-71.280770404326304
 31
0.0
  0
LINE
  5
9A01
  8
01
 10
179.13430190428471
 20
-24.280770404323111
 30
0.0
 11
212.6343019042848
 21
-24.280770404323121
 31
0.0
  0
LINE
  5
9A02
  8
01
 10
191.13430190428471
 20
-21.280770404326748
 30
0.0
 11
212.6343019042848
 21
-21.280770404326748
 31
0.0
  0
LINE
  5
9A03
  8
01
 10
211.63430190428471
 20
-26.280770404323121
 30
0.0
 11
211.63430190428471
 21
-28.280770404323121
 31
0.0
  0
LINE
  5
9A04
  8
01
 10
211.63430190428471
 20
-19.280770404326748
 30
0.0
 11
211.63430190428471
 21
-13.547437070993411
 31
0.0
  0
LINE
  5
9A05
  8
01
 10
211.63430190428471
 20
-24.280770404323121
 30
0.0
 11
211.63430190428471
 21
-21.280770404326748
 31
0.0
  0
LINE
  5
9A09
  8
01
 10
179.13430190428471
 20
-48.280770404326738
 30
0.0
 11
212.6343019042848
 21
-48.280770404326752
 31
0.0
  0
LINE
  5
9A0A
  8
01
 10
191.13430190428471
 20
-51.28077040432629
 30
0.0
 11
212.6343019042848
 21
-51.280770404326297
 31
0.0
  0
LINE
  5
9A0B
  8
01
 10
211.63430190428471
 20
-46.280770404326752
 30
0.0
 11
211.63430190428471
 21
-44.280770404326752
 31
0.0
  0
LINE
  5
9A0C
  8
01
 10
211.63430190428471
 20
-53.280770404326297
 30
0.0
 11
211.63430190428471
 21
-59.014103737659639
 31
0.0
  0
LINE
  5
9A0D
  8
01
 10
211.63430190428471
 20
-48.280770404326752
 30
0.0
 11
211.63430190428471
 21
-51.280770404326297
 31
0.0
  0
LINE
  5
9A11
  8
01
 10
179.13430190428471
 20
-48.280770404326738
 30
0.0
 11
212.6343019042848
 21
-48.280770404326752
 31
0.0
  0
LINE
  5
9A12
  8
01
 10
179.13430190428471
 20
-24.280770404323111
 30
0.0
 11
212.6343019042848
 21
-24.280770404323121
 31
0.0
  0
LINE
  5
9A13
  8
01
 10
211.63430190428471
 20
-46.280770404326752
 30
0.0
 11
211.63430190428471
 21
-26.280770404323121
 31
0.0
  0
LINE
  5
9A17
  8
01
 10
38.134301904284733
 20
-42.280770404330347
 30
0.0
 11
38.134301904284733
 21
-72.280770404326304
 31
0.0
  0
LINE
  5
9A18
  8
01
 10
185.13430190428471
 20
-42.280770404330347
 30
0.0
 11
185.13430190428471
 21
-72.280770404326304
 31
0.0
  0
LINE
  5
9A19
  8
01
 10
40.134301904284719
 20
-71.280770404326304
 30
0.0
 11
183.13430190428471
 21
-71.280770404326304
 31
0.0
  0
LINE
  5
9A1D
  8
01
 10
44.134301904284769
 20
-30.2807704043231
 30
0.0
 11
41.59492222926044
 21
-27.190212062198881
 31
0.0
  0
LINE
  5
9A1E
  8
01
 10
40.32523239174828
 20
-25.644932891136779
 30
0.0
 11
29.372059592284749
 21
-12.314346724345571
 31
0.0
  0
LINE
  5
9A21
  8
01
 10
191.63430190428471
 20
20.717261993949311
 30
0.0
 11
212.6343019042848
 21
20.7172619939493
 31
0.0
  0
LINE
  5
9A22
  8
01
 10
191.63430190428471
 20
22.2172619939493
 30
0.0
 11
212.6343019042848
 21
22.2172619939493
 31
0.0
  0
LINE
  5
9A23
  8
01
 10
211.6343019042848
 20
18.7172619939493
 30
0.0
 11
211.6343019042848
 21
16.7172619939493
 31
0.0
  0
LINE
  5
9A24
  8
01
 10
211.6343019042848
 20
24.2172619939493
 30
0.0
 11
211.6343019042848
 21
36.333909660616179
 31
0.0
  0
LINE
  5
9A25
  8
01
 10
211.6343019042848
 20
20.7172619939493
 30
0.0
 11
211.6343019042848
 21
22.2172619939493
 31
0.0
  0
LINE
  5
9A29
  8
01
 10
181.18413568703511
 20
9.7192295956748023
 30
0.0
 11
222.63430190428471
 21
9.7192295956747916
 31
0.0
  0
LINE
  5
9A2A
  8
01
 10
191.63430190428471
 20
22.2172619939493
 30
0.0
 11
222.63430190428471
 21
22.21726199394929
 31
0.0
  0
LINE
  5
9A2B
  8
01
 10
221.63430190428471
 20
11.71922959567479
 30
0.0
 11
221.63430190428471
 21
20.21726199394929
 31
0.0
  0
LINE
  5
9A2F
  8
01
 10
31.634301904282921
 20
72.717242993949043
 30
0.0
 11
31.634301904282921
 21
41.217242993949519
 31
0.0
  0
LINE
  5
9A30
  8
01
 10
191.63430190428471
 20
72.717242993949043
 30
0.0
 11
191.63430190428471
 21
41.217242993949519
 31
0.0
  0
LINE
  5
9A31
  8
01
 10
33.634301904282921
 20
42.217242993949519
 30
0.0
 11
189.63430190428471
 21
42.217242993949519
 31
0.0
  0
LINE
  5
9A35
  8
01
 10
41.634301904282921
 20
77.71724299394559
 30
0.0
 11
41.634301904282921
 21
51.217242993949228
 31
0.0
  0
LINE
  5
9A36
  8
01
 10
181.63430190427559
 20
77.717242993949014
 30
0.0
 11
181.63430190427559
 21
51.217242993949228
 31
0.0
  0
LINE
  5
9A37
  8
01
 10
43.634301904282907
 20
52.217242993949228
 30
0.0
 11
179.63430190427559
 21
52.217242993949228
 31
0.0
  0
TEXT
  5
9A3B
  8
01
 10
106.3843019042792
 20
52.917242993949237
 30
0.0
 40
3.5
  1
140
  0
LINE
  5
9A3C
  8
01
  6
BYBLOCK
 10
179.63430190427559
 20
52.753141373949227
 30
0.0
 11
181.63430190427559
 21
52.217242993949228
 31
0.0
  0
LINE
  5
9A3D
  8
01
  6
BYBLOCK
 10
181.63430190427559
 20
52.217242993949228
 30
0.0
 11
179.63430190427559
 21
51.681344613949243
 31
0.0
  0
LINE
  5
9A3E
  8
01
  6
BYBLOCK
 10
181.63430190427559
 20
52.217242993949228
 30
0.0
 11
179.63430190427559
 21
52.217242993949228
 31
0.0
  0
LINE
  5
9A3F
  8
01
  6
BYBLOCK
 10
43.634301904282907
 20
51.681344613949243
 30
0.0
 11
41.634301904282921
 21
52.217242993949228
 31
0.0
  0
LINE
  5
9A40
  8
01
  6
BYBLOCK
 10
41.634301904282921
 20
52.217242993949228
 30
0.0
 11
43.634301904282907
 21
52.753141373949227
 31
0.0
  0
LINE
  5
9A41
  8
01
  6
BYBLOCK
 10
41.634301904282921
 20
52.217242993949228
 30
0.0
 11
43.634301904282907
 21
52.217242993949228
 31
0.0
  0
TEXT
  5
9A42
  8
01
 10
106.3843019042838
 20
42.917242993949522
 30
0.0
 40
3.5
  1
160
  0
LINE
  5
9A43
  8
01
  6
BYBLOCK
 10
189.63430190428471
 20
42.753141373949532
 30
0.0
 11
191.63430190428471
 21
42.217242993949519
 31
0.0
  0
LINE
  5
9A44
  8
01
  6
BYBLOCK
 10
191.63430190428471
 20
42.217242993949519
 30
0.0
 11
189.63430190428471
 21
41.68134461394952
 31
0.0
  0
LINE
  5
9A45
  8
01
  6
BYBLOCK
 10
191.63430190428471
 20
42.217242993949519
 30
0.0
 11
189.63430190428471
 21
42.217242993949519
 31
0.0
  0
LINE
  5
9A46
  8
01
  6
BYBLOCK
 10
33.634301904282921
 20
41.68134461394952
 30
0.0
 11
31.634301904282921
 21
42.217242993949519
 31
0.0
  0
LINE
  5
9A47
  8
01
  6
BYBLOCK
 10
31.634301904282921
 20
42.217242993949519
 30
0.0
 11
33.634301904282921
 21
42.753141373949532
 31
0.0
  0
LINE
  5
9A48
  8
01
  6
BYBLOCK
 10
31.634301904282921
 20
42.217242993949519
 30
0.0
 11
33.634301904282921
 21
42.217242993949519
 31
0.0
  0
TEXT
  5
9A49
  8
01
 10
220.93430190428469
 20
9.8849124614787431
 30
0.0
 40
3.5
  1
12.5
 50
90.0
  0
LINE
  5
9A4A
  8
01
  6
BYBLOCK
 10
221.09840352428481
 20
20.21726199394929
 30
0.0
 11
221.63430190428471
 21
22.21726199394929
 31
0.0
  0
LINE
  5
9A4B
  8
01
  6
BYBLOCK
 10
221.63430190428471
 20
22.21726199394929
 30
0.0
 11
222.1702002842847
 21
20.21726199394929
 31
0.0
  0
LINE
  5
9A4C
  8
01
  6
BYBLOCK
 10
221.63430190428471
 20
22.21726199394929
 30
0.0
 11
221.63430190428471
 21
20.21726199394929
 31
0.0
  0
LINE
  5
9A4D
  8
01
  6
BYBLOCK
 10
222.1702002842847
 20
11.71922959567479
 30
0.0
 11
221.63430190428471
 21
9.7192295956747916
 31
0.0
  0
LINE
  5
9A4E
  8
01
  6
BYBLOCK
 10
221.63430190428471
 20
9.7192295956747916
 30
0.0
 11
221.09840352428481
 21
11.71922959567479
 31
0.0
  0
LINE
  5
9A4F
  8
01
  6
BYBLOCK
 10
221.63430190428471
 20
9.7192295956747916
 30
0.0
 11
221.63430190428471
 21
11.71922959567479
 31
0.0
  0
TEXT
  5
9A50
  8
01
 10
210.93430190428481
 20
27.80057632728289
 30
0.0
 40
3.5
  1
1.5
 50
90.0
  0
LINE
  5
9A51
  8
01
  6
BYBLOCK
 10
212.17020028428479
 20
24.2172619939493
 30
0.0
 11
211.6343019042848
 21
22.2172619939493
 31
0.0
  0
LINE
  5
9A52
  8
01
  6
BYBLOCK
 10
211.6343019042848
 20
22.2172619939493
 30
0.0
 11
211.09840352428481
 21
24.2172619939493
 31
0.0
  0
LINE
  5
9A53
  8
01
  6
BYBLOCK
 10
211.6343019042848
 20
22.2172619939493
 30
0.0
 11
211.6343019042848
 21
24.2172619939493
 31
0.0
  0
LINE
  5
9A54
  8
01
  6
BYBLOCK
 10
211.09840352428481
 20
18.7172619939493
 30
0.0
 11
211.6343019042848
 21
20.7172619939493
 31
0.0
  0
LINE
  5
9A55
  8
01
  6
BYBLOCK
 10
211.6343019042848
 20
20.7172619939493
 30
0.0
 11
212.17020028428479
 21
18.7172619939493
 31
0.0
  0
LINE
  5
9A56
  8
01
  6
BYBLOCK
 10
211.6343019042848
 20
20.7172619939493
 30
0.0
 11
211.6343019042848
 21
18.7172619939493
 31
0.0
  0
TEXT
  5
9A57
  8
01
 10
30.039876285907699
 20
-12.024483198322519
 30
0.0
 40
3.5
  1
4-R6
 50
309.40848333017288
  0
LINE
  5
9A58
  8
01
  6
BYBLOCK
 10
41.180865927050483
 20
-27.530424425711491
 30
0.0
 11
40.32523239174828
 21
-25.644932891136779
 31
0.0
  0
LINE
  5
9A59
  8
01
  6
BYBLOCK
 10
40.32523239174828
 20
-25.644932891136779
 30
0.0
 11
42.008978531470397
 21
-26.849999698686268
 31
0.0
  0
LINE
  5
9A5A
  8
01
  6
BYBLOCK
 10
40.32523239174828
 20
-25.644932891136779
 30
0.0
 11
41.59492222926044
 21
-27.190212062198881
 31
0.0
  0
TEXT
  5
9A5B
  8
01
 10
106.3843019042847
 20
-70.580770404326302
 30
0.0
 40
3.5
  1
147
  0
LINE
  5
9A5C
  8
01
  6
BYBLOCK
 10
183.13430190428471
 20
-70.744872024326298
 30
0.0
 11
185.13430190428471
 21
-71.280770404326304
 31
0.0
  0
LINE
  5
9A5D
  8
01
  6
BYBLOCK
 10
185.13430190428471
 20
-71.280770404326304
 30
0.0
 11
183.13430190428471
 21
-71.816668784326311
 31
0.0
  0
LINE
  5
9A5E
  8
01
  6
BYBLOCK
 10
185.13430190428471
 20
-71.280770404326304
 30
0.0
 11
183.13430190428471
 21
-71.280770404326304
 31
0.0
  0
LINE
  5
9A5F
  8
01
  6
BYBLOCK
 10
40.134301904284719
 20
-71.816668784326311
 30
0.0
 11
38.134301904284733
 21
-71.280770404326304
 31
0.0
  0
LINE
  5
9A60
  8
01
  6
BYBLOCK
 10
38.134301904284733
 20
-71.280770404326304
 30
0.0
 11
40.134301904284719
 21
-70.744872024326298
 31
0.0
  0
LINE
  5
9A61
  8
01
  6
BYBLOCK
 10
38.134301904284733
 20
-71.280770404326304
 30
0.0
 11
40.134301904284719
 21
-71.280770404326304
 31
0.0
  0
TEXT
  5
9A62
  8
01
 10
210.93430190428481
 20
-39.697437070991562
 30
0.0
 40
3.5
  1
24
 50
90.0
  0
LINE
  5
9A63
  8
01
  6
BYBLOCK
 10
211.09840352428469
 20
-26.280770404323121
 30
0.0
 11
211.63430190428471
 21
-24.280770404323121
 31
0.0
  0
LINE
  5
9A64
  8
01
  6
BYBLOCK
 10
211.63430190428471
 20
-24.280770404323121
 30
0.0
 11
212.1702002842847
 21
-26.280770404323121
 31
0.0
  0
LINE
  5
9A65
  8
01
  6
BYBLOCK
 10
211.63430190428471
 20
-24.280770404323121
 30
0.0
 11
211.63430190428471
 21
-26.280770404323121
 31
0.0
  0
LINE
  5
9A66
  8
01
  6
BYBLOCK
 10
212.1702002842847
 20
-46.280770404326752
 30
0.0
 11
211.63430190428471
 21
-48.280770404326752
 31
0.0
  0
LINE
  5
9A67
  8
01
  6
BYBLOCK
 10
211.63430190428471
 20
-48.280770404326752
 30
0.0
 11
211.09840352428469
 21
-46.280770404326752
 31
0.0
  0
LINE
  5
9A68
  8
01
  6
BYBLOCK
 10
211.63430190428471
 20
-48.280770404326752
 30
0.0
 11
211.63430190428471
 21
-46.280770404326752
 31
0.0
  0
TEXT
  5
9A69
  8
01
 10
210.93430190428481
 20
-58.8141037376596
 30
0.0
 40
3.5
  1
3
 50
90.0
  0
LINE
  5
9A6A
  8
01
  6
BYBLOCK
 10
211.09840352428469
 20
-53.280770404326297
 30
0.0
 11
211.63430190428471
 21
-51.280770404326297
 31
0.0
  0
LINE
  5
9A6B
  8
01
  6
BYBLOCK
 10
211.63430190428471
 20
-51.280770404326297
 30
0.0
 11
212.1702002842847
 21
-53.280770404326297
 31
0.0
  0
LINE
  5
9A6C
  8
01
  6
BYBLOCK
 10
211.63430190428471
 20
-51.280770404326297
 30
0.0
 11
211.63430190428471
 21
-53.280770404326297
 31
0.0
  0
LINE
  5
9A6D
  8
01
  6
BYBLOCK
 10
212.1702002842847
 20
-46.280770404326752
 30
0.0
 11
211.63430190428471
 21
-48.280770404326752
 31
0.0
  0
LINE
  5
9A6E
  8
01
  6
BYBLOCK
 10
211.63430190428471
 20
-48.280770404326752
 30
0.0
 11
211.09840352428469
 21
-46.280770404326752
 31
0.0
  0
LINE
  5
9A6F
  8
01
  6
BYBLOCK
 10
211.63430190428471
 20
-48.280770404326752
 30
0.0
 11
211.63430190428471
 21
-46.280770404326752
 31
0.0
  0
TEXT
  5
9A70
  8
01
 10
210.93430190428481
 20
-17.08077040432671
 30
0.0
 40
3.5
  1
3
 50
90.0
  0
LINE
  5
9A71
  8
01
  6
BYBLOCK
 10
212.1702002842847
 20
-19.280770404326748
 30
0.0
 11
211.63430190428471
 21
-21.280770404326748
 31
0.0
  0
LINE
  5
9A72
  8
01
  6
BYBLOCK
 10
211.63430190428471
 20
-21.280770404326748
 30
0.0
 11
211.09840352428469
 21
-19.280770404326748
 31
0.0
  0
LINE
  5
9A73
  8
01
  6
BYBLOCK
 10
211.63430190428471
 20
-21.280770404326748
 30
0.0
 11
211.63430190428471
 21
-19.280770404326748
 31
0.0
  0
LINE
  5
9A74
  8
01
  6
BYBLOCK
 10
211.09840352428469
 20
-26.280770404323121
 30
0.0
 11
211.63430190428471
 21
-24.280770404323121
 31
0.0
  0
LINE
  5
9A75
  8
01
  6
BYBLOCK
 10
211.63430190428471
 20
-24.280770404323121
 30
0.0
 11
212.1702002842847
 21
-26.280770404323121
 31
0.0
  0
LINE
  5
9A76
  8
01
  6
BYBLOCK
 10
211.63430190428471
 20
-24.280770404323121
 30
0.0
 11
211.63430190428471
 21
-26.280770404323121
 31
0.0
  0
TEXT
  5
9A77
  8
01
 10
193.66763523761799
 20
-70.580770404326302
 30
0.0
 40
3.5
  1
6.5
  0
LINE
  5
9A78
  8
01
  6
BYBLOCK
 10
189.63430190428471
 20
-70.744872024326298
 30
0.0
 11
191.63430190428471
 21
-71.280770404326304
 31
0.0
  0
LINE
  5
9A79
  8
01
  6
BYBLOCK
 10
191.63430190428471
 20
-71.280770404326304
 30
0.0
 11
189.63430190428471
 21
-71.816668784326311
 31
0.0
  0
LINE
  5
9A7A
  8
01
  6
BYBLOCK
 10
191.63430190428471
 20
-71.280770404326304
 30
0.0
 11
189.63430190428471
 21
-71.280770404326304
 31
0.0
  0
LINE
  5
9A7B
  8
01
  6
BYBLOCK
 10
187.13430190428471
 20
-71.816668784326311
 30
0.0
 11
185.13430190428471
 21
-71.280770404326304
 31
0.0
  0
LINE
  5
9A7C
  8
01
  6
BYBLOCK
 10
185.13430190428471
 20
-71.280770404326304
 30
0.0
 11
187.13430190428471
 21
-70.744872024326298
 31
0.0
  0
LINE
  5
9A7D
  8
01
  6
BYBLOCK
 10
185.13430190428471
 20
-71.280770404326304
 30
0.0
 11
187.13430190428471
 21
-71.280770404326304
 31
0.0
  0
TEXT
  5
9A7E
  8
01
 10
21.10096857095138
 20
-70.580770404326302
 30
0.0
 40
3.5
  1
6.5
  0
LINE
  5
9A7F
  8
01
  6
BYBLOCK
 10
33.634301904284719
 20
-71.816668784326311
 30
0.0
 11
31.634301904284719
 21
-71.280770404326304
 31
0.0
  0
LINE
  5
9A80
  8
01
  6
BYBLOCK
 10
31.634301904284719
 20
-71.280770404326304
 30
0.0
 11
33.634301904284719
 21
-70.744872024326298
 31
0.0
  0
LINE
  5
9A81
  8
01
  6
BYBLOCK
 10
31.634301904284719
 20
-71.280770404326304
 30
0.0
 11
33.634301904284719
 21
-71.280770404326304
 31
0.0
  0
LINE
  5
9A82
  8
01
  6
BYBLOCK
 10
36.134301904284719
 20
-70.744872024326298
 30
0.0
 11
38.134301904284719
 21
-71.280770404326304
 31
0.0
  0
LINE
  5
9A83
  8
01
  6
BYBLOCK
 10
38.134301904284719
 20
-71.280770404326304
 30
0.0
 11
36.134301904284719
 21
-71.816668784326311
 31
0.0
  0
LINE
  5
9A84
  8
01
  6
BYBLOCK
 10
38.134301904284719
 20
-71.280770404326304
 30
0.0
 11
36.134301904284719
 21
-71.280770404326304
 31
0.0
  0
TEXT
  5
9A85
  8
01
 10
225.60096857095141
 20
52.917242993949237
 30
0.0
 40
3.5
  1
5
  0
LINE
  5
9A86
  8
01
  6
BYBLOCK
 10
231.13430190428471
 20
52.753141373949227
 30
0.0
 11
233.13430190428471
 21
52.217242993949228
 31
0.0
  0
LINE
  5
9A87
  8
01
  6
BYBLOCK
 10
233.13430190428471
 20
52.217242993949228
 30
0.0
 11
231.13430190428471
 21
51.681344613949243
 31
0.0
  0
LINE
  5
9A88
  8
01
  6
BYBLOCK
 10
233.13430190428471
 20
52.217242993949228
 30
0.0
 11
231.13430190428471
 21
52.217242993949228
 31
0.0
  0
LINE
  5
9A89
  8
01
  6
BYBLOCK
 10
239.6343019042848
 20
51.681344613949243
 30
0.0
 11
237.6343019042848
 21
52.217242993949228
 31
0.0
  0
LINE
  5
9A8A
  8
01
  6
BYBLOCK
 10
237.6343019042848
 20
52.217242993949228
 30
0.0
 11
239.6343019042848
 21
52.753141373949227
 31
0.0
  0
LINE
  5
9A8B
  8
01
  6
BYBLOCK
 10
237.6343019042848
 20
52.217242993949228
 30
0.0
 11
239.6343019042848
 21
52.217242993949228
 31
0.0
  0
TEXT
  5
9A8C
  8
01
 10
210.93430190428469
 20
84.383909660613895
 30
0.0
 40
3.5
  1
21
 50
90.0
  0
LINE
  5
9A8D
  8
01
  6
BYBLOCK
 10
211.09840352428469
 20
95.717242993945376
 30
0.0
 11
211.63430190428471
 21
97.717242993945376
 31
0.0
  0
LINE
  5
9A8E
  8
01
  6
BYBLOCK
 10
211.63430190428471
 20
97.717242993945376
 30
0.0
 11
212.1702002842847
 21
95.717242993945376
 31
0.0
  0
LINE
  5
9A8F
  8
01
  6
BYBLOCK
 10
211.63430190428471
 20
97.717242993945376
 30
0.0
 11
211.63430190428471
 21
95.717242993945376
 31
0.0
  0
LINE
  5
9A90
  8
01
  6
BYBLOCK
 10
212.1702002842847
 20
78.717242993949014
 30
0.0
 11
211.63430190428471
 21
76.717242993949014
 31
0.0
  0
LINE
  5
9A91
  8
01
  6
BYBLOCK
 10
211.63430190428471
 20
76.717242993949014
 30
0.0
 11
211.09840352428469
 21
78.717242993949014
 31
0.0
  0
LINE
  5
9A92
  8
01
  6
BYBLOCK
 10
211.63430190428471
 20
76.717242993949014
 30
0.0
 11
211.63430190428471
 21
78.717242993949014
 31
0.0
  0
TEXT
  5
9A93
  8
01
 10
220.93430190428469
 20
83.883909660615657
 30
0.0
 40
3.5
  1
30
 50
90.0
  0
LINE
  5
9A94
  8
01
  6
BYBLOCK
 10
221.09840352428469
 20
100.217242993949
 30
0.0
 11
221.63430190428471
 21
102.217242993949
 31
0.0
  0
LINE
  5
9A95
  8
01
  6
BYBLOCK
 10
221.63430190428471
 20
102.217242993949
 30
0.0
 11
222.1702002842847
 21
100.217242993949
 31
0.0
  0
LINE
  5
9A96
  8
01
  6
BYBLOCK
 10
221.63430190428471
 20
102.217242993949
 30
0.0
 11
221.63430190428471
 21
100.217242993949
 31
0.0
  0
LINE
  5
9A97
  8
01
  6
BYBLOCK
 10
222.1702002842847
 20
74.217242993948901
 30
0.0
 11
221.63430190428471
 21
72.217242993948901
 31
0.0
  0
LINE
  5
9A98
  8
01
  6
BYBLOCK
 10
221.63430190428471
 20
72.217242993948901
 30
0.0
 11
221.09840352428469
 21
74.217242993948901
 31
0.0
  0
LINE
  5
9A99
  8
01
  6
BYBLOCK
 10
221.63430190428471
 20
72.217242993948901
 30
0.0
 11
221.63430190428471
 21
74.217242993948901
 31
0.0
  0
LINE
  5
9A9A
  8
01
 10
92.412895831382883
 20
23.73603540788158
 30
0.0
 11
101.0284101893847
 21
33.79153700858302
 31
0.0
  0
LINE
  5
9A9B
  8
01
 10
101.0284101893847
 20
33.79153700858302
 30
0.0
 11
103.7284101893847
 21
33.79153700858302
 31
0.0
  0
LINE
  5
9A9C
  8
01
  6
BYBLOCK
 10
92.819849937439585
 20
23.387358724906889
 30
0.0
 11
91.111616723300173
 21
22.217261993949311
 31
0.0
  0
LINE
  5
9A9D
  8
01
  6
BYBLOCK
 10
91.111616723300173
 20
22.217261993949311
 30
0.0
 11
92.00594172532621
 21
24.084712090856261
 31
0.0
  0
LINE
  5
9A9E
  8
01
  6
BYBLOCK
 10
91.111616723300173
 20
22.217261993949311
 30
0.0
 11
92.412895831382883
 21
23.73603540788158
 31
0.0
  0
TEXT
  5
9A9F
  8
01
 10
210.93430190428481
 20
12.13491246147875
 30
0.0
 40
3.5
  1
11
 50
90.0
  0
LINE
  5
9AA0
  8
01
  6
BYBLOCK
 10
212.1702002842847
 20
11.71922959567479
 30
0.0
 11
211.63430190428471
 21
9.7192295956747952
 31
0.0
  0
LINE
  5
9AA1
  8
01
  6
BYBLOCK
 10
211.63430190428471
 20
9.7192295956747952
 30
0.0
 11
211.09840352428469
 21
11.71922959567479
 31
0.0
  0
LINE
  5
9AA2
  8
01
  6
BYBLOCK
 10
211.63430190428471
 20
9.7192295956747952
 30
0.0
 11
211.63430190428471
 21
11.71922959567479
 31
0.0
  0
LINE
  5
9AA3
  8
01
  6
BYBLOCK
 10
211.09840352428469
 20
18.7172619939493
 30
0.0
 11
211.63430190428471
 21
20.7172619939493
 31
0.0
  0
LINE
  5
9AA4
  8
01
  6
BYBLOCK
 10
211.63430190428471
 20
20.7172619939493
 30
0.0
 11
212.1702002842847
 21
18.7172619939493
 31
0.0
  0
LINE
  5
9AA5
  8
01
  6
BYBLOCK
 10
211.63430190428471
 20
20.7172619939493
 30
0.0
 11
211.63430190428471
 21
18.7172619939493
 31
0.0
  0
TEXT
  5
9AA6
  8
01
 10
465.23040900845621
 20
92.470267142163735
 30
0.0
 40
7.0
  1
24
 50
90.0
  0
LINE
  5
9AA7
  8
01
  6
BYBLOCK
 10
467.16630738845618
 20
89.303600475496992
 30
0.0
 11
466.63040900845618
 21
87.303600475497007
 31
0.0
  0
LINE
  5
9AA8
  8
01
  6
BYBLOCK
 10
466.63040900845618
 20
87.303600475497007
 30
0.0
 11
466.09451062845619
 21
89.303600475496992
 31
0.0
  0
LINE
  5
9AA9
  8
01
  6
BYBLOCK
 10
466.63040900845618
 20
87.303600475497007
 30
0.0
 11
466.63040900845618
 21
89.303600475496992
 31
0.0
  0
LINE
  5
9AAA
  8
01
  6
BYBLOCK
 10
466.09451062845619
 20
109.30360047549701
 30
0.0
 11
466.63040900845618
 21
111.30360047549701
 31
0.0
  0
LINE
  5
9AAB
  8
01
  6
BYBLOCK
 10
466.63040900845618
 20
111.30360047549701
 30
0.0
 11
467.16630738845618
 21
109.30360047549701
 31
0.0
  0
LINE
  5
9AAC
  8
01
  6
BYBLOCK
 10
466.63040900845618
 20
111.30360047549701
 30
0.0
 11
466.63040900845618
 21
109.30360047549701
 31
0.0
  0
TEXT
  5
9AAD
  8
01
 10
465.23040900845621
 20
20.5924498501149
 30
0.0
 40
7.0
  1
12.5
 50
90.0
  0
LINE
  5
9AAE
  8
01
  6
BYBLOCK
 10
467.16630738845618
 20
48.325783183448152
 30
0.0
 11
466.63040900845618
 21
46.325783183448152
 31
0.0
  0
LINE
  5
9AAF
  8
01
  6
BYBLOCK
 10
466.63040900845618
 20
46.325783183448152
 30
0.0
 11
466.09451062845619
 21
48.325783183448152
 31
0.0
  0
LINE
  5
9AB0
  8
01
  6
BYBLOCK
 10
466.63040900845618
 20
46.325783183448152
 30
0.0
 11
466.63040900845618
 21
48.325783183448152
 31
0.0
  0
LINE
  5
9AB1
  8
01
  6
BYBLOCK
 10
466.09451062845619
 20
56.825783183448152
 30
0.0
 11
466.63040900845618
 21
58.825783183448152
 31
0.0
  0
LINE
  5
9AB2
  8
01
  6
BYBLOCK
 10
466.63040900845618
 20
58.825783183448152
 30
0.0
 11
467.16630738845618
 21
56.825783183448152
 31
0.0
  0
LINE
  5
9AB3
  8
01
  6
BYBLOCK
 10
466.63040900845618
 20
58.825783183448152
 30
0.0
 11
466.63040900845618
 21
56.825783183448152
 31
0.0
  0
TEXT
  5
9AB4
  8
01
 10
544.63040900845624
 20
73.703600475497211
 30
0.0
 40
7.0
  1
147
  0
LINE
  5
9AB5
  8
01
  6
BYBLOCK
 10
626.63040900845601
 20
72.839498855497212
 30
0.0
 11
628.63040900845601
 21
72.303600475497205
 31
0.0
  0
LINE
  5
9AB6
  8
01
  6
BYBLOCK
 10
628.63040900845601
 20
72.303600475497205
 30
0.0
 11
626.63040900845601
 21
71.767702095497199
 31
0.0
  0
LINE
  5
9AB7
  8
01
  6
BYBLOCK
 10
628.63040900845601
 20
72.303600475497205
 30
0.0
 11
626.63040900845601
 21
72.303600475497205
 31
0.0
  0
LINE
  5
9AB8
  8
01
  6
BYBLOCK
 10
483.63040900845641
 20
71.767702095497199
 30
0.0
 11
481.63040900845641
 21
72.303600475497205
 31
0.0
  0
LINE
  5
9AB9
  8
01
  6
BYBLOCK
 10
481.63040900845641
 20
72.303600475497205
 30
0.0
 11
483.63040900845641
 21
72.839498855497212
 31
0.0
  0
LINE
  5
9ABA
  8
01
  6
BYBLOCK
 10
481.63040900845641
 20
72.303600475497205
 30
0.0
 11
483.63040900845641
 21
72.303600475497205
 31
0.0
  0
TEXT
  5
9ABB
  8
01
 10
629.52794977735891
 20
88.309210488589855
 30
0.0
 40
7.0
  1
4-R6
 50
314.63003046480588
  0
LINE
  5
9ABC
  8
01
  6
BYBLOCK
 10
625.82188994375554
 20
90.833451388234096
 30
0.0
 11
626.84556591500166
 21
89.033652905186671
 31
0.0
  0
LINE
  5
9ABD
  8
01
  6
BYBLOCK
 10
626.84556591500166
 20
89.033652905186671
 30
0.0
 11
625.0591372818842
 21
90.080486135679564
 31
0.0
  0
LINE
  5
9ABE
  8
01
  6
BYBLOCK
 10
626.84556591500166
 20
89.033652905186671
 30
0.0
 11
625.44051361281981
 21
90.456968761956816
 31
0.0
  0
TEXT
  5
9ABF
  8
01
 10
265.95188678579831
 20
-51.331125956045909
 30
0.0
 40
3.5
  1
13
  0
LINE
  5
9AC0
  8
01
  6
BYBLOCK
 10
265.03522011913179
 20
-52.567024336045911
 30
0.0
 11
263.03522011913179
 21
-52.031125956045912
 31
0.0
  0
LINE
  5
9AC1
  8
01
  6
BYBLOCK
 10
263.03522011913179
 20
-52.031125956045912
 30
0.0
 11
265.03522011913179
 21
-51.495227576045913
 31
0.0
  0
LINE
  5
9AC2
  8
01
  6
BYBLOCK
 10
263.03522011913179
 20
-52.031125956045912
 30
0.0
 11
265.03522011913179
 21
-52.031125956045912
 31
0.0
  0
LINE
  5
9AC3
  8
01
  6
BYBLOCK
 10
274.0352201191314
 20
-51.495227576045913
 30
0.0
 11
276.0352201191314
 21
-52.031125956045912
 31
0.0
  0
LINE
  5
9AC4
  8
01
  6
BYBLOCK
 10
276.0352201191314
 20
-52.031125956045912
 30
0.0
 11
274.0352201191314
 21
-52.567024336045911
 31
0.0
  0
LINE
  5
9AC5
  8
01
  6
BYBLOCK
 10
276.0352201191314
 20
-52.031125956045912
 30
0.0
 11
274.0352201191314
 21
-52.031125956045912
 31
0.0
  0
TEXT
  5
9AC6
  8
01
 10
251.4719562213804
 20
-54.844770888289517
 30
0.0
 40
3.5
  1
\U+03C61.4
 50
90.0
  0
LINE
  5
9AC7
  8
01
  6
BYBLOCK
 10
251.63605784138039
 20
-39.944770888289561
 30
0.0
 11
252.17195622138041
 21
-37.944770888289547
 31
0.0
  0
LINE
  5
9AC8
  8
01
  6
BYBLOCK
 10
252.17195622138041
 20
-37.944770888289547
 30
0.0
 11
252.70785460138029
 21
-39.944770888289561
 31
0.0
  0
LINE
  5
9AC9
  8
01
  6
BYBLOCK
 10
252.17195622138041
 20
-37.944770888289547
 30
0.0
 11
252.17195622138041
 21
-39.944770888289561
 31
0.0
  0
LINE
  5
9ACA
  8
01
  6
BYBLOCK
 10
252.70785460138029
 20
-34.544770888289918
 30
0.0
 11
252.17195622138041
 21
-36.544770888289918
 31
0.0
  0
LINE
  5
9ACB
  8
01
  6
BYBLOCK
 10
252.17195622138041
 20
-36.544770888289918
 30
0.0
 11
251.63605784138039
 21
-34.544770888289918
 31
0.0
  0
LINE
  5
9ACC
  8
01
  6
BYBLOCK
 10
252.17195622138041
 20
-36.544770888289918
 30
0.0
 11
252.17195622138041
 21
-34.544770888289918
 31
0.0
  0
TEXT
  5
9ACD
  8
01
 10
241.95458068862951
 20
103.03618108529049
 30
0.0
 40
3.5
  1
\U+03C61.8
 50
72.278027215519728
  0
LINE
  5
9ACE
  8
01
  6
BYBLOCK
 10
239.02752443488549
 20
89.816496358683636
 30
0.0
 11
237.90826044789929
 21
88.074533327754935
 31
0.0
  0
LINE
  5
9ACF
  8
01
  6
BYBLOCK
 10
237.90826044789929
 20
88.074533327754935
 30
0.0
 11
238.00658998808859
 21
90.142749558039583
 31
0.0
  0
LINE
  5
9AD0
  8
01
  6
BYBLOCK
 10
237.90826044789929
 20
88.074533327754935
 30
0.0
 11
238.5170572114871
 21
89.979622958361603
 31
0.0
  0
LINE
  5
9AD1
  8
01
  6
BYBLOCK
 10
236.2410793736839
 20
84.617989629280302
 30
0.0
 11
237.36034336067021
 21
86.359952660208975
 31
0.0
  0
LINE
  5
9AD2
  8
01
  6
BYBLOCK
 10
237.36034336067021
 20
86.359952660208975
 30
0.0
 11
237.2620138204808
 21
84.291736429924342
 31
0.0
  0
LINE
  5
9AD3
  8
01
  6
BYBLOCK
 10
237.36034336067021
 20
86.359952660208975
 30
0.0
 11
236.75154659708241
 21
84.454863029602308
 31
0.0
  0
VIEWPORT
  5
57
 67
     1
  8
0
 10
-7.7295765619315944
 20
10.76174576747732
 30
0.0
 40
587.71459077127849
 41
269.95026118477369
 68
     1
 69
     1
1001
ACAD
1000
MVIEW
1002
{
1070
    16
1010
0.0
1020
0.0
1030
0.0
1010
0.0
1020
0.0
1030
1.0
1040
0.0
1040
269.95026118477369
1040
-7.7295765619315944
1040
10.76174576747732
1040
50.0
1040
0.0
1040
0.0
1070
     0
1070
  1000
1070
     1
1070
     1
1070
     0
1070
     0
1070
     0
1070
     0
1040
0.0
1040
0.0
1040
0.0
1040
10.0
1040
10.0
1040
10.0
1040
10.0
1070
     0
1002
{
1002
}
1002
}
  0
ENDSEC
  0
EOF
