  0
SECTION
  2
HEADER
  9
$ACADVER
  1
AC1009
  9
$INSBASE
 10
0.0
 20
0.0
 30
0.0
  9
$EXTMIN
 10
-247.67090485760761
 20
-1873.6410125969401
 30
0.0
  9
$EXTMAX
 10
-135.19936357638841
 20
-1653.641031596936
 30
0.0
  9
$LIMMIN
 10
0.0
 20
0.0
  9
$LIMMAX
 10
420.0
 20
297.0
  9
$ORTHOMODE
 70
     0
  9
$REGENMODE
 70
     1
  9
$FILLMODE
 70
     1
  9
$QTEXTMODE
 70
     0
  9
$MIRRTEXT
 70
     1
  9
$DRAGMODE
 70
     2
  9
$LTSCALE
 40
0.5
  9
$OSMODE
 70
  2173
  9
$ATTMODE
 70
     1
  9
$TEXTSIZE
 40
4.0
  9
$TRACEWID
 40
1.0
  9
$TEXTSTYLE
  7
STANDARD
  9
$CLAYER
  8
1TEXT
  9
$CELTYPE
  6
BYLAYER
  9
$CECOLOR
 62
   256
  9
$DIMSCALE
 40
1.0
  9
$DIMASZ
 40
2.0
  9
$DIMEXO
 40
0.0
  9
$DIMDLI
 40
7.0
  9
$DIMRND
 40
0.0
  9
$DIMDLE
 40
0.0
  9
$DIMEXE
 40
1.0
  9
$DIMTP
 40
0.0
  9
$DIMTM
 40
0.0
  9
$DIMTXT
 40
3.5
  9
$DIMCEN
 40
0.0
  9
$DIMTSZ
 40
0.0
  9
$DIMTOL
 70
     0
  9
$DIMLIM
 70
     0
  9
$DIMTIH
 70
     0
  9
$DIMTOH
 70
     0
  9
$DIMSE1
 70
     0
  9
$DIMSE2
 70
     0
  9
$DIMTAD
 70
     1
  9
$DIMZIN
 70
     8
  9
$DIMBLK
  1

  9
$DIMASO
 70
     1
  9
$DIMSHO
 70
     1
  9
$DIMPOST
  1
 
  9
$DIMAPOST
  1

  9
$DIMALT
 70
     0
  9
$DIMALTD
 70
     2
  9
$DIMALTF
 40
25.399999999999999
  9
$DIMLFAC
 40
1.0
  9
$DIMTOFL
 70
     1
  9
$DIMTVP
 40
0.0
  9
$DIMTIX
 70
     0
  9
$DIMSOXD
 70
     0
  9
$DIMSAH
 70
     1
  9
$DIMBLK1
  1
OPEN30
  9
$DIMBLK2
  1
OPEN30
  9
$DIMSTYLE
  2
NEWX10
  9
$DIMCLRD
 70
   256
  9
$DIMCLRE
 70
   256
  9
$DIMCLRT
 70
   201
  9
$DIMTFAC
 40
0.7
  9
$DIMGAP
 40
0.7
  9
$LUNITS
 70
     2
  9
$LUPREC
 70
     4
  9
$SKETCHINC
 40
1.0
  9
$FILLETRAD
 40
0.5
  9
$AUNITS
 70
     0
  9
$AUPREC
 70
     2
  9
$MENU
  1
acad
  9
$ELEVATION
 40
0.0
  9
$PELEVATION
 40
0.0
  9
$THICKNESS
 40
0.0
  9
$LIMCHECK
 70
     0
  9
$BLIPMODE
 70
     0
  9
$CHAMFERA
 40
10.0
  9
$CHAMFERB
 40
10.0
  9
$SKPOLY
 70
     0
  9
$TDCREATE
 40
2453033.7326634838
  9
$TDUPDATE
 40
2453515.3869838659
  9
$TDINDWG
 40
0.3983716667
  9
$TDUSRTIMER
 40
0.3983716667
  9
$USRTIMER
 70
     1
  9
$ANGBASE
 50
0.0
  9
$ANGDIR
 70
     0
  9
$PDMODE
 70
     0
  9
$PDSIZE
 40
0.0
  9
$PLINEWID
 40
0.0
  9
$COORDS
 70
     2
  9
$SPLFRAME
 70
     0
  9
$SPLINETYPE
 70
     6
  9
$SPLINESEGS
 70
     8
  9
$ATTDIA
 70
     0
  9
$ATTREQ
 70
     1
  9
$HANDLING
 70
     1
  9
$HANDSEED
  5
9028
  9
$SURFTAB1
 70
     6
  9
$SURFTAB2
 70
     6
  9
$SURFTYPE
 70
     6
  9
$SURFU
 70
     6
  9
$SURFV
 70
     6
  9
$UCSNAME
  2

  9
$UCSORG
 10
0.0
 20
0.0
 30
0.0
  9
$UCSXDIR
 10
1.0
 20
0.0
 30
0.0
  9
$UCSYDIR
 10
0.0
 20
1.0
 30
0.0
  9
$PUCSNAME
  2

  9
$PUCSORG
 10
0.0
 20
0.0
 30
0.0
  9
$PUCSXDIR
 10
1.0
 20
0.0
 30
0.0
  9
$PUCSYDIR
 10
0.0
 20
1.0
 30
0.0
  9
$USERI1
 70
     0
  9
$USERI2
 70
     0
  9
$USERI3
 70
     0
  9
$USERI4
 70
     0
  9
$USERI5
 70
     0
  9
$USERR1
 40
0.0
  9
$USERR2
 40
0.0
  9
$USERR3
 40
0.0
  9
$USERR4
 40
0.0
  9
$USERR5
 40
0.0
  9
$WORLDVIEW
 70
     1
  9
$SHADEDGE
 70
     3
  9
$SHADEDIF
 70
    70
  9
$TILEMODE
 70
     1
  9
$MAXACTVP
 70
    48
  9
$PLIMCHECK
 70
     0
  9
$PEXTMIN
 10
1.0000000000000000E+020
 20
1.0000000000000000E+020
 30
1.0000000000000000E+020
  9
$PEXTMAX
 10
-1.0000000000000000E+020
 20
-1.0000000000000000E+020
 30
-1.0000000000000000E+020
  9
$PLIMMIN
 10
0.0
 20
0.0
  9
$PLIMMAX
 10
420.0
 20
297.0
  9
$UNITMODE
 70
     0
  9
$VISRETAIN
 70
     1
  9
$PLINEGEN
 70
     0
  9
$PSLTSCALE
 70
     1
  0
ENDSEC
  0
SECTION
  2
TABLES
  0
TABLE
  2
VPORT
 70
     4
  0
VPORT
  2
*ACTIVE
 70
     0
 10
0.0
 20
0.0
 11
1.0
 21
1.0
 12
-191.4288804593194
 22
-1763.6615549075921
 13
0.0
 23
0.0
 14
10.0
 24
10.0
 15
10.0
 25
10.0
 16
0.0
 26
0.0
 36
1.0
 17
0.0
 27
0.0
 37
0.0
 40
233.5460106575058
 41
1.508086253369272
 42
50.0
 43
0.0
 44
0.0
 50
0.0
 51
0.0
 71
     0
 72
   100
 73
     1
 74
     1
 75
     0
 76
     0
 77
     0
 78
     0
  0
ENDTAB
  0
TABLE
  2
LTYPE
 70
    14
  0
LTYPE
  2
CONTINUOUS
 70
     0
  3
Solid line
 72
    65
 73
     0
 40
0.0
  0
LTYPE
  2
CENTER2
 70
     0
  3
Center (.5x) ___ _ ___ _ ___ _ ___ _ ___ _ ___
 72
    65
 73
     4
 40
28.574999999999999
 49
19.050000000000001
 49
-3.1749999999999989
 49
3.1749999999999989
 49
-3.1749999999999989
  0
LTYPE
  2
XREF1|CENTER2
 70
    48
  3
Center (.5x) ___ _ ___ _ ___ _ ___ _ ___ _ ___
 72
    65
 73
     4
 40
28.574999999999999
 49
19.050000000000001
 49
-3.1749999999999989
 49
3.1749999999999989
 49
-3.1749999999999989
  0
LTYPE
  2
PHANTOM2
 70
     0
  3
Phantom (.5x) ___ _ _ ___ _ _ ___ _ _ ___ _ _
 72
    65
 73
     6
 40
31.75
 49
15.875
 49
-3.1749999999999989
 49
3.1749999999999989
 49
-3.1749999999999989
 49
3.1749999999999989
 49
-3.1749999999999989
  0
LTYPE
  2
A3WAKUDAKE|CENTER2
 70
    48
  3
Center (.5x) ___ _ ___ _ ___ _ ___ _ ___ _ ___
 72
    65
 73
     4
 40
28.574999999999999
 49
19.050000000000001
 49
-3.1749999999999989
 49
3.1749999999999989
 49
-3.1749999999999989
  0
ENDTAB
  0
TABLE
  2
LAYER
 70
    43
  0
LAYER
  2
0
 70
     0
 62
     7
  6
CONTINUOUS
  0
LAYER
  2
1CENTER
 70
     0
 62
     7
  6
CENTER2
  0
LAYER
  2
1TEXT
 70
     0
 62
     7
  6
CONTINUOUS
  0
LAYER
  2
1DIM
 70
     0
 62
     7
  6
CONTINUOUS
  0
LAYER
  2
1PHANTOM
 70
     0
 62
     7
  6
PHANTOM2
  0
LAYER
  2
01
 70
     0
 62
     1
  6
CONTINUOUS
  0
LAYER
  2
XREF1|1CENTER
 70
    48
 62
     7
  6
XREF1|CENTER2
  0
LAYER
  2
A3WAKUDAKE|THICK
 70
    48
 62
     7
  6
CONTINUOUS
  0
LAYER
  2
A3WAKUDAKE|POINT
 70
    48
 62
     7
  6
CONTINUOUS
  0
LAYER
  2
A3WAKUDAKE|1CENTER
 70
    48
 62
     7
  6
A3WAKUDAKE|CENTER2
  0
LAYER
  2
A3WAKUDAKE|0-6
 70
    48
 62
     7
  6
CONTINUOUS
  0
LAYER
  2
A3WAKUDAKE|1DIM
 70
    48
 62
     7
  6
CONTINUOUS
  0
ENDTAB
  0
TABLE
  2
STYLE
 70
    22
  0
STYLE
  2
STANDARD
 70
     0
 40
0.0
 41
1.0
 50
0.0
 71
     0
 42
4.0
  3
txt.shx
  4
extfont.shx
  0
ENDTAB
  0
TABLE
  2
VIEW
 70
     0
  0
ENDTAB
  0
TABLE
  2
UCS
 70
     0
  0
ENDTAB
  0
TABLE
  2
APPID
 70
     9
  0
APPID
  2
ACAD
 70
     0
  0
APPID
  2
DRAWINGVARIABLESXDATA
 70
     0
  0
APPID
  2
CONTENTTABDATA
 70
     0
  0
APPID
  2
CONTENTCURRENTTAB
 70
     0
  0
APPID
  2
CONTENTBLOCKDESCRIPTION
 70
     0
  0
APPID
  2
CONTENTBLOCKICON
 70
     0
  0
APPID
  2
CONTENTLONGBLOCKNAME
 70
     0
  0
APPID
  2
ACAD_PSEXT
 70
     0
  0
APPID
  2
ACAD_DSTYLE_DIMTEXT_FILL
 70
     0
  0
ENDTAB
  0
TABLE
  2
DIMSTYLE
 70
     9
  0
DIMSTYLE
  2
NEWX10
 70
     0
  3
 
  4

  5

  6
OPEN30
  7
OPEN30
 40
1.0
 41
2.0
 42
0.0
 43
7.0
 44
1.0
 45
0.0
 46
0.0
 47
0.0
 48
0.0
140
3.5
141
0.0
142
0.0
143
25.399999999999999
144
1.0
145
0.0
146
0.7
147
0.7
 71
     0
 72
     0
 73
     0
 74
     0
 75
     0
 76
     0
 77
     1
 78
     8
170
     0
171
     2
172
     1
173
     1
174
     0
175
     0
176
   256
177
   256
178
   201
  0
ENDTAB
  0
ENDSEC
  0
SECTION
  2
BLOCKS
  0
BLOCK
  8
0
  2
$MODEL_SPACE
 70
     0
 10
0.0
 20
0.0
 30
0.0
  3
$MODEL_SPACE
  1

  0
ENDBLK
  5
1A
  8
0
  0
BLOCK
 67
     1
  8
0
  2
$PAPER_SPACE
 70
     0
 10
0.0
 20
0.0
 30
0.0
  3
$PAPER_SPACE
  1

  0
ENDBLK
  5
17
 67
     1
  8
0
  0
BLOCK
  8
0
  2
_OPEN30
 70
     0
 10
0.0
 20
0.0
 30
0.0
  3
_OPEN30
  1

  0
LINE
  5
44
  8
0
  6
BYBLOCK
 62
     0
 10
-1.0
 20
0.26794919
 30
0.0
 11
0.0
 21
0.0
 31
0.0
  0
LINE
  5
45
  8
0
  6
BYBLOCK
 62
     0
 10
0.0
 20
0.0
 30
0.0
 11
-1.0
 21
-0.26794919
 31
0.0
  0
LINE
  5
46
  8
0
  6
BYBLOCK
 62
     0
 10
0.0
 20
0.0
 30
0.0
 11
-1.0
 21
0.0
 31
0.0
  0
ENDBLK
  5
47
  8
0
  0
BLOCK
  8
0
  2
XREF1
 70
    36
 10
0.0
 20
0.0
 30
0.0
  3
XREF1
  1
D:\ACLT\FORMAT\KAWAJUN(9)図面用.dwg
  0
ENDBLK
  5
5D
  8
0
  0
BLOCK
  8
0
  2
A3WAKUDAKE
 70
    36
 10
0.0
 20
0.0
 30
0.0
  3
A3WAKUDAKE
  1
D:\ACLT\FORMAT\A3WAKUdake.dwg
  0
ENDBLK
  5
6DC
  8
0
  0
BLOCK
  8
0
  2
*U12
 70
     1
 10
0.0
 20
0.0
 30
0.0
  3
*U12
  1

  0
TEXT
  5
8E0D
  8
1DIM
 62
   201
 10
-236.74590485761129
 20
-1797.9410125969389
 30
0.0
 40
3.5
  1
φ20
  0
ENDBLK
  5
8E0F
  8
0
  0
BLOCK
  8
0
  2
*U13
 70
     1
 10
0.0
 20
0.0
 30
0.0
  3
*U13
  1

  0
TEXT
  5
8E11
  8
1DIM
 62
   201
 10
-188.37090485760729
 20
-1772.9743459302761
 30
0.0
 40
3.5
  1
16 
 50
90.0
  0
ENDBLK
  5
8E13
  8
0
  0
BLOCK
  8
0
  2
*U14
 70
     1
 10
0.0
 20
0.0
 30
0.0
  3
*U14
  1

  0
TEXT
  5
8E15
  8
1DIM
 62
   201
 10
-198.37090485760729
 20
-1771.9743459302711
 30
0.0
 40
3.5
  1
18 
 50
90.0
  0
ENDBLK
  5
8E17
  8
0
  0
BLOCK
  8
0
  2
*U15
 70
     1
 10
0.0
 20
0.0
 30
0.0
  3
*U15
  1

  0
TEXT
  5
8E19
  8
1DIM
 62
   201
 10
-237.03757152427411
 20
-1729.941031596936
 30
0.0
 40
3.5
  1
φ28
  0
ENDBLK
  5
8E1B
  8
0
  0
BLOCK
  8
0
  2
*U16
 70
     1
 10
0.0
 20
0.0
 30
0.0
  3
*U16
  1

  0
TEXT
  5
8E1D
  8
1DIM
 62
   201
 10
-159.00423819094101
 20
-1797.9410125969389
 30
0.0
 40
3.5
  1
14 
  0
ENDBLK
  5
8E1F
  8
0
  0
ENDSEC
  0
SECTION
  2
ENTITIES
  0
ARC
  5
89C8
  8
01
 10
-218.67090485761139
 20
-1761.641012596936
 30
0.0
 40
1.0
 50
0.0
 51
90.0
  0
ARC
  5
89C9
  8
01
 10
-244.67090485761139
 20
-1761.6410125969401
 30
0.0
 40
1.0
 50
90.0
 51
180.0
  0
LINE
  5
89CA
  8
01
 10
-217.67090485760761
 20
-1778.6410125969401
 30
0.0
 11
-245.67090485760761
 21
-1778.6410125969401
 31
0.0
  0
LINE
  5
89CB
  8
01
 10
-218.6709048576113
 20
-1760.641012596936
 30
0.0
 11
-244.6709048576113
 21
-1760.6410125969401
 31
0.0
  0
LINE
  5
89CC
  8
01
 10
-217.6709048576113
 20
-1761.641012596936
 30
0.0
 11
-217.67090485760761
 21
-1778.6410125969401
 31
0.0
  0
LINE
  5
89CD
  8
01
 10
-245.6709048576113
 20
-1761.6410125969389
 30
0.0
 11
-245.67090485760761
 21
-1778.6410125969401
 31
0.0
  0
CIRCLE
  5
89EF
  8
01
 10
-231.67090485760741
 20
-1696.641031596936
 30
0.0
 40
14.0
  0
LINE
  5
8A7E
  8
1CENTER
 10
-241.6709048576073
 20
-1699.6410315969249
 30
0.0
 11
-241.6709048576073
 21
-1693.6410315969249
 31
0.0
  0
LINE
  5
8A7F
  8
1CENTER
 10
-244.6709048576073
 20
-1696.6410315969249
 30
0.0
 11
-238.6709048576073
 21
-1696.6410315969249
 31
0.0
  0
LINE
  5
8A80
  8
1CENTER
 10
-221.6709048576073
 20
-1699.6410315969249
 30
0.0
 11
-221.6709048576073
 21
-1693.6410315969249
 31
0.0
  0
LINE
  5
8A81
  8
1CENTER
 10
-218.6709048576073
 20
-1696.6410315969249
 30
0.0
 11
-224.6709048576073
 21
-1696.6410315969249
 31
0.0
  0
ARC
  5
8A8C
  8
01
 10
-177.17090485761111
 20
-1777.141012596943
 30
0.0
 40
0.5
 50
90.0
 51
180.0
  0
ARC
  5
8A8D
  8
01
 10
-177.17090485760389
 20
-1762.1410125969469
 30
0.0
 40
0.5
 50
180.0
 51
270.0
  0
LINE
  5
8A8E
  8
01
 10
-177.6709048576113
 20
-1777.141012596943
 30
0.0
 11
-177.67090485760761
 21
-1778.6410125969401
 31
0.0
  0
ARC
  5
8A8F
  8
01
 10
-176.67090485760389
 20
-1761.641012596936
 30
0.0
 40
1.0
 50
90.0
 51
180.0
  0
ARC
  5
8A90
  8
01
 10
-150.67090485760389
 20
-1761.6410125969401
 30
0.0
 40
1.0
 50
0.000000000000007
 51
90.0
  0
ARC
  5
8A91
  8
01
 10
-170.67090485761111
 20
-1764.641012596943
 30
0.0
 40
2.0
 50
0.000000000000007
 51
90.0
  0
ARC
  5
8A92
  8
01
 10
-173.6709048576148
 20
-1771.6410125969401
 30
0.0
 40
5.0
 50
270.0
 51
0.000000000000007
  0
LINE
  5
8A93
  8
01
 10
-168.67090485761119
 20
-1764.641012596943
 30
0.0
 11
-168.67090485761489
 21
-1771.6410125969401
 31
0.0
  0
LINE
  5
8A94
  8
01
 10
-177.1709048576113
 20
-1776.641012596943
 30
0.0
 11
-173.67090485760761
 21
-1776.6410125969401
 31
0.0
  0
LINE
  5
8A95
  8
01
 10
-177.170904857604
 20
-1762.6410125969469
 30
0.0
 11
-170.67090485761119
 21
-1762.641012596943
 31
0.0
  0
LINE
  5
8A97
  8
01
 10
-149.670904857604
 20
-1761.6410125969389
 30
0.0
 11
-149.67090485760761
 21
-1778.6410125969401
 31
0.0
  0
LINE
  5
8A98
  8
01
 10
-177.670904857604
 20
-1761.641012596936
 30
0.0
 11
-177.670904857604
 21
-1762.1410125969469
 31
0.0
  0
LINE
  5
8A99
  8
01
 10
-176.670904857604
 20
-1760.641012596936
 30
0.0
 11
-150.670904857604
 21
-1760.6410125969401
 31
0.0
  0
LINE
  5
8A9A
  8
01
 10
-177.67090485760761
 20
-1778.6410125969401
 30
0.0
 11
-149.67090485760761
 21
-1778.6410125969401
 31
0.0
  0
LINE
  5
8A9D
  8
1CENTER
 10
-221.67090485761861
 20
-1768.6410125969389
 30
0.0
 11
-221.67090485761861
 21
-1780.6410125969389
 31
0.0
  0
LINE
  5
8A9E
  8
1CENTER
 10
-241.670904857604
 20
-1768.6410125969389
 30
0.0
 11
-241.670904857604
 21
-1780.6410125969389
 31
0.0
  0
LINE
  5
8A9F
  8
1CENTER
 10
-163.67090485760761
 20
-1768.6410125969389
 30
0.0
 11
-163.67090485760761
 21
-1780.6410125969389
 31
0.0
  0
TEXT
  5
8C4C
  8
1TEXT
 10
-247.45958802784801
 20
-1834.874985010618
 30
0.0
 40
4.0
  1
材質：亜鉛ダイキャスト
 72
     1
 11
-221.99292136118129
 21
-1834.874985010618
 31
0.0
  0
LINE
  5
8C4D
  8
1DIM
 10
-247.67090485760761
 20
-1866.6410125969401
 30
0.0
 11
-177.67090485760761
 21
-1866.6410125969401
 31
0.0
  0
TEXT
  5
8C4E
  8
1TEXT
 10
-246.6709048576075
 20
-1857.95192620851
 30
0.0
 40
4.0
  1
パールクローム
 72
     1
 11
-230.2709048576076
 21
-1857.95192620851
 31
0.0
  0
TEXT
  5
8C4F
  8
1TEXT
 10
-240.91852390522661
 20
-1844.1410125969401
 30
0.0
 40
4.0
  1
表面処理：
 72
     1
 11
-230.2709048576076
 21
-1844.1410125969401
 31
0.0
  0
TEXT
  5
8C50
  8
1TEXT
 10
-239.60423819094089
 20
-1850.976301256464
 30
0.0
 40
4.0
  1
クローム
 72
     1
 11
-230.2709048576076
 21
-1850.976301256464
 31
0.0
  0
LINE
  5
8C52
  8
1DIM
 10
-247.67090485760761
 20
-1838.6410125969401
 30
0.0
 11
-177.67090485760761
 21
-1838.6410125969401
 31
0.0
  0
LINE
  5
8C53
  8
1DIM
 10
-247.67090485760761
 20
-1852.6410125969401
 30
0.0
 11
-177.67090485760761
 21
-1852.6410125969401
 31
0.0
  0
LINE
  5
8C54
  8
1DIM
 10
-247.67090485760761
 20
-1845.6410125969401
 30
0.0
 11
-177.67090485760761
 21
-1845.6410125969401
 31
0.0
  0
LINE
  5
8C55
  8
1DIM
 10
-247.67090485760761
 20
-1859.6410125969401
 30
0.0
 11
-177.67090485760761
 21
-1859.6410125969401
 31
0.0
  0
LINE
  5
8C56
  8
1DIM
 10
-247.67090485760761
 20
-1859.6410125969401
 30
0.0
 11
-177.67090485760761
 21
-1859.6410125969401
 31
0.0
  0
LINE
  5
8C57
  8
1DIM
 10
-212.67090485760761
 20
-1838.6410125969401
 30
0.0
 11
-212.67090485760761
 21
-1873.6410125969401
 31
0.0
  0
TEXT
  5
8C58
  8
1TEXT
 10
-208.60423819094041
 20
-1851.355369580589
 30
0.0
 40
4.0
  1
PC327XC
 72
     1
 11
-195.27090485760709
 21
-1851.355369580589
 31
0.0
  0
TEXT
  5
8C59
  8
1TEXT
 10
-208.60423819094041
 20
-1858.355369580589
 30
0.0
 40
4.0
  1
PC327XB
 72
     1
 11
-195.27090485760709
 21
-1858.355369580589
 31
0.0
  0
TEXT
  5
8C5B
  8
1TEXT
 10
-202.07090485760759
 20
-1844.1410125969401
 30
0.0
 40
4.0
  1
コード
 72
     1
 11
-195.27090485760749
 21
-1844.1410125969401
 31
0.0
  0
LINE
  5
8C5C
  8
1DIM
 10
-247.67090485760761
 20
-1873.6410125969401
 30
0.0
 11
-177.67090485760761
 21
-1873.6410125969401
 31
0.0
  0
TEXT
  5
8C5D
  8
1TEXT
 10
-246.5375715242742
 20
-1864.9519262085109
 30
0.0
 40
4.0
  1
サテンニッケル
 72
     1
 11
-230.2709048576076
 21
-1864.9519262085109
 31
0.0
  0
TEXT
  5
8C5E
  8
1TEXT
 10
-208.60423819094041
 20
-1865.355369580589
 30
0.0
 40
4.0
  1
PC327XN
 72
     1
 11
-195.27090485760709
 21
-1865.355369580589
 31
0.0
  0
LINE
  5
8C5F
  8
1DIM
 10
-247.67090485760761
 20
-1873.6410125969401
 30
0.0
 11
-247.67090485760761
 21
-1838.6410125969401
 31
0.0
  0
LINE
  5
8C60
  8
1DIM
 10
-177.67090485760761
 20
-1873.6410125969401
 30
0.0
 11
-177.67090485760761
 21
-1838.6410125969401
 31
0.0
  0
LINE
  5
8C61
  8
1PHANTOM
 10
-218.68783896391349
 20
-1762.6410125969469
 30
0.0
 11
-244.65397075130909
 21
-1762.6410125969469
 31
0.0
  0
LINE
  5
8C62
  8
1PHANTOM
 10
-218.68783896391349
 20
-1776.641012596943
 30
0.0
 11
-244.65397075130909
 21
-1776.641012596943
 31
0.0
  0
LINE
  5
8C64
  8
1PHANTOM
 10
-245.02605367744459
 20
-1764.641012596943
 30
0.0
 11
-245.02605367744459
 21
-1771.6410125969419
 31
0.0
  0
LINE
  5
8C65
  8
1PHANTOM
 10
-218.3157560377702
 20
-1764.641012596943
 30
0.0
 11
-218.3157560377702
 21
-1771.6410125969419
 31
0.0
  0
POLYLINE
  5
8C6B
  8
1PHANTOM
 10
-218.31575603777023
 20
-1764.641012596943
 30
0.0
 66
     1
 70
     8
  0
VERTEX
  8
1PHANTOM
  5
8E20
 10
-218.316
 20
-1764.64
 30
0.000000
  70
    32
  0
VERTEX
  8
1PHANTOM
  5
8E21
 10
-218.316
 20
-1764.62
 30
0.000000
  70
    32
  0
VERTEX
  8
1PHANTOM
  5
8E22
 10
-218.316
 20
-1764.59
 30
0.000000
  70
    32
  0
VERTEX
  8
1PHANTOM
  5
8E23
 10
-218.316
 20
-1764.57
 30
0.000000
  70
    32
  0
VERTEX
  8
1PHANTOM
  5
8E24
 10
-218.316
 20
-1764.54
 30
0.000000
  70
    32
  0
VERTEX
  8
1PHANTOM
  5
8E25
 10
-218.316
 20
-1764.52
 30
0.000000
  70
    32
  0
VERTEX
  8
1PHANTOM
  5
8E26
 10
-218.317
 20
-1764.49
 30
0.000000
  70
    32
  0
VERTEX
  8
1PHANTOM
  5
8E27
 10
-218.317
 20
-1764.47
 30
0.000000
  70
    32
  0
VERTEX
  8
1PHANTOM
  5
8E28
 10
-218.318
 20
-1764.44
 30
0.000000
  70
    32
  0
VERTEX
  8
1PHANTOM
  5
8E29
 10
-218.318
 20
-1764.42
 30
0.000000
  70
    32
  0
VERTEX
  8
1PHANTOM
  5
8E2A
 10
-218.319
 20
-1764.40
 30
0.000000
  70
    32
  0
VERTEX
  8
1PHANTOM
  5
8E2B
 10
-218.319
 20
-1764.37
 30
0.000000
  70
    32
  0
VERTEX
  8
1PHANTOM
  5
8E2C
 10
-218.320
 20
-1764.35
 30
0.000000
  70
    32
  0
VERTEX
  8
1PHANTOM
  5
8E2D
 10
-218.320
 20
-1764.32
 30
0.000000
  70
    32
  0
VERTEX
  8
1PHANTOM
  5
8E2E
 10
-218.321
 20
-1764.30
 30
0.000000
  70
    32
  0
VERTEX
  8
1PHANTOM
  5
8E2F
 10
-218.322
 20
-1764.27
 30
0.000000
  70
    32
  0
VERTEX
  8
1PHANTOM
  5
8E30
 10
-218.323
 20
-1764.25
 30
0.000000
  70
    32
  0
VERTEX
  8
1PHANTOM
  5
8E31
 10
-218.324
 20
-1764.23
 30
0.000000
  70
    32
  0
VERTEX
  8
1PHANTOM
  5
8E32
 10
-218.325
 20
-1764.20
 30
0.000000
  70
    32
  0
VERTEX
  8
1PHANTOM
  5
8E33
 10
-218.326
 20
-1764.18
 30
0.000000
  70
    32
  0
VERTEX
  8
1PHANTOM
  5
8E34
 10
-218.327
 20
-1764.16
 30
0.000000
  70
    32
  0
VERTEX
  8
1PHANTOM
  5
8E35
 10
-218.328
 20
-1764.13
 30
0.000000
  70
    32
  0
VERTEX
  8
1PHANTOM
  5
8E36
 10
-218.329
 20
-1764.11
 30
0.000000
  70
    32
  0
VERTEX
  8
1PHANTOM
  5
8E37
 10
-218.330
 20
-1764.08
 30
0.000000
  70
    32
  0
VERTEX
  8
1PHANTOM
  5
8E38
 10
-218.332
 20
-1764.06
 30
0.000000
  70
    32
  0
VERTEX
  8
1PHANTOM
  5
8E39
 10
-218.333
 20
-1764.04
 30
0.000000
  70
    32
  0
VERTEX
  8
1PHANTOM
  5
8E3A
 10
-218.335
 20
-1764.01
 30
0.000000
  70
    32
  0
VERTEX
  8
1PHANTOM
  5
8E3B
 10
-218.336
 20
-1763.99
 30
0.000000
  70
    32
  0
VERTEX
  8
1PHANTOM
  5
8E3C
 10
-218.338
 20
-1763.97
 30
0.000000
  70
    32
  0
VERTEX
  8
1PHANTOM
  5
8E3D
 10
-218.339
 20
-1763.94
 30
0.000000
  70
    32
  0
VERTEX
  8
1PHANTOM
  5
8E3E
 10
-218.341
 20
-1763.92
 30
0.000000
  70
    32
  0
VERTEX
  8
1PHANTOM
  5
8E3F
 10
-218.342
 20
-1763.90
 30
0.000000
  70
    32
  0
VERTEX
  8
1PHANTOM
  5
8E40
 10
-218.344
 20
-1763.88
 30
0.000000
  70
    32
  0
VERTEX
  8
1PHANTOM
  5
8E41
 10
-218.346
 20
-1763.85
 30
0.000000
  70
    32
  0
VERTEX
  8
1PHANTOM
  5
8E42
 10
-218.348
 20
-1763.83
 30
0.000000
  70
    32
  0
VERTEX
  8
1PHANTOM
  5
8E43
 10
-218.350
 20
-1763.81
 30
0.000000
  70
    32
  0
VERTEX
  8
1PHANTOM
  5
8E44
 10
-218.351
 20
-1763.79
 30
0.000000
  70
    32
  0
VERTEX
  8
1PHANTOM
  5
8E45
 10
-218.353
 20
-1763.76
 30
0.000000
  70
    32
  0
VERTEX
  8
1PHANTOM
  5
8E46
 10
-218.355
 20
-1763.74
 30
0.000000
  70
    32
  0
VERTEX
  8
1PHANTOM
  5
8E47
 10
-218.358
 20
-1763.72
 30
0.000000
  70
    32
  0
VERTEX
  8
1PHANTOM
  5
8E48
 10
-218.360
 20
-1763.70
 30
0.000000
  70
    32
  0
VERTEX
  8
1PHANTOM
  5
8E49
 10
-218.362
 20
-1763.68
 30
0.000000
  70
    32
  0
VERTEX
  8
1PHANTOM
  5
8E4A
 10
-218.364
 20
-1763.66
 30
0.000000
  70
    32
  0
VERTEX
  8
1PHANTOM
  5
8E4B
 10
-218.366
 20
-1763.63
 30
0.000000
  70
    32
  0
VERTEX
  8
1PHANTOM
  5
8E4C
 10
-218.369
 20
-1763.61
 30
0.000000
  70
    32
  0
VERTEX
  8
1PHANTOM
  5
8E4D
 10
-218.371
 20
-1763.59
 30
0.000000
  70
    32
  0
VERTEX
  8
1PHANTOM
  5
8E4E
 10
-218.373
 20
-1763.57
 30
0.000000
  70
    32
  0
VERTEX
  8
1PHANTOM
  5
8E4F
 10
-218.376
 20
-1763.55
 30
0.000000
  70
    32
  0
VERTEX
  8
1PHANTOM
  5
8E50
 10
-218.378
 20
-1763.53
 30
0.000000
  70
    32
  0
VERTEX
  8
1PHANTOM
  5
8E51
 10
-218.381
 20
-1763.51
 30
0.000000
  70
    32
  0
VERTEX
  8
1PHANTOM
  5
8E52
 10
-218.384
 20
-1763.49
 30
0.000000
  70
    32
  0
VERTEX
  8
1PHANTOM
  5
8E53
 10
-218.386
 20
-1763.47
 30
0.000000
  70
    32
  0
VERTEX
  8
1PHANTOM
  5
8E54
 10
-218.389
 20
-1763.45
 30
0.000000
  70
    32
  0
VERTEX
  8
1PHANTOM
  5
8E55
 10
-218.392
 20
-1763.43
 30
0.000000
  70
    32
  0
VERTEX
  8
1PHANTOM
  5
8E56
 10
-218.395
 20
-1763.41
 30
0.000000
  70
    32
  0
VERTEX
  8
1PHANTOM
  5
8E57
 10
-218.397
 20
-1763.39
 30
0.000000
  70
    32
  0
VERTEX
  8
1PHANTOM
  5
8E58
 10
-218.400
 20
-1763.37
 30
0.000000
  70
    32
  0
VERTEX
  8
1PHANTOM
  5
8E59
 10
-218.403
 20
-1763.35
 30
0.000000
  70
    32
  0
VERTEX
  8
1PHANTOM
  5
8E5A
 10
-218.406
 20
-1763.33
 30
0.000000
  70
    32
  0
VERTEX
  8
1PHANTOM
  5
8E5B
 10
-218.409
 20
-1763.32
 30
0.000000
  70
    32
  0
VERTEX
  8
1PHANTOM
  5
8E5C
 10
-218.412
 20
-1763.30
 30
0.000000
  70
    32
  0
VERTEX
  8
1PHANTOM
  5
8E5D
 10
-218.415
 20
-1763.28
 30
0.000000
  70
    32
  0
VERTEX
  8
1PHANTOM
  5
8E5E
 10
-218.418
 20
-1763.26
 30
0.000000
  70
    32
  0
VERTEX
  8
1PHANTOM
  5
8E5F
 10
-218.422
 20
-1763.24
 30
0.000000
  70
    32
  0
VERTEX
  8
1PHANTOM
  5
8E60
 10
-218.425
 20
-1763.23
 30
0.000000
  70
    32
  0
VERTEX
  8
1PHANTOM
  5
8E61
 10
-218.428
 20
-1763.21
 30
0.000000
  70
    32
  0
VERTEX
  8
1PHANTOM
  5
8E62
 10
-218.431
 20
-1763.19
 30
0.000000
  70
    32
  0
VERTEX
  8
1PHANTOM
  5
8E63
 10
-218.435
 20
-1763.18
 30
0.000000
  70
    32
  0
VERTEX
  8
1PHANTOM
  5
8E64
 10
-218.438
 20
-1763.16
 30
0.000000
  70
    32
  0
VERTEX
  8
1PHANTOM
  5
8E65
 10
-218.441
 20
-1763.14
 30
0.000000
  70
    32
  0
VERTEX
  8
1PHANTOM
  5
8E66
 10
-218.445
 20
-1763.13
 30
0.000000
  70
    32
  0
VERTEX
  8
1PHANTOM
  5
8E67
 10
-218.448
 20
-1763.11
 30
0.000000
  70
    32
  0
VERTEX
  8
1PHANTOM
  5
8E68
 10
-218.452
 20
-1763.09
 30
0.000000
  70
    32
  0
VERTEX
  8
1PHANTOM
  5
8E69
 10
-218.455
 20
-1763.08
 30
0.000000
  70
    32
  0
VERTEX
  8
1PHANTOM
  5
8E6A
 10
-218.459
 20
-1763.06
 30
0.000000
  70
    32
  0
VERTEX
  8
1PHANTOM
  5
8E6B
 10
-218.463
 20
-1763.05
 30
0.000000
  70
    32
  0
VERTEX
  8
1PHANTOM
  5
8E6C
 10
-218.466
 20
-1763.03
 30
0.000000
  70
    32
  0
VERTEX
  8
1PHANTOM
  5
8E6D
 10
-218.470
 20
-1763.02
 30
0.000000
  70
    32
  0
VERTEX
  8
1PHANTOM
  5
8E6E
 10
-218.474
 20
-1763.01
 30
0.000000
  70
    32
  0
VERTEX
  8
1PHANTOM
  5
8E6F
 10
-218.477
 20
-1762.99
 30
0.000000
  70
    32
  0
VERTEX
  8
1PHANTOM
  5
8E70
 10
-218.481
 20
-1762.98
 30
0.000000
  70
    32
  0
VERTEX
  8
1PHANTOM
  5
8E71
 10
-218.485
 20
-1762.96
 30
0.000000
  70
    32
  0
VERTEX
  8
1PHANTOM
  5
8E72
 10
-218.489
 20
-1762.95
 30
0.000000
  70
    32
  0
VERTEX
  8
1PHANTOM
  5
8E73
 10
-218.493
 20
-1762.94
 30
0.000000
  70
    32
  0
VERTEX
  8
1PHANTOM
  5
8E74
 10
-218.497
 20
-1762.93
 30
0.000000
  70
    32
  0
VERTEX
  8
1PHANTOM
  5
8E75
 10
-218.500
 20
-1762.91
 30
0.000000
  70
    32
  0
VERTEX
  8
1PHANTOM
  5
8E76
 10
-218.504
 20
-1762.90
 30
0.000000
  70
    32
  0
VERTEX
  8
1PHANTOM
  5
8E77
 10
-218.508
 20
-1762.89
 30
0.000000
  70
    32
  0
VERTEX
  8
1PHANTOM
  5
8E78
 10
-218.512
 20
-1762.88
 30
0.000000
  70
    32
  0
VERTEX
  8
1PHANTOM
  5
8E79
 10
-218.516
 20
-1762.87
 30
0.000000
  70
    32
  0
VERTEX
  8
1PHANTOM
  5
8E7A
 10
-218.521
 20
-1762.85
 30
0.000000
  70
    32
  0
VERTEX
  8
1PHANTOM
  5
8E7B
 10
-218.525
 20
-1762.84
 30
0.000000
  70
    32
  0
VERTEX
  8
1PHANTOM
  5
8E7C
 10
-218.529
 20
-1762.83
 30
0.000000
  70
    32
  0
VERTEX
  8
1PHANTOM
  5
8E7D
 10
-218.533
 20
-1762.82
 30
0.000000
  70
    32
  0
VERTEX
  8
1PHANTOM
  5
8E7E
 10
-218.537
 20
-1762.81
 30
0.000000
  70
    32
  0
VERTEX
  8
1PHANTOM
  5
8E7F
 10
-218.541
 20
-1762.80
 30
0.000000
  70
    32
  0
VERTEX
  8
1PHANTOM
  5
8E80
 10
-218.545
 20
-1762.79
 30
0.000000
  70
    32
  0
VERTEX
  8
1PHANTOM
  5
8E81
 10
-218.550
 20
-1762.78
 30
0.000000
  70
    32
  0
VERTEX
  8
1PHANTOM
  5
8E82
 10
-218.554
 20
-1762.78
 30
0.000000
  70
    32
  0
VERTEX
  8
1PHANTOM
  5
8E83
 10
-218.558
 20
-1762.77
 30
0.000000
  70
    32
  0
VERTEX
  8
1PHANTOM
  5
8E84
 10
-218.562
 20
-1762.76
 30
0.000000
  70
    32
  0
VERTEX
  8
1PHANTOM
  5
8E85
 10
-218.567
 20
-1762.75
 30
0.000000
  70
    32
  0
VERTEX
  8
1PHANTOM
  5
8E86
 10
-218.571
 20
-1762.74
 30
0.000000
  70
    32
  0
VERTEX
  8
1PHANTOM
  5
8E87
 10
-218.575
 20
-1762.73
 30
0.000000
  70
    32
  0
VERTEX
  8
1PHANTOM
  5
8E88
 10
-218.580
 20
-1762.73
 30
0.000000
  70
    32
  0
VERTEX
  8
1PHANTOM
  5
8E89
 10
-218.584
 20
-1762.72
 30
0.000000
  70
    32
  0
VERTEX
  8
1PHANTOM
  5
8E8A
 10
-218.589
 20
-1762.71
 30
0.000000
  70
    32
  0
VERTEX
  8
1PHANTOM
  5
8E8B
 10
-218.593
 20
-1762.71
 30
0.000000
  70
    32
  0
VERTEX
  8
1PHANTOM
  5
8E8C
 10
-218.597
 20
-1762.70
 30
0.000000
  70
    32
  0
VERTEX
  8
1PHANTOM
  5
8E8D
 10
-218.602
 20
-1762.70
 30
0.000000
  70
    32
  0
VERTEX
  8
1PHANTOM
  5
8E8E
 10
-218.606
 20
-1762.69
 30
0.000000
  70
    32
  0
VERTEX
  8
1PHANTOM
  5
8E8F
 10
-218.611
 20
-1762.68
 30
0.000000
  70
    32
  0
VERTEX
  8
1PHANTOM
  5
8E90
 10
-218.615
 20
-1762.68
 30
0.000000
  70
    32
  0
VERTEX
  8
1PHANTOM
  5
8E91
 10
-218.620
 20
-1762.67
 30
0.000000
  70
    32
  0
VERTEX
  8
1PHANTOM
  5
8E92
 10
-218.624
 20
-1762.67
 30
0.000000
  70
    32
  0
VERTEX
  8
1PHANTOM
  5
8E93
 10
-218.629
 20
-1762.67
 30
0.000000
  70
    32
  0
VERTEX
  8
1PHANTOM
  5
8E94
 10
-218.633
 20
-1762.66
 30
0.000000
  70
    32
  0
VERTEX
  8
1PHANTOM
  5
8E95
 10
-218.638
 20
-1762.66
 30
0.000000
  70
    32
  0
VERTEX
  8
1PHANTOM
  5
8E96
 10
-218.642
 20
-1762.66
 30
0.000000
  70
    32
  0
VERTEX
  8
1PHANTOM
  5
8E97
 10
-218.647
 20
-1762.65
 30
0.000000
  70
    32
  0
VERTEX
  8
1PHANTOM
  5
8E98
 10
-218.651
 20
-1762.65
 30
0.000000
  70
    32
  0
VERTEX
  8
1PHANTOM
  5
8E99
 10
-218.656
 20
-1762.65
 30
0.000000
  70
    32
  0
VERTEX
  8
1PHANTOM
  5
8E9A
 10
-218.660
 20
-1762.65
 30
0.000000
  70
    32
  0
VERTEX
  8
1PHANTOM
  5
8E9B
 10
-218.665
 20
-1762.64
 30
0.000000
  70
    32
  0
VERTEX
  8
1PHANTOM
  5
8E9C
 10
-218.670
 20
-1762.64
 30
0.000000
  70
    32
  0
VERTEX
  8
1PHANTOM
  5
8E9D
 10
-218.674
 20
-1762.64
 30
0.000000
  70
    32
  0
VERTEX
  8
1PHANTOM
  5
8E9E
 10
-218.679
 20
-1762.64
 30
0.000000
  70
    32
  0
VERTEX
  8
1PHANTOM
  5
8E9F
 10
-218.683
 20
-1762.64
 30
0.000000
  70
    32
  0
VERTEX
  8
1PHANTOM
  5
8EA0
 10
-218.688
 20
-1762.64
 30
0.000000
  70
    32
  0
SEQEND
  8
1PHANTOM
  5
8EA1
  0
POLYLINE
  5
8C6C
  8
1PHANTOM
 10
-245.02605367745235
 20
-1764.641012596943
 30
0.0
 66
     1
 70
     8
  0
VERTEX
  8
1PHANTOM
  5
8EA2
 10
-245.026
 20
-1764.64
 30
0.000000
  70
    32
  0
VERTEX
  8
1PHANTOM
  5
8EA3
 10
-245.026
 20
-1764.62
 30
0.000000
  70
    32
  0
VERTEX
  8
1PHANTOM
  5
8EA4
 10
-245.026
 20
-1764.59
 30
0.000000
  70
    32
  0
VERTEX
  8
1PHANTOM
  5
8EA5
 10
-245.026
 20
-1764.57
 30
0.000000
  70
    32
  0
VERTEX
  8
1PHANTOM
  5
8EA6
 10
-245.026
 20
-1764.54
 30
0.000000
  70
    32
  0
VERTEX
  8
1PHANTOM
  5
8EA7
 10
-245.025
 20
-1764.52
 30
0.000000
  70
    32
  0
VERTEX
  8
1PHANTOM
  5
8EA8
 10
-245.025
 20
-1764.49
 30
0.000000
  70
    32
  0
VERTEX
  8
1PHANTOM
  5
8EA9
 10
-245.025
 20
-1764.47
 30
0.000000
  70
    32
  0
VERTEX
  8
1PHANTOM
  5
8EAA
 10
-245.024
 20
-1764.44
 30
0.000000
  70
    32
  0
VERTEX
  8
1PHANTOM
  5
8EAB
 10
-245.024
 20
-1764.42
 30
0.000000
  70
    32
  0
VERTEX
  8
1PHANTOM
  5
8EAC
 10
-245.023
 20
-1764.40
 30
0.000000
  70
    32
  0
VERTEX
  8
1PHANTOM
  5
8EAD
 10
-245.023
 20
-1764.37
 30
0.000000
  70
    32
  0
VERTEX
  8
1PHANTOM
  5
8EAE
 10
-245.022
 20
-1764.35
 30
0.000000
  70
    32
  0
VERTEX
  8
1PHANTOM
  5
8EAF
 10
-245.021
 20
-1764.32
 30
0.000000
  70
    32
  0
VERTEX
  8
1PHANTOM
  5
8EB0
 10
-245.021
 20
-1764.30
 30
0.000000
  70
    32
  0
VERTEX
  8
1PHANTOM
  5
8EB1
 10
-245.020
 20
-1764.27
 30
0.000000
  70
    32
  0
VERTEX
  8
1PHANTOM
  5
8EB2
 10
-245.019
 20
-1764.25
 30
0.000000
  70
    32
  0
VERTEX
  8
1PHANTOM
  5
8EB3
 10
-245.018
 20
-1764.23
 30
0.000000
  70
    32
  0
VERTEX
  8
1PHANTOM
  5
8EB4
 10
-245.017
 20
-1764.20
 30
0.000000
  70
    32
  0
VERTEX
  8
1PHANTOM
  5
8EB5
 10
-245.016
 20
-1764.18
 30
0.000000
  70
    32
  0
VERTEX
  8
1PHANTOM
  5
8EB6
 10
-245.015
 20
-1764.16
 30
0.000000
  70
    32
  0
VERTEX
  8
1PHANTOM
  5
8EB7
 10
-245.014
 20
-1764.13
 30
0.000000
  70
    32
  0
VERTEX
  8
1PHANTOM
  5
8EB8
 10
-245.013
 20
-1764.11
 30
0.000000
  70
    32
  0
VERTEX
  8
1PHANTOM
  5
8EB9
 10
-245.011
 20
-1764.08
 30
0.000000
  70
    32
  0
VERTEX
  8
1PHANTOM
  5
8EBA
 10
-245.010
 20
-1764.06
 30
0.000000
  70
    32
  0
VERTEX
  8
1PHANTOM
  5
8EBB
 10
-245.009
 20
-1764.04
 30
0.000000
  70
    32
  0
VERTEX
  8
1PHANTOM
  5
8EBC
 10
-245.007
 20
-1764.01
 30
0.000000
  70
    32
  0
VERTEX
  8
1PHANTOM
  5
8EBD
 10
-245.006
 20
-1763.99
 30
0.000000
  70
    32
  0
VERTEX
  8
1PHANTOM
  5
8EBE
 10
-245.004
 20
-1763.97
 30
0.000000
  70
    32
  0
VERTEX
  8
1PHANTOM
  5
8EBF
 10
-245.003
 20
-1763.94
 30
0.000000
  70
    32
  0
VERTEX
  8
1PHANTOM
  5
8EC0
 10
-245.001
 20
-1763.92
 30
0.000000
  70
    32
  0
VERTEX
  8
1PHANTOM
  5
8EC1
 10
-244.999
 20
-1763.90
 30
0.000000
  70
    32
  0
VERTEX
  8
1PHANTOM
  5
8EC2
 10
-244.998
 20
-1763.88
 30
0.000000
  70
    32
  0
VERTEX
  8
1PHANTOM
  5
8EC3
 10
-244.996
 20
-1763.85
 30
0.000000
  70
    32
  0
VERTEX
  8
1PHANTOM
  5
8EC4
 10
-244.994
 20
-1763.83
 30
0.000000
  70
    32
  0
VERTEX
  8
1PHANTOM
  5
8EC5
 10
-244.992
 20
-1763.81
 30
0.000000
  70
    32
  0
VERTEX
  8
1PHANTOM
  5
8EC6
 10
-244.990
 20
-1763.79
 30
0.000000
  70
    32
  0
VERTEX
  8
1PHANTOM
  5
8EC7
 10
-244.988
 20
-1763.76
 30
0.000000
  70
    32
  0
VERTEX
  8
1PHANTOM
  5
8EC8
 10
-244.986
 20
-1763.74
 30
0.000000
  70
    32
  0
VERTEX
  8
1PHANTOM
  5
8EC9
 10
-244.984
 20
-1763.72
 30
0.000000
  70
    32
  0
VERTEX
  8
1PHANTOM
  5
8ECA
 10
-244.982
 20
-1763.70
 30
0.000000
  70
    32
  0
VERTEX
  8
1PHANTOM
  5
8ECB
 10
-244.980
 20
-1763.68
 30
0.000000
  70
    32
  0
VERTEX
  8
1PHANTOM
  5
8ECC
 10
-244.978
 20
-1763.66
 30
0.000000
  70
    32
  0
VERTEX
  8
1PHANTOM
  5
8ECD
 10
-244.975
 20
-1763.63
 30
0.000000
  70
    32
  0
VERTEX
  8
1PHANTOM
  5
8ECE
 10
-244.973
 20
-1763.61
 30
0.000000
  70
    32
  0
VERTEX
  8
1PHANTOM
  5
8ECF
 10
-244.971
 20
-1763.59
 30
0.000000
  70
    32
  0
VERTEX
  8
1PHANTOM
  5
8ED0
 10
-244.968
 20
-1763.57
 30
0.000000
  70
    32
  0
VERTEX
  8
1PHANTOM
  5
8ED1
 10
-244.966
 20
-1763.55
 30
0.000000
  70
    32
  0
VERTEX
  8
1PHANTOM
  5
8ED2
 10
-244.963
 20
-1763.53
 30
0.000000
  70
    32
  0
VERTEX
  8
1PHANTOM
  5
8ED3
 10
-244.961
 20
-1763.51
 30
0.000000
  70
    32
  0
VERTEX
  8
1PHANTOM
  5
8ED4
 10
-244.958
 20
-1763.49
 30
0.000000
  70
    32
  0
VERTEX
  8
1PHANTOM
  5
8ED5
 10
-244.956
 20
-1763.47
 30
0.000000
  70
    32
  0
VERTEX
  8
1PHANTOM
  5
8ED6
 10
-244.953
 20
-1763.45
 30
0.000000
  70
    32
  0
VERTEX
  8
1PHANTOM
  5
8ED7
 10
-244.950
 20
-1763.43
 30
0.000000
  70
    32
  0
VERTEX
  8
1PHANTOM
  5
8ED8
 10
-244.947
 20
-1763.41
 30
0.000000
  70
    32
  0
VERTEX
  8
1PHANTOM
  5
8ED9
 10
-244.944
 20
-1763.39
 30
0.000000
  70
    32
  0
VERTEX
  8
1PHANTOM
  5
8EDA
 10
-244.942
 20
-1763.37
 30
0.000000
  70
    32
  0
VERTEX
  8
1PHANTOM
  5
8EDB
 10
-244.939
 20
-1763.35
 30
0.000000
  70
    32
  0
VERTEX
  8
1PHANTOM
  5
8EDC
 10
-244.936
 20
-1763.33
 30
0.000000
  70
    32
  0
VERTEX
  8
1PHANTOM
  5
8EDD
 10
-244.933
 20
-1763.32
 30
0.000000
  70
    32
  0
VERTEX
  8
1PHANTOM
  5
8EDE
 10
-244.930
 20
-1763.30
 30
0.000000
  70
    32
  0
VERTEX
  8
1PHANTOM
  5
8EDF
 10
-244.927
 20
-1763.28
 30
0.000000
  70
    32
  0
VERTEX
  8
1PHANTOM
  5
8EE0
 10
-244.923
 20
-1763.26
 30
0.000000
  70
    32
  0
VERTEX
  8
1PHANTOM
  5
8EE1
 10
-244.920
 20
-1763.24
 30
0.000000
  70
    32
  0
VERTEX
  8
1PHANTOM
  5
8EE2
 10
-244.917
 20
-1763.23
 30
0.000000
  70
    32
  0
VERTEX
  8
1PHANTOM
  5
8EE3
 10
-244.914
 20
-1763.21
 30
0.000000
  70
    32
  0
VERTEX
  8
1PHANTOM
  5
8EE4
 10
-244.911
 20
-1763.19
 30
0.000000
  70
    32
  0
VERTEX
  8
1PHANTOM
  5
8EE5
 10
-244.907
 20
-1763.18
 30
0.000000
  70
    32
  0
VERTEX
  8
1PHANTOM
  5
8EE6
 10
-244.904
 20
-1763.16
 30
0.000000
  70
    32
  0
VERTEX
  8
1PHANTOM
  5
8EE7
 10
-244.900
 20
-1763.14
 30
0.000000
  70
    32
  0
VERTEX
  8
1PHANTOM
  5
8EE8
 10
-244.897
 20
-1763.13
 30
0.000000
  70
    32
  0
VERTEX
  8
1PHANTOM
  5
8EE9
 10
-244.894
 20
-1763.11
 30
0.000000
  70
    32
  0
VERTEX
  8
1PHANTOM
  5
8EEA
 10
-244.890
 20
-1763.09
 30
0.000000
  70
    32
  0
VERTEX
  8
1PHANTOM
  5
8EEB
 10
-244.886
 20
-1763.08
 30
0.000000
  70
    32
  0
VERTEX
  8
1PHANTOM
  5
8EEC
 10
-244.883
 20
-1763.06
 30
0.000000
  70
    32
  0
VERTEX
  8
1PHANTOM
  5
8EED
 10
-244.879
 20
-1763.05
 30
0.000000
  70
    32
  0
VERTEX
  8
1PHANTOM
  5
8EEE
 10
-244.876
 20
-1763.03
 30
0.000000
  70
    32
  0
VERTEX
  8
1PHANTOM
  5
8EEF
 10
-244.872
 20
-1763.02
 30
0.000000
  70
    32
  0
VERTEX
  8
1PHANTOM
  5
8EF0
 10
-244.868
 20
-1763.01
 30
0.000000
  70
    32
  0
VERTEX
  8
1PHANTOM
  5
8EF1
 10
-244.864
 20
-1762.99
 30
0.000000
  70
    32
  0
VERTEX
  8
1PHANTOM
  5
8EF2
 10
-244.861
 20
-1762.98
 30
0.000000
  70
    32
  0
VERTEX
  8
1PHANTOM
  5
8EF3
 10
-244.857
 20
-1762.96
 30
0.000000
  70
    32
  0
VERTEX
  8
1PHANTOM
  5
8EF4
 10
-244.853
 20
-1762.95
 30
0.000000
  70
    32
  0
VERTEX
  8
1PHANTOM
  5
8EF5
 10
-244.849
 20
-1762.94
 30
0.000000
  70
    32
  0
VERTEX
  8
1PHANTOM
  5
8EF6
 10
-244.845
 20
-1762.93
 30
0.000000
  70
    32
  0
VERTEX
  8
1PHANTOM
  5
8EF7
 10
-244.841
 20
-1762.91
 30
0.000000
  70
    32
  0
VERTEX
  8
1PHANTOM
  5
8EF8
 10
-244.837
 20
-1762.90
 30
0.000000
  70
    32
  0
VERTEX
  8
1PHANTOM
  5
8EF9
 10
-244.833
 20
-1762.89
 30
0.000000
  70
    32
  0
VERTEX
  8
1PHANTOM
  5
8EFA
 10
-244.829
 20
-1762.88
 30
0.000000
  70
    32
  0
VERTEX
  8
1PHANTOM
  5
8EFB
 10
-244.825
 20
-1762.87
 30
0.000000
  70
    32
  0
VERTEX
  8
1PHANTOM
  5
8EFC
 10
-244.821
 20
-1762.85
 30
0.000000
  70
    32
  0
VERTEX
  8
1PHANTOM
  5
8EFD
 10
-244.817
 20
-1762.84
 30
0.000000
  70
    32
  0
VERTEX
  8
1PHANTOM
  5
8EFE
 10
-244.813
 20
-1762.83
 30
0.000000
  70
    32
  0
VERTEX
  8
1PHANTOM
  5
8EFF
 10
-244.809
 20
-1762.82
 30
0.000000
  70
    32
  0
VERTEX
  8
1PHANTOM
  5
8F00
 10
-244.805
 20
-1762.81
 30
0.000000
  70
    32
  0
VERTEX
  8
1PHANTOM
  5
8F01
 10
-244.801
 20
-1762.80
 30
0.000000
  70
    32
  0
VERTEX
  8
1PHANTOM
  5
8F02
 10
-244.796
 20
-1762.79
 30
0.000000
  70
    32
  0
VERTEX
  8
1PHANTOM
  5
8F03
 10
-244.792
 20
-1762.78
 30
0.000000
  70
    32
  0
VERTEX
  8
1PHANTOM
  5
8F04
 10
-244.788
 20
-1762.78
 30
0.000000
  70
    32
  0
VERTEX
  8
1PHANTOM
  5
8F05
 10
-244.784
 20
-1762.77
 30
0.000000
  70
    32
  0
VERTEX
  8
1PHANTOM
  5
8F06
 10
-244.779
 20
-1762.76
 30
0.000000
  70
    32
  0
VERTEX
  8
1PHANTOM
  5
8F07
 10
-244.775
 20
-1762.75
 30
0.000000
  70
    32
  0
VERTEX
  8
1PHANTOM
  5
8F08
 10
-244.771
 20
-1762.74
 30
0.000000
  70
    32
  0
VERTEX
  8
1PHANTOM
  5
8F09
 10
-244.766
 20
-1762.73
 30
0.000000
  70
    32
  0
VERTEX
  8
1PHANTOM
  5
8F0A
 10
-244.762
 20
-1762.73
 30
0.000000
  70
    32
  0
VERTEX
  8
1PHANTOM
  5
8F0B
 10
-244.758
 20
-1762.72
 30
0.000000
  70
    32
  0
VERTEX
  8
1PHANTOM
  5
8F0C
 10
-244.753
 20
-1762.71
 30
0.000000
  70
    32
  0
VERTEX
  8
1PHANTOM
  5
8F0D
 10
-244.749
 20
-1762.71
 30
0.000000
  70
    32
  0
VERTEX
  8
1PHANTOM
  5
8F0E
 10
-244.744
 20
-1762.70
 30
0.000000
  70
    32
  0
VERTEX
  8
1PHANTOM
  5
8F0F
 10
-244.740
 20
-1762.70
 30
0.000000
  70
    32
  0
VERTEX
  8
1PHANTOM
  5
8F10
 10
-244.735
 20
-1762.69
 30
0.000000
  70
    32
  0
VERTEX
  8
1PHANTOM
  5
8F11
 10
-244.731
 20
-1762.68
 30
0.000000
  70
    32
  0
VERTEX
  8
1PHANTOM
  5
8F12
 10
-244.727
 20
-1762.68
 30
0.000000
  70
    32
  0
VERTEX
  8
1PHANTOM
  5
8F13
 10
-244.722
 20
-1762.67
 30
0.000000
  70
    32
  0
VERTEX
  8
1PHANTOM
  5
8F14
 10
-244.718
 20
-1762.67
 30
0.000000
  70
    32
  0
VERTEX
  8
1PHANTOM
  5
8F15
 10
-244.713
 20
-1762.67
 30
0.000000
  70
    32
  0
VERTEX
  8
1PHANTOM
  5
8F16
 10
-244.709
 20
-1762.66
 30
0.000000
  70
    32
  0
VERTEX
  8
1PHANTOM
  5
8F17
 10
-244.704
 20
-1762.66
 30
0.000000
  70
    32
  0
VERTEX
  8
1PHANTOM
  5
8F18
 10
-244.700
 20
-1762.66
 30
0.000000
  70
    32
  0
VERTEX
  8
1PHANTOM
  5
8F19
 10
-244.695
 20
-1762.65
 30
0.000000
  70
    32
  0
VERTEX
  8
1PHANTOM
  5
8F1A
 10
-244.690
 20
-1762.65
 30
0.000000
  70
    32
  0
VERTEX
  8
1PHANTOM
  5
8F1B
 10
-244.686
 20
-1762.65
 30
0.000000
  70
    32
  0
VERTEX
  8
1PHANTOM
  5
8F1C
 10
-244.681
 20
-1762.65
 30
0.000000
  70
    32
  0
VERTEX
  8
1PHANTOM
  5
8F1D
 10
-244.677
 20
-1762.64
 30
0.000000
  70
    32
  0
VERTEX
  8
1PHANTOM
  5
8F1E
 10
-244.672
 20
-1762.64
 30
0.000000
  70
    32
  0
VERTEX
  8
1PHANTOM
  5
8F1F
 10
-244.668
 20
-1762.64
 30
0.000000
  70
    32
  0
VERTEX
  8
1PHANTOM
  5
8F20
 10
-244.663
 20
-1762.64
 30
0.000000
  70
    32
  0
VERTEX
  8
1PHANTOM
  5
8F21
 10
-244.659
 20
-1762.64
 30
0.000000
  70
    32
  0
VERTEX
  8
1PHANTOM
  5
8F22
 10
-244.654
 20
-1762.64
 30
0.000000
  70
    32
  0
SEQEND
  8
1PHANTOM
  5
8F23
  0
POLYLINE
  5
8C6F
  8
1PHANTOM
 10
-218.68783896391349
 20
-1776.6410125969428
 30
0.0
 66
     1
 70
     8
  0
VERTEX
  8
1PHANTOM
  5
8F24
 10
-218.688
 20
-1776.64
 30
0.000000
  70
    32
  0
VERTEX
  8
1PHANTOM
  5
8F25
 10
-218.683
 20
-1776.64
 30
0.000000
  70
    32
  0
VERTEX
  8
1PHANTOM
  5
8F26
 10
-218.679
 20
-1776.64
 30
0.000000
  70
    32
  0
VERTEX
  8
1PHANTOM
  5
8F27
 10
-218.674
 20
-1776.64
 30
0.000000
  70
    32
  0
VERTEX
  8
1PHANTOM
  5
8F28
 10
-218.670
 20
-1776.63
 30
0.000000
  70
    32
  0
VERTEX
  8
1PHANTOM
  5
8F29
 10
-218.665
 20
-1776.63
 30
0.000000
  70
    32
  0
VERTEX
  8
1PHANTOM
  5
8F2A
 10
-218.660
 20
-1776.63
 30
0.000000
  70
    32
  0
VERTEX
  8
1PHANTOM
  5
8F2B
 10
-218.656
 20
-1776.62
 30
0.000000
  70
    32
  0
VERTEX
  8
1PHANTOM
  5
8F2C
 10
-218.651
 20
-1776.62
 30
0.000000
  70
    32
  0
VERTEX
  8
1PHANTOM
  5
8F2D
 10
-218.647
 20
-1776.61
 30
0.000000
  70
    32
  0
VERTEX
  8
1PHANTOM
  5
8F2E
 10
-218.642
 20
-1776.60
 30
0.000000
  70
    32
  0
VERTEX
  8
1PHANTOM
  5
8F2F
 10
-218.638
 20
-1776.60
 30
0.000000
  70
    32
  0
VERTEX
  8
1PHANTOM
  5
8F30
 10
-218.633
 20
-1776.59
 30
0.000000
  70
    32
  0
VERTEX
  8
1PHANTOM
  5
8F31
 10
-218.629
 20
-1776.58
 30
0.000000
  70
    32
  0
VERTEX
  8
1PHANTOM
  5
8F32
 10
-218.624
 20
-1776.57
 30
0.000000
  70
    32
  0
VERTEX
  8
1PHANTOM
  5
8F33
 10
-218.620
 20
-1776.56
 30
0.000000
  70
    32
  0
VERTEX
  8
1PHANTOM
  5
8F34
 10
-218.615
 20
-1776.54
 30
0.000000
  70
    32
  0
VERTEX
  8
1PHANTOM
  5
8F35
 10
-218.611
 20
-1776.53
 30
0.000000
  70
    32
  0
VERTEX
  8
1PHANTOM
  5
8F36
 10
-218.606
 20
-1776.52
 30
0.000000
  70
    32
  0
VERTEX
  8
1PHANTOM
  5
8F37
 10
-218.602
 20
-1776.51
 30
0.000000
  70
    32
  0
VERTEX
  8
1PHANTOM
  5
8F38
 10
-218.597
 20
-1776.49
 30
0.000000
  70
    32
  0
VERTEX
  8
1PHANTOM
  5
8F39
 10
-218.593
 20
-1776.48
 30
0.000000
  70
    32
  0
VERTEX
  8
1PHANTOM
  5
8F3A
 10
-218.589
 20
-1776.46
 30
0.000000
  70
    32
  0
VERTEX
  8
1PHANTOM
  5
8F3B
 10
-218.584
 20
-1776.44
 30
0.000000
  70
    32
  0
VERTEX
  8
1PHANTOM
  5
8F3C
 10
-218.580
 20
-1776.43
 30
0.000000
  70
    32
  0
VERTEX
  8
1PHANTOM
  5
8F3D
 10
-218.575
 20
-1776.41
 30
0.000000
  70
    32
  0
VERTEX
  8
1PHANTOM
  5
8F3E
 10
-218.571
 20
-1776.39
 30
0.000000
  70
    32
  0
VERTEX
  8
1PHANTOM
  5
8F3F
 10
-218.567
 20
-1776.37
 30
0.000000
  70
    32
  0
VERTEX
  8
1PHANTOM
  5
8F40
 10
-218.562
 20
-1776.35
 30
0.000000
  70
    32
  0
VERTEX
  8
1PHANTOM
  5
8F41
 10
-218.558
 20
-1776.33
 30
0.000000
  70
    32
  0
VERTEX
  8
1PHANTOM
  5
8F42
 10
-218.554
 20
-1776.31
 30
0.000000
  70
    32
  0
VERTEX
  8
1PHANTOM
  5
8F43
 10
-218.550
 20
-1776.28
 30
0.000000
  70
    32
  0
VERTEX
  8
1PHANTOM
  5
8F44
 10
-218.545
 20
-1776.26
 30
0.000000
  70
    32
  0
VERTEX
  8
1PHANTOM
  5
8F45
 10
-218.541
 20
-1776.24
 30
0.000000
  70
    32
  0
VERTEX
  8
1PHANTOM
  5
8F46
 10
-218.537
 20
-1776.21
 30
0.000000
  70
    32
  0
VERTEX
  8
1PHANTOM
  5
8F47
 10
-218.533
 20
-1776.19
 30
0.000000
  70
    32
  0
VERTEX
  8
1PHANTOM
  5
8F48
 10
-218.529
 20
-1776.16
 30
0.000000
  70
    32
  0
VERTEX
  8
1PHANTOM
  5
8F49
 10
-218.525
 20
-1776.13
 30
0.000000
  70
    32
  0
VERTEX
  8
1PHANTOM
  5
8F4A
 10
-218.521
 20
-1776.11
 30
0.000000
  70
    32
  0
VERTEX
  8
1PHANTOM
  5
8F4B
 10
-218.516
 20
-1776.08
 30
0.000000
  70
    32
  0
VERTEX
  8
1PHANTOM
  5
8F4C
 10
-218.512
 20
-1776.05
 30
0.000000
  70
    32
  0
VERTEX
  8
1PHANTOM
  5
8F4D
 10
-218.508
 20
-1776.02
 30
0.000000
  70
    32
  0
VERTEX
  8
1PHANTOM
  5
8F4E
 10
-218.504
 20
-1775.99
 30
0.000000
  70
    32
  0
VERTEX
  8
1PHANTOM
  5
8F4F
 10
-218.500
 20
-1775.96
 30
0.000000
  70
    32
  0
VERTEX
  8
1PHANTOM
  5
8F50
 10
-218.497
 20
-1775.93
 30
0.000000
  70
    32
  0
VERTEX
  8
1PHANTOM
  5
8F51
 10
-218.493
 20
-1775.90
 30
0.000000
  70
    32
  0
VERTEX
  8
1PHANTOM
  5
8F52
 10
-218.489
 20
-1775.87
 30
0.000000
  70
    32
  0
VERTEX
  8
1PHANTOM
  5
8F53
 10
-218.485
 20
-1775.83
 30
0.000000
  70
    32
  0
VERTEX
  8
1PHANTOM
  5
8F54
 10
-218.481
 20
-1775.80
 30
0.000000
  70
    32
  0
VERTEX
  8
1PHANTOM
  5
8F55
 10
-218.477
 20
-1775.76
 30
0.000000
  70
    32
  0
VERTEX
  8
1PHANTOM
  5
8F56
 10
-218.474
 20
-1775.73
 30
0.000000
  70
    32
  0
VERTEX
  8
1PHANTOM
  5
8F57
 10
-218.470
 20
-1775.69
 30
0.000000
  70
    32
  0
VERTEX
  8
1PHANTOM
  5
8F58
 10
-218.466
 20
-1775.66
 30
0.000000
  70
    32
  0
VERTEX
  8
1PHANTOM
  5
8F59
 10
-218.463
 20
-1775.62
 30
0.000000
  70
    32
  0
VERTEX
  8
1PHANTOM
  5
8F5A
 10
-218.459
 20
-1775.58
 30
0.000000
  70
    32
  0
VERTEX
  8
1PHANTOM
  5
8F5B
 10
-218.455
 20
-1775.54
 30
0.000000
  70
    32
  0
VERTEX
  8
1PHANTOM
  5
8F5C
 10
-218.452
 20
-1775.51
 30
0.000000
  70
    32
  0
VERTEX
  8
1PHANTOM
  5
8F5D
 10
-218.448
 20
-1775.47
 30
0.000000
  70
    32
  0
VERTEX
  8
1PHANTOM
  5
8F5E
 10
-218.445
 20
-1775.43
 30
0.000000
  70
    32
  0
VERTEX
  8
1PHANTOM
  5
8F5F
 10
-218.441
 20
-1775.39
 30
0.000000
  70
    32
  0
VERTEX
  8
1PHANTOM
  5
8F60
 10
-218.438
 20
-1775.35
 30
0.000000
  70
    32
  0
VERTEX
  8
1PHANTOM
  5
8F61
 10
-218.435
 20
-1775.30
 30
0.000000
  70
    32
  0
VERTEX
  8
1PHANTOM
  5
8F62
 10
-218.431
 20
-1775.26
 30
0.000000
  70
    32
  0
VERTEX
  8
1PHANTOM
  5
8F63
 10
-218.428
 20
-1775.22
 30
0.000000
  70
    32
  0
VERTEX
  8
1PHANTOM
  5
8F64
 10
-218.425
 20
-1775.18
 30
0.000000
  70
    32
  0
VERTEX
  8
1PHANTOM
  5
8F65
 10
-218.422
 20
-1775.13
 30
0.000000
  70
    32
  0
VERTEX
  8
1PHANTOM
  5
8F66
 10
-218.418
 20
-1775.09
 30
0.000000
  70
    32
  0
VERTEX
  8
1PHANTOM
  5
8F67
 10
-218.415
 20
-1775.04
 30
0.000000
  70
    32
  0
VERTEX
  8
1PHANTOM
  5
8F68
 10
-218.412
 20
-1775.00
 30
0.000000
  70
    32
  0
VERTEX
  8
1PHANTOM
  5
8F69
 10
-218.409
 20
-1774.95
 30
0.000000
  70
    32
  0
VERTEX
  8
1PHANTOM
  5
8F6A
 10
-218.406
 20
-1774.91
 30
0.000000
  70
    32
  0
VERTEX
  8
1PHANTOM
  5
8F6B
 10
-218.403
 20
-1774.86
 30
0.000000
  70
    32
  0
VERTEX
  8
1PHANTOM
  5
8F6C
 10
-218.400
 20
-1774.81
 30
0.000000
  70
    32
  0
VERTEX
  8
1PHANTOM
  5
8F6D
 10
-218.397
 20
-1774.77
 30
0.000000
  70
    32
  0
VERTEX
  8
1PHANTOM
  5
8F6E
 10
-218.395
 20
-1774.72
 30
0.000000
  70
    32
  0
VERTEX
  8
1PHANTOM
  5
8F6F
 10
-218.392
 20
-1774.67
 30
0.000000
  70
    32
  0
VERTEX
  8
1PHANTOM
  5
8F70
 10
-218.389
 20
-1774.62
 30
0.000000
  70
    32
  0
VERTEX
  8
1PHANTOM
  5
8F71
 10
-218.386
 20
-1774.57
 30
0.000000
  70
    32
  0
VERTEX
  8
1PHANTOM
  5
8F72
 10
-218.384
 20
-1774.52
 30
0.000000
  70
    32
  0
VERTEX
  8
1PHANTOM
  5
8F73
 10
-218.381
 20
-1774.47
 30
0.000000
  70
    32
  0
VERTEX
  8
1PHANTOM
  5
8F74
 10
-218.378
 20
-1774.42
 30
0.000000
  70
    32
  0
VERTEX
  8
1PHANTOM
  5
8F75
 10
-218.376
 20
-1774.37
 30
0.000000
  70
    32
  0
VERTEX
  8
1PHANTOM
  5
8F76
 10
-218.373
 20
-1774.32
 30
0.000000
  70
    32
  0
VERTEX
  8
1PHANTOM
  5
8F77
 10
-218.371
 20
-1774.26
 30
0.000000
  70
    32
  0
VERTEX
  8
1PHANTOM
  5
8F78
 10
-218.369
 20
-1774.21
 30
0.000000
  70
    32
  0
VERTEX
  8
1PHANTOM
  5
8F79
 10
-218.366
 20
-1774.16
 30
0.000000
  70
    32
  0
VERTEX
  8
1PHANTOM
  5
8F7A
 10
-218.364
 20
-1774.11
 30
0.000000
  70
    32
  0
VERTEX
  8
1PHANTOM
  5
8F7B
 10
-218.362
 20
-1774.05
 30
0.000000
  70
    32
  0
VERTEX
  8
1PHANTOM
  5
8F7C
 10
-218.360
 20
-1774.00
 30
0.000000
  70
    32
  0
VERTEX
  8
1PHANTOM
  5
8F7D
 10
-218.358
 20
-1773.94
 30
0.000000
  70
    32
  0
VERTEX
  8
1PHANTOM
  5
8F7E
 10
-218.355
 20
-1773.89
 30
0.000000
  70
    32
  0
VERTEX
  8
1PHANTOM
  5
8F7F
 10
-218.353
 20
-1773.83
 30
0.000000
  70
    32
  0
VERTEX
  8
1PHANTOM
  5
8F80
 10
-218.351
 20
-1773.78
 30
0.000000
  70
    32
  0
VERTEX
  8
1PHANTOM
  5
8F81
 10
-218.350
 20
-1773.72
 30
0.000000
  70
    32
  0
VERTEX
  8
1PHANTOM
  5
8F82
 10
-218.348
 20
-1773.67
 30
0.000000
  70
    32
  0
VERTEX
  8
1PHANTOM
  5
8F83
 10
-218.346
 20
-1773.61
 30
0.000000
  70
    32
  0
VERTEX
  8
1PHANTOM
  5
8F84
 10
-218.344
 20
-1773.55
 30
0.000000
  70
    32
  0
VERTEX
  8
1PHANTOM
  5
8F85
 10
-218.342
 20
-1773.50
 30
0.000000
  70
    32
  0
VERTEX
  8
1PHANTOM
  5
8F86
 10
-218.341
 20
-1773.44
 30
0.000000
  70
    32
  0
VERTEX
  8
1PHANTOM
  5
8F87
 10
-218.339
 20
-1773.38
 30
0.000000
  70
    32
  0
VERTEX
  8
1PHANTOM
  5
8F88
 10
-218.338
 20
-1773.33
 30
0.000000
  70
    32
  0
VERTEX
  8
1PHANTOM
  5
8F89
 10
-218.336
 20
-1773.27
 30
0.000000
  70
    32
  0
VERTEX
  8
1PHANTOM
  5
8F8A
 10
-218.335
 20
-1773.21
 30
0.000000
  70
    32
  0
VERTEX
  8
1PHANTOM
  5
8F8B
 10
-218.333
 20
-1773.15
 30
0.000000
  70
    32
  0
VERTEX
  8
1PHANTOM
  5
8F8C
 10
-218.332
 20
-1773.09
 30
0.000000
  70
    32
  0
VERTEX
  8
1PHANTOM
  5
8F8D
 10
-218.330
 20
-1773.03
 30
0.000000
  70
    32
  0
VERTEX
  8
1PHANTOM
  5
8F8E
 10
-218.329
 20
-1772.97
 30
0.000000
  70
    32
  0
VERTEX
  8
1PHANTOM
  5
8F8F
 10
-218.328
 20
-1772.92
 30
0.000000
  70
    32
  0
VERTEX
  8
1PHANTOM
  5
8F90
 10
-218.327
 20
-1772.86
 30
0.000000
  70
    32
  0
VERTEX
  8
1PHANTOM
  5
8F91
 10
-218.326
 20
-1772.80
 30
0.000000
  70
    32
  0
VERTEX
  8
1PHANTOM
  5
8F92
 10
-218.325
 20
-1772.74
 30
0.000000
  70
    32
  0
VERTEX
  8
1PHANTOM
  5
8F93
 10
-218.324
 20
-1772.68
 30
0.000000
  70
    32
  0
VERTEX
  8
1PHANTOM
  5
8F94
 10
-218.323
 20
-1772.62
 30
0.000000
  70
    32
  0
VERTEX
  8
1PHANTOM
  5
8F95
 10
-218.322
 20
-1772.56
 30
0.000000
  70
    32
  0
VERTEX
  8
1PHANTOM
  5
8F96
 10
-218.321
 20
-1772.50
 30
0.000000
  70
    32
  0
VERTEX
  8
1PHANTOM
  5
8F97
 10
-218.320
 20
-1772.44
 30
0.000000
  70
    32
  0
VERTEX
  8
1PHANTOM
  5
8F98
 10
-218.320
 20
-1772.37
 30
0.000000
  70
    32
  0
VERTEX
  8
1PHANTOM
  5
8F99
 10
-218.319
 20
-1772.31
 30
0.000000
  70
    32
  0
VERTEX
  8
1PHANTOM
  5
8F9A
 10
-218.319
 20
-1772.25
 30
0.000000
  70
    32
  0
VERTEX
  8
1PHANTOM
  5
8F9B
 10
-218.318
 20
-1772.19
 30
0.000000
  70
    32
  0
VERTEX
  8
1PHANTOM
  5
8F9C
 10
-218.318
 20
-1772.13
 30
0.000000
  70
    32
  0
VERTEX
  8
1PHANTOM
  5
8F9D
 10
-218.317
 20
-1772.07
 30
0.000000
  70
    32
  0
VERTEX
  8
1PHANTOM
  5
8F9E
 10
-218.317
 20
-1772.01
 30
0.000000
  70
    32
  0
VERTEX
  8
1PHANTOM
  5
8F9F
 10
-218.316
 20
-1771.95
 30
0.000000
  70
    32
  0
VERTEX
  8
1PHANTOM
  5
8FA0
 10
-218.316
 20
-1771.89
 30
0.000000
  70
    32
  0
VERTEX
  8
1PHANTOM
  5
8FA1
 10
-218.316
 20
-1771.83
 30
0.000000
  70
    32
  0
VERTEX
  8
1PHANTOM
  5
8FA2
 10
-218.316
 20
-1771.76
 30
0.000000
  70
    32
  0
VERTEX
  8
1PHANTOM
  5
8FA3
 10
-218.316
 20
-1771.70
 30
0.000000
  70
    32
  0
VERTEX
  8
1PHANTOM
  5
8FA4
 10
-218.316
 20
-1771.64
 30
0.000000
  70
    32
  0
SEQEND
  8
1PHANTOM
  5
8FA5
  0
POLYLINE
  5
8C72
  8
1PHANTOM
 10
-244.65397075130909
 20
-1776.6410125969428
 30
0.0
 66
     1
 70
     8
  0
VERTEX
  8
1PHANTOM
  5
8FA6
 10
-244.654
 20
-1776.64
 30
0.000000
  70
    32
  0
VERTEX
  8
1PHANTOM
  5
8FA7
 10
-244.659
 20
-1776.64
 30
0.000000
  70
    32
  0
VERTEX
  8
1PHANTOM
  5
8FA8
 10
-244.663
 20
-1776.64
 30
0.000000
  70
    32
  0
VERTEX
  8
1PHANTOM
  5
8FA9
 10
-244.668
 20
-1776.64
 30
0.000000
  70
    32
  0
VERTEX
  8
1PHANTOM
  5
8FAA
 10
-244.672
 20
-1776.63
 30
0.000000
  70
    32
  0
VERTEX
  8
1PHANTOM
  5
8FAB
 10
-244.677
 20
-1776.63
 30
0.000000
  70
    32
  0
VERTEX
  8
1PHANTOM
  5
8FAC
 10
-244.681
 20
-1776.63
 30
0.000000
  70
    32
  0
VERTEX
  8
1PHANTOM
  5
8FAD
 10
-244.686
 20
-1776.62
 30
0.000000
  70
    32
  0
VERTEX
  8
1PHANTOM
  5
8FAE
 10
-244.690
 20
-1776.62
 30
0.000000
  70
    32
  0
VERTEX
  8
1PHANTOM
  5
8FAF
 10
-244.695
 20
-1776.61
 30
0.000000
  70
    32
  0
VERTEX
  8
1PHANTOM
  5
8FB0
 10
-244.700
 20
-1776.60
 30
0.000000
  70
    32
  0
VERTEX
  8
1PHANTOM
  5
8FB1
 10
-244.704
 20
-1776.60
 30
0.000000
  70
    32
  0
VERTEX
  8
1PHANTOM
  5
8FB2
 10
-244.709
 20
-1776.59
 30
0.000000
  70
    32
  0
VERTEX
  8
1PHANTOM
  5
8FB3
 10
-244.713
 20
-1776.58
 30
0.000000
  70
    32
  0
VERTEX
  8
1PHANTOM
  5
8FB4
 10
-244.718
 20
-1776.57
 30
0.000000
  70
    32
  0
VERTEX
  8
1PHANTOM
  5
8FB5
 10
-244.722
 20
-1776.56
 30
0.000000
  70
    32
  0
VERTEX
  8
1PHANTOM
  5
8FB6
 10
-244.727
 20
-1776.54
 30
0.000000
  70
    32
  0
VERTEX
  8
1PHANTOM
  5
8FB7
 10
-244.731
 20
-1776.53
 30
0.000000
  70
    32
  0
VERTEX
  8
1PHANTOM
  5
8FB8
 10
-244.735
 20
-1776.52
 30
0.000000
  70
    32
  0
VERTEX
  8
1PHANTOM
  5
8FB9
 10
-244.740
 20
-1776.51
 30
0.000000
  70
    32
  0
VERTEX
  8
1PHANTOM
  5
8FBA
 10
-244.744
 20
-1776.49
 30
0.000000
  70
    32
  0
VERTEX
  8
1PHANTOM
  5
8FBB
 10
-244.749
 20
-1776.48
 30
0.000000
  70
    32
  0
VERTEX
  8
1PHANTOM
  5
8FBC
 10
-244.753
 20
-1776.46
 30
0.000000
  70
    32
  0
VERTEX
  8
1PHANTOM
  5
8FBD
 10
-244.758
 20
-1776.44
 30
0.000000
  70
    32
  0
VERTEX
  8
1PHANTOM
  5
8FBE
 10
-244.762
 20
-1776.43
 30
0.000000
  70
    32
  0
VERTEX
  8
1PHANTOM
  5
8FBF
 10
-244.766
 20
-1776.41
 30
0.000000
  70
    32
  0
VERTEX
  8
1PHANTOM
  5
8FC0
 10
-244.771
 20
-1776.39
 30
0.000000
  70
    32
  0
VERTEX
  8
1PHANTOM
  5
8FC1
 10
-244.775
 20
-1776.37
 30
0.000000
  70
    32
  0
VERTEX
  8
1PHANTOM
  5
8FC2
 10
-244.779
 20
-1776.35
 30
0.000000
  70
    32
  0
VERTEX
  8
1PHANTOM
  5
8FC3
 10
-244.784
 20
-1776.33
 30
0.000000
  70
    32
  0
VERTEX
  8
1PHANTOM
  5
8FC4
 10
-244.788
 20
-1776.31
 30
0.000000
  70
    32
  0
VERTEX
  8
1PHANTOM
  5
8FC5
 10
-244.792
 20
-1776.28
 30
0.000000
  70
    32
  0
VERTEX
  8
1PHANTOM
  5
8FC6
 10
-244.796
 20
-1776.26
 30
0.000000
  70
    32
  0
VERTEX
  8
1PHANTOM
  5
8FC7
 10
-244.801
 20
-1776.24
 30
0.000000
  70
    32
  0
VERTEX
  8
1PHANTOM
  5
8FC8
 10
-244.805
 20
-1776.21
 30
0.000000
  70
    32
  0
VERTEX
  8
1PHANTOM
  5
8FC9
 10
-244.809
 20
-1776.19
 30
0.000000
  70
    32
  0
VERTEX
  8
1PHANTOM
  5
8FCA
 10
-244.813
 20
-1776.16
 30
0.000000
  70
    32
  0
VERTEX
  8
1PHANTOM
  5
8FCB
 10
-244.817
 20
-1776.13
 30
0.000000
  70
    32
  0
VERTEX
  8
1PHANTOM
  5
8FCC
 10
-244.821
 20
-1776.11
 30
0.000000
  70
    32
  0
VERTEX
  8
1PHANTOM
  5
8FCD
 10
-244.825
 20
-1776.08
 30
0.000000
  70
    32
  0
VERTEX
  8
1PHANTOM
  5
8FCE
 10
-244.829
 20
-1776.05
 30
0.000000
  70
    32
  0
VERTEX
  8
1PHANTOM
  5
8FCF
 10
-244.833
 20
-1776.02
 30
0.000000
  70
    32
  0
VERTEX
  8
1PHANTOM
  5
8FD0
 10
-244.837
 20
-1775.99
 30
0.000000
  70
    32
  0
VERTEX
  8
1PHANTOM
  5
8FD1
 10
-244.841
 20
-1775.96
 30
0.000000
  70
    32
  0
VERTEX
  8
1PHANTOM
  5
8FD2
 10
-244.845
 20
-1775.93
 30
0.000000
  70
    32
  0
VERTEX
  8
1PHANTOM
  5
8FD3
 10
-244.849
 20
-1775.90
 30
0.000000
  70
    32
  0
VERTEX
  8
1PHANTOM
  5
8FD4
 10
-244.853
 20
-1775.87
 30
0.000000
  70
    32
  0
VERTEX
  8
1PHANTOM
  5
8FD5
 10
-244.857
 20
-1775.83
 30
0.000000
  70
    32
  0
VERTEX
  8
1PHANTOM
  5
8FD6
 10
-244.861
 20
-1775.80
 30
0.000000
  70
    32
  0
VERTEX
  8
1PHANTOM
  5
8FD7
 10
-244.864
 20
-1775.76
 30
0.000000
  70
    32
  0
VERTEX
  8
1PHANTOM
  5
8FD8
 10
-244.868
 20
-1775.73
 30
0.000000
  70
    32
  0
VERTEX
  8
1PHANTOM
  5
8FD9
 10
-244.872
 20
-1775.69
 30
0.000000
  70
    32
  0
VERTEX
  8
1PHANTOM
  5
8FDA
 10
-244.876
 20
-1775.66
 30
0.000000
  70
    32
  0
VERTEX
  8
1PHANTOM
  5
8FDB
 10
-244.879
 20
-1775.62
 30
0.000000
  70
    32
  0
VERTEX
  8
1PHANTOM
  5
8FDC
 10
-244.883
 20
-1775.58
 30
0.000000
  70
    32
  0
VERTEX
  8
1PHANTOM
  5
8FDD
 10
-244.886
 20
-1775.54
 30
0.000000
  70
    32
  0
VERTEX
  8
1PHANTOM
  5
8FDE
 10
-244.890
 20
-1775.51
 30
0.000000
  70
    32
  0
VERTEX
  8
1PHANTOM
  5
8FDF
 10
-244.894
 20
-1775.47
 30
0.000000
  70
    32
  0
VERTEX
  8
1PHANTOM
  5
8FE0
 10
-244.897
 20
-1775.43
 30
0.000000
  70
    32
  0
VERTEX
  8
1PHANTOM
  5
8FE1
 10
-244.900
 20
-1775.39
 30
0.000000
  70
    32
  0
VERTEX
  8
1PHANTOM
  5
8FE2
 10
-244.904
 20
-1775.35
 30
0.000000
  70
    32
  0
VERTEX
  8
1PHANTOM
  5
8FE3
 10
-244.907
 20
-1775.30
 30
0.000000
  70
    32
  0
VERTEX
  8
1PHANTOM
  5
8FE4
 10
-244.911
 20
-1775.26
 30
0.000000
  70
    32
  0
VERTEX
  8
1PHANTOM
  5
8FE5
 10
-244.914
 20
-1775.22
 30
0.000000
  70
    32
  0
VERTEX
  8
1PHANTOM
  5
8FE6
 10
-244.917
 20
-1775.18
 30
0.000000
  70
    32
  0
VERTEX
  8
1PHANTOM
  5
8FE7
 10
-244.920
 20
-1775.13
 30
0.000000
  70
    32
  0
VERTEX
  8
1PHANTOM
  5
8FE8
 10
-244.923
 20
-1775.09
 30
0.000000
  70
    32
  0
VERTEX
  8
1PHANTOM
  5
8FE9
 10
-244.927
 20
-1775.04
 30
0.000000
  70
    32
  0
VERTEX
  8
1PHANTOM
  5
8FEA
 10
-244.930
 20
-1775.00
 30
0.000000
  70
    32
  0
VERTEX
  8
1PHANTOM
  5
8FEB
 10
-244.933
 20
-1774.95
 30
0.000000
  70
    32
  0
VERTEX
  8
1PHANTOM
  5
8FEC
 10
-244.936
 20
-1774.91
 30
0.000000
  70
    32
  0
VERTEX
  8
1PHANTOM
  5
8FED
 10
-244.939
 20
-1774.86
 30
0.000000
  70
    32
  0
VERTEX
  8
1PHANTOM
  5
8FEE
 10
-244.942
 20
-1774.81
 30
0.000000
  70
    32
  0
VERTEX
  8
1PHANTOM
  5
8FEF
 10
-244.944
 20
-1774.77
 30
0.000000
  70
    32
  0
VERTEX
  8
1PHANTOM
  5
8FF0
 10
-244.947
 20
-1774.72
 30
0.000000
  70
    32
  0
VERTEX
  8
1PHANTOM
  5
8FF1
 10
-244.950
 20
-1774.67
 30
0.000000
  70
    32
  0
VERTEX
  8
1PHANTOM
  5
8FF2
 10
-244.953
 20
-1774.62
 30
0.000000
  70
    32
  0
VERTEX
  8
1PHANTOM
  5
8FF3
 10
-244.956
 20
-1774.57
 30
0.000000
  70
    32
  0
VERTEX
  8
1PHANTOM
  5
8FF4
 10
-244.958
 20
-1774.52
 30
0.000000
  70
    32
  0
VERTEX
  8
1PHANTOM
  5
8FF5
 10
-244.961
 20
-1774.47
 30
0.000000
  70
    32
  0
VERTEX
  8
1PHANTOM
  5
8FF6
 10
-244.963
 20
-1774.42
 30
0.000000
  70
    32
  0
VERTEX
  8
1PHANTOM
  5
8FF7
 10
-244.966
 20
-1774.37
 30
0.000000
  70
    32
  0
VERTEX
  8
1PHANTOM
  5
8FF8
 10
-244.968
 20
-1774.32
 30
0.000000
  70
    32
  0
VERTEX
  8
1PHANTOM
  5
8FF9
 10
-244.971
 20
-1774.26
 30
0.000000
  70
    32
  0
VERTEX
  8
1PHANTOM
  5
8FFA
 10
-244.973
 20
-1774.21
 30
0.000000
  70
    32
  0
VERTEX
  8
1PHANTOM
  5
8FFB
 10
-244.975
 20
-1774.16
 30
0.000000
  70
    32
  0
VERTEX
  8
1PHANTOM
  5
8FFC
 10
-244.978
 20
-1774.11
 30
0.000000
  70
    32
  0
VERTEX
  8
1PHANTOM
  5
8FFD
 10
-244.980
 20
-1774.05
 30
0.000000
  70
    32
  0
VERTEX
  8
1PHANTOM
  5
8FFE
 10
-244.982
 20
-1774.00
 30
0.000000
  70
    32
  0
VERTEX
  8
1PHANTOM
  5
8FFF
 10
-244.984
 20
-1773.94
 30
0.000000
  70
    32
  0
VERTEX
  8
1PHANTOM
  5
9000
 10
-244.986
 20
-1773.89
 30
0.000000
  70
    32
  0
VERTEX
  8
1PHANTOM
  5
9001
 10
-244.988
 20
-1773.83
 30
0.000000
  70
    32
  0
VERTEX
  8
1PHANTOM
  5
9002
 10
-244.990
 20
-1773.78
 30
0.000000
  70
    32
  0
VERTEX
  8
1PHANTOM
  5
9003
 10
-244.992
 20
-1773.72
 30
0.000000
  70
    32
  0
VERTEX
  8
1PHANTOM
  5
9004
 10
-244.994
 20
-1773.67
 30
0.000000
  70
    32
  0
VERTEX
  8
1PHANTOM
  5
9005
 10
-244.996
 20
-1773.61
 30
0.000000
  70
    32
  0
VERTEX
  8
1PHANTOM
  5
9006
 10
-244.998
 20
-1773.55
 30
0.000000
  70
    32
  0
VERTEX
  8
1PHANTOM
  5
9007
 10
-244.999
 20
-1773.50
 30
0.000000
  70
    32
  0
VERTEX
  8
1PHANTOM
  5
9008
 10
-245.001
 20
-1773.44
 30
0.000000
  70
    32
  0
VERTEX
  8
1PHANTOM
  5
9009
 10
-245.003
 20
-1773.38
 30
0.000000
  70
    32
  0
VERTEX
  8
1PHANTOM
  5
900A
 10
-245.004
 20
-1773.33
 30
0.000000
  70
    32
  0
VERTEX
  8
1PHANTOM
  5
900B
 10
-245.006
 20
-1773.27
 30
0.000000
  70
    32
  0
VERTEX
  8
1PHANTOM
  5
900C
 10
-245.007
 20
-1773.21
 30
0.000000
  70
    32
  0
VERTEX
  8
1PHANTOM
  5
900D
 10
-245.009
 20
-1773.15
 30
0.000000
  70
    32
  0
VERTEX
  8
1PHANTOM
  5
900E
 10
-245.010
 20
-1773.09
 30
0.000000
  70
    32
  0
VERTEX
  8
1PHANTOM
  5
900F
 10
-245.011
 20
-1773.03
 30
0.000000
  70
    32
  0
VERTEX
  8
1PHANTOM
  5
9010
 10
-245.013
 20
-1772.97
 30
0.000000
  70
    32
  0
VERTEX
  8
1PHANTOM
  5
9011
 10
-245.014
 20
-1772.92
 30
0.000000
  70
    32
  0
VERTEX
  8
1PHANTOM
  5
9012
 10
-245.015
 20
-1772.86
 30
0.000000
  70
    32
  0
VERTEX
  8
1PHANTOM
  5
9013
 10
-245.016
 20
-1772.80
 30
0.000000
  70
    32
  0
VERTEX
  8
1PHANTOM
  5
9014
 10
-245.017
 20
-1772.74
 30
0.000000
  70
    32
  0
VERTEX
  8
1PHANTOM
  5
9015
 10
-245.018
 20
-1772.68
 30
0.000000
  70
    32
  0
VERTEX
  8
1PHANTOM
  5
9016
 10
-245.019
 20
-1772.62
 30
0.000000
  70
    32
  0
VERTEX
  8
1PHANTOM
  5
9017
 10
-245.020
 20
-1772.56
 30
0.000000
  70
    32
  0
VERTEX
  8
1PHANTOM
  5
9018
 10
-245.021
 20
-1772.50
 30
0.000000
  70
    32
  0
VERTEX
  8
1PHANTOM
  5
9019
 10
-245.021
 20
-1772.44
 30
0.000000
  70
    32
  0
VERTEX
  8
1PHANTOM
  5
901A
 10
-245.022
 20
-1772.37
 30
0.000000
  70
    32
  0
VERTEX
  8
1PHANTOM
  5
901B
 10
-245.023
 20
-1772.31
 30
0.000000
  70
    32
  0
VERTEX
  8
1PHANTOM
  5
901C
 10
-245.023
 20
-1772.25
 30
0.000000
  70
    32
  0
VERTEX
  8
1PHANTOM
  5
901D
 10
-245.024
 20
-1772.19
 30
0.000000
  70
    32
  0
VERTEX
  8
1PHANTOM
  5
901E
 10
-245.024
 20
-1772.13
 30
0.000000
  70
    32
  0
VERTEX
  8
1PHANTOM
  5
901F
 10
-245.025
 20
-1772.07
 30
0.000000
  70
    32
  0
VERTEX
  8
1PHANTOM
  5
9020
 10
-245.025
 20
-1772.01
 30
0.000000
  70
    32
  0
VERTEX
  8
1PHANTOM
  5
9021
 10
-245.025
 20
-1771.95
 30
0.000000
  70
    32
  0
VERTEX
  8
1PHANTOM
  5
9022
 10
-245.026
 20
-1771.89
 30
0.000000
  70
    32
  0
VERTEX
  8
1PHANTOM
  5
9023
 10
-245.026
 20
-1771.83
 30
0.000000
  70
    32
  0
VERTEX
  8
1PHANTOM
  5
9024
 10
-245.026
 20
-1771.76
 30
0.000000
  70
    32
  0
VERTEX
  8
1PHANTOM
  5
9025
 10
-245.026
 20
-1771.70
 30
0.000000
  70
    32
  0
VERTEX
  8
1PHANTOM
  5
9026
 10
-245.026
 20
-1771.64
 30
0.000000
  70
    32
  0
SEQEND
  8
1PHANTOM
  5
9027
  0
TEXT
  5
8CBB
  8
1TEXT
 10
-244.3589118396221
 20
-1660.641031596936
 30
0.0
 40
7.0
  1
PC327
 41
1.0098214000000001
  0
TEXT
  5
8D2F
  8
1TEXT
 10
-246.6709048576075
 20
-1871.9519262085109
 30
0.0
 40
4.0
  1
ダークアンバー
 72
     1
 11
-230.2709048576076
 21
-1871.9519262085109
 31
0.0
  0
TEXT
  5
8D30
  8
1TEXT
 10
-210.60423819094041
 20
-1872.355369580589
 30
0.0
 40
4.0
  1
PC327X4Q
 72
     1
 11
-195.27090485760709
 21
-1872.355369580589
 31
0.0
  0
TEXT
  5
8DB7
  8
1DIM
 10
-154.19128505999831
 20
-1790.5637741106079
 30
0.0
 40
3.5
  1
M4-10
  0
SOLID
  5
8DB8
  8
1DIM
 10
-162.81040631472729
 20
-1780.4769465197189
 30
0.0
 11
-163.67090485760761
 21
-1778.6410125969401
 31
0.0
 12
-162.26148172046811
 22
-1780.098626239715
 32
0.0
 13
-162.26148172046811
 23
-1780.098626239715
 33
0.0
  0
LINE
  5
8DBA
  8
1DIM
 10
-163.67090485760761
 20
-1780.6410125969389
 30
0.0
 11
-163.67090485760761
 21
-1799.6410125969389
 31
0.0
  0
LINE
  5
8DBB
  8
1DIM
 10
-149.67090485760761
 20
-1778.6410125969401
 30
0.0
 11
-149.67090485760761
 21
-1799.6410125969389
 31
0.0
  0
LINE
  5
8DBC
  8
1DIM
 10
-161.67090485760761
 20
-1798.6410125969389
 30
0.0
 11
-151.67090485760761
 21
-1798.6410125969389
 31
0.0
  0
LINE
  5
8DC0
  8
1DIM
 10
-245.67090485760741
 20
-1696.641031596936
 30
0.0
 11
-245.67090485760741
 21
-1731.641031596936
 31
0.0
  0
LINE
  5
8DC1
  8
1DIM
 10
-217.67090485760741
 20
-1696.641031596936
 30
0.0
 11
-217.67090485760741
 21
-1731.641031596936
 31
0.0
  0
LINE
  5
8DC2
  8
1DIM
 10
-243.67090485760741
 20
-1730.641031596936
 30
0.0
 11
-219.67090485760741
 21
-1730.641031596936
 31
0.0
  0
LINE
  5
8DC6
  8
1DIM
 10
-217.67090485760761
 20
-1778.6410125969401
 30
0.0
 11
-196.67090485760761
 21
-1778.6410125969401
 31
0.0
  0
LINE
  5
8DC7
  8
1DIM
 10
-218.6709048576113
 20
-1760.641012596936
 30
0.0
 11
-196.67090485760761
 21
-1760.641012596936
 31
0.0
  0
LINE
  5
8DC8
  8
1DIM
 10
-197.67090485760761
 20
-1776.6410125969401
 30
0.0
 11
-197.67090485760761
 21
-1762.641012596936
 31
0.0
  0
LINE
  5
8DCC
  8
1DIM
 10
-177.67090485760761
 20
-1778.6410125969401
 30
0.0
 11
-188.67090485760761
 21
-1778.6410125969401
 31
0.0
  0
LINE
  5
8DCD
  8
1DIM
 10
-177.17090485760389
 20
-1762.6410125969469
 30
0.0
 11
-188.67090485760761
 21
-1762.6410125969469
 31
0.0
  0
LINE
  5
8DCE
  8
1DIM
 10
-187.67090485760761
 20
-1776.6410125969401
 30
0.0
 11
-187.67090485760761
 21
-1764.6410125969469
 31
0.0
  0
LINE
  5
8DD2
  8
1DIM
 10
-241.670904857604
 20
-1780.6410125969389
 30
0.0
 11
-241.670904857604
 21
-1799.6410125969389
 31
0.0
  0
LINE
  5
8DD3
  8
1DIM
 10
-221.67090485761861
 20
-1780.6410125969389
 30
0.0
 11
-221.67090485761861
 21
-1799.6410125969389
 31
0.0
  0
LINE
  5
8DD4
  8
1DIM
 10
-239.670904857604
 20
-1798.6410125969389
 30
0.0
 11
-223.67090485761861
 21
-1798.6410125969389
 31
0.0
  0
TEXT
  5
8DD8
  8
1DIM
 10
-236.74590485761129
 20
-1797.9410125969389
 30
0.0
 40
3.5
  1
φ20
  0
LINE
  5
8DD9
  8
0
  6
BYBLOCK
 10
-223.67090485761861
 20
-1798.1051142169399
 30
0.0
 11
-221.67090485761861
 21
-1798.6410125969389
 31
0.0
  0
LINE
  5
8DDA
  8
0
  6
BYBLOCK
 10
-221.67090485761861
 20
-1798.6410125969389
 30
0.0
 11
-223.67090485761861
 21
-1799.17691097694
 31
0.0
  0
LINE
  5
8DDB
  8
0
  6
BYBLOCK
 10
-221.67090485761861
 20
-1798.6410125969389
 30
0.0
 11
-223.67090485761861
 21
-1798.6410125969389
 31
0.0
  0
LINE
  5
8DDC
  8
0
  6
BYBLOCK
 10
-239.670904857604
 20
-1799.17691097694
 30
0.0
 11
-241.670904857604
 21
-1798.6410125969389
 31
0.0
  0
LINE
  5
8DDD
  8
0
  6
BYBLOCK
 10
-241.670904857604
 20
-1798.6410125969389
 30
0.0
 11
-239.670904857604
 21
-1798.1051142169399
 31
0.0
  0
LINE
  5
8DDE
  8
0
  6
BYBLOCK
 10
-241.670904857604
 20
-1798.6410125969389
 30
0.0
 11
-239.670904857604
 21
-1798.6410125969389
 31
0.0
  0
TEXT
  5
8DDF
  8
1DIM
 10
-188.37090485760729
 20
-1772.9743459302761
 30
0.0
 40
3.5
  1
16 
 50
90.0
  0
LINE
  5
8DE0
  8
0
  6
BYBLOCK
 10
-188.2068032376076
 20
-1764.6410125969469
 30
0.0
 11
-187.67090485760761
 21
-1762.6410125969469
 31
0.0
  0
LINE
  5
8DE1
  8
0
  6
BYBLOCK
 10
-187.67090485760761
 20
-1762.6410125969469
 30
0.0
 11
-187.13500647760759
 21
-1764.6410125969469
 31
0.0
  0
LINE
  5
8DE2
  8
0
  6
BYBLOCK
 10
-187.67090485760761
 20
-1762.6410125969469
 30
0.0
 11
-187.67090485760761
 21
-1764.6410125969469
 31
0.0
  0
LINE
  5
8DE3
  8
0
  6
BYBLOCK
 10
-187.13500647760759
 20
-1776.6410125969401
 30
0.0
 11
-187.67090485760761
 21
-1778.6410125969401
 31
0.0
  0
LINE
  5
8DE4
  8
0
  6
BYBLOCK
 10
-187.67090485760761
 20
-1778.6410125969401
 30
0.0
 11
-188.2068032376076
 21
-1776.6410125969401
 31
0.0
  0
LINE
  5
8DE5
  8
0
  6
BYBLOCK
 10
-187.67090485760761
 20
-1778.6410125969401
 30
0.0
 11
-187.67090485760761
 21
-1776.6410125969401
 31
0.0
  0
TEXT
  5
8DE6
  8
1DIM
 10
-198.37090485760729
 20
-1771.9743459302711
 30
0.0
 40
3.5
  1
18 
 50
90.0
  0
LINE
  5
8DE7
  8
0
  6
BYBLOCK
 10
-198.2068032376076
 20
-1762.641012596936
 30
0.0
 11
-197.67090485760761
 21
-1760.641012596936
 31
0.0
  0
LINE
  5
8DE8
  8
0
  6
BYBLOCK
 10
-197.67090485760761
 20
-1760.641012596936
 30
0.0
 11
-197.13500647760759
 21
-1762.641012596936
 31
0.0
  0
LINE
  5
8DE9
  8
0
  6
BYBLOCK
 10
-197.67090485760761
 20
-1760.641012596936
 30
0.0
 11
-197.67090485760761
 21
-1762.641012596936
 31
0.0
  0
LINE
  5
8DEA
  8
0
  6
BYBLOCK
 10
-197.13500647760759
 20
-1776.6410125969401
 30
0.0
 11
-197.67090485760761
 21
-1778.6410125969401
 31
0.0
  0
LINE
  5
8DEB
  8
0
  6
BYBLOCK
 10
-197.67090485760761
 20
-1778.6410125969401
 30
0.0
 11
-198.2068032376076
 21
-1776.6410125969401
 31
0.0
  0
LINE
  5
8DEC
  8
0
  6
BYBLOCK
 10
-197.67090485760761
 20
-1778.6410125969401
 30
0.0
 11
-197.67090485760761
 21
-1776.6410125969401
 31
0.0
  0
TEXT
  5
8DED
  8
1DIM
 10
-237.03757152427411
 20
-1729.941031596936
 30
0.0
 40
3.5
  1
φ28
  0
LINE
  5
8DEE
  8
0
  6
BYBLOCK
 10
-219.67090485760741
 20
-1730.1051332169361
 30
0.0
 11
-217.67090485760741
 21
-1730.641031596936
 31
0.0
  0
LINE
  5
8DEF
  8
0
  6
BYBLOCK
 10
-217.67090485760741
 20
-1730.641031596936
 30
0.0
 11
-219.67090485760741
 21
-1731.176929976936
 31
0.0
  0
LINE
  5
8DF0
  8
0
  6
BYBLOCK
 10
-217.67090485760741
 20
-1730.641031596936
 30
0.0
 11
-219.67090485760741
 21
-1730.641031596936
 31
0.0
  0
LINE
  5
8DF1
  8
0
  6
BYBLOCK
 10
-243.67090485760741
 20
-1731.176929976936
 30
0.0
 11
-245.67090485760741
 21
-1730.641031596936
 31
0.0
  0
LINE
  5
8DF2
  8
0
  6
BYBLOCK
 10
-245.67090485760741
 20
-1730.641031596936
 30
0.0
 11
-243.67090485760741
 21
-1730.1051332169361
 31
0.0
  0
LINE
  5
8DF3
  8
0
  6
BYBLOCK
 10
-245.67090485760741
 20
-1730.641031596936
 30
0.0
 11
-243.67090485760741
 21
-1730.641031596936
 31
0.0
  0
TEXT
  5
8DF4
  8
1DIM
 10
-159.00423819094101
 20
-1797.9410125969389
 30
0.0
 40
3.5
  1
14 
  0
LINE
  5
8DF5
  8
0
  6
BYBLOCK
 10
-151.67090485760761
 20
-1798.1051142169399
 30
0.0
 11
-149.67090485760761
 21
-1798.6410125969389
 31
0.0
  0
LINE
  5
8DF6
  8
0
  6
BYBLOCK
 10
-149.67090485760761
 20
-1798.6410125969389
 30
0.0
 11
-151.67090485760761
 21
-1799.17691097694
 31
0.0
  0
LINE
  5
8DF7
  8
0
  6
BYBLOCK
 10
-149.67090485760761
 20
-1798.6410125969389
 30
0.0
 11
-151.67090485760761
 21
-1798.6410125969389
 31
0.0
  0
LINE
  5
8DF8
  8
0
  6
BYBLOCK
 10
-161.67090485760761
 20
-1799.17691097694
 30
0.0
 11
-163.67090485760761
 21
-1798.6410125969389
 31
0.0
  0
LINE
  5
8DF9
  8
0
  6
BYBLOCK
 10
-163.67090485760761
 20
-1798.6410125969389
 30
0.0
 11
-161.67090485760761
 21
-1798.1051142169399
 31
0.0
  0
LINE
  5
8DFA
  8
0
  6
BYBLOCK
 10
-163.67090485760761
 20
-1798.6410125969389
 30
0.0
 11
-161.67090485760761
 21
-1798.6410125969389
 31
0.0
  0
LINE
  5
8DFB
  8
1DIM
 10
-162.5359440175977
 20
-1780.2877863797171
 30
0.0
 11
-155.06603024305511
 21
-1791.1262732506989
 31
0.0
  0
LINE
  5
8DFC
  8
1DIM
 10
-155.06603024305511
 20
-1791.1262732506989
 30
0.0
 11
-135.19936357638841
 21
-1791.1262732506989
 31
0.0
  0
VIEWPORT
  5
57
 67
     1
  8
0
 10
15.382583192181411
 20
10.645973307283811
 30
0.0
 40
461.72142891508332
 41
306.16380719838412
 68
     1
 69
     1
1001
ACAD
1000
MVIEW
1002
{
1070
    16
1010
0.0
1020
0.0
1030
0.0
1010
0.0
1020
0.0
1030
1.0
1040
0.0
1040
306.16380719838412
1040
15.382583192181411
1040
10.645973307283811
1040
50.0
1040
0.0
1040
0.0
1070
     0
1070
   100
1070
     1
1070
     1
1070
     0
1070
     0
1070
     0
1070
     0
1040
0.0
1040
0.0
1040
0.0
1040
10.0
1040
10.0
1040
10.0
1040
10.0
1070
     0
1002
{
1002
}
1002
}
  0
ENDSEC
  0
EOF
