  0
SECTION
  2
HEADER
  9
$ACADVER
  1
AC1009
  9
$INSBASE
 10
0.0
 20
0.0
 30
0.0
  9
$EXTMIN
 10
-218.2067752583512
 20
-1868.9642148460671
 30
0.0
  9
$EXTMAX
 10
-70.669988727663394
 20
-1659.9642338460651
 30
0.0
  9
$LIMMIN
 10
0.0
 20
0.0
  9
$LIMMAX
 10
420.0
 20
297.0
  9
$ORTHOMODE
 70
     0
  9
$REGENMODE
 70
     1
  9
$FILLMODE
 70
     1
  9
$QTEXTMODE
 70
     0
  9
$MIRRTEXT
 70
     1
  9
$DRAGMODE
 70
     2
  9
$LTSCALE
 40
0.5
  9
$OSMODE
 70
  2175
  9
$ATTMODE
 70
     1
  9
$TEXTSIZE
 40
4.0
  9
$TRACEWID
 40
1.0
  9
$TEXTSTYLE
  7
STANDARD
  9
$CLAYER
  8
1TEXT
  9
$CELTYPE
  6
BYLAYER
  9
$CECOLOR
 62
   256
  9
$DIMSCALE
 40
1.0
  9
$DIMASZ
 40
2.0
  9
$DIMEXO
 40
0.0
  9
$DIMDLI
 40
7.0
  9
$DIMRND
 40
0.0
  9
$DIMDLE
 40
0.0
  9
$DIMEXE
 40
1.0
  9
$DIMTP
 40
0.0
  9
$DIMTM
 40
0.0
  9
$DIMTXT
 40
3.5
  9
$DIMCEN
 40
0.0
  9
$DIMTSZ
 40
0.0
  9
$DIMTOL
 70
     0
  9
$DIMLIM
 70
     0
  9
$DIMTIH
 70
     0
  9
$DIMTOH
 70
     0
  9
$DIMSE1
 70
     0
  9
$DIMSE2
 70
     0
  9
$DIMTAD
 70
     1
  9
$DIMZIN
 70
     8
  9
$DIMBLK
  1

  9
$DIMASO
 70
     1
  9
$DIMSHO
 70
     1
  9
$DIMPOST
  1
 
  9
$DIMAPOST
  1

  9
$DIMALT
 70
     0
  9
$DIMALTD
 70
     2
  9
$DIMALTF
 40
25.399999999999999
  9
$DIMLFAC
 40
1.0
  9
$DIMTOFL
 70
     1
  9
$DIMTVP
 40
0.0
  9
$DIMTIX
 70
     0
  9
$DIMSOXD
 70
     0
  9
$DIMSAH
 70
     1
  9
$DIMBLK1
  1
OPEN30
  9
$DIMBLK2
  1
OPEN30
  9
$DIMSTYLE
  2
NEWX10
  9
$DIMCLRD
 70
   256
  9
$DIMCLRE
 70
   256
  9
$DIMCLRT
 70
   201
  9
$DIMTFAC
 40
0.7
  9
$DIMGAP
 40
0.7
  9
$LUNITS
 70
     2
  9
$LUPREC
 70
     4
  9
$SKETCHINC
 40
1.0
  9
$FILLETRAD
 40
0.0
  9
$AUNITS
 70
     0
  9
$AUPREC
 70
     2
  9
$MENU
  1
acad
  9
$ELEVATION
 40
0.0
  9
$PELEVATION
 40
0.0
  9
$THICKNESS
 40
0.0
  9
$LIMCHECK
 70
     0
  9
$BLIPMODE
 70
     0
  9
$CHAMFERA
 40
10.0
  9
$CHAMFERB
 40
10.0
  9
$SKPOLY
 70
     0
  9
$TDCREATE
 40
2453033.7326634838
  9
$TDUPDATE
 40
2455631.4348902199
  9
$TDINDWG
 40
0.2564503819
  9
$TDUSRTIMER
 40
0.2564503819
  9
$USRTIMER
 70
     1
  9
$ANGBASE
 50
0.0
  9
$ANGDIR
 70
     0
  9
$PDMODE
 70
     0
  9
$PDSIZE
 40
0.0
  9
$PLINEWID
 40
0.0
  9
$COORDS
 70
     2
  9
$SPLFRAME
 70
     0
  9
$SPLINETYPE
 70
     6
  9
$SPLINESEGS
 70
     8
  9
$ATTDIA
 70
     0
  9
$ATTREQ
 70
     1
  9
$HANDLING
 70
     1
  9
$HANDSEED
  5
8B1E
  9
$SURFTAB1
 70
     6
  9
$SURFTAB2
 70
     6
  9
$SURFTYPE
 70
     6
  9
$SURFU
 70
     6
  9
$SURFV
 70
     6
  9
$UCSNAME
  2

  9
$UCSORG
 10
0.0
 20
0.0
 30
0.0
  9
$UCSXDIR
 10
1.0
 20
0.0
 30
0.0
  9
$UCSYDIR
 10
0.0
 20
1.0
 30
0.0
  9
$PUCSNAME
  2

  9
$PUCSORG
 10
0.0
 20
0.0
 30
0.0
  9
$PUCSXDIR
 10
1.0
 20
0.0
 30
0.0
  9
$PUCSYDIR
 10
0.0
 20
1.0
 30
0.0
  9
$USERI1
 70
     0
  9
$USERI2
 70
     0
  9
$USERI3
 70
     0
  9
$USERI4
 70
     0
  9
$USERI5
 70
     0
  9
$USERR1
 40
0.0
  9
$USERR2
 40
0.0
  9
$USERR3
 40
0.0
  9
$USERR4
 40
0.0
  9
$USERR5
 40
0.0
  9
$WORLDVIEW
 70
     1
  9
$SHADEDGE
 70
     3
  9
$SHADEDIF
 70
    70
  9
$TILEMODE
 70
     1
  9
$MAXACTVP
 70
    48
  9
$PLIMCHECK
 70
     0
  9
$PEXTMIN
 10
1.0000000000000000E+020
 20
1.0000000000000000E+020
 30
1.0000000000000000E+020
  9
$PEXTMAX
 10
-1.0000000000000000E+020
 20
-1.0000000000000000E+020
 30
-1.0000000000000000E+020
  9
$PLIMMIN
 10
0.0
 20
0.0
  9
$PLIMMAX
 10
420.0
 20
297.0
  9
$UNITMODE
 70
     0
  9
$VISRETAIN
 70
     1
  9
$PLINEGEN
 70
     0
  9
$PSLTSCALE
 70
     1
  0
ENDSEC
  0
SECTION
  2
TABLES
  0
TABLE
  2
VPORT
 70
     1
  0
VPORT
  2
*ACTIVE
 70
     0
 10
0.0
 20
0.0
 11
1.0
 21
1.0
 12
-144.43456602014649
 22
-1764.427089183705
 13
0.0
 23
0.0
 14
10.0
 24
10.0
 15
10.0
 25
10.0
 16
0.0
 26
0.0
 36
1.0
 17
0.0
 27
0.0
 37
0.0
 40
221.881417158273
 41
1.4123581336696089
 42
50.0
 43
0.0
 44
0.0
 50
0.0
 51
0.0
 71
     0
 72
   100
 73
     1
 74
     1
 75
     0
 76
     0
 77
     0
 78
     0
  0
ENDTAB
  0
TABLE
  2
LTYPE
 70
    14
  0
LTYPE
  2
CONTINUOUS
 70
     0
  3
Solid line
 72
    65
 73
     0
 40
0.0
  0
LTYPE
  2
CENTER2
 70
     0
  3
Center (.5x) ___ _ ___ _ ___ _ ___ _ ___ _ ___
 72
    65
 73
     4
 40
28.574999999999999
 49
19.050000000000001
 49
-3.1749999999999989
 49
3.1749999999999989
 49
-3.1749999999999989
  0
LTYPE
  2
XREF1|CENTER2
 70
    48
  3
Center (.5x) ___ _ ___ _ ___ _ ___ _ ___ _ ___
 72
    65
 73
     4
 40
28.574999999999999
 49
19.050000000000001
 49
-3.1749999999999989
 49
3.1749999999999989
 49
-3.1749999999999989
  0
LTYPE
  2
A3WAKUDAKE|CENTER2
 70
    48
  3
Center (.5x) ___ _ ___ _ ___ _ ___ _ ___ _ ___
 72
    65
 73
     4
 40
28.574999999999999
 49
19.050000000000001
 49
-3.1749999999999989
 49
3.1749999999999989
 49
-3.1749999999999989
  0
ENDTAB
  0
TABLE
  2
LAYER
 70
    44
  0
LAYER
  2
0
 70
     0
 62
     7
  6
CONTINUOUS
  0
LAYER
  2
1CENTER
 70
     0
 62
     7
  6
CENTER2
  0
LAYER
  2
1TEXT
 70
     0
 62
     7
  6
CONTINUOUS
  0
LAYER
  2
1DIM
 70
     0
 62
     7
  6
CONTINUOUS
  0
LAYER
  2
01
 70
     0
 62
     1
  6
CONTINUOUS
  0
LAYER
  2
XREF1|1CENTER
 70
    48
 62
     7
  6
XREF1|CENTER2
  0
LAYER
  2
A3WAKUDAKE|THICK
 70
    48
 62
     7
  6
CONTINUOUS
  0
LAYER
  2
A3WAKUDAKE|POINT
 70
    48
 62
     7
  6
CONTINUOUS
  0
LAYER
  2
A3WAKUDAKE|1CENTER
 70
    48
 62
     7
  6
A3WAKUDAKE|CENTER2
  0
LAYER
  2
A3WAKUDAKE|0-6
 70
    48
 62
     7
  6
CONTINUOUS
  0
LAYER
  2
A3WAKUDAKE|1DIM
 70
    48
 62
     7
  6
CONTINUOUS
  0
ENDTAB
  0
TABLE
  2
STYLE
 70
    22
  0
STYLE
  2
STANDARD
 70
     0
 40
0.0
 41
1.0
 50
0.0
 71
     0
 42
4.0
  3
txt.shx
  4
extfont.shx
  0
ENDTAB
  0
TABLE
  2
VIEW
 70
     0
  0
ENDTAB
  0
TABLE
  2
UCS
 70
     0
  0
ENDTAB
  0
TABLE
  2
APPID
 70
    10
  0
APPID
  2
ACAD
 70
     0
  0
APPID
  2
DRAWINGVARIABLESXDATA
 70
     0
  0
APPID
  2
CONTENTTABDATA
 70
     0
  0
APPID
  2
CONTENTCURRENTTAB
 70
     0
  0
APPID
  2
CONTENTBLOCKDESCRIPTION
 70
     0
  0
APPID
  2
CONTENTBLOCKICON
 70
     0
  0
APPID
  2
CONTENTLONGBLOCKNAME
 70
     0
  0
APPID
  2
ACAD_PSEXT
 70
     0
  0
APPID
  2
ACAD_DSTYLE_DIMTEXT_FILL
 70
     0
  0
APPID
  2
ACAD_MLEADERVER
 70
     0
  0
ENDTAB
  0
TABLE
  2
DIMSTYLE
 70
     8
  0
DIMSTYLE
  2
NEWX10
 70
     0
  3
 
  4

  5

  6
OPEN30
  7
OPEN30
 40
1.0
 41
2.0
 42
0.0
 43
7.0
 44
1.0
 45
0.0
 46
0.0
 47
0.0
 48
0.0
140
3.5
141
0.0
142
0.0
143
25.399999999999999
144
1.0
145
0.0
146
0.7
147
0.7
 71
     0
 72
     0
 73
     0
 74
     0
 75
     0
 76
     0
 77
     1
 78
     8
170
     0
171
     2
172
     1
173
     1
174
     0
175
     0
176
   256
177
   256
178
   201
  0
ENDTAB
  0
ENDSEC
  0
SECTION
  2
BLOCKS
  0
BLOCK
  8
0
  2
$MODEL_SPACE
 70
     0
 10
0.0
 20
0.0
 30
0.0
  3
$MODEL_SPACE
  1

  0
ENDBLK
  5
1A
  8
0
  0
BLOCK
 67
     1
  8
0
  2
$PAPER_SPACE
 70
     0
 10
0.0
 20
0.0
 30
0.0
  3
$PAPER_SPACE
  1

  0
ENDBLK
  5
17
 67
     1
  8
0
  0
BLOCK
  8
0
  2
_OPEN30
 70
     0
 10
0.0
 20
0.0
 30
0.0
  3
_OPEN30
  1

  0
LINE
  5
44
  8
0
  6
BYBLOCK
 62
     0
 10
-1.0
 20
0.26794919
 30
0.0
 11
0.0
 21
0.0
 31
0.0
  0
LINE
  5
45
  8
0
  6
BYBLOCK
 62
     0
 10
0.0
 20
0.0
 30
0.0
 11
-1.0
 21
-0.26794919
 31
0.0
  0
LINE
  5
46
  8
0
  6
BYBLOCK
 62
     0
 10
0.0
 20
0.0
 30
0.0
 11
-1.0
 21
0.0
 31
0.0
  0
ENDBLK
  5
47
  8
0
  0
BLOCK
  8
0
  2
XREF1
 70
    36
 10
0.0
 20
0.0
 30
0.0
  3
XREF1
  1
D:\ACLT\FORMAT\KAWAJUN(9)図面用.dwg
  0
ENDBLK
  5
5D
  8
0
  0
BLOCK
  8
0
  2
A3WAKUDAKE
 70
    36
 10
0.0
 20
0.0
 30
0.0
  3
A3WAKUDAKE
  1
D:\ACLT\FORMAT\A3WAKUdake.dwg
  0
ENDBLK
  5
6DC
  8
0
  0
BLOCK
  8
0
  2
*U36
 70
     1
 10
0.0
 20
0.0
 30
0.0
  3
*U36
  1

  0
TEXT
  5
8AD0
  8
0
 62
   201
 10
-63.717024855154051
 20
-3.8109119089904788
 30
0.0
 40
3.5
  1
φ5
 50
48.83031736650419
  0
ENDBLK
  5
8AD2
  8
0
  0
BLOCK
  8
0
  2
*U37
 70
     1
 10
0.0
 20
0.0
 30
0.0
  3
*U37
  1

  0
TEXT
  5
8AD4
  8
1TEXT
 62
   201
 10
21.614708555164611
 20
22.401236958861659
 30
0.0
 40
2.0
  1
二文字
  0
TEXT
  5
8AD5
  8
1TEXT
 62
   201
 10
21.614708555164611
 20
19.067903625528331
 30
0.0
 40
2.0
  1
(別途指定)
  0
TEXT
  5
8AD6
  8
1TEXT
 62
   201
 10
21.614708555164611
 20
15.73457029219499
 30
0.0
 40
2.0
  1
天地 約1.8
  0
TEXT
  5
8AD7
  8
1TEXT
 62
   201
 10
21.614708555164611
 20
12.401236958861659
 30
0.0
 40
2.0
  1
凸0.2
  0
ENDBLK
  5
8AD9
  8
0
  0
BLOCK
  8
0
  2
*U38
 70
     1
 10
0.0
 20
0.0
 30
0.0
  3
*U38
  1

  0
SOLID
  5
8ADB
  8
1DIM
 10
17.769912945885331
 20
22.805130681268722
 30
0.0
 11
17.678379796037799
 21
23.814783819854821
 31
0.0
 12
18.0924202800296
 22
22.889392953575271
 32
0.0
 13
18.0924202800296
 23
22.889392953575271
 33
0.0
  0
POLYLINE
  5
8ADC
  8
1DIM
 66
     1
 10
0.0
 20
0.0
 30
0.0
  0
VERTEX
  5
8ADD
  8
1DIM
 10
17.931166612957469
 20
22.847261817422002
 30
0.0
  0
VERTEX
  5
8ADE
  8
1DIM
 10
20.91703607932029
 20
11.41907722970881
 30
0.0
  0
VERTEX
  5
8ADF
  8
1DIM
 10
35.143226555510758
 20
11.41907722970881
 30
0.0
  0
SEQEND
  5
8AE0
  8
1DIM
  0
ENDBLK
  5
8AE2
  8
0
  0
BLOCK
  8
0
  2
*U39
 70
     1
 10
0.0
 20
0.0
 30
0.0
  3
*U39
  1

  0
TEXT
  5
8AE4
  8
1DIM
 62
   201
 10
8.9421530727463576
 20
19.285028579396069
 30
0.0
 40
2.0
  1
枠
  0
TEXT
  5
8AE5
  8
1DIM
 62
   201
 10
7.0754864060796896
 20
15.951695246062741
 30
0.0
 40
2.0
  1
φ5
  0
TEXT
  5
8AE6
  8
1DIM
 62
   201
 10
4.7421530727463583
 20
12.61836191272941
 30
0.0
 40
2.0
  1
凹0.3
  0
ENDBLK
  5
8AE8
  8
0
  0
BLOCK
  8
0
  2
*U40
 70
     1
 10
0.0
 20
0.0
 30
0.0
  3
*U40
  1

  0
SOLID
  5
8AEA
  8
1DIM
 10
14.77538895849114
 20
20.894651819020488
 30
0.0
 11
15.75963814806016
 21
22.667323431007279
 31
0.0
 12
15.403512140193291
 22
20.67125595278117
 32
0.0
 13
15.403512140193291
 23
20.67125595278117
 33
0.0
  0
POLYLINE
  5
8AEB
  8
1DIM
 66
     1
 10
0.0
 20
0.0
 30
0.0
  0
VERTEX
  5
8AEC
  8
1DIM
 10
15.089450549342221
 20
20.782953885900831
 30
0.0
  0
VERTEX
  5
8AED
  8
1DIM
 10
11.821762131327951
 20
11.59517937383526
 30
0.0
  0
VERTEX
  5
8AEE
  8
1DIM
 10
2.3789049884708091
 20
11.59517937383526
 30
0.0
  0
SEQEND
  5
8AEF
  8
1DIM
  0
ENDBLK
  5
8AF1
  8
0
  0
BLOCK
  8
0
  2
*U41
 70
     1
 10
0.0
 20
0.0
 30
0.0
  3
*U41
  1

  0
TEXT
  5
8AF4
  8
1TEXT
 10
14.9745471932972
 20
24.09947430071913
 30
0.0
 40
1.8
  1
XY
  0
ENDBLK
  5
8AF6
  8
0
  0
BLOCK
  8
0
  2
*U42
 70
     1
 10
0.0
 20
0.0
 30
0.0
  3
*U42
  1

  0
CIRCLE
  5
8AF8
  8
0
 10
0.0
 20
0.0
 30
0.0
 40
3.0
  0
ENDBLK
  5
8AFA
  8
0
  0
BLOCK
  8
0
  2
*U43
 70
     1
 10
0.0
 20
0.0
 30
0.0
  3
*U43
  1

  0
TEXT
  5
8AFC
  8
1DIM
 62
   201
 10
-201.89010859168451
 20
-1800.264214846067
 30
0.0
 40
3.5
  1
P17
  0
ENDBLK
  5
8AFE
  8
0
  0
BLOCK
  8
0
  2
*U44
 70
     1
 10
0.0
 20
0.0
 30
0.0
  3
*U44
  1

  0
TEXT
  5
8B00
  8
1DIM
 62
   201
 10
-200.7234419250178
 20
-1810.264214846067
 30
0.0
 40
3.5
  1
25
  0
ENDBLK
  5
8B02
  8
0
  0
BLOCK
  8
0
  2
*U45
 70
     1
 10
0.0
 20
0.0
 30
0.0
  3
*U45
  1

  0
TEXT
  5
8B04
  8
1DIM
 62
   201
 10
-170.72344192501859
 20
-1810.264214846067
 30
0.0
 40
3.5
  1
35
  0
ENDBLK
  5
8B06
  8
0
  0
BLOCK
  8
0
  2
*U46
 70
     1
 10
0.0
 20
0.0
 30
0.0
  3
*U46
  1

  0
TEXT
  5
8B08
  8
1DIM
 62
   201
 10
-121.0067752583525
 20
-1771.8808815127329
 30
0.0
 40
3.5
  1
24
 50
90.0
  0
ENDBLK
  5
8B0A
  8
0
  0
BLOCK
  8
0
  2
*U47
 70
     1
 10
0.0
 20
0.0
 30
0.0
  3
*U47
  1

  0
TEXT
  5
8B0C
  8
1DIM
 62
   201
 10
-131.00677525835249
 20
-1768.997548179399
 30
0.0
 40
3.5
  1
5
 50
90.0
  0
ENDBLK
  5
8B0E
  8
0
  0
BLOCK
  8
0
  2
*U48
 70
     1
 10
0.0
 20
0.0
 30
0.0
  3
*U48
  1

  0
TEXT
  5
8B10
  8
1DIM
 62
   201
 10
-182.93177525835279
 20
-1716.2642338460651
 30
0.0
 40
3.5
  1
60
  0
ENDBLK
  5
8B12
  8
0
  0
BLOCK
  8
0
  2
*U49
 70
     1
 10
0.0
 20
0.0
 30
0.0
  3
*U49
  1

  0
TEXT
  5
8B14
  8
1DIM
 62
   201
 10
-131.00677525835249
 20
-1693.2142338460651
 30
0.0
 40
3.5
  1
11
 50
90.0
  0
ENDBLK
  5
8B16
  8
0
  0
BLOCK
  8
0
  2
*U50
 70
     1
 10
0.0
 20
0.0
 30
0.0
  3
*U50
  1

  0
TEXT
  5
8B18
  8
1DIM
 62
   201
 10
-217.42344192501781
 20
-1800.264214846067
 30
0.0
 40
3.5
  1
4
  0
ENDBLK
  5
8B1A
  8
0
  0
ENDSEC
  0
SECTION
  2
ENTITIES
  0
TEXT
  5
30E6
  8
1TEXT
 10
-210.30677525835091
 20
-1666.9642338460651
 30
0.0
 40
7.0
  1
PC-351-X
 41
1.0098214000000001
  0
TEXT
  5
8471
  8
1TEXT
 10
-210.0954584285918
 20
-1837.1981872597451
 30
0.0
 40
4.0
  1
材質：亜鉛ダイキャスト
 72
     1
 11
-184.6287917619251
 21
-1837.1981872597451
 31
0.0
  0
LINE
  5
8472
  8
1DIM
 10
-210.30677525835091
 20
-1847.9642148460671
 30
0.0
 11
-105.3067752583505
 21
-1847.9642148460659
 31
0.0
  0
TEXT
  5
8473
  8
1TEXT
 10
-209.1734419250175
 20
-1846.4642148460671
 30
0.0
 40
4.0
  1
表面処理：脚部
 72
     1
 11
-192.90677525835079
 21
-1846.4642148460671
 31
0.0
  0
LINE
  5
8474
  8
1DIM
 10
-210.30677525835091
 20
-1840.9642148460671
 30
0.0
 11
-105.3067752583505
 21
-1840.9642148460659
 31
0.0
  0
TEXT
  5
8475
  8
1TEXT
 10
-129.70677525835089
 20
-1846.4642148460671
 30
0.0
 40
4.0
  1
コード
 72
     1
 11
-122.90677525835081
 21
-1846.4642148460671
 31
0.0
  0
TEXT
  5
8476
  8
1TEXT
 10
-173.77344192501749
 20
-1846.4642148460671
 30
0.0
 40
4.0
  1
表面処理：握り
 72
     1
 11
-157.9067752583509
 21
-1846.4642148460671
 31
0.0
  0
LINE
  5
8478
  8
1DIM
 10
-175.30677525835091
 20
-1854.9642148460671
 30
0.0
 11
-105.3067752583505
 21
-1854.9642148460671
 31
0.0
  0
LINE
  5
8479
  8
1DIM
 10
-175.30677525835091
 20
-1861.9642148460671
 30
0.0
 11
-140.306775258351
 21
-1861.9642148460671
 31
0.0
  0
LINE
  5
847A
  8
1DIM
 10
-175.30677525835091
 20
-1861.9642148460671
 30
0.0
 11
-105.3067752583505
 21
-1861.9642148460671
 31
0.0
  0
TEXT
  5
847B
  8
1TEXT
 10
-174.17344192501659
 20
-1860.678571829716
 30
0.0
 40
4.0
  1
サテンニッケル
 72
     1
 11
-157.90677525834991
 21
-1860.678571829716
 31
0.0
  0
TEXT
  5
847D
  8
1TEXT
 10
-167.24010859168331
 20
-1853.678571829716
 30
0.0
 40
4.0
  1
クローム
 72
     1
 11
-157.90677525834991
 21
-1853.678571829716
 31
0.0
  0
TEXT
  5
847E
  8
1TEXT
 10
-202.24010859168419
 20
-1862.928435336242
 30
0.0
 40
4.0
  1
クローム
 72
     1
 11
-192.90677525835079
 21
-1862.928435336242
 31
0.0
  0
LINE
  5
847F
  8
1DIM
 10
-175.30677525835091
 20
-1840.9642148460671
 30
0.0
 11
-175.30677525835111
 21
-1868.9642148460671
 31
0.0
  0
LINE
  5
8480
  8
1DIM
 10
-140.306775258351
 20
-1840.9642148460659
 30
0.0
 11
-140.306775258351
 21
-1868.9642148460671
 31
0.0
  0
LINE
  5
8481
  8
1DIM
 10
-105.3067752583505
 20
-1840.9642148460659
 30
0.0
 11
-105.3067752583507
 21
-1868.9642148460671
 31
0.0
  0
LINE
  5
8482
  8
1DIM
 10
-210.30677525835091
 20
-1840.9642148460671
 30
0.0
 11
-210.30677525835131
 21
-1868.9642148460671
 31
0.0
  0
TEXT
  5
8483
  8
1TEXT
 10
-134.5734419250166
 20
-1860.678571829716
 30
0.0
 40
4.0
  1
PC-351-NC
 41
0.7
 72
     1
 11
-122.9067752583499
 21
-1860.678571829716
 31
0.0
  0
TEXT
  5
8485
  8
1TEXT
 10
-134.5734419250166
 20
-1853.678571829716
 30
0.0
 40
4.0
  1
PC-351-XC
 41
0.7
 72
     1
 11
-122.9067752583499
 21
-1853.678571829716
 31
0.0
  0
LINE
  5
8486
  8
1DIM
 10
-175.30677525835091
 20
-1868.9642148460671
 30
0.0
 11
-140.306775258351
 21
-1868.9642148460671
 31
0.0
  0
LINE
  5
8487
  8
1DIM
 10
-210.30677525835131
 20
-1868.9642148460671
 30
0.0
 11
-105.3067752583505
 21
-1868.9642148460671
 31
0.0
  0
TEXT
  5
8488
  8
1TEXT
 10
-174.30677525834989
 20
-1867.678571829716
 30
0.0
 40
4.0
  1
ダークアンバー
 72
     1
 11
-157.90677525834991
 21
-1867.678571829716
 31
0.0
  0
TEXT
  5
8489
  8
1TEXT
 10
-135.97344192501649
 20
-1867.678571829716
 30
0.0
 40
4.0
  1
PC-351-4QC
 41
0.7
 72
     1
 11
-122.9067752583499
 21
-1867.678571829716
 31
0.0
  0
LINE
  5
863D
  8
01
 10
-150.80677525835279
 20
-1761.964214846065
 30
0.0
 11
-209.80677525835301
 21
-1761.964214846065
 31
0.0
  0
LINE
  5
863E
  8
01
 10
-209.80677525835301
 20
-1756.964214846065
 30
0.0
 11
-150.80677525835279
 21
-1756.964214846065
 31
0.0
  0
LINE
  5
8670
  8
01
 10
-209.806775258351
 20
-1763.9642148460671
 30
0.0
 11
-185.80677525835119
 21
-1763.9642148460689
 31
0.0
  0
LINE
  5
8671
  8
01
 10
-185.30677525835119
 20
-1780.9642148460671
 30
0.0
 11
-210.30677525835119
 21
-1780.9642148460671
 31
0.0
  0
LINE
  5
8676
  8
01
 10
-210.30677525835119
 20
-1780.9642148460671
 30
0.0
 11
-210.30677525835091
 21
-1764.4642148460671
 31
0.0
  0
LINE
  5
8677
  8
01
 10
-210.30677525835301
 20
-1761.464214846065
 30
0.0
 11
-210.30677525835301
 21
-1757.464214846065
 31
0.0
  0
ARC
  5
8678
  8
01
 10
-209.806775258351
 20
-1764.4642148460671
 30
0.0
 40
0.5
 50
90.0
 51
180.0
  0
ARC
  5
8679
  8
01
 10
-209.80677525835301
 20
-1761.464214846065
 30
0.0
 40
0.5
 50
180.0
 51
270.0
  0
ARC
  5
867A
  8
01
 10
-209.80677525835301
 20
-1757.464214846065
 30
0.0
 40
0.5
 50
90.0
 51
180.0
  0
LINE
  5
867B
  8
01
 10
-207.80677525835279
 20
-1761.964214846065
 30
0.0
 11
-207.80677525835279
 21
-1763.964214846065
 31
0.0
  0
LINE
  5
867E
  8
01
 10
-185.30677525835119
 20
-1764.4642148460671
 30
0.0
 11
-185.30677525835119
 21
-1780.9642148460671
 31
0.0
  0
ARC
  5
867F
  8
01
 10
-185.80677525835119
 20
-1764.4642148460671
 30
0.0
 40
0.5
 50
0.0
 51
90.0
  0
LINE
  5
8680
  8
01
 10
-187.80677525835279
 20
-1761.964214846065
 30
0.0
 11
-187.80677525835279
 21
-1763.964214846065
 31
0.0
  0
LINE
  5
86AD
  8
01
 10
-150.30677525835279
 20
-1757.464214846065
 30
0.0
 11
-150.30677525835279
 21
-1761.464214846065
 31
0.0
  0
ARC
  5
86AE
  8
01
 10
-150.80677525835279
 20
-1761.464214846065
 30
0.0
 40
0.5
 50
270.0
 51
0.0
  0
ARC
  5
86AF
  8
01
 10
-150.80677525835279
 20
-1757.464214846065
 30
0.0
 40
0.5
 50
0.0
 51
90.0
  0
LINE
  5
86B1
  8
01
 10
-99.806775258353014
 20
-1776.9642148460671
 30
0.0
 11
-109.8067752583531
 21
-1776.9642148460671
 31
0.0
  0
LINE
  5
86B2
  8
01
 10
-109.8067752583529
 20
-1781.9642148460671
 30
0.0
 11
-99.806775258352786
 21
-1781.9642148460671
 31
0.0
  0
LINE
  5
86B3
  8
01
 10
-99.306775258353014
 20
-1800.9642148460659
 30
0.0
 11
-110.3067752583528
 21
-1800.9642148460671
 31
0.0
  0
LINE
  5
86B4
  8
01
 10
-99.806775258353014
 20
-1783.9642148460671
 30
0.0
 11
-109.806775258353
 21
-1783.9642148460671
 31
0.0
  0
LINE
  5
86B5
  8
01
 10
-110.306775258353
 20
-1784.4642148460671
 30
0.0
 11
-110.3067752583528
 21
-1800.9642148460671
 31
0.0
  0
LINE
  5
86B6
  8
01
 10
-110.3067752583529
 20
-1781.4642148460671
 30
0.0
 11
-110.3067752583531
 21
-1777.4642148460671
 31
0.0
  0
ARC
  5
86B7
  8
01
 10
-109.8067752583529
 20
-1781.4642148460671
 30
0.0
 40
0.5
 50
180.0
 51
270.0
  0
ARC
  5
86B8
  8
01
 10
-109.806775258353
 20
-1784.4642148460671
 30
0.0
 40
0.5
 50
90.0
 51
180.0
  0
ARC
  5
86B9
  8
01
 10
-109.8067752583531
 20
-1777.4642148460671
 30
0.0
 40
0.5
 50
90.0
 51
180.0
  0
LINE
  5
86BB
  8
01
 10
-99.306775258353014
 20
-1784.4642148460671
 30
0.0
 11
-99.306775258353014
 21
-1800.9642148460671
 31
0.0
  0
LINE
  5
86BC
  8
01
 10
-108.306775258353
 20
-1783.964214846068
 30
0.0
 11
-101.3067752583531
 21
-1783.964214846068
 31
0.0
  0
LINE
  5
86BD
  8
01
 10
-108.306775258353
 20
-1783.9642148460671
 30
0.0
 11
-108.3067752583531
 21
-1781.9642148460671
 31
0.0
  0
LINE
  5
86BE
  8
01
 10
-101.3067752583528
 20
-1783.9642148460659
 30
0.0
 11
-101.3067752583529
 21
-1781.9642148460671
 31
0.0
  0
LINE
  5
86BF
  8
01
 10
-99.306775258352786
 20
-1781.4642148460671
 30
0.0
 11
-99.306775258353014
 21
-1777.4642148460671
 31
0.0
  0
ARC
  5
86C0
  8
01
 10
-99.806775258352786
 20
-1781.4642148460671
 30
0.0
 40
0.5
 50
270.0
 51
0.0
  0
ARC
  5
86C1
  8
01
 10
-99.806775258353014
 20
-1784.4642148460671
 30
0.0
 40
0.5
 50
0.0
 51
90.0
  0
ARC
  5
86C2
  8
01
 10
-99.806775258353014
 20
-1777.4642148460671
 30
0.0
 40
0.5
 50
0.0
 51
90.0
  0
LINE
  5
86C4
  8
01
 10
-209.8067752583529
 20
-1685.9642338460651
 30
0.0
 11
-150.80677525835279
 21
-1685.9642338460651
 31
0.0
  0
LINE
  5
86C5
  8
01
 10
-209.8067752583529
 20
-1696.9642338460651
 30
0.0
 11
-150.80677525835279
 21
-1696.9642338460651
 31
0.0
  0
LINE
  5
86C6
  8
01
 10
-210.3067752583529
 20
-1696.4642338460651
 30
0.0
 11
-210.3067752583529
 21
-1686.4642338460651
 31
0.0
  0
ARC
  5
86C8
  8
01
 10
-209.8067752583529
 20
-1696.4642338460651
 30
0.0
 40
0.5
 50
180.0
 51
270.0
  0
ARC
  5
86CA
  8
01
 10
-209.8067752583529
 20
-1686.4642338460651
 30
0.0
 40
0.5
 50
90.0
 51
180.0
  0
LINE
  5
86CD
  8
01
 10
-150.30677525835279
 20
-1696.4642338460651
 30
0.0
 11
-150.30677525835279
 21
-1686.4642338460651
 31
0.0
  0
ARC
  5
86CE
  8
01
 10
-150.80677525835279
 20
-1696.4642338460651
 30
0.0
 40
0.5
 50
270.0
 51
0.0
  0
ARC
  5
86CF
  8
01
 10
-150.80677525835279
 20
-1686.4642338460651
 30
0.0
 40
0.5
 50
0.0
 51
90.0
  0
LINE
  5
877E
  8
1CENTER
 10
-189.30677525835119
 20
-1774.96421484607
 30
0.0
 11
-189.30677525835119
 21
-1782.96421484607
 31
0.0
  0
LINE
  5
877F
  8
1CENTER
 10
-206.30677525835119
 20
-1774.96421484607
 30
0.0
 11
-206.30677525835119
 21
-1782.96421484607
 31
0.0
  0
LINE
  5
87F6
  8
1CENTER
 10
-206.30677525835119
 20
-1694.4642338460651
 30
0.0
 11
-206.30677525835119
 21
-1688.4642338460651
 31
0.0
  0
LINE
  5
87F7
  8
1CENTER
 10
-209.30677525835119
 20
-1691.4642338460651
 30
0.0
 11
-203.30677525835119
 21
-1691.4642338460651
 31
0.0
  0
LINE
  5
87F8
  8
1CENTER
 10
-189.30677525835119
 20
-1694.4642338460651
 30
0.0
 11
-189.30677525835119
 21
-1688.4642338460651
 31
0.0
  0
LINE
  5
87F9
  8
1CENTER
 10
-192.30677525835119
 20
-1691.4642338460651
 30
0.0
 11
-186.30677525835119
 21
-1691.4642338460651
 31
0.0
  0
LINE
  5
8814
  8
1CENTER
 10
-104.806775258353
 20
-1794.9642148460671
 30
0.0
 11
-104.806775258353
 21
-1802.9642148460671
 31
0.0
  0
LINE
  5
8A4A
  8
1DIM
 10
-206.30677525835119
 20
-1800.9642148460671
 30
0.0
 11
-206.30677525835119
 21
-1799.9642148460671
 31
0.0
  0
LINE
  5
8A4B
  8
1DIM
 10
-210.30677525835119
 20
-1780.9642148460671
 30
0.0
 11
-210.30677525835119
 21
-1801.9642148460671
 31
0.0
  0
LINE
  5
8A4C
  8
1DIM
 10
-204.30677525835119
 20
-1800.9642148460671
 30
0.0
 11
-202.30677525835119
 21
-1800.9642148460671
 31
0.0
  0
LINE
  5
8A4D
  8
1DIM
 10
-212.30677525835119
 20
-1800.9642148460671
 30
0.0
 11
-218.2067752583512
 21
-1800.9642148460671
 31
0.0
  0
LINE
  5
8A4E
  8
1DIM
 10
-206.30677525835119
 20
-1800.9642148460671
 30
0.0
 11
-210.30677525835119
 21
-1800.9642148460671
 31
0.0
  0
LINE
  5
8A52
  8
1DIM
 10
-150.80677525835279
 20
-1696.9642338460651
 30
0.0
 11
-129.30677525835279
 21
-1696.9642338460651
 31
0.0
  0
LINE
  5
8A53
  8
1DIM
 10
-150.80677525835279
 20
-1685.9642338460651
 30
0.0
 11
-129.30677525835279
 21
-1685.9642338460651
 31
0.0
  0
LINE
  5
8A54
  8
1DIM
 10
-130.30677525835279
 20
-1694.9642338460651
 30
0.0
 11
-130.30677525835279
 21
-1687.9642338460651
 31
0.0
  0
LINE
  5
8A58
  8
1DIM
 10
-210.3067752583529
 20
-1696.4642338460651
 30
0.0
 11
-210.3067752583529
 21
-1717.9642338460651
 31
0.0
  0
LINE
  5
8A59
  8
1DIM
 10
-150.30677525835279
 20
-1696.4642338460651
 30
0.0
 11
-150.30677525835279
 21
-1717.9642338460651
 31
0.0
  0
LINE
  5
8A5A
  8
1DIM
 10
-208.3067752583529
 20
-1716.9642338460651
 30
0.0
 11
-152.30677525835279
 21
-1716.9642338460651
 31
0.0
  0
LINE
  5
8A5E
  8
1DIM
 10
-150.80677525835279
 20
-1756.964214846065
 30
0.0
 11
-129.30677525835279
 21
-1756.964214846065
 31
0.0
  0
LINE
  5
8A5F
  8
1DIM
 10
-150.80677525835279
 20
-1761.964214846065
 30
0.0
 11
-129.30677525835279
 21
-1761.964214846065
 31
0.0
  0
LINE
  5
8A60
  8
1DIM
 10
-130.30677525835279
 20
-1754.964214846065
 30
0.0
 11
-130.30677525835279
 21
-1752.964214846065
 31
0.0
  0
LINE
  5
8A61
  8
1DIM
 10
-130.30677525835279
 20
-1763.964214846065
 30
0.0
 11
-130.30677525835279
 21
-1769.6975481793991
 31
0.0
  0
LINE
  5
8A62
  8
1DIM
 10
-130.30677525835279
 20
-1756.964214846065
 30
0.0
 11
-130.30677525835279
 21
-1761.964214846065
 31
0.0
  0
LINE
  5
8A66
  8
1DIM
 10
-150.80677525835279
 20
-1756.964214846065
 30
0.0
 11
-119.3067752583528
 21
-1756.964214846065
 31
0.0
  0
LINE
  5
8A67
  8
1DIM
 10
-185.30677525835119
 20
-1780.9642148460671
 30
0.0
 11
-119.3067752583528
 21
-1780.9642148460671
 31
0.0
  0
LINE
  5
8A68
  8
1DIM
 10
-120.3067752583528
 20
-1758.964214846065
 30
0.0
 11
-120.3067752583528
 21
-1778.9642148460671
 31
0.0
  0
LINE
  5
8A6C
  8
1DIM
 10
-185.30677525835119
 20
-1810.9642148460671
 30
0.0
 11
-185.30677525835119
 21
-1809.9642148460671
 31
0.0
  0
LINE
  5
8A6D
  8
1DIM
 10
-150.30677525835279
 20
-1761.464214846065
 30
0.0
 11
-150.30677525835279
 21
-1811.9642148460671
 31
0.0
  0
LINE
  5
8A6E
  8
1DIM
 10
-183.30677525835119
 20
-1810.9642148460671
 30
0.0
 11
-152.30677525835279
 21
-1810.9642148460671
 31
0.0
  0
LINE
  5
8A72
  8
1DIM
 10
-210.30677525835119
 20
-1780.9642148460671
 30
0.0
 11
-210.30677525835119
 21
-1811.9642148460671
 31
0.0
  0
LINE
  5
8A73
  8
1DIM
 10
-185.30677525835119
 20
-1780.9642148460671
 30
0.0
 11
-185.30677525835119
 21
-1811.9642148460671
 31
0.0
  0
LINE
  5
8A74
  8
1DIM
 10
-208.30677525835119
 20
-1810.9642148460671
 30
0.0
 11
-187.30677525835119
 21
-1810.9642148460671
 31
0.0
  0
LINE
  5
8A78
  8
1DIM
 10
-206.30677525835119
 20
-1782.96421484607
 30
0.0
 11
-206.30677525835119
 21
-1801.9642148460671
 31
0.0
  0
LINE
  5
8A79
  8
1DIM
 10
-189.30677525835119
 20
-1782.96421484607
 30
0.0
 11
-189.30677525835119
 21
-1801.9642148460671
 31
0.0
  0
LINE
  5
8A7A
  8
1DIM
 10
-204.30677525835119
 20
-1800.9642148460671
 30
0.0
 11
-191.30677525835119
 21
-1800.9642148460671
 31
0.0
  0
TEXT
  5
8A7E
  8
1DIM
 10
-87.836655394330251
 20
-1820.9642148460671
 30
0.0
 40
3.5
  1
M4-10
  0
SOLID
  5
8A7F
  8
1DIM
 10
-103.94605875451779
 20
-1802.800046595203
 30
0.0
 11
-104.806775258353
 21
-1800.9642148460671
 31
0.0
 12
-103.3971790793295
 22
-1802.4216611480599
 32
0.0
 13
-103.3971790793295
 23
-1802.4216611480599
 33
0.0
  0
LINE
  5
8A81
  8
1DIM
 10
-103.67161891692371
 20
-1802.6108538716319
 30
0.0
 11
-90.536655394330069
 21
-1821.6642148460669
 31
0.0
  0
LINE
  5
8A82
  8
1DIM
 10
-90.536655394330069
 20
-1821.6642148460669
 30
0.0
 11
-70.669988727663394
 21
-1821.6642148460669
 31
0.0
  0
TEXT
  5
8A83
  8
1DIM
 10
-201.89010859168451
 20
-1800.264214846067
 30
0.0
 40
3.5
  1
P17
  0
LINE
  5
8A84
  8
0
  6
BYBLOCK
 10
-191.30677525835119
 20
-1800.4283164660669
 30
0.0
 11
-189.30677525835119
 21
-1800.9642148460671
 31
0.0
  0
LINE
  5
8A85
  8
0
  6
BYBLOCK
 10
-189.30677525835119
 20
-1800.9642148460671
 30
0.0
 11
-191.30677525835119
 21
-1801.500113226067
 31
0.0
  0
LINE
  5
8A86
  8
0
  6
BYBLOCK
 10
-189.30677525835119
 20
-1800.9642148460671
 30
0.0
 11
-191.30677525835119
 21
-1800.9642148460671
 31
0.0
  0
LINE
  5
8A87
  8
0
  6
BYBLOCK
 10
-204.30677525835119
 20
-1801.500113226067
 30
0.0
 11
-206.30677525835119
 21
-1800.9642148460671
 31
0.0
  0
LINE
  5
8A88
  8
0
  6
BYBLOCK
 10
-206.30677525835119
 20
-1800.9642148460671
 30
0.0
 11
-204.30677525835119
 21
-1800.4283164660669
 31
0.0
  0
LINE
  5
8A89
  8
0
  6
BYBLOCK
 10
-206.30677525835119
 20
-1800.9642148460671
 30
0.0
 11
-204.30677525835119
 21
-1800.9642148460671
 31
0.0
  0
TEXT
  5
8A8A
  8
1DIM
 10
-200.7234419250178
 20
-1810.264214846067
 30
0.0
 40
3.5
  1
25
  0
LINE
  5
8A8B
  8
0
  6
BYBLOCK
 10
-187.30677525835119
 20
-1810.4283164660669
 30
0.0
 11
-185.30677525835119
 21
-1810.9642148460671
 31
0.0
  0
LINE
  5
8A8C
  8
0
  6
BYBLOCK
 10
-185.30677525835119
 20
-1810.9642148460671
 30
0.0
 11
-187.30677525835119
 21
-1811.500113226067
 31
0.0
  0
LINE
  5
8A8D
  8
0
  6
BYBLOCK
 10
-185.30677525835119
 20
-1810.9642148460671
 30
0.0
 11
-187.30677525835119
 21
-1810.9642148460671
 31
0.0
  0
LINE
  5
8A8E
  8
0
  6
BYBLOCK
 10
-208.30677525835119
 20
-1811.500113226067
 30
0.0
 11
-210.30677525835119
 21
-1810.9642148460671
 31
0.0
  0
LINE
  5
8A8F
  8
0
  6
BYBLOCK
 10
-210.30677525835119
 20
-1810.9642148460671
 30
0.0
 11
-208.30677525835119
 21
-1810.4283164660669
 31
0.0
  0
LINE
  5
8A90
  8
0
  6
BYBLOCK
 10
-210.30677525835119
 20
-1810.9642148460671
 30
0.0
 11
-208.30677525835119
 21
-1810.9642148460671
 31
0.0
  0
TEXT
  5
8A91
  8
1DIM
 10
-170.72344192501859
 20
-1810.264214846067
 30
0.0
 40
3.5
  1
35
  0
LINE
  5
8A92
  8
0
  6
BYBLOCK
 10
-152.30677525835279
 20
-1810.4283164660669
 30
0.0
 11
-150.30677525835279
 21
-1810.9642148460671
 31
0.0
  0
LINE
  5
8A93
  8
0
  6
BYBLOCK
 10
-150.30677525835279
 20
-1810.9642148460671
 30
0.0
 11
-152.30677525835279
 21
-1811.500113226067
 31
0.0
  0
LINE
  5
8A94
  8
0
  6
BYBLOCK
 10
-150.30677525835279
 20
-1810.9642148460671
 30
0.0
 11
-152.30677525835279
 21
-1810.9642148460671
 31
0.0
  0
LINE
  5
8A95
  8
0
  6
BYBLOCK
 10
-183.30677525835119
 20
-1811.500113226067
 30
0.0
 11
-185.30677525835119
 21
-1810.9642148460671
 31
0.0
  0
LINE
  5
8A96
  8
0
  6
BYBLOCK
 10
-185.30677525835119
 20
-1810.9642148460671
 30
0.0
 11
-183.30677525835119
 21
-1810.4283164660669
 31
0.0
  0
LINE
  5
8A97
  8
0
  6
BYBLOCK
 10
-185.30677525835119
 20
-1810.9642148460671
 30
0.0
 11
-183.30677525835119
 21
-1810.9642148460671
 31
0.0
  0
TEXT
  5
8A98
  8
1DIM
 10
-121.0067752583525
 20
-1771.8808815127329
 30
0.0
 40
3.5
  1
24
 50
90.0
  0
LINE
  5
8A99
  8
0
  6
BYBLOCK
 10
-119.77087687835279
 20
-1778.9642148460671
 30
0.0
 11
-120.3067752583528
 21
-1780.9642148460671
 31
0.0
  0
LINE
  5
8A9A
  8
0
  6
BYBLOCK
 10
-120.3067752583528
 20
-1780.9642148460671
 30
0.0
 11
-120.84267363835281
 21
-1778.9642148460671
 31
0.0
  0
LINE
  5
8A9B
  8
0
  6
BYBLOCK
 10
-120.3067752583528
 20
-1780.9642148460671
 30
0.0
 11
-120.3067752583528
 21
-1778.9642148460671
 31
0.0
  0
LINE
  5
8A9C
  8
0
  6
BYBLOCK
 10
-120.84267363835281
 20
-1758.964214846065
 30
0.0
 11
-120.3067752583528
 21
-1756.964214846065
 31
0.0
  0
LINE
  5
8A9D
  8
0
  6
BYBLOCK
 10
-120.3067752583528
 20
-1756.964214846065
 30
0.0
 11
-119.77087687835269
 21
-1758.964214846065
 31
0.0
  0
LINE
  5
8A9E
  8
0
  6
BYBLOCK
 10
-120.3067752583528
 20
-1756.964214846065
 30
0.0
 11
-120.3067752583528
 21
-1758.964214846065
 31
0.0
  0
TEXT
  5
8A9F
  8
1DIM
 10
-131.00677525835249
 20
-1768.997548179399
 30
0.0
 40
3.5
  1
5
 50
90.0
  0
LINE
  5
8AA0
  8
0
  6
BYBLOCK
 10
-130.84267363835281
 20
-1763.964214846065
 30
0.0
 11
-130.30677525835279
 21
-1761.964214846065
 31
0.0
  0
LINE
  5
8AA1
  8
0
  6
BYBLOCK
 10
-130.30677525835279
 20
-1761.964214846065
 30
0.0
 11
-129.77087687835279
 21
-1763.964214846065
 31
0.0
  0
LINE
  5
8AA2
  8
0
  6
BYBLOCK
 10
-130.30677525835279
 20
-1761.964214846065
 30
0.0
 11
-130.30677525835279
 21
-1763.964214846065
 31
0.0
  0
LINE
  5
8AA3
  8
0
  6
BYBLOCK
 10
-129.77087687835279
 20
-1754.964214846065
 30
0.0
 11
-130.30677525835279
 21
-1756.964214846065
 31
0.0
  0
LINE
  5
8AA4
  8
0
  6
BYBLOCK
 10
-130.30677525835279
 20
-1756.964214846065
 30
0.0
 11
-130.84267363835281
 21
-1754.964214846065
 31
0.0
  0
LINE
  5
8AA5
  8
0
  6
BYBLOCK
 10
-130.30677525835279
 20
-1756.964214846065
 30
0.0
 11
-130.30677525835279
 21
-1754.964214846065
 31
0.0
  0
TEXT
  5
8AA6
  8
1DIM
 10
-182.93177525835279
 20
-1716.2642338460651
 30
0.0
 40
3.5
  1
60
  0
LINE
  5
8AA7
  8
0
  6
BYBLOCK
 10
-152.30677525835279
 20
-1716.4283354660649
 30
0.0
 11
-150.30677525835279
 21
-1716.9642338460651
 31
0.0
  0
LINE
  5
8AA8
  8
0
  6
BYBLOCK
 10
-150.30677525835279
 20
-1716.9642338460651
 30
0.0
 11
-152.30677525835279
 21
-1717.500132226065
 31
0.0
  0
LINE
  5
8AA9
  8
0
  6
BYBLOCK
 10
-150.30677525835279
 20
-1716.9642338460651
 30
0.0
 11
-152.30677525835279
 21
-1716.9642338460651
 31
0.0
  0
LINE
  5
8AAA
  8
0
  6
BYBLOCK
 10
-208.3067752583529
 20
-1717.500132226065
 30
0.0
 11
-210.3067752583529
 21
-1716.9642338460651
 31
0.0
  0
LINE
  5
8AAB
  8
0
  6
BYBLOCK
 10
-210.3067752583529
 20
-1716.9642338460651
 30
0.0
 11
-208.3067752583529
 21
-1716.4283354660649
 31
0.0
  0
LINE
  5
8AAC
  8
0
  6
BYBLOCK
 10
-210.3067752583529
 20
-1716.9642338460651
 30
0.0
 11
-208.3067752583529
 21
-1716.9642338460651
 31
0.0
  0
TEXT
  5
8AAD
  8
1DIM
 10
-131.00677525835249
 20
-1693.2142338460651
 30
0.0
 40
3.5
  1
11
 50
90.0
  0
LINE
  5
8AAE
  8
0
  6
BYBLOCK
 10
-130.84267363835281
 20
-1687.9642338460651
 30
0.0
 11
-130.30677525835279
 21
-1685.9642338460651
 31
0.0
  0
LINE
  5
8AAF
  8
0
  6
BYBLOCK
 10
-130.30677525835279
 20
-1685.9642338460651
 30
0.0
 11
-129.77087687835279
 21
-1687.9642338460651
 31
0.0
  0
LINE
  5
8AB0
  8
0
  6
BYBLOCK
 10
-130.30677525835279
 20
-1685.9642338460651
 30
0.0
 11
-130.30677525835279
 21
-1687.9642338460651
 31
0.0
  0
LINE
  5
8AB1
  8
0
  6
BYBLOCK
 10
-129.77087687835279
 20
-1694.9642338460651
 30
0.0
 11
-130.30677525835279
 21
-1696.9642338460651
 31
0.0
  0
LINE
  5
8AB2
  8
0
  6
BYBLOCK
 10
-130.30677525835279
 20
-1696.9642338460651
 30
0.0
 11
-130.84267363835281
 21
-1694.9642338460651
 31
0.0
  0
LINE
  5
8AB3
  8
0
  6
BYBLOCK
 10
-130.30677525835279
 20
-1696.9642338460651
 30
0.0
 11
-130.30677525835279
 21
-1694.9642338460651
 31
0.0
  0
TEXT
  5
8AB4
  8
1DIM
 10
-217.42344192501781
 20
-1800.264214846067
 30
0.0
 40
3.5
  1
4
  0
LINE
  5
8AB5
  8
0
  6
BYBLOCK
 10
-212.30677525835119
 20
-1800.4283164660669
 30
0.0
 11
-210.30677525835119
 21
-1800.9642148460671
 31
0.0
  0
LINE
  5
8AB6
  8
0
  6
BYBLOCK
 10
-210.30677525835119
 20
-1800.9642148460671
 30
0.0
 11
-212.30677525835119
 21
-1801.500113226067
 31
0.0
  0
LINE
  5
8AB7
  8
0
  6
BYBLOCK
 10
-210.30677525835119
 20
-1800.9642148460671
 30
0.0
 11
-212.30677525835119
 21
-1800.9642148460671
 31
0.0
  0
LINE
  5
8AB8
  8
0
  6
BYBLOCK
 10
-204.30677525835119
 20
-1801.500113226067
 30
0.0
 11
-206.30677525835119
 21
-1800.9642148460671
 31
0.0
  0
LINE
  5
8AB9
  8
0
  6
BYBLOCK
 10
-206.30677525835119
 20
-1800.9642148460671
 30
0.0
 11
-204.30677525835119
 21
-1800.4283164660669
 31
0.0
  0
LINE
  5
8ABA
  8
0
  6
BYBLOCK
 10
-206.30677525835119
 20
-1800.9642148460671
 30
0.0
 11
-204.30677525835119
 21
-1800.9642148460671
 31
0.0
  0
VIEWPORT
  5
57
 67
     1
  8
0
 10
-12.71820606546882
 20
32.514618313388638
 30
0.0
 40
463.13657485417951
 41
327.9172355887182
 68
     1
 69
     1
1001
ACAD
1000
MVIEW
1002
{
1070
    16
1010
0.0
1020
0.0
1030
0.0
1010
0.0
1020
0.0
1030
1.0
1040
0.0
1040
327.9172355887182
1040
-12.71820606546882
1040
32.514618313388638
1040
50.0
1040
0.0
1040
0.0
1070
     0
1070
   100
1070
     1
1070
     1
1070
     0
1070
     0
1070
     0
1070
     0
1040
0.0
1040
0.0
1040
0.0
1040
10.0
1040
10.0
1040
10.0
1040
10.0
1070
     0
1002
{
1002
}
1002
}
  0
ENDSEC
  0
EOF
