  0
SECTION
  2
HEADER
  9
$ACADVER
  1
AC1009
  9
$DWGCODEPAGE
  3
ansi_932
  9
$INSBASE
 10
0.0
 20
0.0
 30
0.0
  9
$EXTMIN
 10
-2111.223836474868
 20
-1345.661869464091
 30
0.0
  9
$EXTMAX
 10
-1763.538291403032
 20
-1099.279881440226
 30
0.0
  9
$LIMMIN
 10
0.0
 20
0.0
  9
$LIMMAX
 10
420.0
 20
297.0
  9
$ORTHOMODE
 70
     0
  9
$REGENMODE
 70
     1
  9
$FILLMODE
 70
     1
  9
$QTEXTMODE
 70
     0
  9
$MIRRTEXT
 70
     0
  9
$DRAGMODE
 70
     2
  9
$LTSCALE
 40
0.5
  9
$OSMODE
 70
 14591
  9
$ATTMODE
 70
     1
  9
$TEXTSIZE
 40
2.8
  9
$TRACEWID
 40
1.0
  9
$TEXTSTYLE
  7
STANDARD
  9
$CLAYER
  8
1TEXT
  9
$CELTYPE
  6
BYLAYER
  9
$CECOLOR
 62
   256
  9
$DIMSCALE
 40
1.0
  9
$DIMASZ
 40
2.0
  9
$DIMEXO
 40
0.0
  9
$DIMDLI
 40
7.0
  9
$DIMRND
 40
0.0
  9
$DIMDLE
 40
0.0
  9
$DIMEXE
 40
1.0
  9
$DIMTP
 40
0.0
  9
$DIMTM
 40
0.0
  9
$DIMTXT
 40
3.5
  9
$DIMCEN
 40
0.0
  9
$DIMTSZ
 40
0.0
  9
$DIMTOL
 70
     0
  9
$DIMLIM
 70
     0
  9
$DIMTIH
 70
     0
  9
$DIMTOH
 70
     0
  9
$DIMSE1
 70
     0
  9
$DIMSE2
 70
     0
  9
$DIMTAD
 70
     1
  9
$DIMZIN
 70
     8
  9
$DIMBLK
  1

  9
$DIMASO
 70
     1
  9
$DIMSHO
 70
     1
  9
$DIMPOST
  1
 
  9
$DIMAPOST
  1

  9
$DIMALT
 70
     0
  9
$DIMALTD
 70
     2
  9
$DIMALTF
 40
25.4
  9
$DIMLFAC
 40
1.0
  9
$DIMTOFL
 70
     1
  9
$DIMTVP
 40
0.0
  9
$DIMTIX
 70
     0
  9
$DIMSOXD
 70
     0
  9
$DIMSAH
 70
     1
  9
$DIMBLK1
  1
OPEN30
  9
$DIMBLK2
  1
OPEN30
  9
$DIMSTYLE
  2
NEWX10
  9
$DIMCLRD
 70
   256
  9
$DIMCLRE
 70
   256
  9
$DIMCLRT
 70
   201
  9
$DIMTFAC
 40
0.7
  9
$DIMGAP
 40
0.7
  9
$LUNITS
 70
     2
  9
$LUPREC
 70
     4
  9
$SKETCHINC
 40
1.0
  9
$FILLETRAD
 40
0.0
  9
$AUNITS
 70
     0
  9
$AUPREC
 70
     2
  9
$MENU
  1
acad
  9
$ELEVATION
 40
0.0
  9
$PELEVATION
 40
0.0
  9
$THICKNESS
 40
0.0
  9
$LIMCHECK
 70
     0
  9
$CHAMFERA
 40
0.5
  9
$CHAMFERB
 40
0.5
  9
$SKPOLY
 70
     0
  9
$TDCREATE
 40
2451318.621352917
  9
$TDUPDATE
 40
2459928.738526817
  9
$TDINDWG
 40
4.8656480787
  9
$TDUSRTIMER
 40
4.8656480787
  9
$USRTIMER
 70
     1
  9
$ANGBASE
 50
0.0
  9
$ANGDIR
 70
     0
  9
$PDMODE
 70
     0
  9
$PDSIZE
 40
0.0
  9
$PLINEWID
 40
0.0
  9
$COORDS
 70
     2
  9
$SPLFRAME
 70
     0
  9
$SPLINETYPE
 70
     6
  9
$SPLINESEGS
 70
     8
  9
$ATTDIA
 70
     0
  9
$ATTREQ
 70
     1
  9
$HANDLING
 70
     1
  9
$HANDSEED
  5
23620
  9
$SURFTAB1
 70
     6
  9
$SURFTAB2
 70
     6
  9
$SURFTYPE
 70
     6
  9
$SURFU
 70
     6
  9
$SURFV
 70
     6
  9
$UCSNAME
  2

  9
$UCSORG
 10
0.0
 20
0.0
 30
0.0
  9
$UCSXDIR
 10
1.0
 20
0.0
 30
0.0
  9
$UCSYDIR
 10
0.0
 20
1.0
 30
0.0
  9
$PUCSNAME
  2

  9
$PUCSORG
 10
0.0
 20
0.0
 30
0.0
  9
$PUCSXDIR
 10
1.0
 20
0.0
 30
0.0
  9
$PUCSYDIR
 10
0.0
 20
1.0
 30
0.0
  9
$USERI1
 70
     0
  9
$USERI2
 70
     0
  9
$USERI3
 70
     0
  9
$USERI4
 70
     0
  9
$USERI5
 70
     0
  9
$USERR1
 40
0.0
  9
$USERR2
 40
0.0
  9
$USERR3
 40
0.0
  9
$USERR4
 40
0.0
  9
$USERR5
 40
0.0
  9
$WORLDVIEW
 70
     1
  9
$SHADEDGE
 70
     3
  9
$SHADEDIF
 70
    70
  9
$TILEMODE
 70
     1
  9
$MAXACTVP
 70
    48
  9
$PLIMCHECK
 70
     0
  9
$PEXTMIN
 10
1.000000000000000E+20
 20
1.000000000000000E+20
 30
1.000000000000000E+20
  9
$PEXTMAX
 10
-1.000000000000000E+20
 20
-1.000000000000000E+20
 30
-1.000000000000000E+20
  9
$PLIMMIN
 10
0.0
 20
0.0
  9
$PLIMMAX
 10
420.0
 20
297.0
  9
$UNITMODE
 70
     0
  9
$VISRETAIN
 70
     1
  9
$PLINEGEN
 70
     0
  9
$PSLTSCALE
 70
     1
  0
ENDSEC
  0
SECTION
  2
TABLES
  0
TABLE
  2
VPORT
 70
     1
  0
VPORT
  2
*ACTIVE
 70
     0
 10
0.0
 20
0.0
 11
1.0
 21
1.0
 12
-1937.38106393895
 22
-1222.470875452158
 13
0.0
 23
0.0
 14
10.0
 24
10.0
 15
10.0
 25
10.0
 16
0.0
 26
0.0
 36
1.0
 17
0.0
 27
0.0
 37
0.0
 40
264.5364502993074
 41
1.866585067319461
 42
50.0
 43
0.0
 44
0.0
 50
0.0
 51
0.0
 71
     0
 72
   100
 73
     1
 74
     1
 75
     0
 76
     0
 77
     0
 78
     0
  0
ENDTAB
  0
TABLE
  2
LTYPE
 70
    15
  0
LTYPE
  2
CONTINUOUS
 70
     0
  3
Solid line
 72
    65
 73
     0
 40
0.0
  0
LTYPE
  2
CENTER2
 70
     0
  3
Center (.5x) ___ _ ___ _ ___ _ ___ _ ___ _ ___
 72
    65
 73
     4
 40
28.575
 49
19.05
 49
-3.175
 49
3.175
 49
-3.175
  0
LTYPE
  2
XREF1|CENTER2
 70
    48
  3
Center (.5x) ___ _ ___ _ ___ _ ___ _ ___ _ ___
 72
    65
 73
     4
 40
28.575
 49
19.05
 49
-3.175
 49
3.175
 49
-3.175
  0
LTYPE
  2
PHANTOM2
 70
     0
  3
Phantom (0.5x) ___ _ _ ___ _ _ ___ _ _ ___ _ _
 72
    65
 73
     6
 40
31.75
 49
15.875
 49
-3.175
 49
3.175
 49
-3.175
 49
3.175
 49
-3.175
  0
LTYPE
  2
A3WAKUDAKE|CENTER2
 70
    48
  3
Center (.5x) ___ _ ___ _ ___ _ ___ _ ___ _ ___
 72
    65
 73
     4
 40
28.575
 49
19.05
 49
-3.175
 49
3.175
 49
-3.175
  0
ENDTAB
  0
TABLE
  2
LAYER
 70
   101
  0
LAYER
  2
0
 70
     0
 62
     7
  6
CONTINUOUS
  0
LAYER
  2
1CENTER
 70
     0
 62
     7
  6
CENTER2
  0
LAYER
  2
1TEXT
 70
     0
 62
     7
  6
CONTINUOUS
  0
LAYER
  2
1DIM
 70
     0
 62
     7
  6
CONTINUOUS
  0
LAYER
  2
1PHANTOM
 70
     0
 62
     7
  6
PHANTOM2
  0
LAYER
  2
1HATCH
 70
     0
 62
     7
  6
CONTINUOUS
  0
LAYER
  2
01
 70
     0
 62
     1
  6
CONTINUOUS
  0
LAYER
  2
A3WAKUDAKE|THICK
 70
    48
 62
     7
  6
CONTINUOUS
  0
LAYER
  2
A3WAKUDAKE|POINT
 70
    48
 62
     7
  6
CONTINUOUS
  0
LAYER
  2
A3WAKUDAKE|1CENTER
 70
    48
 62
     7
  6
A3WAKUDAKE|CENTER2
  0
LAYER
  2
A3WAKUDAKE|0-6
 70
    48
 62
     7
  6
CONTINUOUS
  0
ENDTAB
  0
TABLE
  2
STYLE
 70
    21
  0
STYLE
  2
STANDARD
 70
     0
 40
0.0
 41
1.0
 50
0.0
 71
     0
 42
2.8
  3
txt.shx
  4
extfont.shx
  0
STYLE
  2
A3WAKUDAKE|STANDARD
 70
    48
 40
0.0
 41
1.0
 50
0.0
 71
     0
 42
2.8
  3
romans.shx
  4
extfont.shx
  0
STYLE
  2
XREF1|STANDARD
 70
    48
 40
0.0
 41
1.0
 50
0.0
 71
     0
 42
2.8
  3
romans.shx
  4
extfont.shx
  0
ENDTAB
  0
TABLE
  2
VIEW
 70
     0
  0
ENDTAB
  0
TABLE
  2
UCS
 70
     0
  0
ENDTAB
  0
TABLE
  2
APPID
 70
    17
  0
APPID
  2
ACAD
 70
     0
  0
APPID
  2
DRAWINGVARIABLESXDATA
 70
     0
  0
APPID
  2
CONTENTTABDATA
 70
     0
  0
APPID
  2
CONTENTCURRENTTAB
 70
     0
  0
APPID
  2
CONTENTBLOCKDESCRIPTION
 70
     0
  0
APPID
  2
CONTENTBLOCKICON
 70
     0
  0
APPID
  2
CONTENTLONGBLOCKNAME
 70
     0
  0
APPID
  2
ACAD_PSEXT
 70
     0
  0
APPID
  2
ACAD_DIMASSOC_CALC_DIMLFAC
 70
     0
  0
APPID
  2
ACAD_DIMASSOC_DIMLFAC
 70
     0
  0
APPID
  2
ACAD_DIMASSOC_OVERRIDDEN_D
 70
     0
  0
APPID
  2
ACAD_DSTYLE_DIMTEXT_FILL
 70
     0
  0
APPID
  2
ACAD_MLEADERVER
 70
     0
  0
APPID
  2
ACAD_NAV_VCDISPLAY
 70
     0
  0
APPID
  2
ACAD_EXEMPT_FROM_CAD_STAND
 70
     0
  0
APPID
  2
ACADANNOTATIVE
 70
     0
  0
APPID
  2
ACDBBLOCKREPETAG
 70
     0
  0
ENDTAB
  0
TABLE
  2
DIMSTYLE
 70
     8
  0
DIMSTYLE
  2
NEWX10
 70
     0
  3
 
  4

  5

  6
OPEN30
  7
OPEN30
 40
1.0
 41
2.0
 42
0.0
 43
7.0
 44
1.0
 45
0.0
 46
0.0
 47
0.0
 48
0.0
140
3.5
141
0.0
142
0.0
143
25.4
144
1.0
145
0.0
146
0.7
147
0.7
 71
     0
 72
     0
 73
     0
 74
     0
 75
     0
 76
     0
 77
     1
 78
     8
170
     0
171
     2
172
     1
173
     1
174
     0
175
     0
176
   256
177
   256
178
   201
  0
ENDTAB
  0
ENDSEC
  0
SECTION
  2
BLOCKS
  0
BLOCK
  8
0
  2
$MODEL_SPACE
 70
     0
 10
0.0
 20
0.0
 30
0.0
  3
$MODEL_SPACE
  1

  0
ENDBLK
  5
1A
  8
0
  0
BLOCK
 67
     1
  8
0
  2
$PAPER_SPACE
 70
     0
 10
0.0
 20
0.0
 30
0.0
  3
$PAPER_SPACE
  1

  0
ENDBLK
  5
17
 67
     1
  8
0
  0
BLOCK
  8
0
  2
_OPEN30
 70
     0
 10
0.0
 20
0.0
 30
0.0
  3
_OPEN30
  1

  0
LINE
  5
44
  8
0
  6
BYBLOCK
 62
     0
 10
-1.0
 20
0.26794919
 30
0.0
 11
0.0
 21
0.0
 31
0.0
  0
LINE
  5
45
  8
0
  6
BYBLOCK
 62
     0
 10
0.0
 20
0.0
 30
0.0
 11
-1.0
 21
-0.26794919
 31
0.0
  0
LINE
  5
46
  8
0
  6
BYBLOCK
 62
     0
 10
0.0
 20
0.0
 30
0.0
 11
-1.0
 21
0.0
 31
0.0
  0
ENDBLK
  5
47
  8
0
  0
BLOCK
  8
0
  2
XREF1
 70
    36
 10
0.0
 20
0.0
 30
0.0
  3
XREF1
  1
D:\ACLT\FORMAT\KAWAJUN(9)図面用.dwg
  0
ENDBLK
  5
5D
  8
0
  0
BLOCK
  8
0
  2
A3WAKUDAKE
 70
    36
 10
0.0
 20
0.0
 30
0.0
  3
A3WAKUDAKE
  1
D:\ACLT\FORMAT\A3WAKUdake.dwg
  0
ENDBLK
  5
22049
  8
0
  0
BLOCK
  8
0
  2
A3WAKUKAWAJUN2017_HYOUDAI_
 70
     0
 10
0.0
 20
0.0
 30
0.0
  3
A3WAKUKAWAJUN2017_HYOUDAI_
  1

  0
LINE
  5
22A0D
  8
0
 10
13.26299999998673
 20
-0.0001000000000317
 30
0.0
 11
9.236999999990758
 21
8.999899999990987
 31
0.0
1001
ACAD
1000
ASC_BOUNDS
1002
{
1070
    19
1005
22A4E
1002
}
  0
LINE
  5
22A0E
  8
0
 10
5.657999999994331
 20
0.9999999999989768
 30
0.0
 11
9.236999999990758
 21
8.999999999991019
 31
0.0
1001
ACAD
1000
ASC_BOUNDS
1002
{
1070
    19
1005
22A4E
1002
}
  0
LINE
  5
22A0F
  8
0
 10
18.59199999998134
 20
-0.2368999999997641
 30
0.0
 11
16.46099999998353
 21
5.432899999994561
 31
0.0
1001
ACAD
1000
ASC_BOUNDS
1002
{
1070
    19
1005
22A4F
1002
}
  0
LINE
  5
22A10
  8
0
 10
18.59199999998134
 20
-0.2368999999997641
 30
0.0
 11
22.38199999997767
 21
8.763099999991255
 31
0.0
1001
ACAD
1000
ASC_BOUNDS
1002
{
1070
    19
1005
22A4F
1002
}
  0
LINE
  5
22A11
  8
0
 10
14.32899999998563
 20
-0.2368999999997641
 30
0.0
 11
16.46099999998353
 21
5.432899999994561
 31
0.0
1001
ACAD
1000
ASC_BOUNDS
1002
{
1070
    19
1005
22A4F
1002
}
  0
LINE
  5
22A12
  8
0
 10
14.32899999998563
 20
-0.2368999999997641
 30
0.0
 11
10.53899999998941
 21
8.763099999991255
 31
0.0
1001
ACAD
1000
ASC_BOUNDS
1002
{
1070
    19
1005
22A4F
1002
}
  0
LINE
  5
22A13
  8
0
 10
19.53899999998043
 20
-0.0001000000000317
 30
0.0
 11
23.56599999997638
 21
8.999899999990987
 31
0.0
1001
ACAD
1000
ASC_BOUNDS
1002
{
1070
    19
1005
22A50
1002
}
  0
LINE
  5
22A14
  8
0
 10
26.97358892824991
 20
1.383099999991202
 30
0.0
 11
23.56599999997638
 21
8.999899999990987
 31
0.0
1001
ACAD
1000
ASC_BOUNDS
1002
{
1070
    19
1005
22A50
1002
}
  0
LINE
  5
22A15
  8
0
 10
5.657999999994331
 20
0.9999999999989768
 30
0.0
 11
3.181999999996833
 21
4.668599999995308
 31
0.0
1001
ACAD
1000
ASC_BOUNDS
1002
{
1070
    19
1005
22A4E
1002
}
  0
LINE
  5
22A16
  8
0
 10
4.617999999995391
 20
-0.0001000000000317
 30
0.0
 11
1.420999999998571
 21
4.736799999995242
 31
0.0
1001
ACAD
1000
ASC_BOUNDS
1002
{
1070
    19
1005
22A4E
1002
}
  0
LINE
  5
22A17
  8
0
 10
1.420999999998571
 20
8.763099999991255
 30
0.0
 11
1.420999999998571
 21
0.0
 31
0.0
1001
ACAD
1000
ASC_BOUNDS
1002
{
1070
    19
1005
22A53
1002
}
  0
LINE
  5
22A18
  8
0
 10
0.0
 20
8.763099999991255
 30
0.0
 11
0.0
 21
0.0
 31
0.0
1001
ACAD
1000
ASC_BOUNDS
1002
{
1070
    19
1005
22A53
1002
}
  0
LINE
  5
22A19
  8
0
 10
6.766999999993232
 20
-0.0001000000000317
 30
0.0
 11
7.826999999992154
 21
2.368399999997621
 31
0.0
1001
ACAD
1000
ASC_BOUNDS
1002
{
1070
    19
1005
22A4E
1002
}
  0
LINE
  5
22A1A
  8
0
 10
0.0
 20
0.0
 30
0.0
 11
1.420999999998571
 21
0.0
 31
0.0
1001
ACAD
1000
ASC_BOUNDS
1002
{
1070
    19
1005
22A53
1002
}
  0
LINE
  5
22A1B
  8
0
 10
4.617999999995391
 20
0.0
 30
0.0
 11
6.766999999993232
 21
0.0
 31
0.0
1001
ACAD
1000
ASC_BOUNDS
1002
{
1070
    19
1005
22A4E
1002
}
  0
LINE
  5
22A1C
  8
0
 10
11.70599999998831
 20
-0.0001000000000317
 30
0.0
 11
10.64699999998936
 21
2.368399999997621
 31
0.0
1001
ACAD
1000
ASC_BOUNDS
1002
{
1070
    19
1005
22A4E
1002
}
  0
LINE
  5
22A1D
  8
0
 10
7.826999999992154
 20
2.368399999997621
 30
0.0
 11
10.64699999998936
 21
2.368399999997621
 31
0.0
1001
ACAD
1000
ASC_BOUNDS
1002
{
1070
    19
1005
22A4E
1002
}
  0
LINE
  5
22A1E
  8
0
 10
11.70599999998831
 20
0.0
 30
0.0
 11
13.26299999998673
 21
0.0
 31
0.0
1001
ACAD
1000
ASC_BOUNDS
1002
{
1070
    19
1005
22A4E
1002
}
  0
LINE
  5
22A1F
  8
0
 10
22.15599999997789
 20
2.368399999997621
 30
0.0
 11
24.97599999997499
 21
2.368399999997621
 31
0.0
1001
ACAD
1000
ASC_BOUNDS
1002
{
1070
    19
1005
22A50
1002
}
  0
LINE
  5
22A20
  8
0
 10
19.53899999998043
 20
0.0
 30
0.0
 11
21.09599999997886
 21
0.0
 31
0.0
1001
ACAD
1000
ASC_BOUNDS
1002
{
1070
    19
1005
22A50
1002
}
  0
LINE
  5
22A21
  8
0
 10
21.09599999997886
 20
-0.0001000000000317
 30
0.0
 11
22.15599999997789
 21
2.368399999997621
 31
0.0
1001
ACAD
1000
ASC_BOUNDS
1002
{
1070
    19
1005
22A50
1002
}
  0
LINE
  5
22A22
  8
0
 10
26.02015566812236
 20
0.0330999999912365
 30
0.0
 11
24.97599999997499
 21
2.368399999997621
 31
0.0
1001
ACAD
1000
ASC_BOUNDS
1002
{
1070
    19
1005
22A50
1002
}
  0
LINE
  5
22A23
  8
0
 10
14.32399999998563
 20
3.315799999996671
 30
0.0
 11
16.46099999998353
 21
8.999899999990987
 31
0.0
1001
ACAD
1000
ASC_BOUNDS
1002
{
1070
    19
1005
22A4F
1002
}
  0
LINE
  5
22A24
  8
0
 10
6.432999999993513
 20
8.763099999991255
 30
0.0
 11
3.181999999996833
 21
4.668599999995308
 31
0.0
1001
ACAD
1000
ASC_BOUNDS
1002
{
1070
    19
1005
22A4E
1002
}
  0
LINE
  5
22A25
  8
0
 10
4.617999999995391
 20
8.763099999991255
 30
0.0
 11
1.420999999998571
 21
4.736799999995242
 31
0.0
1001
ACAD
1000
ASC_BOUNDS
1002
{
1070
    19
1005
22A4E
1002
}
  0
LINE
  5
22A26
  8
0
 10
0.0
 20
8.763099999991255
 30
0.0
 11
1.420999999998571
 21
8.763099999991255
 31
0.0
1001
ACAD
1000
ASC_BOUNDS
1002
{
1070
    19
1005
22A53
1002
}
  0
LINE
  5
22A27
  8
0
 10
4.617999999995391
 20
8.763099999991255
 30
0.0
 11
6.432999999993513
 21
8.763099999991255
 31
0.0
1001
ACAD
1000
ASC_BOUNDS
1002
{
1070
    19
1005
22A4E
1002
}
  0
LINE
  5
22A28
  8
0
 10
14.32399999998563
 20
3.315799999996671
 30
0.0
 11
12.02999999998792
 21
8.763099999991255
 31
0.0
1001
ACAD
1000
ASC_BOUNDS
1002
{
1070
    19
1005
22A4F
1002
}
  0
LINE
  5
22A29
  8
0
 10
10.06399999998996
 20
3.670999999996297
 30
0.0
 11
9.236999999990758
 21
5.5200999999945
 31
0.0
1001
ACAD
1000
ASC_BOUNDS
1002
{
1070
    19
1005
22A4E
1002
}
  0
LINE
  5
22A2A
  8
0
 10
8.409999999991555
 20
3.670999999996297
 30
0.0
 11
9.236999999990758
 21
5.5200999999945
 31
0.0
1001
ACAD
1000
ASC_BOUNDS
1002
{
1070
    19
1005
22A4E
1002
}
  0
LINE
  5
22A2B
  8
0
 10
8.409999999991555
 20
3.670999999996297
 30
0.0
 11
10.06399999998996
 21
3.670999999996297
 31
0.0
1001
ACAD
1000
ASC_BOUNDS
1002
{
1070
    19
1005
22A4E
1002
}
  0
LINE
  5
22A2C
  8
0
 10
10.53899999998941
 20
8.763099999991255
 30
0.0
 11
12.02999999998792
 21
8.763099999991255
 31
0.0
1001
ACAD
1000
ASC_BOUNDS
1002
{
1070
    19
1005
22A4F
1002
}
  0
LINE
  5
22A2D
  8
0
 10
22.7389999999773
 20
3.670999999996297
 30
0.0
 11
23.56599999997638
 21
5.5200999999945
 31
0.0
1001
ACAD
1000
ASC_BOUNDS
1002
{
1070
    19
1005
22A50
1002
}
  0
LINE
  5
22A2E
  8
0
 10
22.7389999999773
 20
3.670999999996297
 30
0.0
 11
24.39299999997559
 21
3.670999999996297
 31
0.0
1001
ACAD
1000
ASC_BOUNDS
1002
{
1070
    19
1005
22A50
1002
}
  0
LINE
  5
22A2F
  8
0
 10
18.59799999998143
 20
3.315799999996671
 30
0.0
 11
20.89099999997916
 21
8.763099999991255
 31
0.0
1001
ACAD
1000
ASC_BOUNDS
1002
{
1070
    19
1005
22A4F
1002
}
  0
LINE
  5
22A30
  8
0
 10
18.59799999998143
 20
3.315799999996671
 30
0.0
 11
16.46099999998353
 21
8.999899999990987
 31
0.0
1001
ACAD
1000
ASC_BOUNDS
1002
{
1070
    19
1005
22A4F
1002
}
  0
LINE
  5
22A31
  8
0
 10
20.89099999997916
 20
8.763099999991255
 30
0.0
 11
22.38199999997767
 21
8.763099999991255
 31
0.0
1001
ACAD
1000
ASC_BOUNDS
1002
{
1070
    19
1005
22A4F
1002
}
  0
LINE
  5
22A32
  8
0
 10
24.39299999997559
 20
3.670999999996297
 30
0.0
 11
23.56599999997638
 21
5.5200999999945
 31
0.0
1001
ACAD
1000
ASC_BOUNDS
1002
{
1070
    19
1005
22A50
1002
}
  0
LINE
  5
22A33
  8
0
 10
44.99999999995498
 20
-0.2368999999997641
 30
0.0
 11
40.02599999995994
 21
5.341799999994635
 31
0.0
1001
ACAD
1000
ASC_BOUNDS
1002
{
1070
    19
1005
22A52
1002
}
  0
LINE
  5
22A34
  8
0
 10
40.02599999995994
 20
5.341799999994635
 30
0.0
 11
40.02599999995994
 21
0.0
 31
0.0
1001
ACAD
1000
ASC_BOUNDS
1002
{
1070
    19
1005
22A52
1002
}
  0
LINE
  5
22A35
  8
0
 10
38.60499999996136
 20
8.999999999991019
 30
0.0
 11
38.60499999996136
 21
0.0
 31
0.0
1001
ACAD
1000
ASC_BOUNDS
1002
{
1070
    19
1005
22A52
1002
}
  0
LINE
  5
22A36
  8
0
 10
44.99999999995498
 20
8.763099999991255
 30
0.0
 11
44.99999999995498
 21
-0.2368999999997641
 31
0.0
1001
ACAD
1000
ASC_BOUNDS
1002
{
1070
    19
1005
22A52
1002
}
  0
LINE
  5
22A37
  8
0
 10
38.60499999996136
 20
0.0
 30
0.0
 11
40.02599999995994
 21
0.0
 31
0.0
1001
ACAD
1000
ASC_BOUNDS
1002
{
1070
    19
1005
22A52
1002
}
  0
LINE
  5
22A38
  8
0
 10
43.57899999995641
 20
3.421199999996588
 30
0.0
 11
38.60499999996136
 21
8.999899999990987
 31
0.0
1001
ACAD
1000
ASC_BOUNDS
1002
{
1070
    19
1005
22A52
1002
}
  0
LINE
  5
22A39
  8
0
 10
43.57899999995641
 20
8.763099999991255
 30
0.0
 11
43.57899999995641
 21
3.421199999996588
 31
0.0
1001
ACAD
1000
ASC_BOUNDS
1002
{
1070
    19
1005
22A52
1002
}
  0
LINE
  5
22A3A
  8
0
 10
43.57899999995641
 20
8.763099999991255
 30
0.0
 11
44.99999999995498
 21
8.763099999991255
 31
0.0
1001
ACAD
1000
ASC_BOUNDS
1002
{
1070
    19
1005
22A52
1002
}
  0
LINE
  5
22A3B
  8
0
 10
37.67199999996831
 20
8.763099999991255
 30
0.0
 11
36.23199999996837
 21
8.763099999991255
 31
0.0
  0
LINE
  5
22A3C
  8
0
 10
31.64199999996833
 20
8.763099999991255
 30
0.0
 11
31.64199999996833
 21
2.481619422925121
 31
0.0
  0
LINE
  5
22A3D
  8
0
 10
37.67199999996831
 20
8.763099999991255
 30
0.0
 11
37.67199999996831
 21
2.481619422925121
 31
0.0
  0
LINE
  5
22A3E
  8
0
 10
36.23199999996837
 20
8.763099999991255
 30
0.0
 11
36.23199999996837
 21
2.481619422925064
 31
0.0
  0
LINE
  5
22A3F
  8
0
 10
33.08199999996839
 20
8.763099999991255
 30
0.0
 11
33.08199999996839
 21
2.481619422925121
 31
0.0
  0
ARC
  5
22A40
  8
0
 10
34.65699999996832
 20
3.183099999991214
 30
0.0
 40
3.420000000000007
 50
240.0000000000255
 51
299.9999999999766
  0
ARC
  5
22A41
  8
0
 10
34.65699999996832
 20
3.183099999991214
 30
0.0
 40
1.97999999999999
 50
240.000000000026
 51
299.9999999999703
  0
LINE
  5
22A42
  8
0
 10
33.08199999996828
 20
8.763099999991255
 30
0.0
 11
31.64199999996833
 21
8.763099999991255
 31
0.0
  0
ARC
  5
22A43
  8
0
 10
35.06199999996829
 20
2.481619422925064
 30
0.0
 40
1.17
 50
299.9999999999699
 51
0.0
  0
ARC
  5
22A44
  8
0
 10
34.25199999996835
 20
2.481619422925121
 30
0.0
 40
1.17
 50
180.0
 51
240.0000000000238
  0
ARC
  5
22A45
  8
0
 10
35.06199999996841
 20
2.481619422925121
 30
0.0
 40
2.61
 50
299.9999999999756
 51
0.0
  0
ARC
  5
22A46
  8
0
 10
34.25199999996835
 20
2.481619422925121
 30
0.0
 40
2.61
 50
180.0
 51
240.0000000000244
  0
LINE
  5
22A47
  8
0
 10
29.30199999996933
 20
8.763099999991255
 30
0.0
 11
30.74199999996927
 21
8.763099999991255
 31
0.0
1001
ACAD
1000
ASC_BOUNDS
1002
{
1070
    19
1005
22A50
1002
}
  0
LINE
  5
22A48
  8
0
 10
30.74199999996927
 20
8.763099999991255
 30
0.0
 11
30.74199999996927
 21
2.373099999991211
 31
0.0
1001
ACAD
1000
ASC_BOUNDS
1002
{
1070
    19
1005
22A50
1002
}
  0
LINE
  5
22A49
  8
0
 10
26.02015566812236
 20
0.0330999999912365
 30
0.0
 11
28.40199999996923
 21
0.0330999999912365
 31
0.0
1001
ACAD
1000
ASC_BOUNDS
1002
{
1070
    19
1005
22A50
1002
}
  0
LINE
  5
22A4A
  8
0
 10
29.30199999996933
 20
8.763099999991255
 30
0.0
 11
29.30199999996933
 21
2.283099999991236
 31
0.0
1001
ACAD
1000
ASC_BOUNDS
1002
{
1070
    19
1005
22A50
1002
}
  0
LINE
  5
22A4B
  8
0
 10
26.97358892824991
 20
1.383099999991202
 30
0.0
 11
28.40199999996923
 21
1.383099999991202
 31
0.0
1001
ACAD
1000
ASC_BOUNDS
1002
{
1070
    19
1005
22A50
1002
}
  0
ARC
  5
22A4C
  8
0
 10
28.40199999996923
 20
2.283099999991236
 30
0.0
 40
0.9
 50
270.0
 51
0.0
1001
ACAD
1000
ASC_BOUNDS
1002
{
1070
    19
1005
22A50
1002
}
  0
ARC
  5
22A4D
  8
0
 10
28.40199999996923
 20
2.373099999991211
 30
0.0
 40
2.34
 50
270.0
 51
0.0
1001
ACAD
1000
ASC_BOUNDS
1002
{
1070
    19
1005
22A50
1002
}
  0
INSERT
  5
22A4E
  8
0
  2
*X131
 10
0.0
 20
0.0
 30
0.0
1001
ACAD
1000
HATCH
1002
{
1070
    19
1000
ANSI37
1040
0.15
1040
0.0
1000
ASC_BOUNDS
1070
     2
1070
     2
1070
    12
1005
22A0D
1005
22A0E
1005
22A15
1005
22A24
1005
22A27
1005
22A25
1005
22A16
1005
22A1B
1005
22A19
1005
22A1D
1005
22A1C
1005
22A1E
1070
     2
1070
     3
1005
22A29
1005
22A2B
1005
22A2A
1000
ASC_SEEDPOINT
1011
3.614004224891801
1021
2.996669441146025
1031
0.0
1021
2.996669441146025
1031
0.0
1000
R14_HATCH_DATA
1000
22A4E
1011
1.0
1021
0.0
1031
0.0
1021
0.0
1031
0.0
1011
0.0
1021
1.0
1031
0.0
1021
1.0
1031
0.0
1011
0.0
1021
0.0
1031
1.0
1021
0.0
1031
1.0
1040
0.0
1010
0.0
1020
0.0
1030
1.0
1000
ANSI37
1070
     0
1070
     1
1071
        2
1071
        7
1070
     0
1070
     1
1071
       17
1040
13.26299999998673
1040
-0.0001000000000317
1040
9.236999999990758
1040
8.999899999990987
1040
9.236999999990758
1040
8.999999999991019
1040
5.657999999994331
1040
0.9999999999989768
1040
3.181999999996833
1040
4.668599999995308
1040
6.432999999993513
1040
8.763099999991255
1040
4.617999999995391
1040
8.763099999991255
1040
1.420999999998571
1040
4.736799999995242
1040
4.617999999995391
1040
-0.0001000000000317
1040
4.617999999995391
1040
0.0
1040
6.766999999993232
1040
0.0
1040
6.766999999993232
1040
-0.0001000000000317
1040
7.826999999992154
1040
2.368399999997621
1040
10.64699999998936
1040
2.368399999997621
1040
11.70599999998831
1040
-0.0001000000000317
1040
11.70599999998831
1040
0.0
1040
13.26299999998673
1040
0.0
1071
       12
1005
22A0D
1005
22A0E
1005
22A15
1005
22A24
1005
22A27
1005
22A25
1005
22A16
1005
22A1B
1005
22A19
1005
22A1D
1005
22A1C
1005
22A1E
1071
       22
1070
     0
1070
     1
1071
        3
1040
9.236999999990758
1040
5.5200999999945
1040
10.06399999998996
1040
3.670999999996297
1040
8.409999999991555
1040
3.670999999996297
1071
        3
1005
22A29
1005
22A2B
1005
22A2A
1070
     0
1070
     1
1040
0.0
1040
0.15
1070
     0
1070
     2
1040
0.7853981633974483
1040
49.29960901727088
1040
-10.17736998311392
1040
-0.3367596045400932
1040
0.3367596045400932
1070
     0
1040
2.356194490192345
1040
49.29960901727088
1040
-10.17736998311392
1040
-0.3367596045400932
1040
-0.3367596045400932
1070
     0
1040
0.0110235143455945
1071
        2
1040
3.614004224891801
1040
2.996669441146025
1040
0.0
1040
3.614004224891801
1040
2.996669441146025
1040
0.0
1002
}
  0
INSERT
  5
22A4F
  8
0
  2
*X132
 10
0.0
 20
0.0
 30
0.0
1001
ACAD
1000
HATCH
1002
{
1070
    19
1000
ANSI37
1040
0.15
1040
0.0
1000
ASC_BOUNDS
1070
     1
1070
     2
1070
    10
1005
22A0F
1005
22A10
1005
22A31
1005
22A2F
1005
22A30
1005
22A23
1005
22A28
1005
22A2C
1005
22A12
1005
22A11
1000
ASC_SEEDPOINT
1011
14.73245321214324
1021
2.798246178283421
1031
0.0
1021
2.798246178283421
1031
0.0
1000
R14_HATCH_DATA
1000
22A4F
1011
1.0
1021
0.0
1031
0.0
1021
0.0
1031
0.0
1011
0.0
1021
1.0
1031
0.0
1021
1.0
1031
0.0
1011
0.0
1021
0.0
1031
1.0
1021
0.0
1031
1.0
1040
0.0
1010
0.0
1020
0.0
1030
1.0
1000
ANSI37
1070
     0
1070
     1
1071
        1
1071
        7
1070
     0
1070
     1
1071
       10
1040
16.46099999998353
1040
5.432899999994561
1040
18.59199999998134
1040
-0.2368999999997641
1040
22.38199999997767
1040
8.763099999991255
1040
20.89099999997916
1040
8.763099999991255
1040
18.59799999998143
1040
3.315799999996671
1040
16.46099999998353
1040
8.999899999990987
1040
14.32399999998563
1040
3.315799999996671
1040
12.02999999998792
1040
8.763099999991255
1040
10.53899999998941
1040
8.763099999991255
1040
14.32899999998563
1040
-0.2368999999997641
1071
       10
1005
22A0F
1005
22A10
1005
22A31
1005
22A2F
1005
22A30
1005
22A23
1005
22A28
1005
22A2C
1005
22A12
1005
22A11
1070
     0
1070
     1
1040
0.0
1040
0.15
1070
     0
1070
     2
1040
0.7853981633974483
1040
49.29960901727088
1040
-10.17736998311392
1040
-0.3367596045400932
1040
0.3367596045400932
1070
     0
1040
2.356194490192345
1040
49.29960901727088
1040
-10.17736998311392
1040
-0.3367596045400932
1040
-0.3367596045400932
1070
     0
1040
0.0110235143455945
1071
        1
1040
14.73245321214324
1040
2.798246178283421
1040
0.0
1002
}
  0
INSERT
  5
22A50
  8
0
  2
*X133
 10
0.0
 20
0.0
 30
0.0
1001
ACAD
1000
HATCH
1002
{
1070
    19
1000
ANSI37
1040
0.15
1040
0.0
1000
ASC_BOUNDS
1070
     2
1070
     2
1070
    13
1005
22A13
1005
22A20
1005
22A21
1005
22A1F
1005
22A22
1005
22A49
1005
22A4D
1005
22A48
1005
22A47
1005
22A4A
1005
22A4C
1005
22A4B
1005
22A14
1070
     2
1070
     3
1005
22A2D
1005
22A32
1005
22A2E
1000
ASC_SEEDPOINT
1011
21.97929957367762
1021
3.294304244259308
1031
0.0
1021
3.294304244259308
1031
0.0
1000
R14_HATCH_DATA
1000
22A50
1011
1.0
1021
0.0
1031
0.0
1021
0.0
1031
0.0
1011
0.0
1021
1.0
1031
0.0
1021
1.0
1031
0.0
1011
0.0
1021
0.0
1031
1.0
1021
0.0
1031
1.0
1040
0.0
1010
0.0
1020
0.0
1030
1.0
1000
ANSI37
1070
     0
1070
     1
1071
        2
1071
        7
1070
     1
1070
     1
1071
       15
1040
23.56599999997638
1040
8.999899999990987
1040
0.0
1040
19.53899999998043
1040
-0.0001000000000317
1040
0.0
1040
19.53899999998043
1040
0.0
1040
0.0
1040
21.09599999997886
1040
0.0
1040
0.0
1040
21.09599999997886
1040
-0.0001000000000317
1040
0.0
1040
22.15599999997789
1040
2.368399999997621
1040
0.0
1040
24.97599999997499
1040
2.368399999997621
1040
0.0
1040
26.02015566812236
1040
0.0330999999912365
1040
0.0
1040
28.40199999996923
1040
0.0330999999912365
1040
0.414213562373095
1040
30.74199999996923
1040
2.373099999991211
1040
0.0
1040
30.74199999996927
1040
8.763099999991255
1040
0.0
1040
29.30199999996933
1040
8.763099999991255
1040
0.0
1040
29.30199999996933
1040
2.283099999991236
1040
-0.414213562373095
1040
28.40199999996923
1040
1.383099999991237
1040
0.0
1040
26.97358892824991
1040
1.383099999991202
1040
0.0
1071
       13
1005
22A13
1005
22A20
1005
22A21
1005
22A1F
1005
22A22
1005
22A49
1005
22A4D
1005
22A48
1005
22A47
1005
22A4A
1005
22A4C
1005
22A4B
1005
22A14
1071
       22
1070
     0
1070
     1
1071
        3
1040
22.7389999999773
1040
3.670999999996297
1040
23.56599999997638
1040
5.5200999999945
1040
24.39299999997559
1040
3.670999999996297
1071
        3
1005
22A2D
1005
22A32
1005
22A2E
1070
     0
1070
     1
1040
0.0
1040
0.15
1070
     0
1070
     2
1040
0.7853981633974483
1040
49.29960901727088
1040
-10.17736998311392
1040
-0.3367596045400932
1040
0.3367596045400932
1070
     0
1040
2.356194490192345
1040
49.29960901727088
1040
-10.17736998311392
1040
-0.3367596045400932
1040
-0.3367596045400932
1070
     0
1040
0.0110235143455945
1071
        2
1040
21.97929957367762
1040
3.294304244259308
1040
0.0
1040
21.97929957367762
1040
3.294304244259308
1040
0.0
1002
}
  0
INSERT
  5
22A51
  8
0
  2
*X134
 10
0.0
 20
0.0
 30
0.0
1001
ACAD
1000
HATCH
1002
{
1070
    19
1000
ANSI37
1040
0.15
1040
0.0
1000
R14_HATCH_DATA
1000
22A51
1011
1.0
1021
0.0
1031
0.0
1021
0.0
1031
0.0
1011
0.0
1021
1.0
1031
0.0
1021
1.0
1031
0.0
1011
0.0
1021
0.0
1031
1.0
1021
0.0
1031
1.0
1040
0.0
1010
0.0
1020
0.0
1030
1.0
1000
ANSI37
1070
     0
1070
     1
1071
        1
1071
        7
1070
     1
1070
     1
1071
       12
1040
31.64199999996833
1040
2.481619422925121
1040
0.2679491924310942
1040
32.94699999997067
1040
0.2212931190493919
1040
0.2679491924301353
1040
36.36699999995983
1040
0.2212931190459813
1040
0.2679491924321411
1040
37.67199999996831
1040
2.481619422928361
1040
0.0
1040
37.67199999996831
1040
8.763099999991255
1040
0.0
1040
36.23199999996837
1040
8.763099999991255
1040
0.0
1040
36.23199999996837
1040
2.481619422925064
1040
-0.2679491924310291
1040
35.64699999996708
1040
1.468369700498386
1040
-0.267949192430519
1040
33.66699999997093
1040
1.468369700497703
1040
-0.267949192431809
1040
33.08199999996839
1040
2.481619422926997
1040
0.0
1040
33.08199999996839
1040
8.763099999991255
1040
0.0
1040
31.64199999996833
1040
8.763099999991255
1040
0.0
1071
        0
1070
     0
1070
     1
1040
0.0
1040
0.15
1070
     0
1070
     2
1040
0.7853981633974483
1040
49.29960901727088
1040
-10.17736998311392
1040
-0.3367596045400932
1040
0.3367596045400932
1070
     0
1040
2.356194490192345
1040
49.29960901727088
1040
-10.17736998311392
1040
-0.3367596045400932
1040
-0.3367596045400932
1070
     0
1040
0.0110235143455945
1071
        1
1040
32.30357378967278
1040
3.988785755459219
1040
0.0
1002
}
  0
INSERT
  5
22A52
  8
0
  2
*X135
 10
0.0
 20
0.0
 30
0.0
1001
ACAD
1000
HATCH
1002
{
1070
    19
1000
ANSI37
1040
0.15
1040
0.0
1000
ASC_BOUNDS
1070
     1
1070
     2
1070
     8
1005
22A33
1005
22A36
1005
22A3A
1005
22A39
1005
22A38
1005
22A35
1005
22A37
1005
22A34
1000
ASC_SEEDPOINT
1011
39.74896370716704
1021
4.484843821435049
1031
0.0
1021
4.484843821435049
1031
0.0
1000
R14_HATCH_DATA
1000
22A52
1011
1.0
1021
0.0
1031
0.0
1021
0.0
1031
0.0
1011
0.0
1021
1.0
1031
0.0
1021
1.0
1031
0.0
1011
0.0
1021
0.0
1031
1.0
1021
0.0
1031
1.0
1040
0.0
1010
0.0
1020
0.0
1030
1.0
1000
ANSI37
1070
     0
1070
     1
1071
        1
1071
        7
1070
     0
1070
     1
1071
        9
1040
40.02599999995994
1040
5.341799999994635
1040
44.99999999995498
1040
-0.2368999999997641
1040
44.99999999995498
1040
8.763099999991255
1040
43.57899999995641
1040
8.763099999991255
1040
43.57899999995641
1040
3.421199999996588
1040
38.60499999996136
1040
8.999899999990987
1040
38.60499999996136
1040
8.999999999991019
1040
38.60499999996136
1040
0.0
1040
40.02599999995994
1040
0.0
1071
        8
1005
22A33
1005
22A36
1005
22A3A
1005
22A39
1005
22A38
1005
22A35
1005
22A37
1005
22A34
1070
     0
1070
     1
1040
0.0
1040
0.15
1070
     0
1070
     2
1040
0.7853981633974483
1040
49.29960901727088
1040
-10.17736998311392
1040
-0.3367596045400932
1040
0.3367596045400932
1070
     0
1040
2.356194490192345
1040
49.29960901727088
1040
-10.17736998311392
1040
-0.3367596045400932
1040
-0.3367596045400932
1070
     0
1040
0.0110235143455945
1071
        1
1040
39.74896370716704
1040
4.484843821435049
1040
0.0
1002
}
  0
INSERT
  5
22A53
  8
0
  2
*X136
 10
0.0
 20
0.0
 30
0.0
1001
ACAD
1000
HATCH
1002
{
1070
    19
1000
ANSI37
1040
0.15
1040
0.0
1000
ASC_BOUNDS
1070
     1
1070
     2
1070
     4
1005
22A17
1005
22A26
1005
22A18
1005
22A1A
1000
ASC_SEEDPOINT
1011
1.079051535452663
1021
4.148538732891836
1031
0.0
1021
4.148538732891836
1031
0.0
1000
R14_HATCH_DATA
1000
22A53
1011
1.0
1021
0.0
1031
0.0
1021
0.0
1031
0.0
1011
0.0
1021
1.0
1031
0.0
1021
1.0
1031
0.0
1011
0.0
1021
0.0
1031
1.0
1021
0.0
1031
1.0
1040
0.0
1010
0.0
1020
0.0
1030
1.0
1000
ANSI37
1070
     0
1070
     1
1071
        1
1071
        7
1070
     0
1070
     1
1071
        4
1040
1.420999999998571
1040
0.0
1040
1.420999999998571
1040
8.763099999991255
1040
0.0
1040
8.763099999991255
1040
0.0
1040
0.0
1071
        4
1005
22A17
1005
22A26
1005
22A18
1005
22A1A
1070
     0
1070
     1
1040
0.0
1040
0.15
1070
     0
1070
     2
1040
0.7853981633974483
1040
49.29960901727088
1040
-10.17736998311392
1040
-0.3367596045400932
1040
0.3367596045400932
1070
     0
1040
2.356194490192345
1040
49.29960901727088
1040
-10.17736998311392
1040
-0.3367596045400932
1040
-0.3367596045400932
1070
     0
1040
0.0053004257112761
1071
        1
1040
1.079051535452663
1040
4.148538732891836
1040
0.0
1002
}
  0
ENDBLK
  5
2310B
  8
0
  0
BLOCK
  8
0
  2
*X131
 70
     1
 10
0.0
 20
0.0
 30
0.0
  3
*X131
  1

  0
LINE
  5
23487
  8
0
  6
CONTINUOUS
 10
3.418023043697893
 20
7.251849696850613
 30
0.0
 11
4.929273346838536
 21
8.763099999991255
 31
0.0
  0
LINE
  5
23488
  8
0
  6
CONTINUOUS
 10
1.483656411257782
 20
4.643963855330318
 30
0.0
 11
5.60279255591872
 21
8.763099999991255
 31
0.0
  0
LINE
  5
23489
  8
0
  6
CONTINUOUS
 10
1.755053947328235
 20
4.241842182320584
 30
0.0
 11
6.276311764998907
 21
8.763099999991255
 31
0.0
  0
LINE
  5
2348A
  8
0
  6
CONTINUOUS
 10
2.026451483398688
 20
3.839720509310849
 30
0.0
 11
4.441040904851878
 21
6.254309930764039
 31
0.0
  0
LINE
  5
2348B
  8
0
  6
CONTINUOUS
 10
2.297849019469139
 20
3.437598836301114
 30
0.0
 11
3.321765168359338
 21
4.461514985191313
 31
0.0
  0
LINE
  5
2348C
  8
0
  6
CONTINUOUS
 10
2.569246555539591
 20
3.03547716329138
 30
0.0
 11
3.593163397972743
 21
4.059394005724531
 31
0.0
  0
LINE
  5
2348D
  8
0
  6
CONTINUOUS
 10
2.840644091610043
 20
2.633355490281646
 30
0.0
 11
3.864561627586149
 21
3.657273026257751
 31
0.0
  0
LINE
  5
2348E
  8
0
  6
CONTINUOUS
 10
3.112041627680496
 20
2.231233817271911
 30
0.0
 11
4.135959857199554
 21
3.25515204679097
 31
0.0
  0
LINE
  5
2348F
  8
0
  6
CONTINUOUS
 10
3.383439163750948
 20
1.829112144262177
 30
0.0
 11
4.40735808681296
 21
2.853031067324189
 31
0.0
  0
LINE
  5
23490
  8
0
  6
CONTINUOUS
 10
3.654836699821399
 20
1.426990471252442
 30
0.0
 11
4.678756316426365
 21
2.450910087857407
 31
0.0
  0
LINE
  5
23491
  8
0
  6
CONTINUOUS
 10
3.926234235891853
 20
1.024868798242709
 30
0.0
 11
4.95015454603977
 21
2.048789108390626
 31
0.0
  0
LINE
  5
23492
  8
0
  6
CONTINUOUS
 10
4.197631771962304
 20
0.6227471252329737
 30
0.0
 11
5.221552775653176
 21
1.646668128923846
 31
0.0
  0
LINE
  5
23493
  8
0
  6
CONTINUOUS
 10
8.715877546767851
 20
7.835069736359266
 30
0.0
 11
9.435953450375058
 21
8.555145639966472
 31
0.0
  0
LINE
  5
23494
  8
0
  6
CONTINUOUS
 10
8.170620868422267
 20
6.616293848933497
 30
0.0
 11
9.644120833743461
 21
8.08979381425469
 31
0.0
  0
LINE
  5
23495
  8
0
  6
CONTINUOUS
 10
7.625364190076684
 20
5.397517961507727
 30
0.0
 11
9.852288217111864
 21
7.624441988542907
 31
0.0
  0
LINE
  5
23496
  8
0
  6
CONTINUOUS
 10
7.080107511731101
 20
4.178742074081957
 30
0.0
 11
10.06045560048027
 21
7.159090162831124
 31
0.0
  0
LINE
  5
23497
  8
0
  6
CONTINUOUS
 10
6.534850833385518
 20
2.959966186656187
 30
0.0
 11
10.26862298384867
 21
6.693738337119342
 31
0.0
  0
LINE
  5
23498
  8
0
  6
CONTINUOUS
 10
4.469029308032756
 20
0.2206254522232385
 30
0.0
 11
5.492951005266582
 21
1.244547149457064
 31
0.0
  0
LINE
  5
23499
  8
0
  6
CONTINUOUS
 10
5.989594155039935
 20
1.741190299230417
 30
0.0
 11
8.806950407233131
 21
4.558546551423613
 31
0.0
  0
LINE
  5
2349A
  8
0
  6
CONTINUOUS
 10
9.401251593263643
 20
5.152847737454126
 30
0.0
 11
10.47679036721708
 21
6.228386511407559
 31
0.0
  0
LINE
  5
2349B
  8
0
  6
CONTINUOUS
 10
4.921837203428691
 20
-0.0000858614610131
 30
0.0
 11
8.592923064886001
 21
3.670999999996297
 31
0.0
  0
LINE
  5
2349C
  8
0
  6
CONTINUOUS
 10
9.609390446785305
 20
4.6874673818956
 30
0.0
 11
10.68495775058548
 21
5.763034685695775
 31
0.0
  0
LINE
  5
2349D
  8
0
  6
CONTINUOUS
 10
5.595387755019432
 20
-0.0000545189504582
 30
0.0
 11
7.716137258923768
 21
2.120694984953879
 31
0.0
  0
LINE
  5
2349E
  8
0
  6
CONTINUOUS
 10
6.268938306610172
 20
-0.000023176439905
 30
0.0
 11
7.170485805526503
 21
0.9015243224764267
 31
0.0
  0
LINE
  5
2349F
  8
0
  6
CONTINUOUS
 10
7.963842273967511
 20
2.368399999997621
 30
0.0
 11
9.266442273966188
 21
3.670999999996297
 31
0.0
  0
LINE
  5
234A0
  8
0
  6
CONTINUOUS
 10
8.637361483047696
 20
2.368399999997621
 30
0.0
 11
9.939961483046375
 21
3.670999999996297
 31
0.0
  0
LINE
  5
234A1
  8
0
  6
CONTINUOUS
 10
9.817529300306965
 20
4.222087026337075
 30
0.0
 11
10.89312513395388
 21
5.297682859983993
 31
0.0
  0
LINE
  5
234A2
  8
0
  6
CONTINUOUS
 10
10.02566815382863
 20
3.756706670778549
 30
0.0
 11
11.10129251732229
 21
4.832331034272211
 31
0.0
  0
LINE
  5
234A3
  8
0
  6
CONTINUOUS
 10
9.310880692127883
 20
2.368399999997621
 30
0.0
 11
11.30945990069069
 21
4.366979208560428
 31
0.0
  0
LINE
  5
234A4
  8
0
  6
CONTINUOUS
 10
9.98439990120807
 20
2.36839999999762
 30
0.0
 11
11.5176272840591
 21
3.901627382848645
 31
0.0
  0
LINE
  5
234A5
  8
0
  6
CONTINUOUS
 10
10.65037369446246
 20
2.36085458417182
 30
0.0
 11
11.7257946674275
 21
3.436275557136862
 31
0.0
  0
LINE
  5
234A6
  8
0
  6
CONTINUOUS
 10
10.85847197087848
 20
1.895433651507656
 30
0.0
 11
11.9339620507959
 21
2.97092373142508
 31
0.0
  0
LINE
  5
234A7
  8
0
  6
CONTINUOUS
 10
11.0665702472945
 20
1.430012718843491
 30
0.0
 11
12.14212943416431
 21
2.505571905713296
 31
0.0
  0
LINE
  5
234A8
  8
0
  6
CONTINUOUS
 10
11.27466852371052
 20
0.9645917861793256
 30
0.0
 11
12.35029681753271
 21
2.040220080001513
 31
0.0
  0
LINE
  5
234A9
  8
0
  6
CONTINUOUS
 10
11.48276680012654
 20
0.4991708535151611
 30
0.0
 11
12.55846420090111
 21
1.57486825428973
 31
0.0
  0
LINE
  5
234AA
  8
0
  6
CONTINUOUS
 10
11.69086507654257
 20
0.0337499208509957
 30
0.0
 11
12.76663158426952
 21
1.109516428577947
 31
0.0
  0
LINE
  5
234AB
  8
0
  6
CONTINUOUS
 10
12.33057447873954
 20
-0.0000598860322123
 30
0.0
 11
12.97479896763792
 21
0.6441646028661663
 31
0.0
  0
LINE
  5
234AC
  8
0
  6
CONTINUOUS
 10
13.00413694809395
 20
-0.0000166257579952
 30
0.0
 11
13.18296635100632
 21
0.1788127771543824
 31
0.0
  0
LINE
  5
234AD
  8
0
  6
CONTINUOUS
 10
4.772852165289667
 20
-0.000092794222212
 30
0.0
 11
4.296495091028902
 21
0.4762642800385528
 31
0.0
  0
LINE
  5
234AE
  8
0
  6
CONTINUOUS
 10
5.446340034776103
 20
-0.0000614546284616
 30
0.0
 11
2.898195908335625
 21
2.548082671812017
 31
0.0
  0
LINE
  5
234AF
  8
0
  6
CONTINUOUS
 10
6.119827904262539
 20
-0.0000301150347113
 30
0.0
 11
1.499896725642348
 21
4.61990106358548
 31
0.0
  0
LINE
  5
234B0
  8
0
  6
CONTINUOUS
 10
6.775136745476159
 20
0.0181802528318542
 30
0.0
 11
5.699826040202669
 21
1.093490958105344
 31
0.0
  0
LINE
  5
234B1
  8
0
  6
CONTINUOUS
 10
6.983376846288489
 20
0.4834593610997118
 30
0.0
 11
5.908008617934405
 21
1.558827589453796
 31
0.0
  0
LINE
  5
234B2
  8
0
  6
CONTINUOUS
 10
5.377063484962296
 20
1.416253513345719
 30
0.0
 11
1.702276957014131
 21
5.091040041293883
 31
0.0
  0
LINE
  5
234B3
  8
0
  6
CONTINUOUS
 10
3.978745891735324
 20
3.488090315652877
 30
0.0
 11
2.000373521109399
 21
5.466462686278803
 31
0.0
  0
LINE
  5
234B4
  8
0
  6
CONTINUOUS
 10
7.191616947100819
 20
0.948738469367568
 30
0.0
 11
6.11619119566614
 21
2.024164220802247
 31
0.0
  0
LINE
  5
234B5
  8
0
  6
CONTINUOUS
 10
7.399857047913149
 20
1.414017577635424
 30
0.0
 11
6.324373773397875
 21
2.489500852150698
 31
0.0
  0
LINE
  5
234B6
  8
0
  6
CONTINUOUS
 10
7.608097148725479
 20
1.879296685903281
 30
0.0
 11
6.53255635112961
 21
2.95483748349915
 31
0.0
  0
LINE
  5
234B7
  8
0
  6
CONTINUOUS
 10
7.816337249537808
 20
2.344575794171138
 30
0.0
 11
6.740738928861345
 21
3.420174114847601
 31
0.0
  0
LINE
  5
234B8
  8
0
  6
CONTINUOUS
 10
3.310241080789734
 20
4.830114335678653
 30
0.0
 11
2.298470085204666
 21
5.84188533126372
 31
0.0
  0
LINE
  5
234B9
  8
0
  6
CONTINUOUS
 10
3.60832983563551
 20
5.205544789913063
 30
0.0
 11
2.596566649299935
 21
6.217307976248638
 31
0.0
  0
LINE
  5
234BA
  8
0
  6
CONTINUOUS
 10
3.906418590481286
 20
5.580975244147473
 30
0.0
 11
2.894663213395203
 21
6.592730621233557
 31
0.0
  0
LINE
  5
234BB
  8
0
  6
CONTINUOUS
 10
4.204507345327062
 20
5.956405698381884
 30
0.0
 11
3.192759777490472
 21
6.968153266218474
 31
0.0
  0
LINE
  5
234BC
  8
0
  6
CONTINUOUS
 10
8.466032252791512
 20
2.368399999997621
 30
0.0
 11
6.948921506593081
 21
3.885510746196053
 31
0.0
  0
LINE
  5
234BD
  8
0
  6
CONTINUOUS
 10
9.139551461871699
 20
2.36839999999762
 30
0.0
 11
7.157104084324816
 21
4.350847377544504
 31
0.0
  0
LINE
  5
234BE
  8
0
  6
CONTINUOUS
 10
4.502596100172839
 20
6.331836152616295
 30
0.0
 11
3.49085634158574
 21
7.343575911203393
 31
0.0
  0
LINE
  5
234BF
  8
0
  6
CONTINUOUS
 10
4.800684855018615
 20
6.707266606850705
 30
0.0
 11
3.788952905681008
 21
7.718998556188312
 31
0.0
  0
LINE
  5
234C0
  8
0
  6
CONTINUOUS
 10
12.18154012887317
 20
-0.0000694579236642
 30
0.0
 11
11.32140332908496
 21
0.8600673418645499
 31
0.0
  0
LINE
  5
234C1
  8
0
  6
CONTINUOUS
 10
12.85501608323566
 20
-0.0000262032059659
 30
0.0
 11
10.77672456435345
 21
2.078265315676246
 31
0.0
  0
LINE
  5
234C2
  8
0
  6
CONTINUOUS
 10
9.813070670951886
 20
2.36839999999762
 30
0.0
 11
8.51047067095321
 21
3.670999999996297
 31
0.0
  0
LINE
  5
234C3
  8
0
  6
CONTINUOUS
 10
10.48658988003207
 20
2.36839999999762
 30
0.0
 11
9.183989880033396
 21
3.670999999996297
 31
0.0
  0
LINE
  5
234C4
  8
0
  6
CONTINUOUS
 10
8.441048632286794
 20
3.740422038662712
 30
0.0
 11
7.365286662056551
 21
4.816184008892956
 31
0.0
  0
LINE
  5
234C5
  8
0
  6
CONTINUOUS
 10
8.649187485808454
 20
4.205802394221237
 30
0.0
 11
7.573469239788285
 21
5.281520640241407
 31
0.0
  0
LINE
  5
234C6
  8
0
  6
CONTINUOUS
 10
5.098773609864391
 20
7.082697061085115
 30
0.0
 11
4.087049469776277
 21
8.09442120117323
 31
0.0
  0
LINE
  5
234C7
  8
0
  6
CONTINUOUS
 10
5.396862364710167
 20
7.458127515319526
 30
0.0
 11
4.385146033871544
 21
8.469843846158149
 31
0.0
  0
LINE
  5
234C8
  8
0
  6
CONTINUOUS
 10
13.04801363231285
 20
0.4804954567970334
 30
0.0
 11
9.85750908911358
 21
3.670999999996297
 31
0.0
  0
LINE
  5
234C9
  8
0
  6
CONTINUOUS
 10
8.857326339330116
 20
4.671182749779763
 30
0.0
 11
7.781651817520021
 21
5.746857271589858
 31
0.0
  0
LINE
  5
234CA
  8
0
  6
CONTINUOUS
 10
5.694951119555943
 20
7.833557969553937
 30
0.0
 11
4.765409089118624
 21
8.763099999991255
 31
0.0
  0
LINE
  5
234CB
  8
0
  6
CONTINUOUS
 10
12.50286117236978
 20
1.699167125820288
 30
0.0
 11
9.68611877250287
 21
4.515909525687196
 31
0.0
  0
LINE
  5
234CC
  8
0
  6
CONTINUOUS
 10
9.065465192851777
 20
5.136563105338288
 30
0.0
 11
7.989834395251757
 21
6.21219390293831
 31
0.0
  0
LINE
  5
234CD
  8
0
  6
CONTINUOUS
 10
5.993039874401719
 20
8.208988423788346
 30
0.0
 11
5.43892829819881
 21
8.763099999991255
 31
0.0
  0
LINE
  5
234CE
  8
0
  6
CONTINUOUS
 10
11.95770871242671
 20
2.917838794843543
 30
0.0
 11
8.19801697298349
 21
6.677530534286761
 31
0.0
  0
LINE
  5
234CF
  8
0
  6
CONTINUOUS
 10
6.291128629247495
 20
8.584418878022756
 30
0.0
 11
6.112447507278997
 21
8.763099999991255
 31
0.0
  0
LINE
  5
234D0
  8
0
  6
CONTINUOUS
 10
11.41255625248364
 20
4.136510463866797
 30
0.0
 11
8.406199550715227
 21
7.142867165635211
 31
0.0
  0
LINE
  5
234D1
  8
0
  6
CONTINUOUS
 10
10.86740379254057
 20
5.355182132890051
 30
0.0
 11
8.614382128446962
 21
7.608203796983664
 31
0.0
  0
LINE
  5
234D2
  8
0
  6
CONTINUOUS
 10
10.3222513325975
 20
6.573853801913305
 30
0.0
 11
8.822564706178696
 21
8.073540428332114
 31
0.0
  0
LINE
  5
234D3
  8
0
  6
CONTINUOUS
 10
9.777098872654436
 20
7.792525470936562
 30
0.0
 11
9.030747283910433
 21
8.538877059680566
 31
0.0
  0
ENDBLK
  5
23615
  8
0
  0
BLOCK
  8
0
  2
*X132
 70
     1
 10
0.0
 20
0.0
 30
0.0
  3
*X132
  1

  0
LINE
  5
234D5
  8
0
  6
CONTINUOUS
 10
10.67292308101235
 20
8.445076852443387
 30
0.0
 11
10.99094622856022
 21
8.763099999991255
 31
0.0
  0
LINE
  5
234D6
  8
0
  6
CONTINUOUS
 10
10.87250383178748
 20
7.971138394138331
 30
0.0
 11
11.6644654376404
 21
8.763099999991255
 31
0.0
  0
LINE
  5
234D7
  8
0
  6
CONTINUOUS
 10
11.07208458256261
 20
7.497199935833273
 30
0.0
 11
12.12126590876355
 21
8.546381262034211
 31
0.0
  0
LINE
  5
234D8
  8
0
  6
CONTINUOUS
 10
11.27166533333774
 20
7.023261477528216
 30
0.0
 11
12.32085164573666
 21
8.072447789927136
 31
0.0
  0
LINE
  5
234D9
  8
0
  6
CONTINUOUS
 10
11.47124608411287
 20
6.549323019223158
 30
0.0
 11
12.52043738270977
 21
7.59851431782006
 31
0.0
  0
LINE
  5
234DA
  8
0
  6
CONTINUOUS
 10
11.670826834888
 20
6.075384560918101
 30
0.0
 11
12.72002311968288
 21
7.124580845712984
 31
0.0
  0
LINE
  5
234DB
  8
0
  6
CONTINUOUS
 10
11.87040758566313
 20
5.601446102613043
 30
0.0
 11
12.91960885665599
 21
6.650647373605907
 31
0.0
  0
LINE
  5
234DC
  8
0
  6
CONTINUOUS
 10
12.06998833643825
 20
5.127507644307986
 30
0.0
 11
13.1191945936291
 21
6.176713901498832
 31
0.0
  0
LINE
  5
234DD
  8
0
  6
CONTINUOUS
 10
12.26956908721338
 20
4.65356918600293
 30
0.0
 11
13.31878033060221
 21
5.702780429391757
 31
0.0
  0
LINE
  5
234DE
  8
0
  6
CONTINUOUS
 10
12.46914983798851
 20
4.179630727697873
 30
0.0
 11
13.51836606757532
 21
5.228846957284683
 31
0.0
  0
LINE
  5
234DF
  8
0
  6
CONTINUOUS
 10
12.66873058876364
 20
3.705692269392816
 30
0.0
 11
13.71795180454843
 21
4.754913485177607
 31
0.0
  0
LINE
  5
234E0
  8
0
  6
CONTINUOUS
 10
12.86831133953877
 20
3.231753811087759
 30
0.0
 11
13.91753754152154
 21
4.280980013070531
 31
0.0
  0
LINE
  5
234E1
  8
0
  6
CONTINUOUS
 10
13.0678920903139
 20
2.757815352782702
 30
0.0
 11
14.11712327849465
 21
3.807046540963456
 31
0.0
  0
LINE
  5
234E2
  8
0
  6
CONTINUOUS
 10
13.26747284108903
 20
2.283876894477644
 30
0.0
 11
14.31670901546777
 21
3.333113068856379
 31
0.0
  0
LINE
  5
234E3
  8
0
  6
CONTINUOUS
 10
16.36767838827179
 20
8.751678487061342
 30
0.0
 11
16.50332410898388
 21
8.887324207773432
 31
0.0
  0
LINE
  5
234E4
  8
0
  6
CONTINUOUS
 10
15.96190732182191
 20
7.67238821153127
 30
0.0
 11
16.68735328004734
 21
8.397834169756699
 31
0.0
  0
LINE
  5
234E5
  8
0
  6
CONTINUOUS
 10
15.55613625537202
 20
6.593097936001196
 30
0.0
 11
16.87138245111079
 21
7.908344131739965
 31
0.0
  0
LINE
  5
234E6
  8
0
  6
CONTINUOUS
 10
15.15036518892213
 20
5.513807660471122
 30
0.0
 11
17.05541162217424
 21
7.418854093723231
 31
0.0
  0
LINE
  5
234E7
  8
0
  6
CONTINUOUS
 10
14.74459412247225
 20
4.434517384941048
 30
0.0
 11
17.2394407932377
 21
6.929364055706499
 31
0.0
  0
LINE
  5
234E8
  8
0
  6
CONTINUOUS
 10
14.33882305602236
 20
3.355227109410975
 30
0.0
 11
17.42346996430115
 21
6.439874017689766
 31
0.0
  0
LINE
  5
234E9
  8
0
  6
CONTINUOUS
 10
13.46705359186416
 20
1.809938436172586
 30
0.0
 11
16.0819338255367
 21
4.424818669845129
 31
0.0
  0
LINE
  5
234EA
  8
0
  6
CONTINUOUS
 10
16.63283254238972
 20
4.975717386698149
 30
0.0
 11
17.60749913536461
 21
5.950383979673033
 31
0.0
  0
LINE
  5
234EB
  8
0
  6
CONTINUOUS
 10
13.66663434263929
 20
1.335999977867529
 30
0.0
 11
15.67604797733754
 21
3.345413612565779
 31
0.0
  0
LINE
  5
234EC
  8
0
  6
CONTINUOUS
 10
13.86621509341442
 20
0.8620615195624723
 30
0.0
 11
15.27016212913838
 21
2.26600855528643
 31
0.0
  0
LINE
  5
234ED
  8
0
  6
CONTINUOUS
 10
16.81682257348267
 20
4.486188208710908
 30
0.0
 11
17.79152830642806
 21
5.460893941656299
 31
0.0
  0
LINE
  5
234EE
  8
0
  6
CONTINUOUS
 10
17.00081260457561
 20
3.996659030723667
 30
0.0
 11
17.97555747749151
 21
4.971403903639565
 31
0.0
  0
LINE
  5
234EF
  8
0
  6
CONTINUOUS
 10
20.74362343514722
 20
8.412989070375462
 30
0.0
 11
21.09373436476302
 21
8.763099999991256
 31
0.0
  0
LINE
  5
234F0
  8
0
  6
CONTINUOUS
 10
20.25401257174777
 20
7.249858997895826
 30
0.0
 11
21.7672535738432
 21
8.763099999991255
 31
0.0
  0
LINE
  5
234F1
  8
0
  6
CONTINUOUS
 10
14.06579584418955
 20
0.3881230612574149
 30
0.0
 11
14.86427628093921
 21
1.186603498007082
 31
0.0
  0
LINE
  5
234F2
  8
0
  6
CONTINUOUS
 10
14.26537659496467
 20
-0.0858153970476412
 30
0.0
 11
14.45839043274005
 21
0.1071984407277329
 31
0.0
  0
LINE
  5
234F3
  8
0
  6
CONTINUOUS
 10
17.18480263566856
 20
3.507129852736426
 30
0.0
 11
18.15958664855496
 21
4.481913865622833
 31
0.0
  0
LINE
  5
234F4
  8
0
  6
CONTINUOUS
 10
17.3687926667615
 20
3.017600674749186
 30
0.0
 11
18.34361581961842
 21
3.9924238276061
 31
0.0
  0
LINE
  5
234F5
  8
0
  6
CONTINUOUS
 10
19.76440170834832
 20
6.086728925416191
 30
0.0
 11
22.33924590259489
 21
8.661573119662755
 31
0.0
  0
LINE
  5
234F6
  8
0
  6
CONTINUOUS
 10
19.27479084494887
 20
4.923598852936555
 30
0.0
 11
21.84929622842713
 21
7.498104236414807
 31
0.0
  0
LINE
  5
234F7
  8
0
  6
CONTINUOUS
 10
17.55278269785445
 20
2.528071496761945
 30
0.0
 11
18.52764499068187
 21
3.502933789589366
 31
0.0
  0
LINE
  5
234F8
  8
0
  6
CONTINUOUS
 10
18.78517998154942
 20
3.760468780456919
 30
0.0
 11
21.35934655425936
 21
6.33463535316686
 31
0.0
  0
LINE
  5
234F9
  8
0
  6
CONTINUOUS
 10
17.73677272894739
 20
2.038542318774704
 30
0.0
 11
20.8693968800916
 21
5.171166469918914
 31
0.0
  0
LINE
  5
234FA
  8
0
  6
CONTINUOUS
 10
17.92076276004034
 20
1.549013140787464
 30
0.0
 11
20.37944720592384
 21
4.007697586670968
 31
0.0
  0
LINE
  5
234FB
  8
0
  6
CONTINUOUS
 10
18.10475279113329
 20
1.059483962800223
 30
0.0
 11
19.88949753175608
 21
2.84422870342302
 31
0.0
  0
LINE
  5
234FC
  8
0
  6
CONTINUOUS
 10
18.28874282222623
 20
0.5699547848129822
 30
0.0
 11
19.39954785758832
 21
1.680759820175074
 31
0.0
  0
LINE
  5
234FD
  8
0
  6
CONTINUOUS
 10
18.47273285331918
 20
0.0804256068257416
 30
0.0
 11
18.90959818342056
 21
0.517290936927127
 31
0.0
  0
LINE
  5
234FE
  8
0
  6
CONTINUOUS
 10
14.3590401358224
 20
-0.1570118376323384
 30
0.0
 11
14.24903296539946
 21
-0.0470046672093929
 31
0.0
  0
LINE
  5
234FF
  8
0
  6
CONTINUOUS
 10
14.54309291258661
 20
0.332454594683643
 30
0.0
 11
13.75908329123172
 21
1.116464216038529
 31
0.0
  0
LINE
  5
23500
  8
0
  6
CONTINUOUS
 10
14.72714568935081
 20
0.8219210269996244
 30
0.0
 11
13.26913361706399
 21
2.27993309928645
 31
0.0
  0
LINE
  5
23501
  8
0
  6
CONTINUOUS
 10
14.91119846611502
 20
1.311387459315606
 30
0.0
 11
12.77918394289625
 21
3.443401982534371
 31
0.0
  0
LINE
  5
23502
  8
0
  6
CONTINUOUS
 10
15.09525124287922
 20
1.800853891631587
 30
0.0
 11
12.28923426872852
 21
4.606870865782293
 31
0.0
  0
LINE
  5
23503
  8
0
  6
CONTINUOUS
 10
15.27930401964343
 20
2.290320323947569
 30
0.0
 11
11.79928459456078
 21
5.770339749030213
 31
0.0
  0
LINE
  5
23504
  8
0
  6
CONTINUOUS
 10
15.46335679640763
 20
2.77978675626355
 30
0.0
 11
14.48885470994921
 21
3.754288842721972
 31
0.0
  0
LINE
  5
23505
  8
0
  6
CONTINUOUS
 10
13.88507249233704
 20
4.358071060334137
 30
0.0
 11
11.30933492039305
 21
6.933808632278135
 31
0.0
  0
LINE
  5
23506
  8
0
  6
CONTINUOUS
 10
18.75840522805855
 20
0.1582575336928151
 30
0.0
 11
18.25383727664818
 21
0.6628254851031863
 31
0.0
  0
LINE
  5
23507
  8
0
  6
CONTINUOUS
 10
15.64740957317184
 20
3.269253188579531
 30
0.0
 11
14.67288388101266
 21
4.243778880738705
 31
0.0
  0
LINE
  5
23508
  8
0
  6
CONTINUOUS
 10
13.39509276772158
 20
5.521569994029786
 30
0.0
 11
10.81938524622531
 21
8.097277515526056
 31
0.0
  0
LINE
  5
23509
  8
0
  6
CONTINUOUS
 10
18.95798597883369
 20
0.6321959919978686
 30
0.0
 11
17.84825644852853
 21
1.741925522303024
 31
0.0
  0
LINE
  5
2350A
  8
0
  6
CONTINUOUS
 10
19.15756672960882
 20
1.106134450302922
 30
0.0
 11
17.44267562040888
 21
2.821025559502861
 31
0.0
  0
LINE
  5
2350B
  8
0
  6
CONTINUOUS
 10
15.83146234993604
 20
3.758719620895513
 30
0.0
 11
14.85691305207612
 21
4.733268918755439
 31
0.0
  0
LINE
  5
2350C
  8
0
  6
CONTINUOUS
 10
16.01551512670025
 20
4.248186053211494
 30
0.0
 11
15.04094222313957
 21
5.222758956772172
 31
0.0
  0
LINE
  5
2350D
  8
0
  6
CONTINUOUS
 10
12.90511304310612
 20
6.685068927725435
 30
0.0
 11
10.8270819708403
 21
8.763099999991255
 31
0.0
  0
LINE
  5
2350E
  8
0
  6
CONTINUOUS
 10
12.41513331849066
 20
7.848567861421083
 30
0.0
 11
11.50060117992049
 21
8.763099999991255
 31
0.0
  0
LINE
  5
2350F
  8
0
  6
CONTINUOUS
 10
19.35714748038395
 20
1.580072908607975
 30
0.0
 11
17.03709479228923
 21
3.900125596702697
 31
0.0
  0
LINE
  5
23510
  8
0
  6
CONTINUOUS
 10
19.55672823115909
 20
2.054011366913028
 30
0.0
 11
16.63151396416958
 21
4.979225633902534
 31
0.0
  0
LINE
  5
23511
  8
0
  6
CONTINUOUS
 10
16.19956790346445
 20
4.737652485527476
 30
0.0
 11
15.22497139420302
 21
5.712248994788904
 31
0.0
  0
LINE
  5
23512
  8
0
  6
CONTINUOUS
 10
16.38362068022866
 20
5.227118917843457
 30
0.0
 11
15.40900056526648
 21
6.201739032805637
 31
0.0
  0
LINE
  5
23513
  8
0
  6
CONTINUOUS
 10
19.75630898193422
 20
2.527949825218081
 30
0.0
 11
18.70774536448286
 21
3.576513442669441
 31
0.0
  0
LINE
  5
23514
  8
0
  6
CONTINUOUS
 10
19.95588973270936
 20
3.001888283523134
 30
0.0
 11
18.90726987211446
 21
4.050508144118028
 31
0.0
  0
LINE
  5
23515
  8
0
  6
CONTINUOUS
 10
20.15547048348449
 20
3.475826741828186
 30
0.0
 11
19.10679437974606
 21
4.524502845566614
 31
0.0
  0
LINE
  5
23516
  8
0
  6
CONTINUOUS
 10
20.35505123425962
 20
3.94976520013324
 30
0.0
 11
19.30631888737766
 21
4.998497547015201
 31
0.0
  0
LINE
  5
23517
  8
0
  6
CONTINUOUS
 10
20.55463198503475
 20
4.423703658438292
 30
0.0
 11
19.50584339500926
 21
5.472492248463787
 31
0.0
  0
LINE
  5
23518
  8
0
  6
CONTINUOUS
 10
18.37481191085755
 20
3.909446896294752
 30
0.0
 11
15.59302973632993
 21
6.691229070822371
 31
0.0
  0
LINE
  5
23519
  8
0
  6
CONTINUOUS
 10
17.96904084440766
 20
4.988737171824825
 30
0.0
 11
15.77705890739338
 21
7.180719108839104
 31
0.0
  0
LINE
  5
2351A
  8
0
  6
CONTINUOUS
 10
17.56326977795777
 20
6.068027447354899
 30
0.0
 11
15.96108807845684
 21
7.670209146855838
 31
0.0
  0
LINE
  5
2351B
  8
0
  6
CONTINUOUS
 10
17.15749871150789
 20
7.147317722884972
 30
0.0
 11
16.14511724952029
 21
8.15969918487257
 31
0.0
  0
LINE
  5
2351C
  8
0
  6
CONTINUOUS
 10
16.751727645058
 20
8.226607998415046
 30
0.0
 11
16.32914642058374
 21
8.649189222889303
 31
0.0
  0
LINE
  5
2351D
  8
0
  6
CONTINUOUS
 10
20.75421273580989
 20
4.897642116743345
 30
0.0
 11
19.70536790264086
 21
5.946486949912374
 31
0.0
  0
LINE
  5
2351E
  8
0
  6
CONTINUOUS
 10
20.95379348658502
 20
5.371580575048398
 30
0.0
 11
19.90489241027246
 21
6.42048165136096
 31
0.0
  0
LINE
  5
2351F
  8
0
  6
CONTINUOUS
 10
21.15337423736015
 20
5.845519033353452
 30
0.0
 11
20.10441691790406
 21
6.894476352809547
 31
0.0
  0
LINE
  5
23520
  8
0
  6
CONTINUOUS
 10
21.35295498813529
 20
6.319457491658505
 30
0.0
 11
20.30394142553566
 21
7.368471054258134
 31
0.0
  0
LINE
  5
23521
  8
0
  6
CONTINUOUS
 10
21.55253573891042
 20
6.793395949963558
 30
0.0
 11
20.50346593316726
 21
7.842465755706721
 31
0.0
  0
LINE
  5
23522
  8
0
  6
CONTINUOUS
 10
21.75211648968556
 20
7.267334408268612
 30
0.0
 11
20.70299044079886
 21
8.316460457155308
 31
0.0
  0
LINE
  5
23523
  8
0
  6
CONTINUOUS
 10
21.95169724046069
 20
7.741272866573663
 30
0.0
 11
20.9298701070431
 21
8.763099999991256
 31
0.0
  0
LINE
  5
23524
  8
0
  6
CONTINUOUS
 10
22.15127799123582
 20
8.215211324878716
 30
0.0
 11
21.60338931612328
 21
8.763099999991256
 31
0.0
  0
LINE
  5
23525
  8
0
  6
CONTINUOUS
 10
22.35085874201096
 20
8.689149783183769
 30
0.0
 11
22.27690852520347
 21
8.763099999991255
 31
0.0
  0
ENDBLK
  5
23617
  8
0
  0
BLOCK
  8
0
  2
*X133
 70
     1
 10
0.0
 20
0.0
 30
0.0
  3
*X133
  1

  0
LINE
  5
23527
  8
0
  6
CONTINUOUS
 10
23.19462913593892
 20
8.169917934846424
 30
0.0
 11
23.70775465517246
 21
8.683043454079957
 31
0.0
  0
LINE
  5
23528
  8
0
  6
CONTINUOUS
 10
22.64923161835078
 20
6.951001208178088
 30
0.0
 11
23.9159364069932
 21
8.217705996820516
 31
0.0
  0
LINE
  5
23529
  8
0
  6
CONTINUOUS
 10
22.10383410076263
 20
5.732084481509751
 30
0.0
 11
24.12411815881395
 21
7.752368539561078
 31
0.0
  0
LINE
  5
2352A
  8
0
  6
CONTINUOUS
 10
21.55843658317447
 20
4.513167754841414
 30
0.0
 11
24.3322999106347
 21
7.287031082301639
 31
0.0
  0
LINE
  5
2352B
  8
0
  6
CONTINUOUS
 10
21.01303906558632
 20
3.294251028173077
 30
0.0
 11
24.54048166245544
 21
6.821693625042199
 31
0.0
  0
LINE
  5
2352C
  8
0
  6
CONTINUOUS
 10
20.46764154799817
 20
2.075334301504738
 30
0.0
 11
23.28571549467848
 21
4.89340824818505
 31
0.0
  0
LINE
  5
2352D
  8
0
  6
CONTINUOUS
 10
19.92224403041002
 20
0.8564175748364002
 30
0.0
 11
22.74075865492779
 21
3.674932199354171
 31
0.0
  0
LINE
  5
2352E
  8
0
  6
CONTINUOUS
 10
23.67305085490148
 20
5.280743608408048
 30
0.0
 11
24.74866341427619
 21
6.356356167782759
 31
0.0
  0
LINE
  5
2352F
  8
0
  6
CONTINUOUS
 10
23.88118970842314
 20
4.815363252849522
 30
0.0
 11
24.95684516609694
 21
5.89101871052332
 31
0.0
  0
LINE
  5
23530
  8
0
  6
CONTINUOUS
 10
19.73925852647308
 20
-0.0000871381807288
 30
0.0
 11
23.4103456646501
 21
3.670999999996297
 31
0.0
  0
LINE
  5
23531
  8
0
  6
CONTINUOUS
 10
24.0893285619448
 20
4.349982897290997
 30
0.0
 11
25.16502691791769
 21
5.42568125326388
 31
0.0
  0
LINE
  5
23532
  8
0
  6
CONTINUOUS
 10
20.41282099582748
 20
-0.0000438779065108
 30
0.0
 11
21.64944178675636
 21
1.236576913022366
 31
0.0
  0
LINE
  5
23533
  8
0
  6
CONTINUOUS
 10
22.78126487373161
 20
2.36839999999762
 30
0.0
 11
24.08386487373029
 21
3.670999999996297
 31
0.0
  0
LINE
  5
23534
  8
0
  6
CONTINUOUS
 10
24.29746741546646
 20
3.884602541732471
 30
0.0
 11
25.37320866973843
 21
4.960343796004441
 31
0.0
  0
LINE
  5
23535
  8
0
  6
CONTINUOUS
 10
21.08638346518189
 20
-0.0000006176322938
 30
0.0
 11
21.10379033335899
 21
0.0174062505448083
 31
0.0
  0
LINE
  5
23536
  8
0
  6
CONTINUOUS
 10
23.4547840828118
 20
2.36839999999762
 30
0.0
 11
25.58139042155918
 21
4.495006338745002
 31
0.0
  0
LINE
  5
23537
  8
0
  6
CONTINUOUS
 10
29.30199999996933
 20
8.215615917155148
 30
0.0
 11
29.84948408280543
 21
8.763099999991255
 31
0.0
  0
LINE
  5
23538
  8
0
  6
CONTINUOUS
 10
24.12830329189199
 20
2.36839999999762
 30
0.0
 11
25.78957217337993
 21
4.029668881485562
 31
0.0
  0
LINE
  5
23539
  8
0
  6
CONTINUOUS
 10
29.30199999996933
 20
7.54209670807496
 30
0.0
 11
30.52300329188562
 21
8.763099999991255
 31
0.0
  0
LINE
  5
2353A
  8
0
  6
CONTINUOUS
 10
24.80182250097217
 20
2.36839999999762
 30
0.0
 11
25.99775392520067
 21
3.564331424226122
 31
0.0
  0
LINE
  5
2353B
  8
0
  6
CONTINUOUS
 10
29.30199999996933
 20
6.868577498994774
 30
0.0
 11
30.74199999996926
 21
8.308577498994712
 31
0.0
  0
LINE
  5
2353C
  8
0
  6
CONTINUOUS
 10
25.13028238392013
 20
2.023340673865392
 30
0.0
 11
26.20593567702142
 21
3.098993966966683
 31
0.0
  0
LINE
  5
2353D
  8
0
  6
CONTINUOUS
 10
25.33838066033617
 20
1.557919741201244
 30
0.0
 11
26.41411742884217
 21
2.633656509707244
 31
0.0
  0
LINE
  5
2353E
  8
0
  6
CONTINUOUS
 10
25.54647893675221
 20
1.092498808537098
 30
0.0
 11
26.62229918066291
 21
2.168319052447804
 31
0.0
  0
LINE
  5
2353F
  8
0
  6
CONTINUOUS
 10
25.75457721316825
 20
0.62707787587295
 30
0.0
 11
26.83048093248366
 21
1.702981595188365
 31
0.0
  0
LINE
  5
23540
  8
0
  6
CONTINUOUS
 10
29.30199999996933
 20
6.195058289914587
 30
0.0
 11
30.74199999996926
 21
7.635058289914522
 31
0.0
  0
LINE
  5
23541
  8
0
  6
CONTINUOUS
 10
29.30199999996933
 20
5.521539080834401
 30
0.0
 11
30.74199999996926
 21
6.961539080834331
 31
0.0
  0
LINE
  5
23542
  8
0
  6
CONTINUOUS
 10
29.30199999996933
 20
4.848019871754214
 30
0.0
 11
30.74199999996925
 21
6.288019871754143
 31
0.0
  0
LINE
  5
23543
  8
0
  6
CONTINUOUS
 10
29.30199999996933
 20
4.174500662674028
 30
0.0
 11
30.74199999996925
 21
5.614500662673953
 31
0.0
  0
LINE
  5
23544
  8
0
  6
CONTINUOUS
 10
25.96267548958429
 20
0.1616569432088024
 30
0.0
 11
27.18411854636669
 21
1.383099999991207
 31
0.0
  0
LINE
  5
23545
  8
0
  6
CONTINUOUS
 10
29.30199999996933
 20
3.500981453593841
 30
0.0
 11
30.74199999996925
 21
4.940981453593762
 31
0.0
  0
LINE
  5
23546
  8
0
  6
CONTINUOUS
 10
26.50763775544691
 20
0.0330999999912356
 30
0.0
 11
27.85763775544689
 21
1.383099999991223
 31
0.0
  0
LINE
  5
23547
  8
0
  6
CONTINUOUS
 10
29.30199999996933
 20
2.827462244513656
 30
0.0
 11
30.74199999996925
 21
4.267462244513574
 31
0.0
  0
LINE
  5
23548
  8
0
  6
CONTINUOUS
 10
27.18115696452709
 20
0.0330999999912356
 30
0.0
 11
28.6224847300034
 21
1.474427765467545
 31
0.0
  0
LINE
  5
23549
  8
0
  6
CONTINUOUS
 10
29.21067223449293
 20
2.062615269957069
 30
0.0
 11
30.74199999996924
 21
3.593943035433383
 31
0.0
  0
LINE
  5
2354A
  8
0
  6
CONTINUOUS
 10
27.85467617360728
 20
0.0330999999912356
 30
0.0
 11
30.74199999996924
 21
2.920423826353195
 31
0.0
  0
LINE
  5
2354B
  8
0
  6
CONTINUOUS
 10
28.57438609860264
 20
0.0792907159064073
 30
0.0
 11
30.69580928405405
 21
2.200713901357819
 31
0.0
  0
LINE
  5
2354C
  8
0
  6
CONTINUOUS
 10
29.49443044814297
 20
0.3258158563665496
 30
0.0
 11
30.44928414359389
 21
1.280669551817477
 31
0.0
  0
LINE
  5
2354D
  8
0
  6
CONTINUOUS
 10
19.59027867740337
 20
-0.0000967065718083
 30
0.0
 11
19.55485265190471
 21
0.035329318926844
 31
0.0
  0
LINE
  5
2354E
  8
0
  6
CONTINUOUS
 10
20.26375463176586
 20
-0.0000534518541091
 30
0.0
 11
19.76305575737534
 21
0.5006454225364014
 31
0.0
  0
LINE
  5
2354F
  8
0
  6
CONTINUOUS
 10
20.93723058612834
 20
-0.0000101971364099
 30
0.0
 11
19.97125886284597
 21
0.965961526145958
 31
0.0
  0
LINE
  5
23550
  8
0
  6
CONTINUOUS
 10
21.25514828313686
 20
0.355591314935257
 30
0.0
 11
20.1794619683166
 21
1.431277629755512
 31
0.0
  0
LINE
  5
23551
  8
0
  6
CONTINUOUS
 10
21.46338838394921
 20
0.8208704232030986
 30
0.0
 11
20.38766507378723
 21
1.896593733365069
 31
0.0
  0
LINE
  5
23552
  8
0
  6
CONTINUOUS
 10
21.67162848476155
 20
1.28614953147094
 30
0.0
 11
20.59586817925786
 21
2.361909836974626
 31
0.0
  0
LINE
  5
23553
  8
0
  6
CONTINUOUS
 10
21.8798685855739
 20
1.751428639738782
 30
0.0
 11
20.80407128472849
 21
2.827225940584183
 31
0.0
  0
LINE
  5
23554
  8
0
  6
CONTINUOUS
 10
22.08810868638624
 20
2.216707748006623
 30
0.0
 11
21.01227439019912
 21
3.292542044193739
 31
0.0
  0
LINE
  5
23555
  8
0
  6
CONTINUOUS
 10
22.60993564347543
 20
2.36839999999762
 30
0.0
 11
21.22047749566975
 21
3.757858147803296
 31
0.0
  0
LINE
  5
23556
  8
0
  6
CONTINUOUS
 10
23.28345485255561
 20
2.36839999999762
 30
0.0
 11
21.42868060114038
 21
4.223174251412853
 31
0.0
  0
LINE
  5
23557
  8
0
  6
CONTINUOUS
 10
26.29227406164219
 20
0.0330999999912356
 30
0.0
 11
25.80009199592872
 21
0.5252820657046957
 31
0.0
  0
LINE
  5
23558
  8
0
  6
CONTINUOUS
 10
23.9569740616358
 20
2.36839999999762
 30
0.0
 11
21.63688370661101
 21
4.688490355022409
 31
0.0
  0
LINE
  5
23559
  8
0
  6
CONTINUOUS
 10
26.96579327072237
 20
0.0330999999912356
 30
0.0
 11
25.2554132311971
 21
1.743480039516508
 31
0.0
  0
LINE
  5
2355A
  8
0
  6
CONTINUOUS
 10
24.63049327071599
 20
2.36839999999762
 30
0.0
 11
23.32789327071731
 21
3.670999999996297
 31
0.0
  0
LINE
  5
2355B
  8
0
  6
CONTINUOUS
 10
22.92098674744635
 20
4.077906523267254
 30
0.0
 11
21.84508681208164
 21
5.153806458631966
 31
0.0
  0
LINE
  5
2355C
  8
0
  6
CONTINUOUS
 10
27.63931247980256
 20
0.0330999999912356
 30
0.0
 11
24.0014124797975
 21
3.670999999996297
 31
0.0
  0
LINE
  5
2355D
  8
0
  6
CONTINUOUS
 10
23.129125600968
 20
4.5432868788258
 30
0.0
 11
22.05328991755227
 21
5.619122562241522
 31
0.0
  0
LINE
  5
2355E
  8
0
  6
CONTINUOUS
 10
28.31283168888275
 20
0.0330999999912356
 30
0.0
 11
24.16488385994816
 21
4.181047828925828
 31
0.0
  0
LINE
  5
2355F
  8
0
  6
CONTINUOUS
 10
23.33726445448964
 20
5.008667234384345
 30
0.0
 11
22.2614930230229
 21
6.084438665851079
 31
0.0
  0
LINE
  5
23560
  8
0
  6
CONTINUOUS
 10
28.86286302309502
 20
0.1565878748591523
 30
0.0
 11
27.63635089796295
 21
1.383099999991217
 31
0.0
  0
LINE
  5
23561
  8
0
  6
CONTINUOUS
 10
26.43704649509776
 20
2.582404402856405
 30
0.0
 11
23.61992702019732
 21
5.399523877756844
 31
0.0
  0
LINE
  5
23562
  8
0
  6
CONTINUOUS
 10
23.54540330801128
 20
5.47404758994289
 30
0.0
 11
22.46969612849353
 21
6.549754769460635
 31
0.0
  0
LINE
  5
23563
  8
0
  6
CONTINUOUS
 10
29.39405087596853
 20
0.2989192310658284
 30
0.0
 11
28.30987010704312
 21
1.383099999991234
 31
0.0
  0
LINE
  5
23564
  8
0
  6
CONTINUOUS
 10
25.89179548232307
 20
3.801174624711282
 30
0.0
 11
22.67789923396416
 21
7.015070873070191
 31
0.0
  0
LINE
  5
23565
  8
0
  6
CONTINUOUS
 10
29.79594438047407
 20
0.570544935640473
 30
0.0
 11
28.81310432793121
 21
1.553384988183336
 31
0.0
  0
LINE
  5
23566
  8
0
  6
CONTINUOUS
 10
25.34654446954838
 20
5.01994484656616
 30
0.0
 11
22.88610233943479
 21
7.480386976679748
 31
0.0
  0
LINE
  5
23567
  8
0
  6
CONTINUOUS
 10
30.13270398501416
 20
0.9073045401805646
 30
0.0
 11
29.14234640337737
 21
1.897662121817355
 31
0.0
  0
LINE
  5
23568
  8
0
  6
CONTINUOUS
 10
24.80129345677369
 20
6.238715068421037
 30
0.0
 11
23.09430544490542
 21
7.945703080289305
 31
0.0
  0
LINE
  5
23569
  8
0
  6
CONTINUOUS
 10
30.44581292956759
 20
1.26771480470732
 30
0.0
 11
29.30199999996933
 21
2.411527734305588
 31
0.0
  0
LINE
  5
2356A
  8
0
  6
CONTINUOUS
 10
30.58814428577427
 20
1.798902657580827
 30
0.0
 11
29.30199999996933
 21
3.085046943385775
 31
0.0
  0
LINE
  5
2356B
  8
0
  6
CONTINUOUS
 10
24.256042443999
 20
7.457485290275915
 30
0.0
 11
23.30250855037605
 21
8.411019183898862
 31
0.0
  0
LINE
  5
2356C
  8
0
  6
CONTINUOUS
 10
23.71079143122431
 20
8.676255512130794
 30
0.0
 11
23.51071165584668
 21
8.876335287508418
 31
0.0
  0
LINE
  5
2356D
  8
0
  6
CONTINUOUS
 10
30.73047564198095
 20
2.330090510454333
 30
0.0
 11
29.30199999996933
 21
3.758566152465961
 31
0.0
  0
LINE
  5
2356E
  8
0
  6
CONTINUOUS
 10
30.74199999996924
 20
2.992085361546236
 30
0.0
 11
29.30199999996933
 21
4.432085361546148
 31
0.0
  0
LINE
  5
2356F
  8
0
  6
CONTINUOUS
 10
30.74199999996924
 20
3.665604570626419
 30
0.0
 11
29.30199999996933
 21
5.105604570626333
 31
0.0
  0
LINE
  5
23570
  8
0
  6
CONTINUOUS
 10
30.74199999996925
 20
4.339123779706602
 30
0.0
 11
29.30199999996933
 21
5.77912377970652
 31
0.0
  0
LINE
  5
23571
  8
0
  6
CONTINUOUS
 10
30.74199999996925
 20
5.012642988786785
 30
0.0
 11
29.30199999996933
 21
6.452642988786707
 31
0.0
  0
LINE
  5
23572
  8
0
  6
CONTINUOUS
 10
30.74199999996925
 20
5.68616219786697
 30
0.0
 11
29.30199999996933
 21
7.126162197866894
 31
0.0
  0
LINE
  5
23573
  8
0
  6
CONTINUOUS
 10
30.74199999996925
 20
6.359681406947153
 30
0.0
 11
29.30199999996933
 21
7.799681406947081
 31
0.0
  0
LINE
  5
23574
  8
0
  6
CONTINUOUS
 10
30.74199999996926
 20
7.033200616027337
 30
0.0
 11
29.30199999996933
 21
8.473200616027269
 31
0.0
  0
LINE
  5
23575
  8
0
  6
CONTINUOUS
 10
30.74199999996926
 20
7.706719825107518
 30
0.0
 11
29.68561982508552
 21
8.763099999991255
 31
0.0
  0
LINE
  5
23576
  8
0
  6
CONTINUOUS
 10
30.74199999996926
 20
8.380239034187703
 30
0.0
 11
30.35913903416571
 21
8.763099999991255
 31
0.0
  0
ENDBLK
  5
23619
  8
0
  0
BLOCK
  8
0
  2
*X134
 70
     1
 10
0.0
 20
0.0
 30
0.0
  3
*X134
  1

  0
LINE
  5
23578
  8
0
  6
CONTINUOUS
 10
31.64199999996833
 20
8.5350582899136
 30
0.0
 11
31.87004171004599
 21
8.763099999991255
 31
0.0
  0
LINE
  5
23579
  8
0
  6
CONTINUOUS
 10
31.64199999996833
 20
7.861539080833413
 30
0.0
 11
32.54356091912618
 21
8.763099999991255
 31
0.0
  0
LINE
  5
2357A
  8
0
  6
CONTINUOUS
 10
31.64199999996833
 20
7.188019871753227
 30
0.0
 11
33.08199999996839
 21
8.628019871753281
 31
0.0
  0
LINE
  5
2357B
  8
0
  6
CONTINUOUS
 10
31.64199999996833
 20
6.514500662673041
 30
0.0
 11
33.08199999996839
 21
7.954500662673095
 31
0.0
  0
LINE
  5
2357C
  8
0
  6
CONTINUOUS
 10
31.64199999996833
 20
5.840981453592855
 30
0.0
 11
33.08199999996839
 21
7.28098145359291
 31
0.0
  0
LINE
  5
2357D
  8
0
  6
CONTINUOUS
 10
31.64199999996833
 20
5.167462244512668
 30
0.0
 11
33.08199999996839
 21
6.607462244512723
 31
0.0
  0
LINE
  5
2357E
  8
0
  6
CONTINUOUS
 10
31.64199999996833
 20
4.493943035432482
 30
0.0
 11
33.08199999996839
 21
5.933943035432536
 31
0.0
  0
LINE
  5
2357F
  8
0
  6
CONTINUOUS
 10
31.64199999996833
 20
3.820423826352294
 30
0.0
 11
33.08199999996839
 21
5.260423826352349
 31
0.0
  0
LINE
  5
23580
  8
0
  6
CONTINUOUS
 10
31.64199999996833
 20
3.146904617272108
 30
0.0
 11
33.08199999996839
 21
4.586904617272163
 31
0.0
  0
LINE
  5
23581
  8
0
  6
CONTINUOUS
 10
36.23199999996837
 20
8.410423826352327
 30
0.0
 11
36.58467617360729
 21
8.763099999991255
 31
0.0
  0
LINE
  5
23582
  8
0
  6
CONTINUOUS
 10
36.23199999996837
 20
7.73690461727214
 30
0.0
 11
37.25819538268748
 21
8.763099999991255
 31
0.0
  0
LINE
  5
23583
  8
0
  6
CONTINUOUS
 10
31.64323424774199
 20
2.474619655965573
 30
0.0
 11
33.08199999996839
 21
3.913385408191976
 31
0.0
  0
LINE
  5
23584
  8
0
  6
CONTINUOUS
 10
31.74419223861915
 20
1.902058437762552
 30
0.0
 11
33.08199999996839
 21
3.239866199111789
 31
0.0
  0
LINE
  5
23585
  8
0
  6
CONTINUOUS
 10
36.23199999996837
 20
7.063385408191953
 30
0.0
 11
37.67199999996831
 21
8.503385408191894
 31
0.0
  0
LINE
  5
23586
  8
0
  6
CONTINUOUS
 10
36.23199999996837
 20
6.389866199111767
 30
0.0
 11
37.67199999996831
 21
7.829866199111708
 31
0.0
  0
LINE
  5
23587
  8
0
  6
CONTINUOUS
 10
31.91111233414976
 20
1.39545932421297
 30
0.0
 11
33.08199999996839
 21
2.566346990031603
 31
0.0
  0
LINE
  5
23588
  8
0
  6
CONTINUOUS
 10
36.23199999996837
 20
5.71634699003158
 30
0.0
 11
37.67199999996831
 21
7.156346990031522
 31
0.0
  0
LINE
  5
23589
  8
0
  6
CONTINUOUS
 10
32.1576374746103
 20
0.9684652555933289
 30
0.0
 11
33.20642631446081
 21
2.017254095443838
 31
0.0
  0
LINE
  5
2358A
  8
0
  6
CONTINUOUS
 10
36.23199999996837
 20
5.042827780951393
 30
0.0
 11
37.67199999996831
 21
6.482827780951334
 31
0.0
  0
LINE
  5
2358B
  8
0
  6
CONTINUOUS
 10
32.47774023927325
 20
0.6150488111760914
 30
0.0
 11
33.49903056428258
 21
1.636339136185419
 31
0.0
  0
LINE
  5
2358C
  8
0
  6
CONTINUOUS
 10
36.23199999996837
 20
4.369308571871207
 30
0.0
 11
37.67199999996831
 21
5.809308571871148
 31
0.0
  0
LINE
  5
2358D
  8
0
  6
CONTINUOUS
 10
32.84396249154443
 20
0.3077518543670883
 30
0.0
 11
33.93324121824649
 21
1.397030581069146
 31
0.0
  0
LINE
  5
2358E
  8
0
  6
CONTINUOUS
 10
36.23199999996837
 20
3.695789362791021
 30
0.0
 11
37.67199999996831
 21
5.135789362790963
 31
0.0
  0
LINE
  5
2358F
  8
0
  6
CONTINUOUS
 10
33.30186329036846
 20
0.0921334441109263
 30
0.0
 11
34.46442907112041
 21
1.254699224862875
 31
0.0
  0
LINE
  5
23590
  8
0
  6
CONTINUOUS
 10
36.23199999996837
 20
3.022270153710834
 30
0.0
 11
37.67199999996831
 21
4.462270153710776
 31
0.0
  0
LINE
  5
23591
  8
0
  6
CONTINUOUS
 10
33.79565647746294
 20
-0.0875925778747773
 30
0.0
 11
35.24350171668284
 21
1.360252661345124
 31
0.0
  0
LINE
  5
23592
  8
0
  6
CONTINUOUS
 10
36.18336676155003
 20
2.300117706212308
 30
0.0
 11
37.67199999996831
 21
3.788750944630589
 31
0.0
  0
LINE
  5
23593
  8
0
  6
CONTINUOUS
 10
34.37182574910968
 20
-0.184942515308224
 30
0.0
 11
37.67199999996831
 21
3.115231735550402
 31
0.0
  0
LINE
  5
23594
  8
0
  6
CONTINUOUS
 10
35.0453449581892
 20
-0.1849425153088955
 30
0.0
 11
37.66345697088136
 21
2.433169497383271
 31
0.0
  0
LINE
  5
23595
  8
0
  6
CONTINUOUS
 10
35.98667157609191
 20
0.0828648935136398
 30
0.0
 11
37.51927401744566
 21
1.615467334867382
 31
0.0
  0
LINE
  5
23596
  8
0
  6
CONTINUOUS
 10
32.27747408544484
 20
0.7830920669904482
 30
0.0
 11
32.24716210471949
 21
0.8134040477157893
 31
0.0
  0
LINE
  5
23597
  8
0
  6
CONTINUOUS
 10
33.83656881101902
 20
-0.1024834495035494
 30
0.0
 11
31.72538911593758
 21
2.008696245577891
 31
0.0
  0
LINE
  5
23598
  8
0
  6
CONTINUOUS
 10
34.5925470859041
 20
-0.1849425153084434
 30
0.0
 11
31.64199999996833
 21
2.765604570627322
 31
0.0
  0
LINE
  5
23599
  8
0
  6
CONTINUOUS
 10
35.26201302775981
 20
-0.1808892480839752
 30
0.0
 11
31.64199999996833
 21
3.439123779707508
 31
0.0
  0
LINE
  5
2359A
  8
0
  6
CONTINUOUS
 10
35.75580621485512
 20
-0.0011632260990879
 30
0.0
 11
34.51294304365551
 21
1.241699945100514
 31
0.0
  0
LINE
  5
2359B
  8
0
  6
CONTINUOUS
 10
33.08199999996839
 20
2.672642988787641
 30
0.0
 11
31.64199999996833
 21
4.112642988787695
 31
0.0
  0
LINE
  5
2359C
  8
0
  6
CONTINUOUS
 10
36.24959940195042
 20
0.1785627958857976
 30
0.0
 11
35.10501653033629
 21
1.323145667499924
 31
0.0
  0
LINE
  5
2359D
  8
0
  6
CONTINUOUS
 10
33.08199999996839
 20
3.346162197867827
 30
0.0
 11
31.64199999996833
 21
4.786162197867881
 31
0.0
  0
LINE
  5
2359E
  8
0
  6
CONTINUOUS
 10
36.64615197150552
 20
0.4555294354108876
 30
0.0
 11
35.6362043832099
 21
1.465477023706505
 31
0.0
  0
LINE
  5
2359F
  8
0
  6
CONTINUOUS
 10
33.08199999996839
 20
4.019681406948013
 30
0.0
 11
31.64199999996833
 21
5.459681406948068
 31
0.0
  0
LINE
  5
235A0
  8
0
  6
CONTINUOUS
 10
37.0123742237774
 20
0.7628263922191891
 30
0.0
 11
35.97691545773309
 21
1.798285158263504
 31
0.0
  0
LINE
  5
235A1
  8
0
  6
CONTINUOUS
 10
33.08199999996839
 20
4.6932006160282
 30
0.0
 11
31.64199999996833
 21
6.133200616028255
 31
0.0
  0
LINE
  5
235A2
  8
0
  6
CONTINUOUS
 10
37.27491524157143
 20
1.173804583505349
 30
0.0
 11
36.17602012811361
 21
2.272699696963169
 31
0.0
  0
LINE
  5
235A3
  8
0
  6
CONTINUOUS
 10
33.08199999996839
 20
5.366719825108387
 30
0.0
 11
31.64199999996833
 21
6.806719825108441
 31
0.0
  0
LINE
  5
235A4
  8
0
  6
CONTINUOUS
 10
37.51739996707661
 20
1.604839067080355
 30
0.0
 11
36.23199999996837
 21
2.890239034188595
 31
0.0
  0
LINE
  5
235A5
  8
0
  6
CONTINUOUS
 10
37.6183579579535
 20
2.177400285283649
 30
0.0
 11
36.23199999996837
 21
3.563758243268782
 31
0.0
  0
LINE
  5
235A6
  8
0
  6
CONTINUOUS
 10
33.08199999996839
 20
6.040239034188573
 30
0.0
 11
31.64199999996833
 21
7.480239034188628
 31
0.0
  0
LINE
  5
235A7
  8
0
  6
CONTINUOUS
 10
33.08199999996839
 20
6.713758243268759
 30
0.0
 11
31.64199999996833
 21
8.153758243268815
 31
0.0
  0
LINE
  5
235A8
  8
0
  6
CONTINUOUS
 10
37.67199999996831
 20
2.797277452349027
 30
0.0
 11
36.23199999996837
 21
4.237277452348969
 31
0.0
  0
LINE
  5
235A9
  8
0
  6
CONTINUOUS
 10
37.67199999996831
 20
3.470796661429214
 30
0.0
 11
36.23199999996837
 21
4.910796661429155
 31
0.0
  0
LINE
  5
235AA
  8
0
  6
CONTINUOUS
 10
37.67199999996831
 20
4.1443158705094
 30
0.0
 11
36.23199999996837
 21
5.584315870509341
 31
0.0
  0
LINE
  5
235AB
  8
0
  6
CONTINUOUS
 10
33.08199999996839
 20
7.387277452348946
 30
0.0
 11
31.70617745232608
 21
8.763099999991255
 31
0.0
  0
LINE
  5
235AC
  8
0
  6
CONTINUOUS
 10
33.08199999996839
 20
8.060796661429134
 30
0.0
 11
32.37969666140626
 21
8.763099999991255
 31
0.0
  0
LINE
  5
235AD
  8
0
  6
CONTINUOUS
 10
33.08199999996839
 20
8.734315870509318
 30
0.0
 11
33.05321587048645
 21
8.763099999991255
 31
0.0
  0
LINE
  5
235AE
  8
0
  6
CONTINUOUS
 10
37.67199999996831
 20
4.817835079589586
 30
0.0
 11
36.23199999996837
 21
6.257835079589528
 31
0.0
  0
LINE
  5
235AF
  8
0
  6
CONTINUOUS
 10
37.67199999996831
 20
5.491354288669772
 30
0.0
 11
36.23199999996837
 21
6.931354288669715
 31
0.0
  0
LINE
  5
235B0
  8
0
  6
CONTINUOUS
 10
37.67199999996831
 20
6.164873497749959
 30
0.0
 11
36.23199999996837
 21
7.6048734977499
 31
0.0
  0
LINE
  5
235B1
  8
0
  6
CONTINUOUS
 10
37.67199999996831
 20
6.838392706830145
 30
0.0
 11
36.23199999996837
 21
8.278392706830086
 31
0.0
  0
LINE
  5
235B2
  8
0
  6
CONTINUOUS
 10
37.67199999996831
 20
7.511911915910333
 30
0.0
 11
36.42081191588738
 21
8.763099999991255
 31
0.0
  0
LINE
  5
235B3
  8
0
  6
CONTINUOUS
 10
37.67199999996831
 20
8.185431124990519
 30
0.0
 11
37.09433112496757
 21
8.763099999991255
 31
0.0
  0
ENDBLK
  5
2361B
  8
0
  0
BLOCK
  8
0
  2
*X135
 70
     1
 10
0.0
 20
0.0
 30
0.0
  3
*X135
  1

  0
LINE
  5
235B5
  8
0
  6
CONTINUOUS
 10
38.60499999996136
 20
8.762866199104765
 30
0.0
 11
38.71672554182345
 21
8.874591740966855
 31
0.0
  0
LINE
  5
235B6
  8
0
  6
CONTINUOUS
 10
38.60499999996136
 20
8.089346990024577
 30
0.0
 11
39.03418785440363
 21
8.518534844466847
 31
0.0
  0
LINE
  5
235B7
  8
0
  6
CONTINUOUS
 10
38.60499999996136
 20
7.41582778094439
 30
0.0
 11
39.35165016698382
 21
8.16247794796684
 31
0.0
  0
LINE
  5
235B8
  8
0
  6
CONTINUOUS
 10
38.60499999996136
 20
6.742308571864204
 30
0.0
 11
39.66911247956399
 21
7.806421051466834
 31
0.0
  0
LINE
  5
235B9
  8
0
  6
CONTINUOUS
 10
38.60499999996136
 20
6.068789362784018
 30
0.0
 11
39.98657479214418
 21
7.450364154966827
 31
0.0
  0
LINE
  5
235BA
  8
0
  6
CONTINUOUS
 10
38.60499999996136
 20
5.395270153703832
 30
0.0
 11
40.30403710472435
 21
7.09430725846682
 31
0.0
  0
LINE
  5
235BB
  8
0
  6
CONTINUOUS
 10
38.60499999996136
 20
4.721750944623645
 30
0.0
 11
40.62149941730453
 21
6.738250361966813
 31
0.0
  0
LINE
  5
235BC
  8
0
  6
CONTINUOUS
 10
38.60499999996136
 20
4.048231735543458
 30
0.0
 11
40.93896172988471
 21
6.382193465466806
 31
0.0
  0
LINE
  5
235BD
  8
0
  6
CONTINUOUS
 10
38.60499999996136
 20
3.374712526463272
 30
0.0
 11
40.02599999995994
 21
4.795712526461843
 31
0.0
  0
LINE
  5
235BE
  8
0
  6
CONTINUOUS
 10
38.60499999996136
 20
2.701193317383085
 30
0.0
 11
40.02599999995994
 21
4.122193317381657
 31
0.0
  0
LINE
  5
235BF
  8
0
  6
CONTINUOUS
 10
40.28339754687704
 20
5.053110073378947
 30
0.0
 11
41.25642404246489
 21
6.026136568966799
 31
0.0
  0
LINE
  5
235C0
  8
0
  6
CONTINUOUS
 10
40.60085985945722
 20
4.697053176878939
 30
0.0
 11
41.57388635504507
 21
5.670079672466793
 31
0.0
  0
LINE
  5
235C1
  8
0
  6
CONTINUOUS
 10
43.57899999995641
 20
8.348712526458318
 30
0.0
 11
43.99338747348935
 21
8.763099999991255
 31
0.0
  0
LINE
  5
235C2
  8
0
  6
CONTINUOUS
 10
43.57899999995641
 20
7.675193317378131
 30
0.0
 11
44.66690668256953
 21
8.763099999991255
 31
0.0
  0
LINE
  5
235C3
  8
0
  6
CONTINUOUS
 10
38.60499999996136
 20
2.027674108302898
 30
0.0
 11
40.02599999995994
 21
3.44867410830147
 31
0.0
  0
LINE
  5
235C4
  8
0
  6
CONTINUOUS
 10
38.60499999996136
 20
1.354154899222712
 30
0.0
 11
40.02599999995994
 21
2.775154899221284
 31
0.0
  0
LINE
  5
235C5
  8
0
  6
CONTINUOUS
 10
38.60499999996136
 20
0.6806356901425255
 30
0.0
 11
40.02599999995994
 21
2.101635690141098
 31
0.0
  0
LINE
  5
235C6
  8
0
  6
CONTINUOUS
 10
38.60499999996136
 20
0.0071164810623383
 30
0.0
 11
40.02599999995994
 21
1.428116481060911
 31
0.0
  0
LINE
  5
235C7
  8
0
  6
CONTINUOUS
 10
40.9183221720374
 20
4.340996280378933
 30
0.0
 11
41.89134866762525
 21
5.314022775966786
 31
0.0
  0
LINE
  5
235C8
  8
0
  6
CONTINUOUS
 10
41.23578448461758
 20
3.984939383878926
 30
0.0
 11
42.20881098020543
 21
4.957965879466778
 31
0.0
  0
LINE
  5
235C9
  8
0
  6
CONTINUOUS
 10
41.55324679719776
 20
3.628882487378919
 30
0.0
 11
42.52627329278561
 21
4.601908982966772
 31
0.0
  0
LINE
  5
235CA
  8
0
  6
CONTINUOUS
 10
41.87070910977793
 20
3.272825590878912
 30
0.0
 11
42.84373560536579
 21
4.245852086466765
 31
0.0
  0
LINE
  5
235CB
  8
0
  6
CONTINUOUS
 10
43.57899999995641
 20
7.001674108297943
 30
0.0
 11
44.99999999995498
 21
8.422674108296516
 31
0.0
  0
LINE
  5
235CC
  8
0
  6
CONTINUOUS
 10
43.57899999995641
 20
6.328154899217758
 30
0.0
 11
44.99999999995498
 21
7.749154899216329
 31
0.0
  0
LINE
  5
235CD
  8
0
  6
CONTINUOUS
 10
43.57899999995641
 20
5.654635690137571
 30
0.0
 11
44.99999999995498
 21
7.075635690136142
 31
0.0
  0
LINE
  5
235CE
  8
0
  6
CONTINUOUS
 10
43.57899999995641
 20
4.981116481057384
 30
0.0
 11
44.99999999995498
 21
6.402116481055955
 31
0.0
  0
LINE
  5
235CF
  8
0
  6
CONTINUOUS
 10
39.27140272797921
 20
-0.0000000000000009
 30
0.0
 11
40.02599999995994
 21
0.7545972719807246
 31
0.0
  0
LINE
  5
235D0
  8
0
  6
CONTINUOUS
 10
39.9449219370594
 20
-0.0000000000000009
 30
0.0
 11
40.02599999995994
 21
0.0810780629005379
 31
0.0
  0
LINE
  5
235D1
  8
0
  6
CONTINUOUS
 10
42.18817142235812
 20
2.916768694378905
 30
0.0
 11
43.16119791794597
 21
3.889795189966758
 31
0.0
  0
LINE
  5
235D2
  8
0
  6
CONTINUOUS
 10
42.50563373493829
 20
2.560711797878898
 30
0.0
 11
43.47866023052615
 21
3.533738293466751
 31
0.0
  0
LINE
  5
235D3
  8
0
  6
CONTINUOUS
 10
43.57899999995641
 20
4.307597271977198
 30
0.0
 11
44.99999999995498
 21
5.728597271975769
 31
0.0
  0
LINE
  5
235D4
  8
0
  6
CONTINUOUS
 10
43.57899999995641
 20
3.634078062897011
 30
0.0
 11
44.99999999995498
 21
5.055078062895582
 31
0.0
  0
LINE
  5
235D5
  8
0
  6
CONTINUOUS
 10
42.82309604751848
 20
2.204654901378891
 30
0.0
 11
44.99999999995498
 21
4.381558853815395
 31
0.0
  0
LINE
  5
235D6
  8
0
  6
CONTINUOUS
 10
43.14055836009865
 20
1.848598004878885
 30
0.0
 11
44.99999999995498
 21
3.70803964473521
 31
0.0
  0
LINE
  5
235D7
  8
0
  6
CONTINUOUS
 10
43.45802067267883
 20
1.492541108378878
 30
0.0
 11
44.99999999995498
 21
3.034520435655023
 31
0.0
  0
LINE
  5
235D8
  8
0
  6
CONTINUOUS
 10
43.77548298525902
 20
1.136484211878871
 30
0.0
 11
44.99999999995498
 21
2.361001226574837
 31
0.0
  0
LINE
  5
235D9
  8
0
  6
CONTINUOUS
 10
44.09294529783919
 20
0.7804273153788639
 30
0.0
 11
44.99999999995498
 21
1.687482017494649
 31
0.0
  0
LINE
  5
235DA
  8
0
  6
CONTINUOUS
 10
44.41040761041938
 20
0.4243704188788566
 30
0.0
 11
44.99999999995498
 21
1.013962808414463
 31
0.0
  0
LINE
  5
235DB
  8
0
  6
CONTINUOUS
 10
44.72786992299955
 20
0.0683135223788494
 30
0.0
 11
44.99999999995498
 21
0.340443599334276
 31
0.0
  0
LINE
  5
235DC
  8
0
  6
CONTINUOUS
 10
39.12223903415696
 20
-0.0000000000000009
 30
0.0
 11
38.60499999996136
 21
0.5172390341955961
 31
0.0
  0
LINE
  5
235DD
  8
0
  6
CONTINUOUS
 10
39.79575824323715
 20
-0.0000000000000009
 30
0.0
 11
38.60499999996136
 21
1.190758243275783
 31
0.0
  0
LINE
  5
235DE
  8
0
  6
CONTINUOUS
 10
40.02599999995994
 20
0.443277452357397
 30
0.0
 11
38.60499999996136
 21
1.864277452355969
 31
0.0
  0
LINE
  5
235DF
  8
0
  6
CONTINUOUS
 10
40.02599999995994
 20
1.116796661437583
 30
0.0
 11
38.60499999996136
 21
2.537796661436155
 31
0.0
  0
LINE
  5
235E0
  8
0
  6
CONTINUOUS
 10
40.02599999995994
 20
1.79031587051777
 30
0.0
 11
38.60499999996136
 21
3.211315870516341
 31
0.0
  0
LINE
  5
235E1
  8
0
  6
CONTINUOUS
 10
40.02599999995994
 20
2.463835079597956
 30
0.0
 11
38.60499999996136
 21
3.884835079596527
 31
0.0
  0
LINE
  5
235E2
  8
0
  6
CONTINUOUS
 10
40.02599999995994
 20
3.137354288678143
 30
0.0
 11
38.60499999996136
 21
4.558354288676714
 31
0.0
  0
LINE
  5
235E3
  8
0
  6
CONTINUOUS
 10
40.02599999995994
 20
3.810873497758329
 30
0.0
 11
38.60499999996136
 21
5.2318734977569
 31
0.0
  0
LINE
  5
235E4
  8
0
  6
CONTINUOUS
 10
40.02599999995994
 20
4.484392706838515
 30
0.0
 11
38.60499999996136
 21
5.905392706837086
 31
0.0
  0
LINE
  5
235E5
  8
0
  6
CONTINUOUS
 10
44.99999999995498
 20
0.183911915923658
 30
0.0
 11
41.53858364506288
 21
3.64532827081576
 31
0.0
  0
LINE
  5
235E6
  8
0
  6
CONTINUOUS
 10
40.02599999995994
 20
5.157911915918703
 30
0.0
 11
38.60499999996136
 21
6.578911915917274
 31
0.0
  0
LINE
  5
235E7
  8
0
  6
CONTINUOUS
 10
44.99999999995498
 20
0.8574311250038447
 30
0.0
 11
38.60499999996136
 21
7.25243112499746
 31
0.0
  0
LINE
  5
235E8
  8
0
  6
CONTINUOUS
 10
44.99999999995498
 20
1.530950334084031
 30
0.0
 11
38.60499999996136
 21
7.925950334077647
 31
0.0
  0
LINE
  5
235E9
  8
0
  6
CONTINUOUS
 10
44.99999999995498
 20
2.204469543164218
 30
0.0
 11
43.57899999995641
 21
3.625469543162789
 31
0.0
  0
LINE
  5
235EA
  8
0
  6
CONTINUOUS
 10
41.89876730984767
 20
5.305702233271528
 30
0.0
 11
38.60499999996136
 21
8.599469543157834
 31
0.0
  0
LINE
  5
235EB
  8
0
  6
CONTINUOUS
 10
44.99999999995498
 20
2.877988752244405
 30
0.0
 11
43.57899999995641
 21
4.298988752242975
 31
0.0
  0
LINE
  5
235EC
  8
0
  6
CONTINUOUS
 10
44.99999999995498
 20
3.551507961324591
 30
0.0
 11
43.57899999995641
 21
4.972507961323163
 31
0.0
  0
LINE
  5
235ED
  8
0
  6
CONTINUOUS
 10
44.99999999995498
 20
4.225027170404777
 30
0.0
 11
43.57899999995641
 21
5.646027170403348
 31
0.0
  0
LINE
  5
235EE
  8
0
  6
CONTINUOUS
 10
44.99999999995498
 20
4.898546379484964
 30
0.0
 11
43.57899999995641
 21
6.319546379483535
 31
0.0
  0
LINE
  5
235EF
  8
0
  6
CONTINUOUS
 10
44.99999999995498
 20
5.572065588565151
 30
0.0
 11
43.57899999995641
 21
6.993065588563722
 31
0.0
  0
LINE
  5
235F0
  8
0
  6
CONTINUOUS
 10
44.99999999995498
 20
6.245584797645336
 30
0.0
 11
43.57899999995641
 21
7.666584797643908
 31
0.0
  0
LINE
  5
235F1
  8
0
  6
CONTINUOUS
 10
44.99999999995498
 20
6.919104006725522
 30
0.0
 11
43.57899999995641
 21
8.340104006724093
 31
0.0
  0
LINE
  5
235F2
  8
0
  6
CONTINUOUS
 10
44.99999999995498
 20
7.592623215805709
 30
0.0
 11
43.82952321576943
 21
8.763099999991255
 31
0.0
  0
LINE
  5
235F3
  8
0
  6
CONTINUOUS
 10
44.99999999995498
 20
8.266142424885896
 30
0.0
 11
44.50304242484962
 21
8.763099999991255
 31
0.0
  0
ENDBLK
  5
2361D
  8
0
  0
BLOCK
  8
0
  2
*X136
 70
     1
 10
0.0
 20
0.0
 30
0.0
  3
*X136
  1

  0
LINE
  5
235F5
  8
0
  6
CONTINUOUS
 10
0.0
 20
8.548461116714023
 30
0.0
 11
0.2146388832772324
 21
8.763099999991255
 31
0.0
  0
LINE
  5
235F6
  8
0
  6
CONTINUOUS
 10
-0.0000000000000002
 20
7.874941907633837
 30
0.0
 11
0.8881580923574184
 21
8.763099999991255
 31
0.0
  0
LINE
  5
235F7
  8
0
  6
CONTINUOUS
 10
0.0
 20
7.20142269855365
 30
0.0
 11
1.420999999998572
 21
8.622422698552223
 31
0.0
  0
LINE
  5
235F8
  8
0
  6
CONTINUOUS
 10
-0.0000000000000001
 20
6.527903489473465
 30
0.0
 11
1.420999999998571
 21
7.948903489472036
 31
0.0
  0
LINE
  5
235F9
  8
0
  6
CONTINUOUS
 10
-0.0000000000000002
 20
5.854384280393278
 30
0.0
 11
1.420999999998571
 21
7.275384280391849
 31
0.0
  0
LINE
  5
235FA
  8
0
  6
CONTINUOUS
 10
-0.0000000000000002
 20
5.180865071313091
 30
0.0
 11
1.420999999998571
 21
6.601865071311663
 31
0.0
  0
LINE
  5
235FB
  8
0
  6
CONTINUOUS
 10
0.0
 20
4.507345862232905
 30
0.0
 11
1.420999999998571
 21
5.928345862231477
 31
0.0
  0
LINE
  5
235FC
  8
0
  6
CONTINUOUS
 10
-0.0000000000000003
 20
3.833826653152718
 30
0.0
 11
1.420999999998571
 21
5.25482665315129
 31
0.0
  0
LINE
  5
235FD
  8
0
  6
CONTINUOUS
 10
-0.0000000000000002
 20
3.160307444072532
 30
0.0
 11
1.420999999998571
 21
4.581307444071103
 31
0.0
  0
LINE
  5
235FE
  8
0
  6
CONTINUOUS
 10
-0.0000000000000001
 20
2.486788234992345
 30
0.0
 11
1.420999999998571
 21
3.907788234990917
 31
0.0
  0
LINE
  5
235FF
  8
0
  6
CONTINUOUS
 10
-0.0000000000000006
 20
1.813269025912159
 30
0.0
 11
1.420999999998571
 21
3.234269025910731
 31
0.0
  0
LINE
  5
23600
  8
0
  6
CONTINUOUS
 10
0.0
 20
1.139749816831973
 30
0.0
 11
1.420999999998571
 21
2.560749816830544
 31
0.0
  0
LINE
  5
23601
  8
0
  6
CONTINUOUS
 10
0.0000000000000002
 20
0.466230607751787
 30
0.0
 11
1.420999999998571
 21
1.887230607750358
 31
0.0
  0
LINE
  5
23602
  8
0
  6
CONTINUOUS
 10
0.2072886013284003
 20
-0.0000000000000009
 30
0.0
 11
1.420999999998571
 21
1.213711398670171
 31
0.0
  0
LINE
  5
23603
  8
0
  6
CONTINUOUS
 10
0.8808078104085864
 20
-0.0000000000000009
 30
0.0
 11
1.420999999998571
 21
0.5401921895899839
 31
0.0
  0
LINE
  5
23604
  8
0
  6
CONTINUOUS
 10
0.0581249075061505
 20
-0.0000000000000009
 30
0.0
 11
-0.0000000000000002
 21
0.0581249075061496
 31
0.0
  0
LINE
  5
23605
  8
0
  6
CONTINUOUS
 10
0.7316441165863372
 20
-0.0000000000000009
 30
0.0
 11
-0.0000000000000002
 21
0.7316441165863363
 31
0.0
  0
LINE
  5
23606
  8
0
  6
CONTINUOUS
 10
1.405163325666523
 20
-0.0000000000000009
 30
0.0
 11
-0.0000000000000002
 21
1.405163325666523
 31
0.0
  0
LINE
  5
23607
  8
0
  6
CONTINUOUS
 10
1.420999999998572
 20
0.6576825347481381
 30
0.0
 11
-0.0000000000000001
 21
2.07868253474671
 31
0.0
  0
LINE
  5
23608
  8
0
  6
CONTINUOUS
 10
1.420999999998571
 20
1.331201743828324
 30
0.0
 11
-0.0000000000000001
 21
2.752201743826896
 31
0.0
  0
LINE
  5
23609
  8
0
  6
CONTINUOUS
 10
1.420999999998571
 20
2.004720952908511
 30
0.0
 11
-0.0000000000000002
 21
3.425720952907082
 31
0.0
  0
LINE
  5
2360A
  8
0
  6
CONTINUOUS
 10
1.420999999998571
 20
2.678240161988697
 30
0.0
 11
-0.0000000000000001
 21
4.099240161987269
 31
0.0
  0
LINE
  5
2360B
  8
0
  6
CONTINUOUS
 10
1.420999999998572
 20
3.351759371068884
 30
0.0
 11
0.0
 21
4.772759371067455
 31
0.0
  0
LINE
  5
2360C
  8
0
  6
CONTINUOUS
 10
1.420999999998571
 20
4.02527858014907
 30
0.0
 11
-0.0000000000000003
 21
5.446278580147642
 31
0.0
  0
LINE
  5
2360D
  8
0
  6
CONTINUOUS
 10
1.420999999998571
 20
4.698797789229257
 30
0.0
 11
0.0
 21
6.119797789227828
 31
0.0
  0
LINE
  5
2360E
  8
0
  6
CONTINUOUS
 10
1.420999999998571
 20
5.372316998309444
 30
0.0
 11
-0.0000000000000001
 21
6.793316998308015
 31
0.0
  0
LINE
  5
2360F
  8
0
  6
CONTINUOUS
 10
1.420999999998572
 20
6.045836207389629
 30
0.0
 11
-0.0000000000000004
 21
7.466836207388202
 31
0.0
  0
LINE
  5
23610
  8
0
  6
CONTINUOUS
 10
1.420999999998571
 20
6.719355416469816
 30
0.0
 11
0.0
 21
8.140355416468388
 31
0.0
  0
LINE
  5
23611
  8
0
  6
CONTINUOUS
 10
1.420999999998571
 20
7.392874625550003
 30
0.0
 11
0.0507746255573185
 21
8.763099999991255
 31
0.0
  0
LINE
  5
23612
  8
0
  6
CONTINUOUS
 10
1.420999999998571
 20
8.06639383463019
 30
0.0
 11
0.7242938346375052
 21
8.763099999991255
 31
0.0
  0
LINE
  5
23613
  8
0
  6
CONTINUOUS
 10
1.420999999998571
 20
8.739913043710375
 30
0.0
 11
1.397813043717691
 21
8.763099999991255
 31
0.0
  0
ENDBLK
  5
2361F
  8
0
  0
ENDSEC
  0
SECTION
  2
ENTITIES
  0
LINE
  5
20777
  8
01
 10
-2103.490503141534
 20
-1122.315400167666
 30
0.0
 11
-2103.490503141534
 21
-1287.315400167666
 31
0.0
  0
LINE
  5
20778
  8
01
 10
-2096.490503141534
 20
-1168.315400167666
 30
0.0
 11
-2096.490503141534
 21
-1275.315400167666
 31
0.0
  0
ARC
  5
20779
  8
01
 10
-2094.990503141534
 20
-1168.315400167666
 30
0.0
 40
1.5
 50
90.0
 51
180.0
  0
LINE
  5
2077A
  8
01
 10
-2067.490503141534
 20
-1122.315400167666
 30
0.0
 11
-2067.490503141534
 21
-1287.315400167666
 31
0.0
  0
ARC
  5
2077B
  8
01
 10
-2067.990503141534
 20
-1122.315400167666
 30
0.0
 40
0.5
 50
0.0
 51
90.0
  0
ARC
  5
2077C
  8
01
 10
-2067.990503141534
 20
-1287.315400167666
 30
0.0
 40
0.5
 50
270.0
 51
0.0
  0
LINE
  5
2077D
  8
01
 10
-2074.490503141534
 20
-1168.315400167666
 30
0.0
 11
-2074.490503141534
 21
-1275.315400167666
 31
0.0
  0
ARC
  5
2077E
  8
01
 10
-2075.990503141534
 20
-1275.315400167666
 30
0.0
 40
1.5
 50
270.0
 51
0.0
  0
ARC
  5
2077F
  8
01
 10
-2075.990503141534
 20
-1168.315400167666
 30
0.0
 40
1.5
 50
0.0
 51
90.0
  0
LINE
  5
20780
  8
01
 10
-2102.990503141534
 20
-1121.815400167666
 30
0.0
 11
-2067.990503141534
 21
-1121.815400167666
 31
0.0
  0
ARC
  5
20781
  8
01
 10
-2102.990503141534
 20
-1122.315400167666
 30
0.0
 40
0.5
 50
90.0
 51
180.0
  0
LINE
  5
20782
  8
01
 10
-2102.990503141534
 20
-1287.815400167666
 30
0.0
 11
-2067.990503141534
 21
-1287.815400167666
 31
0.0
  0
ARC
  5
20783
  8
01
 10
-2102.990503141534
 20
-1287.315400167666
 30
0.0
 40
0.5
 50
180.0
 51
270.0
  0
LINE
  5
20784
  8
01
 10
-2094.990503141534
 20
-1276.815400167666
 30
0.0
 11
-2075.990503141534
 21
-1276.815400167666
 31
0.0
  0
ARC
  5
20785
  8
01
 10
-2094.990503141534
 20
-1275.315400167666
 30
0.0
 40
1.5
 50
179.9999999999999
 51
270.0
  0
LINE
  5
20786
  8
01
 10
-2094.990503141534
 20
-1166.815400167666
 30
0.0
 11
-2075.990503141534
 21
-1166.815400167666
 31
0.0
  0
LINE
  5
207E3
  8
01
 10
-1962.80159095617
 20
-1122.315400167666
 30
0.0
 11
-1962.80159095617
 21
-1287.315400167666
 31
0.0
  0
LINE
  5
207E4
  8
01
 10
-1955.80159095617
 20
-1168.315400167666
 30
0.0
 11
-1955.80159095617
 21
-1275.315400167666
 31
0.0
  0
ARC
  5
207E5
  8
01
 10
-1954.30159095617
 20
-1168.315400167666
 30
0.0
 40
1.5
 50
90.0
 51
180.0
  0
LINE
  5
207E6
  8
01
 10
-1926.80159095617
 20
-1122.315400167666
 30
0.0
 11
-1926.80159095617
 21
-1287.315400167666
 31
0.0
  0
ARC
  5
207E7
  8
01
 10
-1927.30159095617
 20
-1122.315400167666
 30
0.0
 40
0.5
 50
0.0
 51
90.0
  0
ARC
  5
207E8
  8
01
 10
-1927.30159095617
 20
-1287.315400167666
 30
0.0
 40
0.5
 50
270.0
 51
0.0
  0
LINE
  5
207E9
  8
01
 10
-1933.80159095617
 20
-1168.315400167666
 30
0.0
 11
-1933.80159095617
 21
-1275.315400167666
 31
0.0
  0
ARC
  5
207EA
  8
01
 10
-1935.30159095617
 20
-1275.315400167666
 30
0.0
 40
1.5
 50
270.0
 51
0.0
  0
ARC
  5
207EB
  8
01
 10
-1935.30159095617
 20
-1168.315400167666
 30
0.0
 40
1.5
 50
0.0
 51
90.0
  0
LINE
  5
207EC
  8
01
 10
-1962.30159095617
 20
-1121.815400167666
 30
0.0
 11
-1927.30159095617
 21
-1121.815400167666
 31
0.0
  0
ARC
  5
207ED
  8
01
 10
-1962.30159095617
 20
-1122.315400167666
 30
0.0
 40
0.5
 50
90.0
 51
180.0
  0
LINE
  5
207EE
  8
01
 10
-1962.30159095617
 20
-1287.815400167666
 30
0.0
 11
-1927.30159095617
 21
-1287.815400167666
 31
0.0
  0
ARC
  5
207EF
  8
01
 10
-1962.30159095617
 20
-1287.315400167666
 30
0.0
 40
0.5
 50
180.0
 51
270.0
  0
LINE
  5
207F0
  8
01
 10
-1954.30159095617
 20
-1276.815400167666
 30
0.0
 11
-1935.30159095617
 21
-1276.815400167666
 31
0.0
  0
ARC
  5
207F1
  8
01
 10
-1954.30159095617
 20
-1275.315400167666
 30
0.0
 40
1.5
 50
179.9999999999999
 51
270.0
  0
LINE
  5
207F2
  8
01
 10
-1954.30159095617
 20
-1166.815400167666
 30
0.0
 11
-1935.30159095617
 21
-1166.815400167666
 31
0.0
  0
CIRCLE
  5
20812
  8
01
 10
-1944.80159095617
 20
-1128.815400167666
 30
0.0
 40
3.1
  0
CIRCLE
  5
20814
  8
01
 10
-1944.80159095617
 20
-1281.315400167666
 30
0.0
 40
3.1
  0
LINE
  5
2085A
  8
1PHANTOM
 10
-1868.040962452133
 20
-1129.815400167666
 30
0.0
 11
-1868.040962452134
 21
-1278.815400167666
 31
0.0
  0
ARC
  5
2085D
  8
1PHANTOM
 10
-1874.040962452134
 20
-1278.815400167666
 30
0.0
 40
6.0
 50
270.0
 51
0.0
  0
LINE
  5
20861
  8
1PHANTOM
 10
-1895.040962452134
 20
-1129.815400167666
 30
0.0
 11
-1895.040962452134
 21
-1278.815400167666
 31
0.0
  0
ARC
  5
20863
  8
1PHANTOM
 10
-1889.040962452134
 20
-1129.815400167666
 30
0.0
 40
6.0
 50
90.0
 51
180.0
  0
LINE
  5
2086B
  8
1PHANTOM
 10
-1874.040962452133
 20
-1123.815400167666
 30
0.0
 11
-1889.040962452134
 21
-1123.815400167666
 31
0.0
  0
ARC
  5
2086C
  8
1PHANTOM
 10
-1874.040962452133
 20
-1129.815400167666
 30
0.0
 40
6.0
 50
0.0
 51
90.0
  0
LINE
  5
20870
  8
1PHANTOM
 10
-1875.040962452134
 20
-1284.815400167666
 30
0.0
 11
-1889.040962452134
 21
-1284.815400167666
 31
0.0
  0
ARC
  5
20871
  8
1PHANTOM
 10
-1889.040962452134
 20
-1278.815400167666
 30
0.0
 40
6.0
 50
180.0
 51
270.0
  0
LINE
  5
2092D
  8
1PHANTOM
 10
-1888.540962452134
 20
-1284.815400167666
 30
0.0
 11
-1884.640962452134
 21
-1284.815400167666
 31
0.0
  0
LINE
  5
2092E
  8
1PHANTOM
 10
-1889.040962452134
 20
-1284.815400167666
 30
0.0
 11
-1874.540962452134
 21
-1284.815400167666
 31
0.0
  0
LINE
  5
20CF6
  8
01
 10
-2031.866424046368
 20
-1287.815400167666
 30
0.0
 11
-2030.866424046368
 21
-1287.815400167666
 31
0.0
  0
LINE
  5
20CF7
  8
01
 10
-2030.866424046368
 20
-1284.815400167666
 30
0.0
 11
-1990.866424046368
 21
-1284.815400167665
 31
0.0
  0
LINE
  5
20CF8
  8
01
 10
-2032.366424046368
 20
-1122.315400167666
 30
0.0
 11
-2032.366424046368
 21
-1287.315400167666
 31
0.0
  0
ARC
  5
20CFC
  8
01
 10
-2031.866424046368
 20
-1122.315400167666
 30
0.0
 40
0.5
 50
90.0
 51
180.0
  0
LINE
  5
20CFF
  8
01
 10
-2030.866424046368
 20
-1108.807110280356
 30
0.0
 11
-2030.866424046368
 21
-1310.487168956854
 31
0.0
  0
LINE
  5
20D00
  8
01
 10
-2031.866424046368
 20
-1121.815400167666
 30
0.0
 11
-2030.866424046368
 21
-1121.815400167666
 31
0.0
  0
LINE
  5
20D01
  8
01
 10
-2030.866424046368
 20
-1124.815400167666
 30
0.0
 11
-1990.866424046368
 21
-1124.815400167666
 31
0.0
  0
ARC
  5
20D02
  8
01
 10
-2031.866424046368
 20
-1287.315400167665
 30
0.0
 40
0.5
 50
180.0000000000391
 51
270.0
  0
LINE
  5
214A3
  8
01
 10
-2017.366424046368
 20
-1155.815400167666
 30
0.0
 11
-2018.866424046341
 21
-1155.815400167666
 31
0.0
  0
LINE
  5
214DD
  8
01
 10
-2017.366424046368
 20
-1156.815400167666
 30
0.0
 11
-2017.366424046368
 21
-1284.815400167666
 31
0.0
  0
LINE
  5
214DE
  8
01
 10
-2017.366424046368
 20
-1156.815400167666
 30
0.0
 11
-2018.866424046368
 21
-1156.815400167666
 31
0.0
  0
LINE
  5
214E1
  8
01
 10
-2018.866424046341
 20
-1155.815400167666
 30
0.0
 11
-2018.86642404637
 21
-1284.815400167666
 31
0.0
  0
LINE
  5
2153B
  8
01
 10
-2018.866424046368
 20
-1276.565400167666
 30
0.0
 11
-2018.866424046368
 21
-1277.815400167666
 31
0.0
  0
LINE
  5
21978
  8
01
 10
-1989.866424046368
 20
-1287.815400167666
 30
0.0
 11
-1990.866424046368
 21
-1287.815400167666
 31
0.0
  0
LINE
  5
2197A
  8
01
 10
-1989.366424046369
 20
-1122.315400167666
 30
0.0
 11
-1989.366424046368
 21
-1287.315400167666
 31
0.0
  0
ARC
  5
2197E
  8
01
 10
-1989.866424046369
 20
-1122.315400167666
 30
0.0
 40
0.5
 50
0.000000000000007
 51
90.0
  0
LINE
  5
21980
  8
01
 10
-2002.866424046369
 20
-1276.565400167666
 30
0.0
 11
-2002.866424046369
 21
-1284.815400167666
 31
0.0
  0
LINE
  5
21981
  8
01
 10
-2004.36642404637
 20
-1124.815400167666
 30
0.0
 11
-2004.366424046369
 21
-1155.815400167666
 31
0.0
  0
LINE
  5
21983
  8
01
 10
-1990.866424046368
 20
-1108.807110280356
 30
0.0
 11
-1990.866424046368
 21
-1310.487168956854
 31
0.0
  0
LINE
  5
21984
  8
01
 10
-1989.866424046369
 20
-1121.815400167666
 30
0.0
 11
-1990.866424046368
 21
-1121.815400167666
 31
0.0
  0
ARC
  5
21986
  8
01
 10
-1989.866424046368
 20
-1287.315400167666
 30
0.0
 40
0.5
 50
270.0
 51
359.9999999999609
  0
LINE
  5
219A6
  8
01
 10
-2004.366424046369
 20
-1155.815400167666
 30
0.0
 11
-2002.866424046369
 21
-1155.815400167666
 31
0.0
  0
LINE
  5
219AB
  8
01
 10
-2004.366424046369
 20
-1156.815400167666
 30
0.0
 11
-2004.366424046369
 21
-1284.815400167666
 31
0.0
  0
LINE
  5
219AC
  8
01
 10
-2004.366424046369
 20
-1156.815400167666
 30
0.0
 11
-2002.866424046369
 21
-1156.815400167666
 31
0.0
  0
LINE
  5
219AF
  8
01
 10
-2002.866424046369
 20
-1155.815400167666
 30
0.0
 11
-2002.866424046369
 21
-1284.815400167666
 31
0.0
  0
LINE
  5
21A78
  8
01
 10
-2011.166424046368
 20
-1278.315400167666
 30
0.0
 11
-2017.366424046368
 21
-1278.315400167666
 31
0.0
  0
LINE
  5
21A79
  8
01
 10
-2011.166424046367
 20
-1284.315400167666
 30
0.0
 11
-2017.366424046368
 21
-1284.315400167666
 31
0.0
  0
LINE
  5
21A8C
  8
01
 10
-2017.366424046368
 20
-1124.815400167666
 30
0.0
 11
-2017.366424046368
 21
-1155.815400167666
 31
0.0
  0
ARC
  5
21C5F
  8
01
 10
-2016.866424046368
 20
-1125.315400167666
 30
0.0
 40
0.5
 50
180.0
 51
269.9999999999979
  0
ARC
  5
21C60
  8
01
 10
-2016.866424046367
 20
-1132.315400167665
 30
0.0
 40
0.5
 50
89.99999999999369
 51
180.0
  0
TEXT
  5
22045
  8
1TEXT
 10
-1840.567425489834
 20
-1233.569649618466
 30
0.0
 40
8.0
  1
PC-386-X
 41
0.92436976
  0
LINE
  5
22052
  8
01
 10
-2005.866424046369
 20
-1279.315400167666
 30
0.0
 11
-2004.366424046369
 21
-1279.315400167666
 31
0.0
  0
LINE
  5
22059
  8
01
 10
-2005.866424046368
 20
-1283.315400167666
 30
0.0
 11
-2004.366424046369
 21
-1283.315400167666
 31
0.0
  0
LINE
  5
2205C
  8
01
 10
-2005.866424046368
 20
-1282.965400167665
 30
0.0
 11
-2004.366424046369
 21
-1282.965400167665
 31
0.0
  0
LINE
  5
2205D
  8
01
 10
-2005.866424046368
 20
-1279.665400167666
 30
0.0
 11
-2004.366424046369
 21
-1279.665400167666
 31
0.0
  0
LINE
  5
22148
  8
01
 10
-2067.490503141534
 20
-1320.661869464091
 30
0.0
 11
-2103.490503141534
 21
-1320.661869464091
 31
0.0
  0
LINE
  5
22149
  8
01
 10
-2067.990503141534
 20
-1319.161869464091
 30
0.0
 11
-2102.990503141535
 21
-1319.16186946409
 31
0.0
  0
LINE
  5
2214A
  8
01
 10
-2072.490503141534
 20
-1332.661869464091
 30
0.0
 11
-2098.490503141534
 21
-1332.66186946409
 31
0.0
  0
ARC
  5
2214C
  8
01
 10
-2102.990503141535
 20
-1319.66186946409
 30
0.0
 40
0.5
 50
90.0
 51
180.0
  0
LINE
  5
2214D
  8
01
 10
-2067.490503141534
 20
-1320.661869464091
 30
0.0
 11
-2067.490503141534
 21
-1319.661869464091
 31
0.0
  0
LINE
  5
2214E
  8
01
 10
-2072.490503141534
 20
-1332.661869464091
 30
0.0
 11
-2072.490503141534
 21
-1320.661869464091
 31
0.0
  0
ARC
  5
22153
  8
01
 10
-2067.990503141534
 20
-1319.661869464091
 30
0.0
 40
0.5
 50
0.0
 51
90.0
  0
LINE
  5
22154
  8
01
 10
-2103.490503141534
 20
-1320.661869464091
 30
0.0
 11
-2103.490503141535
 21
-1319.66186946409
 31
0.0
  0
LINE
  5
22155
  8
01
 10
-2098.490503141534
 20
-1332.66186946409
 30
0.0
 11
-2098.490503141534
 21
-1320.66186946409
 31
0.0
  0
LINE
  5
2216D
  8
01
 10
-2088.490503141534
 20
-1345.361869464091
 30
0.0
 11
-2088.490503141534
 21
-1333.16186946409
 31
0.0
  0
ARC
  5
2216E
  8
01
 10
-2088.190503141534
 20
-1345.361869464091
 30
0.0
 40
0.3
 50
180.0
 51
270.0
  0
LINE
  5
2216F
  8
01
 10
-2082.490503141534
 20
-1345.36186946409
 30
0.0
 11
-2082.490503141534
 21
-1333.161869464091
 31
0.0
  0
ARC
  5
22171
  8
01
 10
-2082.790503141534
 20
-1345.36186946409
 30
0.0
 40
0.3
 50
270.0
 51
0.0
  0
LINE
  5
221A9
  8
01
 10
-2072.990503141534
 20
-1334.161869464091
 30
0.0
 11
-2082.490503141534
 21
-1334.16186946409
 31
0.0
  0
LINE
  5
221AA
  8
01
 10
-2072.990503141534
 20
-1334.161869464091
 30
0.0
 11
-2072.990503141535
 21
-1332.661869464091
 31
0.0
  0
LINE
  5
221AB
  8
01
 10
-2097.990503141534
 20
-1334.16186946409
 30
0.0
 11
-2097.990503141534
 21
-1332.661869464091
 31
0.0
  0
LINE
  5
221AE
  8
01
 10
-2088.490503141534
 20
-1334.16186946409
 30
0.0
 11
-2097.990503141534
 21
-1334.16186946409
 31
0.0
  0
LINE
  5
221AF
  8
01
 10
-2081.990503141535
 20
-1334.16186946409
 30
0.0
 11
-2081.990503141534
 21
-1332.66186946409
 31
0.0
  0
LINE
  5
221B0
  8
01
 10
-2088.990503141534
 20
-1334.16186946409
 30
0.0
 11
-2088.990503141534
 21
-1332.66186946409
 31
0.0
  0
ARC
  5
221B1
  8
01
 10
-2081.990503141534
 20
-1333.161869464091
 30
0.0
 40
0.5
 50
89.99999999999952
 51
180.0
  0
ARC
  5
221B2
  8
01
 10
-2088.990503141534
 20
-1333.16186946409
 30
0.0
 40
0.5
 50
0.0
 51
89.99999999999952
  0
LINE
  5
221B4
  8
01
 10
-1926.801590956169
 20
-1320.661869464091
 30
0.0
 11
-1962.80159095617
 21
-1320.661869464091
 31
0.0
  0
LINE
  5
221B5
  8
01
 10
-1927.30159095617
 20
-1319.161869464091
 30
0.0
 11
-1962.30159095617
 21
-1319.16186946409
 31
0.0
  0
LINE
  5
221B6
  8
01
 10
-1931.80159095617
 20
-1332.661869464091
 30
0.0
 11
-1957.80159095617
 21
-1332.66186946409
 31
0.0
  0
LINE
  5
221B9
  8
01
 10
-1932.30159095617
 20
-1334.161869464091
 30
0.0
 11
-1957.30159095617
 21
-1334.16186946409
 31
0.0
  0
ARC
  5
221BB
  8
01
 10
-1962.30159095617
 20
-1319.66186946409
 30
0.0
 40
0.5
 50
90.0
 51
180.0
  0
LINE
  5
221BC
  8
01
 10
-1926.801590956169
 20
-1320.661869464091
 30
0.0
 11
-1926.80159095617
 21
-1319.661869464091
 31
0.0
  0
LINE
  5
221BD
  8
01
 10
-1931.80159095617
 20
-1332.661869464091
 30
0.0
 11
-1931.80159095617
 21
-1320.661869464091
 31
0.0
  0
ARC
  5
221BE
  8
01
 10
-1927.30159095617
 20
-1319.661869464091
 30
0.0
 40
0.5
 50
0.0
 51
90.0
  0
LINE
  5
221BF
  8
01
 10
-1962.80159095617
 20
-1320.661869464091
 30
0.0
 11
-1962.80159095617
 21
-1319.66186946409
 31
0.0
  0
LINE
  5
221C0
  8
01
 10
-1957.80159095617
 20
-1332.66186946409
 30
0.0
 11
-1957.80159095617
 21
-1320.66186946409
 31
0.0
  0
LINE
  5
221C2
  8
01
 10
-1957.30159095617
 20
-1334.16186946409
 30
0.0
 11
-1957.30159095617
 21
-1332.661869464091
 31
0.0
  0
LINE
  5
221C3
  8
01
 10
-1932.30159095617
 20
-1334.161869464091
 30
0.0
 11
-1932.30159095617
 21
-1332.661869464091
 31
0.0
  0
LINE
  5
221C5
  8
01
 10
-1948.301590956169
 20
-1334.16186946409
 30
0.0
 11
-1948.301590956171
 21
-1327.66186946409
 31
0.0
  0
LINE
  5
221C8
  8
01
 10
-1941.30159095617
 20
-1334.16186946409
 30
0.0
 11
-1941.301590956168
 21
-1327.66186946409
 31
0.0
  0
LINE
  5
221E5
  8
01
 10
-1941.301590956168
 20
-1327.66186946409
 30
0.0
 11
-1948.301590956171
 21
-1327.66186946409
 31
0.0
  0
ARC
  5
22202
  8
01
 10
-1943.90159097617
 20
-1282.215400147666
 30
0.0
 40
0.5
 50
90.00000299999769
 51
180.000010000001
  0
ARC
  5
22203
  8
01
 10
-1943.90159097617
 20
-1280.415400187666
 30
0.0
 40
0.5
 50
179.999989999999
 51
270.0
  0
LINE
  5
22204
  8
01
 10
-1945.70159093617
 20
-1281.715400177666
 30
0.0
 11
-1946.80159095617
 21
-1281.715400177666
 31
0.0
  0
LINE
  5
22205
  8
01
 10
-1945.70159093617
 20
-1280.915400157666
 30
0.0
 11
-1946.80159095617
 21
-1280.915400157666
 31
0.0
  0
LINE
  5
22206
  8
01
 10
-1946.80159095617
 20
-1281.715400177666
 30
0.0
 11
-1946.80159095617
 21
-1280.915400157666
 31
0.0
  0
LINE
  5
22207
  8
01
 10
-1945.20159096617
 20
-1283.315400167666
 30
0.0
 11
-1945.20159096617
 21
-1282.215400147666
 31
0.0
  0
LINE
  5
22208
  8
01
 10
-1944.40159094617
 20
-1283.315400167666
 30
0.0
 11
-1944.40159094617
 21
-1282.215400147666
 31
0.0
  0
LINE
  5
22209
  8
01
 10
-1944.40159094617
 20
-1283.315400167666
 30
0.0
 11
-1945.20159096617
 21
-1283.315400167666
 31
0.0
  0
LINE
  5
2220A
  8
01
 10
-1944.40159094617
 20
-1279.315400167666
 30
0.0
 11
-1944.40159094617
 21
-1280.415400187666
 31
0.0
  0
LINE
  5
2220B
  8
01
 10
-1945.20159096617
 20
-1279.315400167666
 30
0.0
 11
-1945.20159096617
 21
-1280.415400187666
 31
0.0
  0
LINE
  5
2220C
  8
01
 10
-1945.20159096617
 20
-1279.315400167666
 30
0.0
 11
-1944.40159094617
 21
-1279.315400167666
 31
0.0
  0
ARC
  5
2220D
  8
01
 10
-1945.70159093617
 20
-1280.415400187666
 30
0.0
 40
0.5
 50
270.0
 51
0.0
  0
ARC
  5
2220E
  8
01
 10
-1945.70159093617
 20
-1282.215400147666
 30
0.0
 40
0.5
 50
0.0
 51
90.00000299999769
  0
POINT
  5
2220F
  8
01
 10
-1944.80159095617
 20
-1281.315400167666
 30
0.0
  0
LINE
  5
22210
  8
01
 10
-1943.90159097617
 20
-1280.915400157666
 30
0.0
 11
-1942.80159095617
 21
-1280.915400157666
 31
0.0
  0
LINE
  5
22211
  8
01
 10
-1943.90159097617
 20
-1281.715400177666
 30
0.0
 11
-1942.80159095617
 21
-1281.715400177666
 31
0.0
  0
LINE
  5
22212
  8
01
 10
-1942.80159095617
 20
-1280.915400157666
 30
0.0
 11
-1942.80159095617
 21
-1281.715400177666
 31
0.0
  0
ARC
  5
22214
  8
01
 10
-1943.90159097617
 20
-1129.715400147666
 30
0.0
 40
0.5
 50
90.00000299999769
 51
180.000010000001
  0
ARC
  5
22215
  8
01
 10
-1943.90159097617
 20
-1127.915400187666
 30
0.0
 40
0.5
 50
179.999989999999
 51
270.0
  0
LINE
  5
22216
  8
01
 10
-1945.70159093617
 20
-1129.215400177666
 30
0.0
 11
-1946.80159095617
 21
-1129.215400177666
 31
0.0
  0
LINE
  5
22217
  8
01
 10
-1945.70159093617
 20
-1128.415400157666
 30
0.0
 11
-1946.80159095617
 21
-1128.415400157666
 31
0.0
  0
LINE
  5
22218
  8
01
 10
-1946.80159095617
 20
-1129.215400177666
 30
0.0
 11
-1946.80159095617
 21
-1128.415400157666
 31
0.0
  0
LINE
  5
22219
  8
01
 10
-1945.20159096617
 20
-1130.815400167666
 30
0.0
 11
-1945.20159096617
 21
-1129.715400147666
 31
0.0
  0
LINE
  5
2221A
  8
01
 10
-1944.40159094617
 20
-1130.815400167666
 30
0.0
 11
-1944.40159094617
 21
-1129.715400147666
 31
0.0
  0
LINE
  5
2221B
  8
01
 10
-1944.40159094617
 20
-1130.815400167666
 30
0.0
 11
-1945.20159096617
 21
-1130.815400167666
 31
0.0
  0
LINE
  5
2221C
  8
01
 10
-1944.40159094617
 20
-1126.815400167666
 30
0.0
 11
-1944.40159094617
 21
-1127.915400187666
 31
0.0
  0
LINE
  5
2221D
  8
01
 10
-1945.20159096617
 20
-1126.815400167666
 30
0.0
 11
-1945.20159096617
 21
-1127.915400187666
 31
0.0
  0
LINE
  5
2221E
  8
01
 10
-1945.20159096617
 20
-1126.815400167666
 30
0.0
 11
-1944.40159094617
 21
-1126.815400167666
 31
0.0
  0
ARC
  5
2221F
  8
01
 10
-1945.70159093617
 20
-1127.915400187666
 30
0.0
 40
0.5
 50
270.0
 51
0.0
  0
ARC
  5
22220
  8
01
 10
-1945.70159093617
 20
-1129.715400147666
 30
0.0
 40
0.5
 50
0.0
 51
90.00000299999769
  0
POINT
  5
22221
  8
01
 10
-1944.80159095617
 20
-1128.815400167666
 30
0.0
  0
LINE
  5
22222
  8
01
 10
-1943.90159097617
 20
-1128.415400157666
 30
0.0
 11
-1942.80159095617
 21
-1128.415400157666
 31
0.0
  0
LINE
  5
22223
  8
01
 10
-1943.90159097617
 20
-1129.215400177666
 30
0.0
 11
-1942.80159095617
 21
-1129.215400177666
 31
0.0
  0
LINE
  5
22224
  8
01
 10
-1942.80159095617
 20
-1128.415400157666
 30
0.0
 11
-1942.80159095617
 21
-1129.215400177666
 31
0.0
  0
TEXT
  5
2239A
  8
1TEXT
 10
-1837.035734538706
 20
-1274.003641380167
 30
0.0
 40
4.817387255043688
  1
材質：亜鉛ダイキャスト
 41
0.9396486
  0
TEXT
  5
2239B
  8
1TEXT
 10
-1900.825806598198
 20
-1304.275810969855
 30
0.0
 40
4.817387255043688
  1
切欠図（S=1:1）
 41
0.9396486
  0
LINE
  5
223AD
  8
1CENTER
 10
-1951.00159095617
 20
-1128.81540016767
 30
0.0
 11
-1938.60159095617
 21
-1128.81540016767
 31
0.0
  0
LINE
  5
223AE
  8
1CENTER
 10
-1944.80159095617
 20
-1135.01540016767
 30
0.0
 11
-1944.80159095617
 21
-1122.61540016767
 31
0.0
  0
LINE
  5
223B0
  8
1CENTER
 10
-1951.00159095617
 20
-1281.31540016767
 30
0.0
 11
-1938.60159095617
 21
-1281.31540016767
 31
0.0
  0
LINE
  5
223B1
  8
1CENTER
 10
-1944.80159095617
 20
-1287.51540016767
 30
0.0
 11
-1944.80159095617
 21
-1275.11540016767
 31
0.0
  0
LINE
  5
224DE
  8
01
 10
-1808.581871217796
 20
-1146.224647051615
 30
0.0
 11
-1785.23187139187
 21
-1146.224647051615
 31
0.0
  0
LINE
  5
224DF
  8
01
 10
-1808.581871217796
 20
-1146.224647051615
 30
0.0
 11
-1808.931871217796
 21
-1146.574647051615
 31
0.0
  0
LINE
  5
224E0
  8
01
 10
-1785.23187139187
 20
-1146.224647051615
 30
0.0
 11
-1784.231871317796
 21
-1145.224647051615
 31
0.0
  0
LINE
  5
224E1
  8
01
 10
-1808.931871217796
 20
-1146.574647051615
 30
0.0
 11
-1808.931871217796
 21
-1149.874647051615
 31
0.0
  0
LINE
  5
224E2
  8
01
 10
-1784.231871317796
 20
-1145.224647051615
 30
0.0
 11
-1783.931871217796
 21
-1145.224647051615
 31
0.0
  0
LINE
  5
224E3
  8
01
 10
-1808.931871217796
 20
-1149.874647051615
 30
0.0
 11
-1808.581871217796
 21
-1150.224647051615
 31
0.0
  0
LINE
  5
224E4
  8
01
 10
-1783.931871217796
 20
-1145.224647051615
 30
0.0
 11
-1783.931871217796
 21
-1151.224647051615
 31
0.0
  0
LINE
  5
224E5
  8
01
 10
-1808.581871217796
 20
-1150.224647051615
 30
0.0
 11
-1785.23187139187
 21
-1150.224647051615
 31
0.0
  0
LINE
  5
224E6
  8
01
 10
-1784.231871227796
 20
-1151.224647051615
 30
0.0
 11
-1783.931871217796
 21
-1151.224647051615
 31
0.0
  0
LINE
  5
224E7
  8
01
 10
-1785.23187139187
 20
-1150.224647051615
 30
0.0
 11
-1784.231871227796
 21
-1151.224647051615
 31
0.0
  0
LINE
  5
224E8
  8
01
 10
-1808.931871217796
 20
-1149.874647051615
 30
0.0
 11
-1785.581871217796
 21
-1149.874647051615
 31
0.0
  0
LINE
  5
224E9
  8
01
 10
-1808.931871217796
 20
-1146.574647051615
 30
0.0
 11
-1785.581871217796
 21
-1146.574647051615
 31
0.0
  0
LINE
  5
224EA
  8
1CENTER
 10
-1810.533546217796
 20
-1148.224647051615
 30
0.0
 11
-1782.373102317796
 21
-1148.224647051615
 31
0.0
  0
LINE
  5
224EB
  8
01
 10
-1808.581871217796
 20
-1146.224647051615
 30
0.0
 11
-1808.581871217796
 21
-1150.224647051615
 31
0.0
  0
LINE
  5
224EC
  8
01
 10
-1784.231871227796
 20
-1145.224647051615
 30
0.0
 11
-1784.231871227796
 21
-1151.224647051615
 31
0.0
  0
LINE
  5
224ED
  8
01
 10
-1785.23187139187
 20
-1150.224647051615
 30
0.0
 11
-1785.581871217796
 21
-1149.874647051615
 31
0.0
  0
LINE
  5
224EE
  8
01
 10
-1785.581871217796
 20
-1146.574647051615
 30
0.0
 11
-1785.23187139187
 21
-1146.224647051615
 31
0.0
  0
LINE
  5
224EF
  8
01
 10
-1785.581871217796
 20
-1146.574647051615
 30
0.0
 11
-1785.581871217796
 21
-1149.874647051615
 31
0.0
  0
LINE
  5
224F0
  8
01
 10
-1808.581871217796
 20
-1156.881675245906
 30
0.0
 11
-1785.23187139187
 21
-1156.881675245906
 31
0.0
  0
LINE
  5
224F1
  8
01
 10
-1808.581871217796
 20
-1156.881675245906
 30
0.0
 11
-1808.931871217796
 21
-1157.231675245906
 31
0.0
  0
LINE
  5
224F2
  8
01
 10
-1785.23187139187
 20
-1156.881675245906
 30
0.0
 11
-1784.231871317796
 21
-1155.881675245906
 31
0.0
  0
LINE
  5
224F3
  8
01
 10
-1808.931871217796
 20
-1157.231675245906
 30
0.0
 11
-1808.931871217796
 21
-1160.531675245905
 31
0.0
  0
LINE
  5
224F4
  8
01
 10
-1784.231871317796
 20
-1155.881675245906
 30
0.0
 11
-1783.931871217796
 21
-1155.881675245906
 31
0.0
  0
LINE
  5
224F5
  8
01
 10
-1808.931871217796
 20
-1160.531675245905
 30
0.0
 11
-1808.581871217796
 21
-1160.881675245906
 31
0.0
  0
LINE
  5
224F6
  8
01
 10
-1783.931871217796
 20
-1155.881675245906
 30
0.0
 11
-1783.931871217796
 21
-1161.881675245906
 31
0.0
  0
LINE
  5
224F7
  8
01
 10
-1808.581871217796
 20
-1160.881675245906
 30
0.0
 11
-1785.23187139187
 21
-1160.881675245906
 31
0.0
  0
LINE
  5
224F8
  8
01
 10
-1784.231871227796
 20
-1161.881675245906
 30
0.0
 11
-1783.931871217796
 21
-1161.881675245906
 31
0.0
  0
LINE
  5
224F9
  8
01
 10
-1785.23187139187
 20
-1160.881675245906
 30
0.0
 11
-1784.231871227796
 21
-1161.881675245906
 31
0.0
  0
LINE
  5
224FA
  8
01
 10
-1808.931871217796
 20
-1160.531675245905
 30
0.0
 11
-1785.581871217796
 21
-1160.531675245905
 31
0.0
  0
LINE
  5
224FB
  8
01
 10
-1808.931871217796
 20
-1157.231675245906
 30
0.0
 11
-1785.581871217796
 21
-1157.231675245906
 31
0.0
  0
LINE
  5
224FC
  8
1CENTER
 10
-1810.533546217796
 20
-1158.881675245906
 30
0.0
 11
-1782.373102317796
 21
-1158.881675245906
 31
0.0
  0
LINE
  5
224FD
  8
01
 10
-1808.581871217796
 20
-1156.881675245906
 30
0.0
 11
-1808.581871217796
 21
-1160.881675245906
 31
0.0
  0
LINE
  5
224FE
  8
01
 10
-1784.231871227796
 20
-1155.881675245906
 30
0.0
 11
-1784.231871227796
 21
-1161.881675245906
 31
0.0
  0
LINE
  5
224FF
  8
01
 10
-1785.23187139187
 20
-1160.881675245906
 30
0.0
 11
-1785.581871217796
 21
-1160.531675245905
 31
0.0
  0
LINE
  5
22500
  8
01
 10
-1785.581871217796
 20
-1157.231675245906
 30
0.0
 11
-1785.23187139187
 21
-1156.881675245906
 31
0.0
  0
LINE
  5
22501
  8
01
 10
-1785.581871217796
 20
-1157.231675245906
 30
0.0
 11
-1785.581871217796
 21
-1160.531675245905
 31
0.0
  0
TEXT
  5
225A1
  8
1TEXT
 10
-1815.22219609246
 20
-1129.372203118146
 30
0.0
 40
3.4
  1
戸厚28～35mm用
  0
TEXT
  5
225A3
  8
1TEXT
 10
-1837.540794243547
 20
-1120.449621993057
 30
0.0
 40
3.4
  1
付属SUSネジ
  0
LINE
  5
22893
  8
1DIM
 10
-1840.538291403033
 20
-1251.178038501081
 30
0.0
 11
-1763.538291403033
 21
-1251.178038501081
 31
0.0
  0
TEXT
  5
22894
  8
1TEXT
 10
-1832.6049580697
 20
-1249.488952112652
 30
0.0
 40
4.0
  1
クローム
 72
     1
 11
-1823.138291403033
 21
-1249.488952112652
 31
0.0
  0
TEXT
  5
22895
  8
1TEXT
 10
-1832.4049580697
 20
-1242.678038501081
 30
0.0
 40
4.0
  1
表面処理
 72
     1
 11
-1823.138291403033
 21
-1242.678038501081
 31
0.0
  0
LINE
  5
22896
  8
1DIM
 10
-1840.538291403033
 20
-1237.178038501081
 30
0.0
 11
-1763.538291403033
 21
-1237.178038501081
 31
0.0
  0
LINE
  5
22897
  8
1DIM
 10
-1840.538291403033
 20
-1244.178038501081
 30
0.0
 11
-1763.538291403033
 21
-1244.178038501081
 31
0.0
  0
LINE
  5
22898
  8
1DIM
 10
-1840.538291403033
 20
-1251.178038501081
 30
0.0
 11
-1770.538291403033
 21
-1251.178038501081
 31
0.0
  0
LINE
  5
22899
  8
1DIM
 10
-1840.538291403033
 20
-1251.178038501081
 30
0.0
 11
-1763.538291403033
 21
-1251.178038501081
 31
0.0
  0
LINE
  5
2289A
  8
1DIM
 10
-1805.538291403033
 20
-1237.178038501081
 30
0.0
 11
-1805.538291403032
 21
-1251.178038501081
 31
0.0
  0
TEXT
  5
2289B
  8
1TEXT
 10
-1801.885513625254
 20
-1249.892395484731
 30
0.0
 40
4.0
  1
PC-386-XC
 72
     1
 11
-1784.538291403032
 21
-1249.892395484731
 31
0.0
  0
TEXT
  5
2289C
  8
1TEXT
 10
-1791.404958069699
 20
-1242.678038501081
 30
0.0
 40
4.0
  1
コード
 72
     1
 11
-1784.538291403033
 21
-1242.678038501081
 31
0.0
  0
LINE
  5
2289D
  8
1DIM
 10
-1840.538291403032
 20
-1265.178038501081
 30
0.0
 11
-1763.538291403033
 21
-1265.178038501081
 31
0.0
  0
LINE
  5
2289E
  8
1DIM
 10
-1840.538291403032
 20
-1265.178038501081
 30
0.0
 11
-1840.538291403032
 21
-1250.222285445985
 31
0.0
  0
LINE
  5
2289F
  8
1DIM
 10
-1763.538291403032
 20
-1265.178038501081
 30
0.0
 11
-1763.538291403032
 21
-1251.178038501081
 31
0.0
  0
TEXT
  5
228A0
  8
1TEXT
 10
-1839.671624736367
 20
-1256.488952112652
 30
0.0
 40
4.0
  1
サテンニッケル
 72
     1
 11
-1823.138291403034
 21
-1256.488952112652
 31
0.0
  0
TEXT
  5
228A1
  8
1TEXT
 10
-1801.885513625255
 20
-1256.892395484731
 30
0.0
 40
4.0
  1
PC-386-XN
 72
     1
 11
-1784.538291403033
 21
-1256.892395484731
 31
0.0
  0
LINE
  5
228A2
  8
1DIM
 10
-1840.538291403033
 20
-1258.178038501081
 30
0.0
 11
-1763.538291403033
 21
-1258.178038501081
 31
0.0
  0
TEXT
  5
228A5
  8
1TEXT
 10
-1839.271624736365
 20
-1263.678038501081
 30
0.0
 40
4.0
  1
パールブラック
 72
     1
 11
-1823.138291403031
 21
-1263.678038501081
 31
0.0
  0
TEXT
  5
228A6
  8
1TEXT
 10
-1801.904958069698
 20
-1263.892395484731
 30
0.0
 40
4.0
  1
PC-386-GQ
 72
     1
 11
-1784.538291403031
 21
-1263.892395484731
 31
0.0
  0
LINE
  5
23122
  8
1DIM
 10
-1763.538291403032
 20
-1251.178038501081
 30
0.0
 11
-1763.538291403033
 21
-1237.178038501081
 31
0.0
  0
LINE
  5
23123
  8
1DIM
 10
-1840.538291403032
 20
-1251.622285445985
 30
0.0
 11
-1840.538291403033
 21
-1237.178038501081
 31
0.0
  0
LINE
  5
23124
  8
1DIM
 10
-1805.538291403032
 20
-1251.178038501081
 30
0.0
 11
-1805.538291403032
 21
-1265.178038501081
 31
0.0
  0
LINE
  5
2318D
  8
01
 10
-2006.166424046368
 20
-1284.315400167666
 30
0.0
 11
-2017.366424046368
 21
-1284.315400167666
 31
0.0
  0
ARC
  5
2318E
  8
01
 10
-2006.166424046368
 20
-1284.015400167666
 30
0.0
 40
0.3
 50
270.0
 51
0.0
  0
LINE
  5
2318F
  8
01
 10
-2006.166424046369
 20
-1278.315400167666
 30
0.0
 11
-2017.366424046368
 21
-1278.315400167666
 31
0.0
  0
ARC
  5
23192
  8
01
 10
-2006.166424046369
 20
-1278.615400167666
 30
0.0
 40
0.3
 50
0.0
 51
90.0
  0
LINE
  5
231C3
  8
01
 10
-2005.866424046367
 20
-1126.815400167666
 30
0.0
 11
-2004.366424046368
 21
-1126.815400167666
 31
0.0
  0
LINE
  5
231C4
  8
01
 10
-2005.866424046367
 20
-1130.815400167666
 30
0.0
 11
-2004.366424046368
 21
-1130.815400167666
 31
0.0
  0
LINE
  5
231C5
  8
01
 10
-2005.866424046367
 20
-1130.465400167665
 30
0.0
 11
-2004.366424046368
 21
-1130.465400167665
 31
0.0
  0
LINE
  5
231C6
  8
01
 10
-2005.866424046367
 20
-1127.165400167666
 30
0.0
 11
-2004.366424046368
 21
-1127.165400167666
 31
0.0
  0
LINE
  5
23225
  8
01
 10
-2005.866424046367
 20
-1126.115400167666
 30
0.0
 11
-2005.866424046367
 21
-1131.515400167666
 31
0.0
  0
ARC
  5
23226
  8
01
 10
-2006.166424046367
 20
-1126.115400167666
 30
0.0
 40
0.3
 50
0.0
 51
90.0
  0
ARC
  5
23227
  8
01
 10
-2016.866424046368
 20
-1125.315400167666
 30
0.0
 40
0.5
 50
180.0
 51
270.0
  0
ARC
  5
23228
  8
01
 10
-2016.866424046367
 20
-1132.315400167665
 30
0.0
 40
0.5
 50
90.0
 51
180.0
  0
LINE
  5
2322E
  8
1CENTER
 10
-2007.149755921521
 20
-1140.315400167666
 30
0.0
 11
-1986.996538333857
 21
-1140.315400167666
 31
0.0
  0
LINE
  5
23232
  8
01
 10
-2006.166424046367
 20
-1131.815400167666
 30
0.0
 11
-2016.866424046367
 21
-1131.815400167665
 31
0.0
  0
ARC
  5
23233
  8
01
 10
-2006.166424046367
 20
-1131.515400167666
 30
0.0
 40
0.3
 50
270.0
 51
0.0
  0
LINE
  5
23234
  8
01
 10
-2006.166424046367
 20
-1125.815400167666
 30
0.0
 11
-2016.866424046368
 21
-1125.815400167666
 31
0.0
  0
LINE
  5
23261
  8
01
 10
-2005.866424046369
 20
-1278.615400167666
 30
0.0
 11
-2005.866424046368
 21
-1284.015400167666
 31
0.0
  0
LINE
  5
23271
  8
01
 10
-2082.790503141534
 20
-1345.66186946409
 30
0.0
 11
-2088.190503141534
 21
-1345.66186946409
 31
0.0
  0
LINE
  5
232C5
  8
1DIM
 10
-2103.490503141534
 20
-1122.315400167666
 30
0.0
 11
-2103.490503141534
 21
-1102.484742551337
 31
0.0
  0
LINE
  5
232C6
  8
1DIM
 10
-2067.490503141534
 20
-1122.315400167666
 30
0.0
 11
-2067.490503141534
 21
-1102.484742551337
 31
0.0
  0
LINE
  5
232C7
  8
1DIM
 10
-2101.490503141534
 20
-1103.484742551337
 30
0.0
 11
-2069.490503141534
 21
-1103.484742551337
 31
0.0
  0
LINE
  5
232CB
  8
1DIM
 10
-2067.990503141534
 20
-1287.815400167666
 30
0.0
 11
-2051.69238773013
 21
-1287.815400167666
 31
0.0
  0
LINE
  5
232CC
  8
1DIM
 10
-2067.990503141534
 20
-1121.815400167666
 30
0.0
 11
-2051.69238773013
 21
-1121.815400167666
 31
0.0
  0
LINE
  5
232CD
  8
1DIM
 10
-2052.69238773013
 20
-1285.815400167666
 30
0.0
 11
-2052.69238773013
 21
-1123.815400167666
 31
0.0
  0
LINE
  5
232D1
  8
1DIM
 10
-2067.990503141534
 20
-1287.815400167666
 30
0.0
 11
-2057.835629981923
 21
-1287.815400167666
 31
0.0
  0
LINE
  5
232D2
  8
1DIM
 10
-2075.990503141534
 20
-1276.815400167666
 30
0.0
 11
-2057.835629981923
 21
-1276.815400167666
 31
0.0
  0
LINE
  5
232D3
  8
1DIM
 10
-2058.835629981923
 20
-1285.815400167666
 30
0.0
 11
-2058.835629981923
 21
-1278.815400167666
 31
0.0
  0
LINE
  5
232D7
  8
1DIM
 10
-2075.990503141534
 20
-1276.815400167666
 30
0.0
 11
-2057.835629981923
 21
-1276.815400167666
 31
0.0
  0
LINE
  5
232D8
  8
1DIM
 10
-2075.990503141534
 20
-1166.815400167666
 30
0.0
 11
-2057.835629981923
 21
-1166.815400167666
 31
0.0
  0
LINE
  5
232D9
  8
1DIM
 10
-2058.835629981923
 20
-1274.815400167666
 30
0.0
 11
-2058.835629981923
 21
-1168.815400167666
 31
0.0
  0
LINE
  5
232DD
  8
1DIM
 10
-2096.490503141534
 20
-1275.315400167666
 30
0.0
 11
-2096.490503141534
 21
-1302.844843388342
 31
0.0
  0
LINE
  5
232DE
  8
1DIM
 10
-2074.490503141534
 20
-1275.315400167666
 30
0.0
 11
-2074.490503141534
 21
-1302.844843388342
 31
0.0
  0
LINE
  5
232DF
  8
1DIM
 10
-2094.490503141534
 20
-1301.844843388342
 30
0.0
 11
-2076.490503141534
 21
-1301.844843388342
 31
0.0
  0
LINE
  5
232E3
  8
1DIM
 10
-2030.866424046368
 20
-1108.807110280356
 30
0.0
 11
-2030.866424046368
 21
-1102.484742551337
 31
0.0
  0
LINE
  5
232E4
  8
1DIM
 10
-1990.866424046368
 20
-1108.807110280356
 30
0.0
 11
-1990.866424046368
 21
-1102.484742551337
 31
0.0
  0
LINE
  5
232E5
  8
1DIM
 10
-2028.866424046368
 20
-1103.484742551337
 30
0.0
 11
-1992.866424046368
 21
-1103.484742551337
 31
0.0
  0
LINE
  5
232E9
  8
1DIM
 10
-2030.866424046368
 20
-1108.807110280356
 30
0.0
 11
-2030.866424046368
 21
-1102.484742551337
 31
0.0
  0
LINE
  5
232EA
  8
1DIM
 10
-2032.366424046368
 20
-1122.315400167666
 30
0.0
 11
-2032.366424046368
 21
-1102.484742551337
 31
0.0
  0
LINE
  5
232EB
  8
1DIM
 10
-2028.866424046368
 20
-1103.484742551337
 30
0.0
 11
-2026.866424046368
 21
-1103.484742551337
 31
0.0
  0
LINE
  5
232EC
  8
1DIM
 10
-2034.366424046368
 20
-1103.484742551337
 30
0.0
 11
-2044.599757379701
 21
-1103.484742551337
 31
0.0
  0
LINE
  5
232ED
  8
1DIM
 10
-2030.866424046368
 20
-1103.484742551337
 30
0.0
 11
-2032.366424046368
 21
-1103.484742551337
 31
0.0
  0
LINE
  5
232F1
  8
1DIM
 10
-1939.80159095617
 20
-1128.815400167666
 30
0.0
 11
-1908.167079697093
 21
-1128.815400167666
 31
0.0
  0
LINE
  5
232F2
  8
1DIM
 10
-1941.70159095617
 20
-1281.315400167666
 30
0.0
 11
-1908.167079697093
 21
-1281.315400167666
 31
0.0
  0
LINE
  5
232F3
  8
1DIM
 10
-1909.167079697093
 20
-1130.815400167666
 30
0.0
 11
-1909.167079697093
 21
-1279.315400167666
 31
0.0
  0
LINE
  5
232F7
  8
1DIM
 10
-1941.70159095617
 20
-1281.315400167666
 30
0.0
 11
-1908.167079697093
 21
-1281.315400167666
 31
0.0
  0
LINE
  5
232F8
  8
1DIM
 10
-1927.30159095617
 20
-1287.815400167666
 30
0.0
 11
-1908.167079697093
 21
-1287.815400167666
 31
0.0
  0
LINE
  5
232F9
  8
1DIM
 10
-1909.167079697093
 20
-1283.315400167666
 30
0.0
 11
-1909.167079697093
 21
-1285.815400167666
 31
0.0
  0
LINE
  5
232FA
  8
1DIM
 10
-1909.167079697093
 20
-1287.815400167666
 30
0.0
 11
-1909.167079697093
 21
-1298.382066834332
 31
0.0
  0
LINE
  5
232FE
  8
1HATCH
  6
CONTINUOUS
 10
-2030.866424046368
 20
-1109.962070143963
 30
0.0
 11
-2029.711464182761
 21
-1108.807110280355
 31
0.0
  0
LINE
  5
232FF
  8
1HATCH
  6
CONTINUOUS
 10
-2030.866424046368
 20
-1112.20713417423
 30
0.0
 11
-2027.466400152494
 21
-1108.807110280355
 31
0.0
  0
LINE
  5
23300
  8
1HATCH
  6
CONTINUOUS
 10
-2030.866424046368
 20
-1114.452198204497
 30
0.0
 11
-2025.221336122226
 21
-1108.807110280355
 31
0.0
  0
LINE
  5
23301
  8
1HATCH
  6
CONTINUOUS
 10
-2030.866424046368
 20
-1116.697262234764
 30
0.0
 11
-2022.976272091959
 21
-1108.807110280355
 31
0.0
  0
LINE
  5
23302
  8
1HATCH
  6
CONTINUOUS
 10
-2030.866424046368
 20
-1118.942326265032
 30
0.0
 11
-2020.731208061692
 21
-1108.807110280355
 31
0.0
  0
LINE
  5
23303
  8
1HATCH
  6
CONTINUOUS
 10
-2030.866424046368
 20
-1121.187390295299
 30
0.0
 11
-2018.486144031425
 21
-1108.807110280355
 31
0.0
  0
LINE
  5
23304
  8
1HATCH
  6
CONTINUOUS
 10
-2030.866424046368
 20
-1123.432454325566
 30
0.0
 11
-2016.241080001157
 21
-1108.807110280355
 31
0.0
  0
LINE
  5
23305
  8
1HATCH
  6
CONTINUOUS
 10
-2030.0043058582
 20
-1124.815400167666
 30
0.0
 11
-2013.99601597089
 21
-1108.807110280355
 31
0.0
  0
LINE
  5
23306
  8
1HATCH
  6
CONTINUOUS
 10
-2027.759241827933
 20
-1124.815400167666
 30
0.0
 11
-2011.750951940623
 21
-1108.807110280355
 31
0.0
  0
LINE
  5
23307
  8
1HATCH
  6
CONTINUOUS
 10
-2025.514177797666
 20
-1124.815400167666
 30
0.0
 11
-2009.505887910355
 21
-1108.807110280355
 31
0.0
  0
LINE
  5
23308
  8
1HATCH
  6
CONTINUOUS
 10
-2023.269113767398
 20
-1124.815400167666
 30
0.0
 11
-2007.260823880088
 21
-1108.807110280355
 31
0.0
  0
LINE
  5
23309
  8
1HATCH
  6
CONTINUOUS
 10
-2021.024049737131
 20
-1124.815400167666
 30
0.0
 11
-2005.015759849821
 21
-1108.807110280355
 31
0.0
  0
LINE
  5
2330A
  8
1HATCH
  6
CONTINUOUS
 10
-2018.778985706864
 20
-1124.815400167666
 30
0.0
 11
-2002.770695819554
 21
-1108.807110280355
 31
0.0
  0
LINE
  5
2330B
  8
1HATCH
  6
CONTINUOUS
 10
-2016.533921676597
 20
-1124.815400167666
 30
0.0
 11
-2000.525631789286
 21
-1108.807110280355
 31
0.0
  0
LINE
  5
2330C
  8
1HATCH
  6
CONTINUOUS
 10
-2014.288857646329
 20
-1124.815400167666
 30
0.0
 11
-1998.280567759019
 21
-1108.807110280355
 31
0.0
  0
LINE
  5
2330D
  8
1HATCH
  6
CONTINUOUS
 10
-2012.043793616062
 20
-1124.815400167666
 30
0.0
 11
-1996.035503728752
 21
-1108.807110280355
 31
0.0
  0
LINE
  5
2330E
  8
1HATCH
  6
CONTINUOUS
 10
-2009.798729585795
 20
-1124.815400167666
 30
0.0
 11
-1993.790439698484
 21
-1108.807110280355
 31
0.0
  0
LINE
  5
2330F
  8
1HATCH
  6
CONTINUOUS
 10
-2007.553665555528
 20
-1124.815400167666
 30
0.0
 11
-1991.545375668217
 21
-1108.807110280355
 31
0.0
  0
LINE
  5
23310
  8
1HATCH
  6
CONTINUOUS
 10
-2005.30860152526
 20
-1124.815400167666
 30
0.0
 11
-1990.866424046368
 21
-1110.373222688774
 31
0.0
  0
LINE
  5
23311
  8
1HATCH
  6
CONTINUOUS
 10
-2003.063537494993
 20
-1124.815400167666
 30
0.0
 11
-1990.866424046368
 21
-1112.618286719041
 31
0.0
  0
LINE
  5
23312
  8
1HATCH
  6
CONTINUOUS
 10
-2000.818473464726
 20
-1124.815400167666
 30
0.0
 11
-1990.866424046368
 21
-1114.863350749308
 31
0.0
  0
LINE
  5
23313
  8
1HATCH
  6
CONTINUOUS
 10
-1998.573409434459
 20
-1124.815400167666
 30
0.0
 11
-1990.866424046368
 21
-1117.108414779575
 31
0.0
  0
LINE
  5
23314
  8
1HATCH
  6
CONTINUOUS
 10
-1996.328345404191
 20
-1124.815400167666
 30
0.0
 11
-1990.866424046368
 21
-1119.353478809842
 31
0.0
  0
LINE
  5
23315
  8
1HATCH
  6
CONTINUOUS
 10
-1994.083281373924
 20
-1124.815400167666
 30
0.0
 11
-1990.866424046368
 21
-1121.59854284011
 31
0.0
  0
LINE
  5
23316
  8
1HATCH
  6
CONTINUOUS
 10
-1991.838217343657
 20
-1124.815400167666
 30
0.0
 11
-1990.866424046368
 21
-1123.843606870377
 31
0.0
  0
LINE
  5
23317
  8
1HATCH
  6
CONTINUOUS
 10
-2030.866424046368
 20
-1285.077064504811
 30
0.0
 11
-2030.604759709223
 21
-1284.815400167666
 31
0.0
  0
LINE
  5
23318
  8
1HATCH
  6
CONTINUOUS
 10
-2030.866424046368
 20
-1287.322128535078
 30
0.0
 11
-2028.359695678956
 21
-1284.815400167666
 31
0.0
  0
LINE
  5
23319
  8
1HATCH
  6
CONTINUOUS
 10
-2030.866424046368
 20
-1289.567192565346
 30
0.0
 11
-2026.114631648689
 21
-1284.815400167666
 31
0.0
  0
LINE
  5
2331A
  8
1HATCH
  6
CONTINUOUS
 10
-2030.866424046368
 20
-1291.812256595613
 30
0.0
 11
-2023.869567618421
 21
-1284.815400167666
 31
0.0
  0
LINE
  5
2331B
  8
1HATCH
  6
CONTINUOUS
 10
-2030.866424046368
 20
-1294.05732062588
 30
0.0
 11
-2021.624503588154
 21
-1284.815400167666
 31
0.0
  0
LINE
  5
2331C
  8
1HATCH
  6
CONTINUOUS
 10
-2030.866424046368
 20
-1296.302384656148
 30
0.0
 11
-2019.379439557887
 21
-1284.815400167666
 31
0.0
  0
LINE
  5
2331D
  8
1HATCH
  6
CONTINUOUS
 10
-2030.866424046369
 20
-1298.547448686415
 30
0.0
 11
-2017.134375527619
 21
-1284.815400167666
 31
0.0
  0
LINE
  5
2331E
  8
1HATCH
  6
CONTINUOUS
 10
-2030.866424046369
 20
-1300.792512716682
 30
0.0
 11
-2014.889311497352
 21
-1284.815400167666
 31
0.0
  0
LINE
  5
2331F
  8
1HATCH
  6
CONTINUOUS
 10
-2030.866424046369
 20
-1303.03757674695
 30
0.0
 11
-2012.644247467085
 21
-1284.815400167666
 31
0.0
  0
LINE
  5
23320
  8
1HATCH
  6
CONTINUOUS
 10
-2030.866424046369
 20
-1305.282640777217
 30
0.0
 11
-2010.399183436817
 21
-1284.815400167666
 31
0.0
  0
LINE
  5
23321
  8
1HATCH
  6
CONTINUOUS
 10
-2030.866424046369
 20
-1307.527704807484
 30
0.0
 11
-2008.15411940655
 21
-1284.815400167666
 31
0.0
  0
LINE
  5
23322
  8
1HATCH
  6
CONTINUOUS
 10
-2030.866424046369
 20
-1309.772768837752
 30
0.0
 11
-2005.909055376283
 21
-1284.815400167666
 31
0.0
  0
LINE
  5
23323
  8
1HATCH
  6
CONTINUOUS
 10
-2029.335760135203
 20
-1310.487168956854
 30
0.0
 11
-2003.663991346015
 21
-1284.815400167666
 31
0.0
  0
LINE
  5
23324
  8
1HATCH
  6
CONTINUOUS
 10
-2027.090696104936
 20
-1310.487168956854
 30
0.0
 11
-2001.418927315748
 21
-1284.815400167666
 31
0.0
  0
LINE
  5
23325
  8
1HATCH
  6
CONTINUOUS
 10
-2024.845632074669
 20
-1310.487168956854
 30
0.0
 11
-1999.173863285481
 21
-1284.815400167666
 31
0.0
  0
LINE
  5
23326
  8
1HATCH
  6
CONTINUOUS
 10
-2022.600568044402
 20
-1310.487168956854
 30
0.0
 11
-1996.928799255213
 21
-1284.815400167665
 31
0.0
  0
LINE
  5
23327
  8
1HATCH
  6
CONTINUOUS
 10
-2020.355504014134
 20
-1310.487168956854
 30
0.0
 11
-1994.683735224946
 21
-1284.815400167665
 31
0.0
  0
LINE
  5
23328
  8
1HATCH
  6
CONTINUOUS
 10
-2018.110439983867
 20
-1310.487168956854
 30
0.0
 11
-1992.438671194679
 21
-1284.815400167665
 31
0.0
  0
LINE
  5
23329
  8
1HATCH
  6
CONTINUOUS
 10
-2015.8653759536
 20
-1310.487168956854
 30
0.0
 11
-1990.866424046368
 21
-1285.488217049622
 31
0.0
  0
LINE
  5
2332A
  8
1HATCH
  6
CONTINUOUS
 10
-2013.620311923332
 20
-1310.487168956854
 30
0.0
 11
-1990.866424046368
 21
-1287.733281079889
 31
0.0
  0
LINE
  5
2332B
  8
1HATCH
  6
CONTINUOUS
 10
-2011.375247893065
 20
-1310.487168956854
 30
0.0
 11
-1990.866424046368
 21
-1289.978345110157
 31
0.0
  0
LINE
  5
2332C
  8
1HATCH
  6
CONTINUOUS
 10
-2009.130183862798
 20
-1310.487168956854
 30
0.0
 11
-1990.866424046368
 21
-1292.223409140424
 31
0.0
  0
LINE
  5
2332D
  8
1HATCH
  6
CONTINUOUS
 10
-2006.885119832531
 20
-1310.487168956854
 30
0.0
 11
-1990.866424046368
 21
-1294.468473170691
 31
0.0
  0
LINE
  5
2332E
  8
1HATCH
  6
CONTINUOUS
 10
-2004.640055802263
 20
-1310.487168956854
 30
0.0
 11
-1990.866424046368
 21
-1296.713537200959
 31
0.0
  0
LINE
  5
2332F
  8
1HATCH
  6
CONTINUOUS
 10
-2002.394991771996
 20
-1310.487168956854
 30
0.0
 11
-1990.866424046368
 21
-1298.958601231226
 31
0.0
  0
LINE
  5
23330
  8
1HATCH
  6
CONTINUOUS
 10
-2000.149927741729
 20
-1310.487168956854
 30
0.0
 11
-1990.866424046368
 21
-1301.203665261493
 31
0.0
  0
LINE
  5
23331
  8
1HATCH
  6
CONTINUOUS
 10
-1997.904863711461
 20
-1310.487168956854
 30
0.0
 11
-1990.866424046368
 21
-1303.448729291761
 31
0.0
  0
LINE
  5
23332
  8
1HATCH
  6
CONTINUOUS
 10
-1995.659799681194
 20
-1310.487168956854
 30
0.0
 11
-1990.866424046368
 21
-1305.693793322028
 31
0.0
  0
LINE
  5
23333
  8
1HATCH
  6
CONTINUOUS
 10
-1993.414735650927
 20
-1310.487168956854
 30
0.0
 11
-1990.866424046368
 21
-1307.938857352295
 31
0.0
  0
LINE
  5
23334
  8
1HATCH
  6
CONTINUOUS
 10
-1991.16967162066
 20
-1310.487168956854
 30
0.0
 11
-1990.866424046368
 21
-1310.183921382562
 31
0.0
  0
LINE
  5
23335
  8
1DIM
 10
-2072.990503141534
 20
-1334.161869464091
 30
0.0
 11
-2051.69238773013
 21
-1334.161869464091
 31
0.0
1001
ACAD
1000
DSTYLE
1002
{
1070
     3
1000
(<>)
1002
}
  0
LINE
  5
23336
  8
1DIM
 10
-2067.990503141534
 20
-1319.161869464091
 30
0.0
 11
-2051.69238773013
 21
-1319.161869464091
 31
0.0
1001
ACAD
1000
DSTYLE
1002
{
1070
     3
1000
(<>)
1002
}
  0
LINE
  5
23337
  8
1DIM
 10
-2052.69238773013
 20
-1332.161869464091
 30
0.0
 11
-2052.69238773013
 21
-1321.161869464091
 31
0.0
1001
ACAD
1000
DSTYLE
1002
{
1070
     3
1000
(<>)
1002
}
  0
LINE
  5
2333B
  8
1DIM
 10
-2072.990503141534
 20
-1334.161869464091
 30
0.0
 11
-2057.88547047393
 21
-1334.161869464091
 31
0.0
  0
LINE
  5
2333C
  8
1DIM
 10
-2067.490503141534
 20
-1320.661869464091
 30
0.0
 11
-2057.88547047393
 21
-1320.661869464091
 31
0.0
  0
LINE
  5
2333D
  8
1DIM
 10
-2058.88547047393
 20
-1332.161869464091
 30
0.0
 11
-2058.88547047393
 21
-1322.661869464091
 31
0.0
  0
LINE
  5
23341
  8
1DIM
 10
-2067.490503141534
 20
-1320.661869464091
 30
0.0
 11
-2057.88547047393
 21
-1320.661869464091
 31
0.0
  0
LINE
  5
23342
  8
1DIM
 10
-2067.990503141534
 20
-1319.161869464091
 30
0.0
 11
-2057.88547047393
 21
-1319.161869464091
 31
0.0
  0
LINE
  5
23343
  8
1DIM
 10
-2058.88547047393
 20
-1322.661869464091
 30
0.0
 11
-2058.88547047393
 21
-1324.661869464091
 31
0.0
  0
LINE
  5
23344
  8
1DIM
 10
-2058.88547047393
 20
-1317.161869464091
 30
0.0
 11
-2058.88547047393
 21
-1306.928536130757
 31
0.0
  0
LINE
  5
23345
  8
1DIM
 10
-2058.88547047393
 20
-1320.661869464091
 30
0.0
 11
-2058.88547047393
 21
-1319.161869464091
 31
0.0
  0
LINE
  5
23349
  8
1DIM
 10
-2098.490503141534
 20
-1320.661869464091
 30
0.0
 11
-2098.490503141534
 21
-1308.634005844907
 31
0.0
  0
LINE
  5
2334A
  8
1DIM
 10
-2072.490503141534
 20
-1320.661869464091
 30
0.0
 11
-2072.490503141534
 21
-1308.634005844907
 31
0.0
  0
LINE
  5
2334B
  8
1DIM
 10
-2096.490503141534
 20
-1309.634005844907
 30
0.0
 11
-2074.490503141534
 21
-1309.634005844907
 31
0.0
  0
LINE
  5
2334F
  8
1DIM
 10
-2098.490503141534
 20
-1320.661869464091
 30
0.0
 11
-2098.490503141534
 21
-1308.634005844907
 31
0.0
  0
LINE
  5
23350
  8
1DIM
 10
-2103.490503141535
 20
-1319.661869464091
 30
0.0
 11
-2103.490503141535
 21
-1308.634005844907
 31
0.0
  0
LINE
  5
23351
  8
1DIM
 10
-2096.490503141534
 20
-1309.634005844907
 30
0.0
 11
-2094.490503141534
 21
-1309.634005844907
 31
0.0
  0
LINE
  5
23352
  8
1DIM
 10
-2105.490503141535
 20
-1309.634005844907
 30
0.0
 11
-2111.223836474868
 21
-1309.634005844907
 31
0.0
  0
LINE
  5
23353
  8
1DIM
 10
-2098.490503141534
 20
-1309.634005844907
 30
0.0
 11
-2103.490503141535
 21
-1309.634005844907
 31
0.0
  0
LINE
  5
23357
  8
1DIM
 10
-1957.80159095617
 20
-1320.661869464091
 30
0.0
 11
-1957.80159095617
 21
-1308.634005844907
 31
0.0
  0
LINE
  5
23358
  8
1DIM
 10
-1962.80159095617
 20
-1319.661869464091
 30
0.0
 11
-1962.80159095617
 21
-1308.634005844907
 31
0.0
  0
LINE
  5
23359
  8
1DIM
 10
-1955.80159095617
 20
-1309.634005844907
 30
0.0
 11
-1953.80159095617
 21
-1309.634005844907
 31
0.0
  0
LINE
  5
2335A
  8
1DIM
 10
-1964.80159095617
 20
-1309.634005844907
 30
0.0
 11
-1970.534924289504
 21
-1309.634005844907
 31
0.0
  0
LINE
  5
2335B
  8
1DIM
 10
-1957.80159095617
 20
-1309.634005844907
 30
0.0
 11
-1962.80159095617
 21
-1309.634005844907
 31
0.0
  0
LINE
  5
2335F
  8
1DIM
 10
-1957.80159095617
 20
-1320.66186946409
 30
0.0
 11
-1957.80159095617
 21
-1308.634005844907
 31
0.0
  0
LINE
  5
23360
  8
1DIM
 10
-1931.80159095617
 20
-1320.661869464091
 30
0.0
 11
-1931.80159095617
 21
-1308.634005844907
 31
0.0
  0
LINE
  5
23361
  8
1DIM
 10
-1955.80159095617
 20
-1309.634005844907
 30
0.0
 11
-1933.80159095617
 21
-1309.634005844907
 31
0.0
  0
LINE
  5
23365
  8
1DIM
 10
-1932.30159095617
 20
-1334.161869464091
 30
0.0
 11
-1908.167079697093
 21
-1334.161869464091
 31
0.0
1001
ACAD
1000
DSTYLE
1002
{
1070
     3
1000
(<>)
1002
}
  0
LINE
  5
23366
  8
1DIM
 10
-1927.30159095617
 20
-1319.161869464091
 30
0.0
 11
-1908.167079697093
 21
-1319.161869464091
 31
0.0
1001
ACAD
1000
DSTYLE
1002
{
1070
     3
1000
(<>)
1002
}
  0
LINE
  5
23367
  8
1DIM
 10
-1909.167079697093
 20
-1332.161869464091
 30
0.0
 11
-1909.167079697093
 21
-1321.161869464091
 31
0.0
1001
ACAD
1000
DSTYLE
1002
{
1070
     3
1000
(<>)
1002
}
  0
LINE
  5
2336B
  8
1DIM
 10
-1926.801590956169
 20
-1320.661869464091
 30
0.0
 11
-1917.001669992929
 21
-1320.661869464091
 31
0.0
  0
LINE
  5
2336C
  8
1DIM
 10
-1927.30159095617
 20
-1319.161869464091
 30
0.0
 11
-1917.001669992929
 21
-1319.161869464091
 31
0.0
  0
LINE
  5
2336D
  8
1DIM
 10
-1918.001669992929
 20
-1322.661869464091
 30
0.0
 11
-1918.001669992929
 21
-1324.661869464091
 31
0.0
  0
LINE
  5
2336E
  8
1DIM
 10
-1918.001669992929
 20
-1317.161869464091
 30
0.0
 11
-1918.001669992929
 21
-1306.928536130757
 31
0.0
  0
LINE
  5
2336F
  8
1DIM
 10
-1918.001669992929
 20
-1320.661869464091
 30
0.0
 11
-1918.001669992929
 21
-1319.161869464091
 31
0.0
  0
LINE
  5
23373
  8
1DIM
 10
-1926.801590956169
 20
-1320.661869464091
 30
0.0
 11
-1917.001669992929
 21
-1320.661869464091
 31
0.0
  0
LINE
  5
23374
  8
1DIM
 10
-1932.30159095617
 20
-1334.161869464091
 30
0.0
 11
-1917.001669992929
 21
-1334.161869464091
 31
0.0
  0
LINE
  5
23375
  8
1DIM
 10
-1918.001669992929
 20
-1322.661869464091
 30
0.0
 11
-1918.001669992929
 21
-1332.161869464091
 31
0.0
  0
LINE
  5
23379
  8
1DIM
 10
-1962.30159095617
 20
-1121.815400167666
 30
0.0
 11
-1978.741669373852
 21
-1121.815400167666
 31
0.0
  0
LINE
  5
2337A
  8
1DIM
 10
-1962.30159095617
 20
-1287.815400167666
 30
0.0
 11
-1978.741669373852
 21
-1287.815400167666
 31
0.0
  0
LINE
  5
2337B
  8
1DIM
 10
-1977.741669373852
 20
-1123.815400167666
 30
0.0
 11
-1977.741669373852
 21
-1285.815400167666
 31
0.0
  0
LINE
  5
2337F
  8
1DIM
 10
-1962.30159095617
 20
-1287.815400167666
 30
0.0
 11
-1972.105348509167
 21
-1287.815400167666
 31
0.0
  0
LINE
  5
23380
  8
1DIM
 10
-1954.30159095617
 20
-1276.815400167666
 30
0.0
 11
-1972.105348509167
 21
-1276.815400167666
 31
0.0
  0
LINE
  5
23381
  8
1DIM
 10
-1971.105348509167
 20
-1285.815400167666
 30
0.0
 11
-1971.105348509167
 21
-1278.815400167666
 31
0.0
  0
LINE
  5
23385
  8
1DIM
 10
-1954.30159095617
 20
-1276.815400167666
 30
0.0
 11
-1972.105348509167
 21
-1276.815400167666
 31
0.0
  0
LINE
  5
23386
  8
1DIM
 10
-1954.30159095617
 20
-1166.815400167666
 30
0.0
 11
-1972.105348509167
 21
-1166.815400167666
 31
0.0
  0
LINE
  5
23387
  8
1DIM
 10
-1971.105348509167
 20
-1274.815400167666
 30
0.0
 11
-1971.105348509167
 21
-1168.815400167666
 31
0.0
  0
LINE
  5
2338B
  8
1DIM
 10
-1962.80159095617
 20
-1122.315400167666
 30
0.0
 11
-1962.80159095617
 21
-1102.484742551337
 31
0.0
  0
LINE
  5
2338C
  8
1DIM
 10
-1926.80159095617
 20
-1122.315400167666
 30
0.0
 11
-1926.80159095617
 21
-1102.484742551337
 31
0.0
  0
LINE
  5
2338D
  8
1DIM
 10
-1960.80159095617
 20
-1103.484742551337
 30
0.0
 11
-1928.80159095617
 21
-1103.484742551337
 31
0.0
  0
LINE
  5
23391
  8
1DIM
 10
-1895.040962452134
 20
-1130.815400167666
 30
0.0
 11
-1895.040962452134
 21
-1102.484742551337
 31
0.0
  0
LINE
  5
23392
  8
1DIM
 10
-1868.040962452133
 20
-1130.547450975235
 30
0.0
 11
-1868.040962452133
 21
-1102.484742551337
 31
0.0
  0
LINE
  5
23393
  8
1DIM
 10
-1893.040962452134
 20
-1103.484742551337
 30
0.0
 11
-1870.040962452133
 21
-1103.484742551337
 31
0.0
  0
LINE
  5
23397
  8
1DIM
 10
-1874.040962452133
 20
-1123.815400167666
 30
0.0
 11
-1846.40137917916
 21
-1123.815400167666
 31
0.0
  0
LINE
  5
23398
  8
1DIM
 10
-1874.040962452134
 20
-1284.815400167666
 30
0.0
 11
-1846.40137917916
 21
-1284.815400167666
 31
0.0
  0
LINE
  5
23399
  8
1DIM
 10
-1847.40137917916
 20
-1125.815400167666
 30
0.0
 11
-1847.40137917916
 21
-1282.815400167666
 31
0.0
  0
LINE
  5
2339D
  8
1DIM
 10
-1901.673947841309
 20
-1290.290538130583
 30
0.0
 11
-1894.96267435331
 21
-1284.194371087784
 31
0.0
  0
LINE
  5
233A0
  8
1DIM
 10
-1808.931871217796
 20
-1146.574647051615
 30
0.0
 11
-1808.931871217796
 21
-1137.048023165898
 31
0.0
  0
LINE
  5
233A1
  8
1DIM
 10
-1783.931871217796
 20
-1145.224647051615
 30
0.0
 11
-1783.931871217796
 21
-1137.048023165898
 31
0.0
  0
LINE
  5
233A2
  8
1DIM
 10
-1806.931871217796
 20
-1138.048023165898
 30
0.0
 11
-1785.931871217796
 21
-1138.048023165898
 31
0.0
  0
LINE
  5
233A6
  8
1DIM
 10
-1783.931871217796
 20
-1151.224647051615
 30
0.0
 11
-1773.992002241747
 21
-1151.224647051615
 31
0.0
1001
ACAD
1000
DSTYLE
1002
{
1070
     3
1000
φ<>
1002
}
  0
LINE
  5
233A7
  8
1DIM
 10
-1783.931871217796
 20
-1145.224647051615
 30
0.0
 11
-1773.992002241747
 21
-1145.224647051615
 31
0.0
1001
ACAD
1000
DSTYLE
1002
{
1070
     3
1000
φ<>
1002
}
  0
LINE
  5
233A8
  8
1DIM
 10
-1774.992002241747
 20
-1149.224647051615
 30
0.0
 11
-1774.992002241747
 21
-1147.224647051615
 31
0.0
1001
ACAD
1000
DSTYLE
1002
{
1070
     3
1000
φ<>
1002
}
  0
LINE
  5
233A9
  8
1DIM
 10
-1774.992002241747
 20
-1145.224647051615
 30
0.0
 11
-1774.992002241747
 21
-1135.491313718282
 31
0.0
1001
ACAD
1000
DSTYLE
1002
{
1070
     3
1000
φ<>
1002
}
  0
LINE
  5
233AE
  8
1DIM
 10
-1808.514775963761
 20
-1145.791998203666
 30
0.0
 11
-1813.398144236929
 21
-1139.303865811361
 31
0.0
  0
LINE
  5
233AF
  8
1DIM
 10
-1813.398144236929
 20
-1139.303865811361
 30
0.0
 11
-1822.431477570263
 21
-1139.303865811361
 31
0.0
  0
TEXT
  5
233B0
  8
1DIM
  6
CONTINUOUS
 10
-1821.231477570263
 20
-1139.303865811361
 30
0.0
 40
3.5
  1
M4
  0
LINE
  5
233B1
  8
1DIM
 10
-2067.990503141534
 20
-1319.161869464091
 30
0.0
 11
-2043.107384460714
 21
-1319.161869464091
 31
0.0
  0
LINE
  5
233B2
  8
1DIM
 10
-2083.290285275057
 20
-1345.66186946409
 30
0.0
 11
-2043.107384460714
 21
-1345.66186946409
 31
0.0
  0
LINE
  5
233B3
  8
1DIM
 10
-2044.107384460714
 20
-1321.161869464091
 30
0.0
 11
-2044.107384460714
 21
-1343.66186946409
 31
0.0
  0
LINE
  5
233B7
  8
0
  6
BYBLOCK
 10
-2101.490503141534
 20
-1104.020640931337
 30
0.0
 11
-2103.490503141534
 21
-1103.484742551337
 31
0.0
  0
LINE
  5
233B8
  8
0
  6
BYBLOCK
 10
-2103.490503141534
 20
-1103.484742551337
 30
0.0
 11
-2101.490503141534
 21
-1102.948844171337
 31
0.0
  0
LINE
  5
233B9
  8
0
  6
BYBLOCK
 10
-2103.490503141534
 20
-1103.484742551337
 30
0.0
 11
-2101.490503141534
 21
-1103.484742551337
 31
0.0
  0
LINE
  5
233BA
  8
0
  6
BYBLOCK
 10
-2069.490503141534
 20
-1102.948844171337
 30
0.0
 11
-2067.490503141534
 21
-1103.484742551337
 31
0.0
  0
LINE
  5
233BB
  8
0
  6
BYBLOCK
 10
-2067.490503141534
 20
-1103.484742551337
 30
0.0
 11
-2069.490503141534
 21
-1104.020640931337
 31
0.0
  0
LINE
  5
233BC
  8
0
  6
BYBLOCK
 10
-2067.490503141534
 20
-1103.484742551337
 30
0.0
 11
-2069.490503141534
 21
-1103.484742551337
 31
0.0
  0
TEXT
  5
233BD
  8
1DIM
  6
CONTINUOUS
 10
-2088.407169808201
 20
-1102.784742551337
 30
0.0
 40
3.5
  1
36
  0
LINE
  5
233BE
  8
0
  6
BYBLOCK
 10
-2052.15648935013
 20
-1285.815400167666
 30
0.0
 11
-2052.69238773013
 21
-1287.815400167666
 31
0.0
  0
LINE
  5
233BF
  8
0
  6
BYBLOCK
 10
-2052.69238773013
 20
-1287.815400167666
 30
0.0
 11
-2053.22828611013
 21
-1285.815400167666
 31
0.0
  0
LINE
  5
233C0
  8
0
  6
BYBLOCK
 10
-2052.69238773013
 20
-1287.815400167666
 30
0.0
 11
-2052.69238773013
 21
-1285.815400167666
 31
0.0
  0
LINE
  5
233C1
  8
0
  6
BYBLOCK
 10
-2053.22828611013
 20
-1123.815400167666
 30
0.0
 11
-2052.69238773013
 21
-1121.815400167666
 31
0.0
  0
LINE
  5
233C2
  8
0
  6
BYBLOCK
 10
-2052.69238773013
 20
-1121.815400167666
 30
0.0
 11
-2052.15648935013
 21
-1123.815400167666
 31
0.0
  0
LINE
  5
233C3
  8
0
  6
BYBLOCK
 10
-2052.69238773013
 20
-1121.815400167666
 30
0.0
 11
-2052.69238773013
 21
-1123.815400167666
 31
0.0
  0
TEXT
  5
233C4
  8
1DIM
  6
CONTINUOUS
 10
-2053.392387730129
 20
-1208.910886278777
 30
0.0
 40
3.5
  1
166
 50
90.0
  0
LINE
  5
233C5
  8
0
  6
BYBLOCK
 10
-2058.299731601923
 20
-1285.815400167666
 30
0.0
 11
-2058.835629981923
 21
-1287.815400167666
 31
0.0
  0
LINE
  5
233C6
  8
0
  6
BYBLOCK
 10
-2058.835629981923
 20
-1287.815400167666
 30
0.0
 11
-2059.371528361923
 21
-1285.815400167666
 31
0.0
  0
LINE
  5
233C7
  8
0
  6
BYBLOCK
 10
-2058.835629981923
 20
-1287.815400167666
 30
0.0
 11
-2058.835629981923
 21
-1285.815400167666
 31
0.0
  0
LINE
  5
233C8
  8
0
  6
BYBLOCK
 10
-2059.371528361923
 20
-1278.815400167666
 30
0.0
 11
-2058.835629981923
 21
-1276.815400167666
 31
0.0
  0
LINE
  5
233C9
  8
0
  6
BYBLOCK
 10
-2058.835629981923
 20
-1276.815400167666
 30
0.0
 11
-2058.299731601923
 21
-1278.815400167666
 31
0.0
  0
LINE
  5
233CA
  8
0
  6
BYBLOCK
 10
-2058.835629981923
 20
-1276.815400167666
 30
0.0
 11
-2058.835629981923
 21
-1278.815400167666
 31
0.0
  0
TEXT
  5
233CB
  8
1DIM
  6
CONTINUOUS
 10
-2059.535629981922
 20
-1284.065400167666
 30
0.0
 40
3.5
  1
11
 50
90.0
  0
LINE
  5
233CC
  8
0
  6
BYBLOCK
 10
-2058.299731601923
 20
-1274.815400167666
 30
0.0
 11
-2058.835629981923
 21
-1276.815400167666
 31
0.0
  0
LINE
  5
233CD
  8
0
  6
BYBLOCK
 10
-2058.835629981923
 20
-1276.815400167666
 30
0.0
 11
-2059.371528361923
 21
-1274.815400167666
 31
0.0
  0
LINE
  5
233CE
  8
0
  6
BYBLOCK
 10
-2058.835629981923
 20
-1276.815400167666
 30
0.0
 11
-2058.835629981923
 21
-1274.815400167666
 31
0.0
  0
LINE
  5
233CF
  8
0
  6
BYBLOCK
 10
-2059.371528361923
 20
-1168.815400167666
 30
0.0
 11
-2058.835629981923
 21
-1166.815400167666
 31
0.0
  0
LINE
  5
233D0
  8
0
  6
BYBLOCK
 10
-2058.835629981923
 20
-1166.815400167666
 30
0.0
 11
-2058.299731601923
 21
-1168.815400167666
 31
0.0
  0
LINE
  5
233D1
  8
0
  6
BYBLOCK
 10
-2058.835629981923
 20
-1166.815400167666
 30
0.0
 11
-2058.835629981923
 21
-1168.815400167666
 31
0.0
  0
TEXT
  5
233D2
  8
1DIM
  6
CONTINUOUS
 10
-2059.535629981922
 20
-1225.096650167666
 30
0.0
 40
3.5
  1
110
 50
90.0
  0
LINE
  5
233D3
  8
0
  6
BYBLOCK
 10
-2094.490503141534
 20
-1302.380741768342
 30
0.0
 11
-2096.490503141534
 21
-1301.844843388342
 31
0.0
  0
LINE
  5
233D4
  8
0
  6
BYBLOCK
 10
-2096.490503141534
 20
-1301.844843388342
 30
0.0
 11
-2094.490503141534
 21
-1301.308945008342
 31
0.0
  0
LINE
  5
233D5
  8
0
  6
BYBLOCK
 10
-2096.490503141534
 20
-1301.844843388342
 30
0.0
 11
-2094.490503141534
 21
-1301.844843388342
 31
0.0
  0
LINE
  5
233D6
  8
0
  6
BYBLOCK
 10
-2076.490503141534
 20
-1301.308945008342
 30
0.0
 11
-2074.490503141534
 21
-1301.844843388342
 31
0.0
  0
LINE
  5
233D7
  8
0
  6
BYBLOCK
 10
-2074.490503141534
 20
-1301.844843388342
 30
0.0
 11
-2076.490503141534
 21
-1302.380741768342
 31
0.0
  0
LINE
  5
233D8
  8
0
  6
BYBLOCK
 10
-2074.490503141534
 20
-1301.844843388342
 30
0.0
 11
-2076.490503141534
 21
-1301.844843388342
 31
0.0
  0
TEXT
  5
233D9
  8
1DIM
  6
CONTINUOUS
 10
-2088.407169808201
 20
-1301.144843388342
 30
0.0
 40
3.5
  1
22
  0
LINE
  5
233DA
  8
0
  6
BYBLOCK
 10
-2028.866424046368
 20
-1104.020640931337
 30
0.0
 11
-2030.866424046368
 21
-1103.484742551337
 31
0.0
  0
LINE
  5
233DB
  8
0
  6
BYBLOCK
 10
-2030.866424046368
 20
-1103.484742551337
 30
0.0
 11
-2028.866424046368
 21
-1102.948844171337
 31
0.0
  0
LINE
  5
233DC
  8
0
  6
BYBLOCK
 10
-2030.866424046368
 20
-1103.484742551337
 30
0.0
 11
-2028.866424046368
 21
-1103.484742551337
 31
0.0
  0
LINE
  5
233DD
  8
0
  6
BYBLOCK
 10
-1992.866424046368
 20
-1102.948844171337
 30
0.0
 11
-1990.866424046368
 21
-1103.484742551337
 31
0.0
  0
LINE
  5
233DE
  8
0
  6
BYBLOCK
 10
-1990.866424046368
 20
-1103.484742551337
 30
0.0
 11
-1992.866424046368
 21
-1104.020640931337
 31
0.0
  0
LINE
  5
233DF
  8
0
  6
BYBLOCK
 10
-1990.866424046368
 20
-1103.484742551337
 30
0.0
 11
-1992.866424046368
 21
-1103.484742551337
 31
0.0
  0
TEXT
  5
233E0
  8
1DIM
  6
CONTINUOUS
 10
-2019.164340713035
 20
-1102.784742551337
 30
0.0
 40
3.5
  1
28～40
  0
LINE
  5
233E1
  8
0
  6
BYBLOCK
 10
-2028.866424046368
 20
-1104.020640931337
 30
0.0
 11
-2030.866424046368
 21
-1103.484742551337
 31
0.0
  0
LINE
  5
233E2
  8
0
  6
BYBLOCK
 10
-2030.866424046368
 20
-1103.484742551337
 30
0.0
 11
-2028.866424046368
 21
-1102.948844171337
 31
0.0
  0
LINE
  5
233E3
  8
0
  6
BYBLOCK
 10
-2030.866424046368
 20
-1103.484742551337
 30
0.0
 11
-2028.866424046368
 21
-1103.484742551337
 31
0.0
  0
LINE
  5
233E4
  8
0
  6
BYBLOCK
 10
-2034.366424046368
 20
-1102.948844171337
 30
0.0
 11
-2032.366424046368
 21
-1103.484742551337
 31
0.0
  0
LINE
  5
233E5
  8
0
  6
BYBLOCK
 10
-2032.366424046368
 20
-1103.484742551337
 30
0.0
 11
-2034.366424046368
 21
-1104.020640931337
 31
0.0
  0
LINE
  5
233E6
  8
0
  6
BYBLOCK
 10
-2032.366424046368
 20
-1103.484742551337
 30
0.0
 11
-2034.366424046368
 21
-1103.484742551337
 31
0.0
  0
TEXT
  5
233E7
  8
1DIM
  6
CONTINUOUS
 10
-2043.399757379701
 20
-1102.784742551337
 30
0.0
 40
3.5
  1
1.5
  0
LINE
  5
233E8
  8
0
  6
BYBLOCK
 10
-1909.702978077093
 20
-1130.815400167666
 30
0.0
 11
-1909.167079697093
 21
-1128.815400167666
 31
0.0
  0
LINE
  5
233E9
  8
0
  6
BYBLOCK
 10
-1909.167079697093
 20
-1128.815400167666
 30
0.0
 11
-1908.631181317093
 21
-1130.815400167666
 31
0.0
  0
LINE
  5
233EA
  8
0
  6
BYBLOCK
 10
-1909.167079697093
 20
-1128.815400167666
 30
0.0
 11
-1909.167079697093
 21
-1130.815400167666
 31
0.0
  0
LINE
  5
233EB
  8
0
  6
BYBLOCK
 10
-1908.631181317093
 20
-1279.315400167666
 30
0.0
 11
-1909.167079697093
 21
-1281.315400167666
 31
0.0
  0
LINE
  5
233EC
  8
0
  6
BYBLOCK
 10
-1909.167079697093
 20
-1281.315400167666
 30
0.0
 11
-1909.702978077093
 21
-1279.315400167666
 31
0.0
  0
LINE
  5
233ED
  8
0
  6
BYBLOCK
 10
-1909.167079697093
 20
-1281.315400167666
 30
0.0
 11
-1909.167079697093
 21
-1279.315400167666
 31
0.0
  0
TEXT
  5
233EE
  8
1DIM
  6
CONTINUOUS
 10
-1909.867079697093
 20
-1211.49421961211
 30
0.0
 40
3.5
  1
152.5
 50
90.0
  0
LINE
  5
233EF
  8
0
  6
BYBLOCK
 10
-1909.702978077093
 20
-1283.315400167666
 30
0.0
 11
-1909.167079697093
 21
-1281.315400167666
 31
0.0
  0
LINE
  5
233F0
  8
0
  6
BYBLOCK
 10
-1909.167079697093
 20
-1281.315400167666
 30
0.0
 11
-1908.631181317093
 21
-1283.315400167666
 31
0.0
  0
LINE
  5
233F1
  8
0
  6
BYBLOCK
 10
-1909.167079697093
 20
-1281.315400167666
 30
0.0
 11
-1909.167079697093
 21
-1283.315400167666
 31
0.0
  0
LINE
  5
233F2
  8
0
  6
BYBLOCK
 10
-1908.631181317093
 20
-1285.815400167666
 30
0.0
 11
-1909.167079697093
 21
-1287.815400167666
 31
0.0
  0
LINE
  5
233F3
  8
0
  6
BYBLOCK
 10
-1909.167079697093
 20
-1287.815400167666
 30
0.0
 11
-1909.702978077093
 21
-1285.815400167666
 31
0.0
  0
LINE
  5
233F4
  8
0
  6
BYBLOCK
 10
-1909.167079697093
 20
-1287.815400167666
 30
0.0
 11
-1909.167079697093
 21
-1285.815400167666
 31
0.0
  0
TEXT
  5
233F5
  8
1DIM
  6
CONTINUOUS
 10
-1909.867079697093
 20
-1297.610886278777
 30
0.0
 40
3.5
  1
6.5
 50
90.0
  0
LINE
  5
233F6
  8
0
  6
BYBLOCK
 10
-2052.15648935013
 20
-1332.161869464091
 30
0.0
 11
-2052.69238773013
 21
-1334.161869464091
 31
0.0
  0
LINE
  5
233F7
  8
0
  6
BYBLOCK
 10
-2052.69238773013
 20
-1334.161869464091
 30
0.0
 11
-2053.22828611013
 21
-1332.161869464091
 31
0.0
  0
LINE
  5
233F8
  8
0
  6
BYBLOCK
 10
-2052.69238773013
 20
-1334.161869464091
 30
0.0
 11
-2052.69238773013
 21
-1332.161869464091
 31
0.0
  0
LINE
  5
233F9
  8
0
  6
BYBLOCK
 10
-2053.22828611013
 20
-1321.161869464091
 30
0.0
 11
-2052.69238773013
 21
-1319.161869464091
 31
0.0
  0
LINE
  5
233FA
  8
0
  6
BYBLOCK
 10
-2052.69238773013
 20
-1319.161869464091
 30
0.0
 11
-2052.15648935013
 21
-1321.161869464091
 31
0.0
  0
LINE
  5
233FB
  8
0
  6
BYBLOCK
 10
-2052.69238773013
 20
-1319.161869464091
 30
0.0
 11
-2052.69238773013
 21
-1321.161869464091
 31
0.0
  0
TEXT
  5
233FC
  8
1DIM
  6
CONTINUOUS
 10
-2054.309054396796
 20
-1331.194855575202
 30
0.0
 40
3.5
  1
(15)
 50
90.0
1001
ACAD
1000
DSTYLE
1002
{
1070
     3
1000
(<>)
1002
}
  0
LINE
  5
233FD
  8
0
  6
BYBLOCK
 10
-2058.34957209393
 20
-1332.161869464091
 30
0.0
 11
-2058.88547047393
 21
-1334.161869464091
 31
0.0
  0
LINE
  5
233FE
  8
0
  6
BYBLOCK
 10
-2058.88547047393
 20
-1334.161869464091
 30
0.0
 11
-2059.42136885393
 21
-1332.161869464091
 31
0.0
  0
LINE
  5
233FF
  8
0
  6
BYBLOCK
 10
-2058.88547047393
 20
-1334.161869464091
 30
0.0
 11
-2058.88547047393
 21
-1332.161869464091
 31
0.0
  0
LINE
  5
23400
  8
0
  6
BYBLOCK
 10
-2059.42136885393
 20
-1322.661869464091
 30
0.0
 11
-2058.88547047393
 21
-1320.661869464091
 31
0.0
  0
LINE
  5
23401
  8
0
  6
BYBLOCK
 10
-2058.88547047393
 20
-1320.661869464091
 30
0.0
 11
-2058.34957209393
 21
-1322.661869464091
 31
0.0
  0
LINE
  5
23402
  8
0
  6
BYBLOCK
 10
-2058.88547047393
 20
-1320.661869464091
 30
0.0
 11
-2058.88547047393
 21
-1322.661869464091
 31
0.0
  0
TEXT
  5
23403
  8
1DIM
  6
CONTINUOUS
 10
-2059.585470473929
 20
-1332.078536130757
 30
0.0
 40
3.5
  1
13.5
 50
90.0
  0
LINE
  5
23404
  8
0
  6
BYBLOCK
 10
-2059.42136885393
 20
-1322.661869464091
 30
0.0
 11
-2058.88547047393
 21
-1320.661869464091
 31
0.0
  0
LINE
  5
23405
  8
0
  6
BYBLOCK
 10
-2058.88547047393
 20
-1320.661869464091
 30
0.0
 11
-2058.34957209393
 21
-1322.661869464091
 31
0.0
  0
LINE
  5
23406
  8
0
  6
BYBLOCK
 10
-2058.88547047393
 20
-1320.661869464091
 30
0.0
 11
-2058.88547047393
 21
-1322.661869464091
 31
0.0
  0
LINE
  5
23407
  8
0
  6
BYBLOCK
 10
-2058.34957209393
 20
-1317.161869464091
 30
0.0
 11
-2058.88547047393
 21
-1319.161869464091
 31
0.0
  0
LINE
  5
23408
  8
0
  6
BYBLOCK
 10
-2058.88547047393
 20
-1319.161869464091
 30
0.0
 11
-2059.42136885393
 21
-1317.161869464091
 31
0.0
  0
LINE
  5
23409
  8
0
  6
BYBLOCK
 10
-2058.88547047393
 20
-1319.161869464091
 30
0.0
 11
-2058.88547047393
 21
-1317.161869464091
 31
0.0
  0
TEXT
  5
2340A
  8
1DIM
  6
CONTINUOUS
 10
-2059.585470473929
 20
-1313.961869464091
 30
0.0
 40
3.5
  1
1.5
 50
90.0
  0
LINE
  5
2340B
  8
0
  6
BYBLOCK
 10
-2096.490503141534
 20
-1310.169904224907
 30
0.0
 11
-2098.490503141534
 21
-1309.634005844907
 31
0.0
  0
LINE
  5
2340C
  8
0
  6
BYBLOCK
 10
-2098.490503141534
 20
-1309.634005844907
 30
0.0
 11
-2096.490503141534
 21
-1309.098107464907
 31
0.0
  0
LINE
  5
2340D
  8
0
  6
BYBLOCK
 10
-2098.490503141534
 20
-1309.634005844907
 30
0.0
 11
-2096.490503141534
 21
-1309.634005844907
 31
0.0
  0
LINE
  5
2340E
  8
0
  6
BYBLOCK
 10
-2074.490503141534
 20
-1309.098107464907
 30
0.0
 11
-2072.490503141534
 21
-1309.634005844907
 31
0.0
  0
LINE
  5
2340F
  8
0
  6
BYBLOCK
 10
-2072.490503141534
 20
-1309.634005844907
 30
0.0
 11
-2074.490503141534
 21
-1310.169904224907
 31
0.0
  0
LINE
  5
23410
  8
0
  6
BYBLOCK
 10
-2072.490503141534
 20
-1309.634005844907
 30
0.0
 11
-2074.490503141534
 21
-1309.634005844907
 31
0.0
  0
TEXT
  5
23411
  8
1DIM
  6
CONTINUOUS
 10
-2088.407169808201
 20
-1308.934005844907
 30
0.0
 40
3.5
  1
26
  0
LINE
  5
23412
  8
0
  6
BYBLOCK
 10
-2096.490503141534
 20
-1310.169904224907
 30
0.0
 11
-2098.490503141534
 21
-1309.634005844907
 31
0.0
  0
LINE
  5
23413
  8
0
  6
BYBLOCK
 10
-2098.490503141534
 20
-1309.634005844907
 30
0.0
 11
-2096.490503141534
 21
-1309.098107464907
 31
0.0
  0
LINE
  5
23414
  8
0
  6
BYBLOCK
 10
-2098.490503141534
 20
-1309.634005844907
 30
0.0
 11
-2096.490503141534
 21
-1309.634005844907
 31
0.0
  0
LINE
  5
23415
  8
0
  6
BYBLOCK
 10
-2105.490503141535
 20
-1309.098107464907
 30
0.0
 11
-2103.490503141535
 21
-1309.634005844907
 31
0.0
  0
LINE
  5
23416
  8
0
  6
BYBLOCK
 10
-2103.490503141535
 20
-1309.634005844907
 30
0.0
 11
-2105.490503141535
 21
-1310.169904224907
 31
0.0
  0
LINE
  5
23417
  8
0
  6
BYBLOCK
 10
-2103.490503141535
 20
-1309.634005844907
 30
0.0
 11
-2105.490503141535
 21
-1309.634005844907
 31
0.0
  0
TEXT
  5
23418
  8
1DIM
  6
CONTINUOUS
 10
-2110.523836474868
 20
-1308.934005844907
 30
0.0
 40
3.5
  1
5
  0
LINE
  5
23419
  8
0
  6
BYBLOCK
 10
-1955.80159095617
 20
-1310.169904224907
 30
0.0
 11
-1957.80159095617
 21
-1309.634005844907
 31
0.0
  0
LINE
  5
2341A
  8
0
  6
BYBLOCK
 10
-1957.80159095617
 20
-1309.634005844907
 30
0.0
 11
-1955.80159095617
 21
-1309.098107464907
 31
0.0
  0
LINE
  5
2341B
  8
0
  6
BYBLOCK
 10
-1957.80159095617
 20
-1309.634005844907
 30
0.0
 11
-1955.80159095617
 21
-1309.634005844907
 31
0.0
  0
LINE
  5
2341C
  8
0
  6
BYBLOCK
 10
-1964.80159095617
 20
-1309.098107464907
 30
0.0
 11
-1962.80159095617
 21
-1309.634005844907
 31
0.0
  0
LINE
  5
2341D
  8
0
  6
BYBLOCK
 10
-1962.80159095617
 20
-1309.634005844907
 30
0.0
 11
-1964.80159095617
 21
-1310.169904224907
 31
0.0
  0
LINE
  5
2341E
  8
0
  6
BYBLOCK
 10
-1962.80159095617
 20
-1309.634005844907
 30
0.0
 11
-1964.80159095617
 21
-1309.634005844907
 31
0.0
  0
TEXT
  5
2341F
  8
1DIM
  6
CONTINUOUS
 10
-1969.834924289504
 20
-1308.934005844907
 30
0.0
 40
3.5
  1
5
  0
LINE
  5
23420
  8
0
  6
BYBLOCK
 10
-1955.80159095617
 20
-1310.169904224907
 30
0.0
 11
-1957.80159095617
 21
-1309.634005844907
 31
0.0
  0
LINE
  5
23421
  8
0
  6
BYBLOCK
 10
-1957.80159095617
 20
-1309.634005844907
 30
0.0
 11
-1955.80159095617
 21
-1309.098107464907
 31
0.0
  0
LINE
  5
23422
  8
0
  6
BYBLOCK
 10
-1957.80159095617
 20
-1309.634005844907
 30
0.0
 11
-1955.80159095617
 21
-1309.634005844907
 31
0.0
  0
LINE
  5
23423
  8
0
  6
BYBLOCK
 10
-1933.80159095617
 20
-1309.098107464907
 30
0.0
 11
-1931.80159095617
 21
-1309.634005844907
 31
0.0
  0
LINE
  5
23424
  8
0
  6
BYBLOCK
 10
-1931.80159095617
 20
-1309.634005844907
 30
0.0
 11
-1933.80159095617
 21
-1310.169904224907
 31
0.0
  0
LINE
  5
23425
  8
0
  6
BYBLOCK
 10
-1931.80159095617
 20
-1309.634005844907
 30
0.0
 11
-1933.80159095617
 21
-1309.634005844907
 31
0.0
  0
TEXT
  5
23426
  8
1DIM
  6
CONTINUOUS
 10
-1947.718257622837
 20
-1308.934005844907
 30
0.0
 40
3.5
  1
26
  0
LINE
  5
23427
  8
0
  6
BYBLOCK
 10
-1908.631181317093
 20
-1332.161869464091
 30
0.0
 11
-1909.167079697093
 21
-1334.161869464091
 31
0.0
  0
LINE
  5
23428
  8
0
  6
BYBLOCK
 10
-1909.167079697093
 20
-1334.161869464091
 30
0.0
 11
-1909.702978077093
 21
-1332.161869464091
 31
0.0
  0
LINE
  5
23429
  8
0
  6
BYBLOCK
 10
-1909.167079697093
 20
-1334.161869464091
 30
0.0
 11
-1909.167079697093
 21
-1332.161869464091
 31
0.0
  0
LINE
  5
2342A
  8
0
  6
BYBLOCK
 10
-1909.702978077093
 20
-1321.161869464091
 30
0.0
 11
-1909.167079697093
 21
-1319.161869464091
 31
0.0
  0
LINE
  5
2342B
  8
0
  6
BYBLOCK
 10
-1909.167079697093
 20
-1319.161869464091
 30
0.0
 11
-1908.631181317093
 21
-1321.161869464091
 31
0.0
  0
LINE
  5
2342C
  8
0
  6
BYBLOCK
 10
-1909.167079697093
 20
-1319.161869464091
 30
0.0
 11
-1909.167079697093
 21
-1321.161869464091
 31
0.0
  0
TEXT
  5
2342D
  8
1DIM
  6
CONTINUOUS
 10
-1910.783746363759
 20
-1331.194855575202
 30
0.0
 40
3.5
  1
(15)
 50
90.0
1001
ACAD
1000
DSTYLE
1002
{
1070
     3
1000
(<>)
1002
}
  0
LINE
  5
2342E
  8
0
  6
BYBLOCK
 10
-1918.537568372929
 20
-1322.661869464091
 30
0.0
 11
-1918.001669992929
 21
-1320.661869464091
 31
0.0
  0
LINE
  5
2342F
  8
0
  6
BYBLOCK
 10
-1918.001669992929
 20
-1320.661869464091
 30
0.0
 11
-1917.465771612929
 21
-1322.661869464091
 31
0.0
  0
LINE
  5
23430
  8
0
  6
BYBLOCK
 10
-1918.001669992929
 20
-1320.661869464091
 30
0.0
 11
-1918.001669992929
 21
-1322.661869464091
 31
0.0
  0
LINE
  5
23431
  8
0
  6
BYBLOCK
 10
-1917.465771612929
 20
-1317.161869464091
 30
0.0
 11
-1918.001669992929
 21
-1319.161869464091
 31
0.0
  0
LINE
  5
23432
  8
0
  6
BYBLOCK
 10
-1918.001669992929
 20
-1319.161869464091
 30
0.0
 11
-1918.537568372929
 21
-1317.161869464091
 31
0.0
  0
LINE
  5
23433
  8
0
  6
BYBLOCK
 10
-1918.001669992929
 20
-1319.161869464091
 30
0.0
 11
-1918.001669992929
 21
-1317.161869464091
 31
0.0
  0
TEXT
  5
23434
  8
1DIM
  6
CONTINUOUS
 10
-1918.701669992929
 20
-1313.961869464091
 30
0.0
 40
3.5
  1
1.5
 50
90.0
  0
LINE
  5
23435
  8
0
  6
BYBLOCK
 10
-1918.537568372929
 20
-1322.661869464091
 30
0.0
 11
-1918.001669992929
 21
-1320.661869464091
 31
0.0
  0
LINE
  5
23436
  8
0
  6
BYBLOCK
 10
-1918.001669992929
 20
-1320.661869464091
 30
0.0
 11
-1917.465771612929
 21
-1322.661869464091
 31
0.0
  0
LINE
  5
23437
  8
0
  6
BYBLOCK
 10
-1918.001669992929
 20
-1320.661869464091
 30
0.0
 11
-1918.001669992929
 21
-1322.661869464091
 31
0.0
  0
LINE
  5
23438
  8
0
  6
BYBLOCK
 10
-1917.465771612929
 20
-1332.161869464091
 30
0.0
 11
-1918.001669992929
 21
-1334.161869464091
 31
0.0
  0
LINE
  5
23439
  8
0
  6
BYBLOCK
 10
-1918.001669992929
 20
-1334.161869464091
 30
0.0
 11
-1918.537568372929
 21
-1332.161869464091
 31
0.0
  0
LINE
  5
2343A
  8
0
  6
BYBLOCK
 10
-1918.001669992929
 20
-1334.161869464091
 30
0.0
 11
-1918.001669992929
 21
-1332.161869464091
 31
0.0
  0
TEXT
  5
2343B
  8
1DIM
  6
CONTINUOUS
 10
-1918.701669992929
 20
-1332.078536130758
 30
0.0
 40
3.5
  1
13.5
 50
90.0
  0
LINE
  5
2343C
  8
0
  6
BYBLOCK
 10
-1978.277567753852
 20
-1123.815400167666
 30
0.0
 11
-1977.741669373852
 21
-1121.815400167666
 31
0.0
  0
LINE
  5
2343D
  8
0
  6
BYBLOCK
 10
-1977.741669373852
 20
-1121.815400167666
 30
0.0
 11
-1977.205770993852
 21
-1123.815400167666
 31
0.0
  0
LINE
  5
2343E
  8
0
  6
BYBLOCK
 10
-1977.741669373852
 20
-1121.815400167666
 30
0.0
 11
-1977.741669373852
 21
-1123.815400167666
 31
0.0
  0
LINE
  5
2343F
  8
0
  6
BYBLOCK
 10
-1977.205770993852
 20
-1285.815400167666
 30
0.0
 11
-1977.741669373852
 21
-1287.815400167666
 31
0.0
  0
LINE
  5
23440
  8
0
  6
BYBLOCK
 10
-1977.741669373852
 20
-1287.815400167666
 30
0.0
 11
-1978.277567753852
 21
-1285.815400167666
 31
0.0
  0
LINE
  5
23441
  8
0
  6
BYBLOCK
 10
-1977.741669373852
 20
-1287.815400167666
 30
0.0
 11
-1977.741669373852
 21
-1285.815400167666
 31
0.0
  0
TEXT
  5
23442
  8
1DIM
  6
CONTINUOUS
 10
-1978.441669373852
 20
-1208.910886278777
 30
0.0
 40
3.5
  1
166
 50
90.0
  0
LINE
  5
23443
  8
0
  6
BYBLOCK
 10
-1970.569450129167
 20
-1285.815400167666
 30
0.0
 11
-1971.105348509167
 21
-1287.815400167666
 31
0.0
  0
LINE
  5
23444
  8
0
  6
BYBLOCK
 10
-1971.105348509167
 20
-1287.815400167666
 30
0.0
 11
-1971.641246889166
 21
-1285.815400167666
 31
0.0
  0
LINE
  5
23445
  8
0
  6
BYBLOCK
 10
-1971.105348509167
 20
-1287.815400167666
 30
0.0
 11
-1971.105348509167
 21
-1285.815400167666
 31
0.0
  0
LINE
  5
23446
  8
0
  6
BYBLOCK
 10
-1971.641246889166
 20
-1278.815400167666
 30
0.0
 11
-1971.105348509167
 21
-1276.815400167666
 31
0.0
  0
LINE
  5
23447
  8
0
  6
BYBLOCK
 10
-1971.105348509167
 20
-1276.815400167666
 30
0.0
 11
-1970.569450129167
 21
-1278.815400167666
 31
0.0
  0
LINE
  5
23448
  8
0
  6
BYBLOCK
 10
-1971.105348509167
 20
-1276.815400167666
 30
0.0
 11
-1971.105348509167
 21
-1278.815400167666
 31
0.0
  0
TEXT
  5
23449
  8
1DIM
  6
CONTINUOUS
 10
-1971.805348509166
 20
-1284.065400167666
 30
0.0
 40
3.5
  1
11
 50
90.0
  0
LINE
  5
2344A
  8
0
  6
BYBLOCK
 10
-1970.569450129167
 20
-1274.815400167666
 30
0.0
 11
-1971.105348509167
 21
-1276.815400167666
 31
0.0
  0
LINE
  5
2344B
  8
0
  6
BYBLOCK
 10
-1971.105348509167
 20
-1276.815400167666
 30
0.0
 11
-1971.641246889166
 21
-1274.815400167666
 31
0.0
  0
LINE
  5
2344C
  8
0
  6
BYBLOCK
 10
-1971.105348509167
 20
-1276.815400167666
 30
0.0
 11
-1971.105348509167
 21
-1274.815400167666
 31
0.0
  0
LINE
  5
2344D
  8
0
  6
BYBLOCK
 10
-1971.641246889166
 20
-1168.815400167666
 30
0.0
 11
-1971.105348509167
 21
-1166.815400167666
 31
0.0
  0
LINE
  5
2344E
  8
0
  6
BYBLOCK
 10
-1971.105348509167
 20
-1166.815400167666
 30
0.0
 11
-1970.569450129167
 21
-1168.815400167666
 31
0.0
  0
LINE
  5
2344F
  8
0
  6
BYBLOCK
 10
-1971.105348509167
 20
-1166.815400167666
 30
0.0
 11
-1971.105348509167
 21
-1168.815400167666
 31
0.0
  0
TEXT
  5
23450
  8
1DIM
  6
CONTINUOUS
 10
-1971.805348509166
 20
-1225.096650167666
 30
0.0
 40
3.5
  1
110
 50
90.0
  0
LINE
  5
23451
  8
0
  6
BYBLOCK
 10
-1960.80159095617
 20
-1104.020640931337
 30
0.0
 11
-1962.80159095617
 21
-1103.484742551337
 31
0.0
  0
LINE
  5
23452
  8
0
  6
BYBLOCK
 10
-1962.80159095617
 20
-1103.484742551337
 30
0.0
 11
-1960.80159095617
 21
-1102.948844171337
 31
0.0
  0
LINE
  5
23453
  8
0
  6
BYBLOCK
 10
-1962.80159095617
 20
-1103.484742551337
 30
0.0
 11
-1960.80159095617
 21
-1103.484742551337
 31
0.0
  0
LINE
  5
23454
  8
0
  6
BYBLOCK
 10
-1928.80159095617
 20
-1102.948844171337
 30
0.0
 11
-1926.80159095617
 21
-1103.484742551337
 31
0.0
  0
LINE
  5
23455
  8
0
  6
BYBLOCK
 10
-1926.80159095617
 20
-1103.484742551337
 30
0.0
 11
-1928.80159095617
 21
-1104.020640931337
 31
0.0
  0
LINE
  5
23456
  8
0
  6
BYBLOCK
 10
-1926.80159095617
 20
-1103.484742551337
 30
0.0
 11
-1928.80159095617
 21
-1103.484742551337
 31
0.0
  0
TEXT
  5
23457
  8
1DIM
  6
CONTINUOUS
 10
-1947.718257622837
 20
-1102.784742551337
 30
0.0
 40
3.5
  1
36
  0
LINE
  5
23458
  8
0
  6
BYBLOCK
 10
-1893.040962452134
 20
-1104.020640931337
 30
0.0
 11
-1895.040962452134
 21
-1103.484742551337
 31
0.0
  0
LINE
  5
23459
  8
0
  6
BYBLOCK
 10
-1895.040962452134
 20
-1103.484742551337
 30
0.0
 11
-1893.040962452134
 21
-1102.948844171337
 31
0.0
  0
LINE
  5
2345A
  8
0
  6
BYBLOCK
 10
-1895.040962452134
 20
-1103.484742551337
 30
0.0
 11
-1893.040962452134
 21
-1103.484742551337
 31
0.0
  0
LINE
  5
2345B
  8
0
  6
BYBLOCK
 10
-1870.040962452133
 20
-1102.948844171337
 30
0.0
 11
-1868.040962452133
 21
-1103.484742551337
 31
0.0
  0
LINE
  5
2345C
  8
0
  6
BYBLOCK
 10
-1868.040962452133
 20
-1103.484742551337
 30
0.0
 11
-1870.040962452133
 21
-1104.020640931337
 31
0.0
  0
LINE
  5
2345D
  8
0
  6
BYBLOCK
 10
-1868.040962452133
 20
-1103.484742551337
 30
0.0
 11
-1870.040962452133
 21
-1103.484742551337
 31
0.0
  0
TEXT
  5
2345E
  8
1DIM
  6
CONTINUOUS
 10
-1884.457629118801
 20
-1102.784742551337
 30
0.0
 40
3.5
  1
27
  0
LINE
  5
2345F
  8
0
  6
BYBLOCK
 10
-1847.93727755916
 20
-1125.815400167666
 30
0.0
 11
-1847.40137917916
 21
-1123.815400167666
 31
0.0
  0
LINE
  5
23460
  8
0
  6
BYBLOCK
 10
-1847.40137917916
 20
-1123.815400167666
 30
0.0
 11
-1846.86548079916
 21
-1125.815400167666
 31
0.0
  0
LINE
  5
23461
  8
0
  6
BYBLOCK
 10
-1847.40137917916
 20
-1123.815400167666
 30
0.0
 11
-1847.40137917916
 21
-1125.815400167666
 31
0.0
  0
LINE
  5
23462
  8
0
  6
BYBLOCK
 10
-1846.86548079916
 20
-1282.815400167666
 30
0.0
 11
-1847.40137917916
 21
-1284.815400167666
 31
0.0
  0
LINE
  5
23463
  8
0
  6
BYBLOCK
 10
-1847.40137917916
 20
-1284.815400167666
 30
0.0
 11
-1847.93727755916
 21
-1282.815400167666
 31
0.0
  0
LINE
  5
23464
  8
0
  6
BYBLOCK
 10
-1847.40137917916
 20
-1284.815400167666
 30
0.0
 11
-1847.40137917916
 21
-1282.815400167666
 31
0.0
  0
TEXT
  5
23465
  8
1DIM
  6
CONTINUOUS
 10
-1848.10137917916
 20
-1207.827552945444
 30
0.0
 40
3.5
  1
161
 50
90.0
  0
TEXT
  5
23466
  8
1DIM
  6
CONTINUOUS
 10
-1901.688142504438
 20
-1289.357759330804
 30
0.0
 40
3.5
  1
R6
 50
42.25035277551373
  0
LINE
  5
23467
  8
0
  6
BYBLOCK
 10
-1895.32299707858
 20
-1283.79769161095
 30
0.0
 11
-1893.482246378016
 21
-1282.849628357754
 31
0.0
  0
LINE
  5
23468
  8
0
  6
BYBLOCK
 10
-1893.482246378016
 20
-1282.849628357754
 30
0.0
 11
-1894.60235162804
 21
-1284.591050564617
 31
0.0
  0
LINE
  5
23469
  8
0
  6
BYBLOCK
 10
-1893.482246378016
 20
-1282.849628357754
 30
0.0
 11
-1894.96267435331
 21
-1284.194371087784
 31
0.0
  0
LINE
  5
2346A
  8
0
  6
BYBLOCK
 10
-1806.931871217796
 20
-1138.583921545898
 30
0.0
 11
-1808.931871217796
 21
-1138.048023165898
 31
0.0
  0
LINE
  5
2346B
  8
0
  6
BYBLOCK
 10
-1808.931871217796
 20
-1138.048023165898
 30
0.0
 11
-1806.931871217796
 21
-1137.512124785898
 31
0.0
  0
LINE
  5
2346C
  8
0
  6
BYBLOCK
 10
-1808.931871217796
 20
-1138.048023165898
 30
0.0
 11
-1806.931871217796
 21
-1138.048023165898
 31
0.0
  0
LINE
  5
2346D
  8
0
  6
BYBLOCK
 10
-1785.931871217796
 20
-1137.512124785898
 30
0.0
 11
-1783.931871217796
 21
-1138.048023165898
 31
0.0
  0
LINE
  5
2346E
  8
0
  6
BYBLOCK
 10
-1783.931871217796
 20
-1138.048023165898
 30
0.0
 11
-1785.931871217796
 21
-1138.583921545898
 31
0.0
  0
LINE
  5
2346F
  8
0
  6
BYBLOCK
 10
-1783.931871217796
 20
-1138.048023165898
 30
0.0
 11
-1785.931871217796
 21
-1138.048023165898
 31
0.0
  0
TEXT
  5
23470
  8
1DIM
  6
CONTINUOUS
 10
-1799.348537884463
 20
-1137.348023165898
 30
0.0
 40
3.5
  1
25
  0
LINE
  5
23471
  8
0
  6
BYBLOCK
 10
-1774.456103861747
 20
-1149.224647051615
 30
0.0
 11
-1774.992002241747
 21
-1151.224647051615
 31
0.0
  0
LINE
  5
23472
  8
0
  6
BYBLOCK
 10
-1774.992002241747
 20
-1151.224647051615
 30
0.0
 11
-1775.527900621747
 21
-1149.224647051615
 31
0.0
  0
LINE
  5
23473
  8
0
  6
BYBLOCK
 10
-1774.992002241747
 20
-1151.224647051615
 30
0.0
 11
-1774.992002241747
 21
-1149.224647051615
 31
0.0
  0
LINE
  5
23474
  8
0
  6
BYBLOCK
 10
-1775.527900621747
 20
-1147.224647051615
 30
0.0
 11
-1774.992002241747
 21
-1145.224647051615
 31
0.0
  0
LINE
  5
23475
  8
0
  6
BYBLOCK
 10
-1774.992002241747
 20
-1145.224647051615
 30
0.0
 11
-1774.456103861747
 21
-1147.224647051615
 31
0.0
  0
LINE
  5
23476
  8
0
  6
BYBLOCK
 10
-1774.992002241747
 20
-1145.224647051615
 30
0.0
 11
-1774.992002241747
 21
-1147.224647051615
 31
0.0
  0
TEXT
  5
23477
  8
1DIM
  6
CONTINUOUS
 10
-1775.692002241747
 20
-1143.091313718282
 30
0.0
 40
3.5
  1
φ6
 50
90.0
1001
ACAD
1000
DSTYLE
1002
{
1070
     3
1000
φ<>
1002
}
  0
LINE
  5
23478
  8
0
  6
BYBLOCK
 10
-1808.086604903078
 20
-1145.46973027712
 30
0.0
 11
-1807.312055677328
 21
-1147.389954370963
 31
0.0
  0
LINE
  5
23479
  8
0
  6
BYBLOCK
 10
-1807.312055677328
 20
-1147.389954370963
 30
0.0
 11
-1808.942947024444
 21
-1146.114266130213
 31
0.0
  0
LINE
  5
2347A
  8
0
  6
BYBLOCK
 10
-1807.312055677328
 20
-1147.389954370963
 30
0.0
 11
-1808.514775963761
 21
-1145.791998203666
 31
0.0
  0
LINE
  5
2347B
  8
0
  6
BYBLOCK
 10
-2044.643282840714
 20
-1321.161869464091
 30
0.0
 11
-2044.107384460714
 21
-1319.161869464091
 31
0.0
  0
LINE
  5
2347C
  8
0
  6
BYBLOCK
 10
-2044.107384460714
 20
-1319.161869464091
 30
0.0
 11
-2043.571486080715
 21
-1321.161869464091
 31
0.0
  0
LINE
  5
2347D
  8
0
  6
BYBLOCK
 10
-2044.107384460714
 20
-1319.161869464091
 30
0.0
 11
-2044.107384460714
 21
-1321.161869464091
 31
0.0
  0
LINE
  5
2347E
  8
0
  6
BYBLOCK
 10
-2043.571486080715
 20
-1343.66186946409
 30
0.0
 11
-2044.107384460714
 21
-1345.66186946409
 31
0.0
  0
LINE
  5
2347F
  8
0
  6
BYBLOCK
 10
-2044.107384460714
 20
-1345.66186946409
 30
0.0
 11
-2044.643282840714
 21
-1343.66186946409
 31
0.0
  0
LINE
  5
23480
  8
0
  6
BYBLOCK
 10
-2044.107384460714
 20
-1345.66186946409
 30
0.0
 11
-2044.107384460714
 21
-1343.66186946409
 31
0.0
  0
TEXT
  5
23481
  8
1DIM
  6
CONTINUOUS
 10
-2044.807384460714
 20
-1337.674022241868
 30
0.0
 40
3.5
  1
26.5
 50
90.0
  0
VIEWPORT
  5
57
 67
     1
  8
0
 10
0.0
 20
0.0
 30
0.0
 40
554.3757649938801
 41
297.0000000000001
 68
     1
 69
     1
1001
ACAD
1000
MVIEW
1002
{
1070
    16
1010
0.0
1020
0.0
1030
0.0
1010
0.0
1020
0.0
1030
1.0
1040
0.0
1040
297.0000000000001
1040
-2.436040136488145
1040
14.36470722786123
1040
50.0
1040
0.0
1040
0.0
1070
     0
1070
   100
1070
     0
1070
     1
1070
     0
1070
     0
1070
     0
1070
     0
1040
0.0
1040
0.0
1040
0.0
1040
10.0
1040
10.0
1040
10.0
1040
10.0
1070
     0
1002
{
1002
}
1002
}
  0
ENDSEC
  0
EOF
